0
SECTION
2
HEADER
9
$MEASUREMENT
70
1
0
ENDSEC
0
SECTION
2
TABLES
0
TABLE
2
LTYPE
0
LTYPE
72
65
70
64
2
CONTINUOUS
3
______
73
0
40
0
0
ENDTAB
0
TABLE
2
LAYER
0
LAYER
2
DEFAULT_255_2_778
70
0
62
255
6
CONTINUOUS
0
ENDTAB
0
ENDSEC
0
SECTION
2
ENTITIES
0
ARC
8
DEFAULT_255_2_778
10
11.4512409
20
4.193468
40
1.4635884
50
89.4845448
51
105.3743098
0
ARC
8
DEFAULT_255_2_778
10
11.358928
20
4.5376417
40
1.107259
50
105.4901785
51
133.5166625
0
ARC
8
DEFAULT_255_2_778
10
11.3296777
20
4.5668671
40
1.0659252
50
133.4581813
51
176.1717174
0
ARC
8
DEFAULT_255_2_778
10
11.6791578
20
4.5152607
40
1.4183505
50
175.0341813
51
180.0510385
0
ARC
8
DEFAULT_255_2_778
10
11.640106
20
4.5014137
40
1.3793556
50
179.4772963
51
179.9990422
0
ARC
8
DEFAULT_255_2_778
10
11.6444132
20
4.5016913
40
1.3836627
50
180.0105411
51
199.8922315
0
ARC
8
DEFAULT_255_2_778
10
11.4873252
20
4.466453
40
1.2241261
50
200.8430679
51
223.4885848
0
ARC
8
DEFAULT_255_2_778
10
11.5371851
20
4.5155088
40
1.2940612
50
223.5451019
51
230.784014
0
ARC
8
DEFAULT_255_2_778
10
12.8577716
20
6.1075084
40
3.3624676
50
230.5009177
51
234.1075872
0
ARC
8
DEFAULT_255_2_778
10
15.1487135
20
9.2451898
40
7.2474816
50
233.9777518
51
235.7549368
0
ARC
8
DEFAULT_255_2_778
10
19.0527863
20
14.9666386
40
14.1740052
50
235.7242001
51
236.7936492
0
ARC
8
DEFAULT_255_2_778
10
6.9376166
20
-4.0352856
40
8.3642681
50
56.3589229
51
58.6415072
0
ARC
8
DEFAULT_255_2_778
10
8.7460852
20
-1.3230153
40
5.1043673
50
53.3004779
51
56.392904
0
ARC
8
DEFAULT_255_2_778
10
10.0924507
20
0.4759931
40
2.8573477
50
48.7071564
51
53.3880883
0
ARC
8
DEFAULT_255_2_778
10
11.0670881
20
1.5774303
40
1.3866265
50
40.9677023
51
48.9320823
0
ARC
8
DEFAULT_255_2_778
10
11.4447256
20
1.917339
40
0.8786716
50
39.5637757
51
40.3765078
0
ARC
8
DEFAULT_255_2_778
10
11.5206248
20
1.9485699
40
0.8006354
50
1.1184057
51
41.3006263
0
ARC
8
DEFAULT_255_2_778
10
11.5003286
20
1.9489393
40
0.820921
50
337.0556216
51
1.0649812
0
ARC
8
DEFAULT_255_2_778
10
11.6356906
20
1.9047659
40
0.6791557
50
310.9609857
51
336.0355672
0
ARC
8
DEFAULT_255_2_778
10
11.526737
20
2.034449
40
0.8485151
50
279.0020364
51
310.7762279
0
ARC
8
DEFAULT_255_2_778
10
11.4411454
20
2.4548817
40
1.2772992
50
269.7246832
51
279.8432461
0
ARC
8
DEFAULT_255_2_778
10
11.4314946
20
2.2358511
40
1.0582597
50
228.1432268
51
270.1902054
0
ARC
8
DEFAULT_255_2_778
10
11.7781182
20
2.7063777
40
1.6409559
50
228.6359802
51
230.0918558
0
ARC
8
DEFAULT_255_2_778
10
11.3266578
20
2.1834841
40
0.9501909
50
183.2121851
51
228.2309742
0
ARC
8
DEFAULT_255_2_778
10
11.9638176
20
2.2807571
40
1.5929847
50
180.556064
51
185.4217795
0
ARC
8
DEFAULT_255_2_778
10
10.7039907
20
0.9712855
40
0.3479179
50
140.5013985
51
163.2081878
0
ARC
8
DEFAULT_255_2_778
10
10.5402105
20
1.106963
40
0.1352405
50
90.5519333
51
140.7218264
0
ARC
8
DEFAULT_255_2_778
10
10.5219551
20
0.9721992
40
0.2705297
50
73.5699391
51
86.4072256
0
ARC
8
DEFAULT_255_2_778
10
10.0711914
20
-0.7693258
40
2.0693134
50
72.8527076
51
75.2376774
0
ARC
8
DEFAULT_255_2_778
10
4.573028
20
-18.8097482
40
20.9289586
50
72.6990444
51
73.0308522
0
ARC
8
DEFAULT_255_2_778
10
12.0343091
20
4.5941551
40
3.6386506
50
250.1221194
51
255.0821758
0
ARC
8
DEFAULT_255_2_778
10
11.6903097
20
3.2868194
40
2.286824
50
254.9782813
51
262.1354108
0
ARC
8
DEFAULT_255_2_778
10
11.5713425
20
2.4370685
40
1.4287881
50
262.1985627
51
269.7219079
0
ARC
8
DEFAULT_255_2_778
10
11.5843423
20
2.2168185
40
1.2086857
50
269.0549919
51
270.0007471
0
ARC
8
DEFAULT_255_2_778
10
11.5843281
20
2.2171766
40
1.2090438
50
270.0014199
51
315.8478246
0
ARC
8
DEFAULT_255_2_778
10
11.606571
20
2.2474495
40
1.214742
50
314.0922684
51
0.0016938
0
ARC
8
DEFAULT_255_2_778
10
11.601883
20
2.2474647
40
1.2194301
50
0.0009728
51
0.7533226
0
ARC
8
DEFAULT_255_2_778
10
11.6837886
20
2.2765395
40
1.1374939
50
359.3430435
51
38.150146
0
ARC
8
DEFAULT_255_2_778
10
11.4043129
20
2.0519209
40
1.4960299
50
38.3033381
51
46.767417
0
ARC
8
DEFAULT_255_2_778
10
10.5984634
20
1.2061884
40
2.6642005
50
46.5990067
51
52.0332562
0
ARC
8
DEFAULT_255_2_778
10
9.5479778
20
-0.1331511
40
4.3663577
50
51.9781134
51
56.0392024
0
ARC
8
DEFAULT_255_2_778
10
8.2137255
20
-2.1052731
40
6.7474244
50
55.9969338
51
59.03481
0
ARC
8
DEFAULT_255_2_778
10
7.336843
20
-3.5391761
40
8.4281507
50
58.9386739
51
59.3147669
0
ARC
8
DEFAULT_255_2_778
10
15.5816431
20
10.2676179
40
7.6530951
50
236.5540499
51
238.9816568
0
ARC
8
DEFAULT_255_2_778
10
13.8666949
20
7.6757518
40
4.545233
50
233.3554772
51
236.5850102
0
ARC
8
DEFAULT_255_2_778
10
12.6011951
20
5.9840163
40
2.4325575
50
228.1680178
51
233.4889984
0
ARC
8
DEFAULT_255_2_778
10
11.7000773
20
4.9857537
40
1.0877637
50
219.0795025
51
228.4649203
0
ARC
8
DEFAULT_255_2_778
10
12.9564069
20
5.9574619
40
2.6758456
50
218.2599495
51
218.2727063
0
ARC
8
DEFAULT_255_2_778
10
11.4734179
20
4.8085487
40
0.8001103
50
180.0394936
51
219.4182684
0
ARC
8
DEFAULT_255_2_778
10
11.2660016
20
4.8299225
40
0.5930993
50
180.0006355
51
182.1185548
0
ARC
8
DEFAULT_255_2_778
10
11.2672048
20
4.8294726
40
0.5943026
50
129.0360196
51
179.957254
0
ARC
8
DEFAULT_255_2_778
10
11.384983
20
4.6801898
40
0.7844399
50
98.6032921
51
128.8508402
0
ARC
8
DEFAULT_255_2_778
10
11.4620216
20
4.2835535
40
1.188257
50
89.7306462
51
99.4152221
0
ARC
8
DEFAULT_255_2_778
10
11.4815628
20
4.4013384
40
1.0705498
50
69.4848198
51
90.7468953
0
ARC
8
DEFAULT_255_2_778
10
11.5307128
20
4.561008
40
0.903836
50
47.8966563
51
68.8556935
0
ARC
8
DEFAULT_255_2_778
10
11.4401271
20
4.5023609
40
1.0084692
50
3.4129571
51
46.3120245
0
ARC
8
DEFAULT_255_2_778
10
11.8220996
20
5.7734385
40
0.6581896
50
336.7885236
51
344.3239726
0
ARC
8
DEFAULT_255_2_778
10
12.3027985
20
5.5705804
40
0.1364816
50
327.6980419
51
335.5214913
0
ARC
8
DEFAULT_255_2_778
10
12.3586341
20
5.5359747
40
0.0707967
50
322.1120808
51
327.2227394
0
ARC
8
DEFAULT_255_2_778
10
12.3552506
20
5.5531388
40
0.0847868
50
261.902509
51
314.3384147
0
ARC
8
DEFAULT_255_2_778
10
12.3612315
20
5.894759
40
0.4259391
50
255.4944998
51
267.5882514
0
ARC
8
DEFAULT_255_2_778
10
12.6959766
20
7.3229538
40
1.892752
50
252.2011626
51
256.5131632
0
ARC
8
DEFAULT_255_2_778
10
11.3503557
20
3.2608646
40
2.3865591
50
71.2520838
51
80.3863081
0
ARC
8
DEFAULT_255_2_778
10
11.472027
20
3.9587316
40
1.6781767
50
80.5029289
51
89.7923928
0
ARC
8
DEFAULT_255_2_778
10
15.7512946
20
3.2462529
40
2.4107862
50
89.6622027
51
108.0798644
0
ARC
8
DEFAULT_255_2_778
10
15.7349432
20
3.3307371
40
2.3254233
50
108.3428838
51
119.7534613
0
ARC
8
DEFAULT_255_2_778
10
15.7008258
20
3.3860328
40
2.260487
50
119.6982532
51
150.4840595
0
ARC
8
DEFAULT_255_2_778
10
15.6954053
20
3.3519181
40
2.2728075
50
149.6683174
51
180.0023625
0
ARC
8
DEFAULT_255_2_778
10
15.6856219
20
3.3517575
40
2.2630241
50
179.9983062
51
180.1686266
0
ARC
8
DEFAULT_255_2_778
10
15.6240842
20
3.3262822
40
2.2015568
50
179.5103299
51
180.0011188
0
ARC
8
DEFAULT_255_2_778
10
15.6310238
20
3.3261721
40
2.2084965
50
179.9982591
51
221.0299409
0
ARC
8
DEFAULT_255_2_778
10
15.936243
20
3.5209536
40
2.5671646
50
219.8374675
51
233.8708834
0
ARC
8
DEFAULT_255_2_778
10
15.7014223
20
3.2059445
40
2.1742864
50
233.9744693
51
258.474949
0
ARC
8
DEFAULT_255_2_778
10
14.9112085
20
0.4261751
40
0.7404136
50
50.0544877
51
61.2792462
0
ARC
8
DEFAULT_255_2_778
10
14.1626485
20
-0.4923684
40
1.9253048
50
44.8524371
51
50.5268144
0
ARC
8
DEFAULT_255_2_778
10
12.6427641
20
-2.0199177
40
4.0801596
50
41.6475023
51
45.0064795
0
ARC
8
DEFAULT_255_2_778
10
10.9379556
20
-3.5593077
40
6.3770924
50
40.8353959
51
41.803669
0
ARC
8
DEFAULT_255_2_778
10
21.535107
20
5.5794322
40
7.6163482
50
220.7220961
51
223.1782238
0
ARC
8
DEFAULT_255_2_778
10
19.0455196
20
3.236517
40
4.197686
50
223.1103712
51
226.9899959
0
ARC
8
DEFAULT_255_2_778
10
17.6496916
20
1.7327812
40
2.1459776
50
226.8549067
51
233.2294995
0
ARC
8
DEFAULT_255_2_778
10
17.2143511
20
1.1671059
40
1.432285
50
233.6337522
51
234.5043592
0
ARC
8
DEFAULT_255_2_778
10
17.4694757
20
1.5111314
40
1.8605295
50
234.2593239
51
253.0739929
0
ARC
8
DEFAULT_255_2_778
10
17.5343533
20
1.7774167
40
2.1342239
50
253.4889906
51
269.9989356
0
ARC
8
DEFAULT_255_2_778
10
17.5343326
20
1.7745367
40
2.1313438
50
269.999489
51
270.5665601
0
ARC
8
DEFAULT_255_2_778
10
17.5700936
20
1.5698113
40
1.92657
50
269.563241
51
283.9442519
0
ARC
8
DEFAULT_255_2_778
10
17.6423795
20
1.2416294
40
1.5906652
50
284.2658705
51
294.0807122
0
ARC
8
DEFAULT_255_2_778
10
17.8521571
20
1.0088966
40
1.1666416
50
269.5113659
51
289.5478192
0
ARC
8
DEFAULT_255_2_778
10
17.8541873
20
0.8135087
40
0.9712854
50
243.373978
51
269.2933116
0
ARC
8
DEFAULT_255_2_778
10
18.0290103
20
1.206143
40
1.4007691
50
236.9371124
51
244.1790539
0
ARC
8
DEFAULT_255_2_778
10
18.1476605
20
1.3678942
40
1.6010981
50
228.660335
51
236.5365793
0
ARC
8
DEFAULT_255_2_778
10
19.102841
20
2.4681715
40
3.0581266
50
223.9587741
51
228.840209
0
ARC
8
DEFAULT_255_2_778
10
20.6901654
20
4.0073974
40
5.2691882
50
220.5907457
51
224.0258564
0
ARC
8
DEFAULT_255_2_778
10
22.6118393
20
5.6709238
40
7.8108488
50
218.9981129
51
220.6853911
0
ARC
8
DEFAULT_255_2_778
10
15.8254064
20
3.3988967
40
2.3632055
50
280.5972
51
299.6289545
0
ARC
8
DEFAULT_255_2_778
10
15.8523248
20
3.3156248
40
2.2775833
50
300.0759722
51
320.9028918
0
ARC
8
DEFAULT_255_2_778
10
15.9158597
20
3.3253672
40
2.2349269
50
319.6817756
51
359.9964482
0
ARC
8
DEFAULT_255_2_778
10
15.914756
20
3.3252489
40
2.2360305
50
359.9994796
51
0.4804095
0
ARC
8
DEFAULT_255_2_778
10
15.9528536
20
3.3858261
40
2.1982521
50
358.9096969
51
0.0000053
0
ARC
8
DEFAULT_255_2_778
10
15.9547032
20
3.3856702
40
2.1964025
50
0.0040716
51
46.7511857
0
ARC
8
DEFAULT_255_2_778
10
15.8385594
20
3.3468038
40
2.3050193
50
45.31014
51
82.7143008
0
ARC
8
DEFAULT_255_2_778
10
15.7696637
20
2.9027384
40
2.7542628
50
82.4641622
51
90.0989361
0
ARC
8
DEFAULT_255_2_778
10
18.470784
20
4.498385
40
1.0165876
50
78.8496199
51
90.6975562
0
ARC
8
DEFAULT_255_2_778
10
18.5879722
20
5.059028
40
0.4439138
50
55.2483352
51
79.6958597
0
ARC
8
DEFAULT_255_2_778
10
18.6868129
20
5.2108894
40
0.2628533
50
10.567991
51
54.0813007
0
ARC
8
DEFAULT_255_2_778
10
18.173985
20
5.1106725
40
0.7853753
50
3.5480709
51
10.8935972
0
ARC
8
DEFAULT_255_2_778
10
16.0583245
20
4.9539271
40
2.9067929
50
1.0695776
51
4.0510087
0
ARC
8
DEFAULT_255_2_778
10
12.9550481
20
4.8739285
40
6.0110623
50
0.4705748
51
1.2798215
0
ARC
8
DEFAULT_255_2_778
10
17.2117253
20
1.8155341
40
1.7514991
50
353.1329315
51
359.7501803
0
ARC
8
DEFAULT_255_2_778
10
18.2307887
20
1.6869446
40
0.7243948
50
341.2329159
51
353.593384
0
ARC
8
DEFAULT_255_2_778
10
18.676329
20
1.5317559
40
0.2526401
50
317.8749293
51
342.0488998
0
ARC
8
DEFAULT_255_2_778
10
18.617263
20
1.62174
40
0.3578346
50
285.6172275
51
313.5282016
0
ARC
8
DEFAULT_255_2_778
10
18.4512492
20
2.1432657
40
0.9050087
50
275.3484715
51
286.8509198
0
ARC
8
DEFAULT_255_2_778
10
20.6302809
20
1.9373256
40
0.7326032
50
329.4810489
51
349.7129367
0
ARC
8
DEFAULT_255_2_778
10
20.8567734
20
1.80882
40
0.4722505
50
299.6237311
51
328.9574437
0
ARC
8
DEFAULT_255_2_778
10
20.7700686
20
1.9928409
40
0.6752564
50
283.3252114
51
298.3007759
0
ARC
8
DEFAULT_255_2_778
10
20.5578679
20
2.8297307
40
1.5385829
50
275.8180599
51
283.8317866
0
ARC
8
DEFAULT_255_2_778
10
20.4008324
20
4.2746104
40
2.9919543
50
271.0494505
51
276.004951
0
ARC
8
DEFAULT_255_2_778
10
20.3592406
20
5.6609516
40
4.3788547
50
269.9812514
51
271.2613372
0
ARC
8
DEFAULT_255_2_778
10
20.0740767
20
2.213642
40
0.931629
50
256.7161203
51
270.7706907
0
ARC
8
DEFAULT_255_2_778
10
19.9563461
20
1.7471233
40
0.4506016
50
225.8239673
51
257.6552936
0
ARC
8
DEFAULT_255_2_778
10
19.9326243
20
1.7001958
40
0.4007214
50
190.7288131
51
223.580183
0
ARC
8
DEFAULT_255_2_778
10
20.2512266
20
1.7686033
40
0.7265321
50
180.0210647
51
191.351867
0
ARC
8
DEFAULT_255_2_778
10
20.245173
20
1.7683029
40
0.7204785
50
179.6505429
51
179.9973561
0
ARC
8
DEFAULT_255_2_778
10
21.4270332
20
4.936466
40
1.8894659
50
173.9897971
51
180.3750706
0
ARC
8
DEFAULT_255_2_778
10
20.3448104
20
5.0560298
40
0.8006924
50
162.6479952
51
174.3899402
0
ARC
8
DEFAULT_255_2_778
10
19.877646
20
5.203902
40
0.3106921
50
143.4337912
51
162.9826852
0
ARC
8
DEFAULT_255_2_778
10
19.8682955
20
5.1849385
40
0.3151668
50
103.72111
51
139.6494398
0
ARC
8
DEFAULT_255_2_778
10
19.9994008
20
4.747867
40
0.7712267
50
92.9129759
51
105.4815178
0
ARC
8
DEFAULT_255_2_778
10
15.8443106
20
4.0269662
40
1.4599885
50
89.9997711
51
91.2677978
0
ARC
8
DEFAULT_255_2_778
10
15.843955
20
4.0280854
40
1.4588694
50
36.8988743
51
89.9858048
0
ARC
8
DEFAULT_255_2_778
10
15.5238018
20
3.7295805
40
1.8946891
50
19.4089089
51
38.3049398
0
ARC
8
DEFAULT_255_2_778
10
14.8646347
20
3.4898869
40
2.5960578
50
8.5206449
51
19.5639689
0
ARC
8
DEFAULT_255_2_778
10
13.8491775
20
3.3325689
40
3.6236196
50
0.7720617
51
8.6016893
0
ARC
8
DEFAULT_255_2_778
10
13.0865291
20
3.3064775
40
4.3865787
50
359.996339
51
0.9786004
0
ARC
8
DEFAULT_255_2_778
10
14.0960315
20
3.2932363
40
3.3771011
50
351.7668125
51
0.2198957
0
ARC
8
DEFAULT_255_2_778
10
14.9944048
20
3.1597884
40
2.4688793
50
339.7375567
51
351.84626
0
ARC
8
DEFAULT_255_2_778
10
15.5038703
20
2.9713936
40
1.9256964
50
321.3697833
51
339.746417
0
ARC
8
DEFAULT_255_2_778
10
15.8196404
20
2.7018138
40
1.5107832
50
269.9997244
51
321.8802789
0
ARC
8
DEFAULT_255_2_778
10
15.8196478
20
2.7059663
40
1.5149358
50
268.0617001
51
269.9994463
0
ARC
8
DEFAULT_255_2_778
10
15.7344937
20
2.6417302
40
1.4502295
50
269.9999548
51
271.3400015
0
ARC
8
DEFAULT_255_2_778
10
15.7346528
20
2.6386249
40
1.4471243
50
216.0406003
51
269.9936529
0
ARC
8
DEFAULT_255_2_778
10
16.2083291
20
3.0439349
40
2.0691878
50
196.3626605
51
217.3987106
0
ARC
8
DEFAULT_255_2_778
10
16.8581603
20
3.2430339
40
2.7488003
50
185.3434889
51
196.5287253
0
ARC
8
DEFAULT_255_2_778
10
17.6775785
20
3.3310889
40
3.572876
50
179.9020449
51
185.5257084
0
ARC
8
DEFAULT_255_2_778
10
17.5905928
20
3.3502542
40
3.4859096
50
172.1593319
51
180.2146106
0
ARC
8
DEFAULT_255_2_778
10
16.6676097
20
3.4807424
40
2.5537564
50
160.3226297
51
172.2346275
0
ARC
8
DEFAULT_255_2_778
10
16.215682
20
3.6396371
40
2.0747177
50
142.5086266
51
160.2519644
0
ARC
8
DEFAULT_255_2_778
10
15.7679529
20
3.9971402
40
1.5019191
50
123.683864
51
142.9340761
0
ARC
8
DEFAULT_255_2_778
10
15.7290326
20
4.0164887
40
1.4643938
50
95.6724584
51
122.8365564
0
ARC
8
DEFAULT_255_2_778
10
15.8106976
20
3.4602707
40
2.0261304
50
89.8865981
51
96.4158525
0
ARC
8
DEFAULT_255_2_778
10
22.4277384
20
4.6138763
40
0.2014828
50
87.0784374
51
139.7730718
0
ARC
8
DEFAULT_255_2_778
10
22.421899
20
4.6193833
40
0.1934685
50
139.9014141
51
179.9994271
0
ARC
8
DEFAULT_255_2_778
10
22.4215308
20
4.6193809
40
0.1931002
50
179.9987176
51
183.8306031
0
ARC
8
DEFAULT_255_2_778
10
22.4217039
20
4.6193979
40
0.193274
50
183.8322197
51
195.3310194
0
ARC
8
DEFAULT_255_2_778
10
22.5376231
20
4.6356457
40
0.3097263
50
192.5590134
51
232.5079342
0
ARC
8
DEFAULT_255_2_778
10
22.5497007
20
4.6106254
40
0.298259
50
227.7361138
51
269.175289
0
ARC
8
DEFAULT_255_2_778
10
22.5542988
20
4.4935025
40
0.1813233
50
267.1894273
51
325.1532168
0
ARC
8
DEFAULT_255_2_778
10
22.5391679
20
4.512369
40
0.2046353
50
323.2383055
51
0.4420924
0
ARC
8
DEFAULT_255_2_778
10
22.4721411
20
4.5124936
40
0.2716598
50
0.3067514
51
11.8539348
0
ARC
8
DEFAULT_255_2_778
10
22.4395486
20
4.5053408
40
0.3050268
50
11.911248
51
51.4818841
0
ARC
8
DEFAULT_255_2_778
10
22.4369827
20
4.5189359
40
0.2961731
50
49.4552045
51
89.4921614
0
ARC
8
DEFAULT_255_2_778
10
22.9854862
20
4.6732886
40
1.3922714
50
332.9615807
51
346.0351814
0
ARC
8
DEFAULT_255_2_778
10
23.4588753
20
4.4245469
40
0.8575715
50
307.3264129
51
333.3863542
0
ARC
8
DEFAULT_255_2_778
10
23.4956981
20
4.4089589
40
0.8230873
50
275.6568149
51
305.9459415
0
ARC
8
DEFAULT_255_2_778
10
23.4507106
20
4.6545393
40
1.0721033
50
275.942602
51
276.7557429
0
ARC
8
DEFAULT_255_2_778
10
24.4669163
20
1.4438366
40
0.4222267
50
190.0028142
51
222.1691938
0
ARC
8
DEFAULT_255_2_778
10
24.4245408
20
1.4318143
40
0.3832471
50
225.0912832
51
265.0894701
0
ARC
8
DEFAULT_255_2_778
10
24.4715431
20
1.7002321
40
0.6551374
50
263.0029023
51
270.1630779
0
ARC
8
DEFAULT_255_2_778
10
24.4628258
20
2.0079808
40
0.9629417
50
270.6296461
51
294.6047729
0
ARC
8
DEFAULT_255_2_778
10
24.2393241
20
2.5164938
40
1.5183627
50
294.2834694
51
307.0611814
0
ARC
8
DEFAULT_255_2_778
10
23.7035749
20
3.2373257
40
2.4164696
50
306.8976219
51
315.2700989
0
ARC
8
DEFAULT_255_2_778
10
23.0506706
20
3.9044702
40
3.3498584
50
315.0226138
51
318.1384003
0
ARC
8
DEFAULT_255_2_778
10
23.7589989
20
3.4048977
40
2.3419234
50
308.4933975
51
315.5814211
0
ARC
8
DEFAULT_255_2_778
10
24.4045719
20
2.5852738
40
1.2986091
50
297.3271737
51
308.7085723
0
ARC
8
DEFAULT_255_2_778
10
24.6836233
20
2.0326095
40
0.6795428
50
276.5138074
51
297.8164529
0
ARC
8
DEFAULT_255_2_778
10
24.7134313
20
1.8517226
40
0.4965253
50
270.0319044
51
275.4642212
0
ARC
8
DEFAULT_255_2_778
10
24.7037291
20
1.5762617
40
0.2212896
50
190.9908301
51
272.5845232
0
ARC
8
DEFAULT_255_2_778
10
24.9530405
20
1.6747948
40
0.487303
50
191.8415605
51
196.7848042
0
ARC
8
DEFAULT_255_2_778
10
25.0330382
20
1.69005
40
0.5687308
50
180.0407778
51
191.6919093
0
ARC
8
DEFAULT_255_2_778
10
25.0189441
20
1.689655
40
0.5546366
50
178.9108831
51
180.001008
0
ARC
8
DEFAULT_255_2_778
10
27.0687758
20
2.6971122
40
1.0539212
50
89.5252895
51
138.2154015
0
ARC
8
DEFAULT_255_2_778
10
27.458197
20
2.3026097
40
1.6075389
50
136.9792818
51
147.0782017
0
ARC
8
DEFAULT_255_2_778
10
27.4384405
20
2.2872693
40
1.5994668
50
146.2322554
51
180.0910687
0
ARC
8
DEFAULT_255_2_778
10
27.6518051
20
2.2881403
40
1.8128326
50
180.1078786
51
189.1729991
0
ARC
8
DEFAULT_255_2_778
10
27.8638899
20
2.3187082
40
2.0270816
50
189.0703189
51
191.8774182
0
ARC
8
DEFAULT_255_2_778
10
26.9632515
20
2.0823492
40
1.0980397
50
189.4800635
51
228.0272546
0
ARC
8
DEFAULT_255_2_778
10
26.8348247
20
1.9918597
40
0.9455219
50
230.1464066
51
264.8169732
0
ARC
8
DEFAULT_255_2_778
10
26.8920882
20
2.3498698
40
1.3074742
50
263.7350558
51
270.0885001
0
ARC
8
DEFAULT_255_2_778
10
26.8894254
20
2.7624002
40
1.7200093
50
270.1559743
51
275.4958216
0
ARC
8
DEFAULT_255_2_778
10
26.8715859
20
2.9837919
40
1.9420951
50
275.3941622
51
278.5112565
0
ARC
8
DEFAULT_255_2_778
10
26.9483398
20
2.5626355
40
1.5142781
50
277.997578
51
289.7721684
0
ARC
8
DEFAULT_255_2_778
10
27.2432265
20
1.7460542
40
0.646085
50
289.6597304
51
304.2171973
0
ARC
8
DEFAULT_255_2_778
10
27.4035855
20
1.4976603
40
0.3505816
50
305.3738727
51
310.8313387
0
ARC
8
DEFAULT_255_2_778
10
26.8878959
20
2.0688163
40
1.1200404
50
311.6881438
51
324.9102925
0
ARC
8
DEFAULT_255_2_778
10
26.1603977
20
2.5917735
40
2.0159677
50
324.6345255
51
332.7432367
0
ARC
8
DEFAULT_255_2_778
10
25.2654194
20
3.067654
40
3.029542
50
332.4943681
51
336.1896781
0
ARC
8
DEFAULT_255_2_778
10
27.0360823
20
2.4422257
40
1.0280618
50
306.0647912
51
331.2727383
0
ARC
8
DEFAULT_255_2_778
10
26.9756324
20
2.5169975
40
1.1241011
50
289.614845
51
306.3118275
0
ARC
8
DEFAULT_255_2_778
10
27.0086748
20
2.419045
40
1.0207421
50
278.3850233
51
289.7134808
0
ARC
8
DEFAULT_255_2_778
10
27.0364223
20
2.2362194
40
0.835825
50
270.1498105
51
278.3308358
0
ARC
8
DEFAULT_255_2_778
10
27.0252875
20
2.251655
40
0.8513619
50
250.0598705
51
270.8964739
0
ARC
8
DEFAULT_255_2_778
10
26.9804209
20
2.0847653
40
0.6793362
50
206.4895935
51
248.816685
0
ARC
8
DEFAULT_255_2_778
10
27.4412751
20
2.3395719
40
1.2056705
50
193.4680754
51
207.558834
0
ARC
8
DEFAULT_255_2_778
10
27.8462952
20
2.4546721
40
1.626455
50
193.322058
51
194.0882408
0
ARC
8
DEFAULT_255_2_778
10
27.8249405
20
2.4025357
40
1.5943197
50
184.9669676
51
191.6754357
0
ARC
8
DEFAULT_255_2_778
10
25.6328856
20
6.159764
40
3.9417742
50
278.8100984
51
284.5476566
0
ARC
8
DEFAULT_255_2_778
10
25.9656771
20
4.8935783
40
2.6325943
50
284.4589719
51
292.5866098
0
ARC
8
DEFAULT_255_2_778
10
26.3318296
20
4.0248507
40
1.6898724
50
292.4371528
51
304.6570969
0
ARC
8
DEFAULT_255_2_778
10
26.546054
20
3.6973829
40
1.2987241
50
305.0984696
51
308.4650048
0
ARC
8
DEFAULT_255_2_778
10
25.6745065
20
4.8903696
40
2.7755945
50
307.2331607
51
315.6621132
0
ARC
8
DEFAULT_255_2_778
10
27.1797073
20
3.4206489
40
0.6718583
50
315.5957743
51
335.6200209
0
ARC
8
DEFAULT_255_2_778
10
27.5058941
20
3.2656437
40
0.3108429
50
336.8251643
51
359.313956
0
ARC
8
DEFAULT_255_2_778
10
27.5538987
20
3.2619992
40
0.2628162
50
359.983132
51
11.8563992
0
ARC
8
DEFAULT_255_2_778
10
27.3055006
20
3.2150207
40
0.5155917
50
11.2941484
51
54.048073
0
ARC
8
DEFAULT_255_2_778
10
27.3917957
20
3.3126548
40
0.386095
50
55.9085875
51
71.0164385
0
ARC
8
DEFAULT_255_2_778
10
27.1384641
20
2.6003711
40
1.1420739
50
70.6226253
51
80.1587642
0
ARC
8
DEFAULT_255_2_778
10
27.0318703
20
2.0826215
40
1.6705055
50
79.591727
51
80.5758261
0
ARC
8
DEFAULT_255_2_778
10
27.0238213
20
2.0406252
40
1.7132533
50
80.5402486
51
86.2375448
0
ARC
8
DEFAULT_255_2_778
10
27.0623902
20
2.6228268
40
1.1297757
50
86.2518327
51
89.8266839
0
ARC
8
DEFAULT_255_2_778
10
22.1980931
20
3.145073
40
0.2791405
50
57.013823
51
92.7279609
0
ARC
8
DEFAULT_255_2_778
10
22.2092697
20
3.1936449
40
0.2329396
50
9.0529308
51
52.8115259
0
ARC
8
DEFAULT_255_2_778
10
21.4149086
20
3.0433123
40
1.0413246
50
0.4008358
51
10.3443951
0
ARC
8
DEFAULT_255_2_778
10
20.6363827
20
1.6648951
40
1.8108634
50
354.4130149
51
359.6267116
0
ARC
8
DEFAULT_255_2_778
10
21.8887924
20
1.535167
40
0.5518199
50
342.7642731
51
355.1586707
0
ARC
8
DEFAULT_255_2_778
10
22.2991988
20
1.40323
40
0.1208305
50
311.9729138
51
344.8545697
0
ARC
8
DEFAULT_255_2_778
10
22.2659351
20
1.4876211
40
0.2082463
50
279.6229259
51
303.2146726
0
ARC
8
DEFAULT_255_2_778
10
22.1258326
20
2.1347016
40
0.8701578
50
273.0614496
51
281.5962414
0
ARC
8
DEFAULT_255_2_778
10
22.0432028
20
3.3473176
40
2.0855317
50
269.8105723
51
273.5490948
0
ARC
8
DEFAULT_255_2_778
10
23.3716604
20
3.8145416
40
2.5527788
50
266.3164503
51
270.2973315
0
ARC
8
DEFAULT_255_2_778
10
23.2533775
20
2.0856628
40
0.8199019
50
257.7509207
51
266.8032029
0
ARC
8
DEFAULT_255_2_778
10
23.1265665
20
1.5067348
40
0.2272517
50
242.2081031
51
258.0276491
0
ARC
8
DEFAULT_255_2_778
10
23.1287847
20
1.491296
40
0.2148236
50
188.4669204
51
239.7640616
0
ARC
8
DEFAULT_255_2_778
10
23.2841625
20
1.5375335
40
0.376011
50
190.7967181
51
191.9518155
0
ARC
8
DEFAULT_255_2_778
10
23.6388085
20
1.6108881
40
0.7381415
50
182.707461
51
191.2331156
0
ARC
8
DEFAULT_255_2_778
10
25.7150492
20
1.7372576
40
2.8181745
50
180.006165
51
183.2798648
0
ARC
8
DEFAULT_255_2_778
10
28.2821747
20
1.7638204
40
5.3853669
50
179.9959904
51
180.2858324
0
ARC
8
DEFAULT_255_2_778
10
26.8485843
20
3.0876871
40
0.3882933
50
51.1547378
51
88.2403245
0
ARC
8
DEFAULT_255_2_778
10
26.7133989
20
2.8764154
40
0.6382126
50
52.3312523
51
53.5996535
0
ARC
8
DEFAULT_255_2_778
10
26.8751643
20
3.0643449
40
0.3908249
50
25.099587
51
54.2673156
0
ARC
8
DEFAULT_255_2_778
10
26.9993536
20
3.1316826
40
0.2499362
50
9.9799107
51
23.1967822
0
ARC
8
DEFAULT_255_2_778
10
26.7354258
20
3.0674096
40
0.5213048
50
3.3549971
51
11.9103781
0
ARC
8
DEFAULT_255_2_778
10
26.794086
20
3.0718394
40
0.462487
50
0.0144644
51
3.2324402
0
ARC
8
DEFAULT_255_2_778
10
26.8233693
20
3.0751177
40
0.4332152
50
311.3588414
51
359.5818567
0
ARC
8
DEFAULT_255_2_778
10
26.5289064
20
3.376657
40
0.8543968
50
297.7506394
51
312.8189432
0
ARC
8
DEFAULT_255_2_778
10
26.1812673
20
4.0190045
40
1.5847556
50
289.0732695
51
298.0601879
0
ARC
8
DEFAULT_255_2_778
10
25.8046286
20
5.0854958
40
2.7157851
50
283.4094283
51
289.2305917
0
ARC
8
DEFAULT_255_2_778
10
25.5010291
20
6.3097113
40
3.9770493
50
280.8682645
51
283.5739143
0
ARC
8
DEFAULT_255_2_778
10
27.7255427
20
2.5216921
40
1.4793243
50
184.3179541
51
184.563267
0
ARC
8
DEFAULT_255_2_778
10
27.7279547
20
2.5221903
40
1.4817671
50
180.010465
51
184.330141
0
ARC
8
DEFAULT_255_2_778
10
27.549085
20
2.5342718
40
1.3029558
50
152.1629987
51
180.5431812
0
ARC
8
DEFAULT_255_2_778
10
27.1398696
20
2.7552944
40
0.8378981
50
135.7635829
51
152.4610976
0
ARC
8
DEFAULT_255_2_778
10
26.8607338
20
3.0368702
40
0.441529
50
90.1720819
51
136.6731557
0
LINE
8
DEFAULT_255_2_778
10
10.3709077
20
2.2652972
11
10.2391077
21
2.2652972
0
LINE
8
DEFAULT_255_2_778
10
10.2391077
20
2.2652972
11
10.2391077
21
1.0717972
0
LINE
8
DEFAULT_255_2_778
10
10.2391077
20
1.0717972
11
10.3709077
21
1.0717972
0
LINE
8
DEFAULT_255_2_778
10
12.4468077
20
4.5623972
11
12.5785077
21
4.5623972
0
LINE
8
DEFAULT_255_2_778
10
12.5785077
20
4.5623972
11
12.5785077
21
5.5955972
0
LINE
8
DEFAULT_255_2_778
10
12.5785077
20
5.5955972
11
12.4558077
21
5.5955972
0
LINE
8
DEFAULT_255_2_778
10
11.4781077
20
5.6368972
11
11.4644077
21
5.6569972
0
LINE
8
DEFAULT_255_2_778
10
18.2914077
20
-0.2106028
11
18.2425077
21
-0.0905028
0
LINE
8
DEFAULT_255_2_778
10
16.5415077
20
0.7555972
11
16.2600077
21
1.0759972
0
LINE
8
DEFAULT_255_2_778
10
15.7649077
20
5.6569972
11
15.7655077
21
5.6569972
0
LINE
8
DEFAULT_255_2_778
10
18.4520077
20
5.6569972
11
18.4584077
21
5.5148972
0
LINE
8
DEFAULT_255_2_778
10
18.9659077
20
4.9232972
11
18.9632077
21
1.8078972
0
LINE
8
DEFAULT_255_2_778
10
18.5356077
20
1.2421972
11
18.5290077
21
1.1000972
0
LINE
8
DEFAULT_255_2_778
10
18.5290077
20
1.1000972
11
21.4093077
21
1.1000972
0
LINE
8
DEFAULT_255_2_778
10
21.4093077
20
1.1000972
11
21.4828077
21
1.8064972
0
LINE
8
DEFAULT_255_2_778
10
21.4828077
20
1.8064972
11
21.3511077
21
1.8064972
0
LINE
8
DEFAULT_255_2_778
10
20.3578077
20
1.2820972
11
20.0866077
21
1.2820972
0
LINE
8
DEFAULT_255_2_778
10
19.5247077
20
1.7726972
11
19.5376077
21
4.9240972
0
LINE
8
DEFAULT_255_2_778
10
19.9602077
20
5.5180972
11
19.9538077
21
5.6601972
0
LINE
8
DEFAULT_255_2_778
10
19.9538077
20
5.6601972
11
18.4520077
21
5.6569972
0
LINE
8
DEFAULT_255_2_778
10
15.8147077
20
5.4863972
11
15.8120077
21
5.4865972
0
LINE
8
DEFAULT_255_2_778
10
22.4396077
20
4.8150972
11
22.4380077
21
4.8150972
0
LINE
8
DEFAULT_255_2_778
10
23.5617077
20
3.5881972
11
23.5670077
21
3.4564972
0
LINE
8
DEFAULT_255_2_778
10
23.5670077
20
3.4564972
11
24.0318077
21
3.4564972
0
LINE
8
DEFAULT_255_2_778
10
24.0318077
20
3.4564972
11
24.0252077
21
1.9038972
0
LINE
8
DEFAULT_255_2_778
10
24.0252077
20
1.9038972
11
24.0511077
21
1.3704972
0
LINE
8
DEFAULT_255_2_778
10
25.5455077
20
1.6689972
11
25.4317077
21
1.7657972
0
LINE
8
DEFAULT_255_2_778
10
24.4644077
20
1.7001972
11
24.4697077
21
3.4617972
0
LINE
8
DEFAULT_255_2_778
10
24.4697077
20
3.4617972
11
25.1801077
21
3.4617972
0
LINE
8
DEFAULT_255_2_778
10
25.1801077
20
3.4617972
11
25.1738077
21
3.6723972
0
LINE
8
DEFAULT_255_2_778
10
25.1738077
20
3.6723972
11
24.4737077
21
3.6723972
0
LINE
8
DEFAULT_255_2_778
10
24.4737077
20
3.6723972
11
24.4737077
21
4.3414972
0
LINE
8
DEFAULT_255_2_778
10
24.4737077
20
4.3414972
11
24.3366077
21
4.3372972
0
LINE
8
DEFAULT_255_2_778
10
28.0371077
20
1.8445972
11
27.9376077
21
1.9480972
0
LINE
8
DEFAULT_255_2_778
10
27.0658077
20
3.7525972
11
27.0775077
21
3.7509972
0
LINE
8
DEFAULT_255_2_778
10
22.7428077
20
3.7339972
11
21.8876077
21
3.5376972
0
LINE
8
DEFAULT_255_2_778
10
21.8876077
20
3.5376972
11
21.8876077
21
3.3852972
0
LINE
8
DEFAULT_255_2_778
10
21.8876077
20
3.3852972
11
22.1848077
21
3.4238972
0
LINE
8
DEFAULT_255_2_778
10
22.4562077
20
3.0505972
11
22.4472077
21
1.6530972
0
LINE
8
DEFAULT_255_2_778
10
22.0363077
20
1.2617972
11
22.0313077
21
1.1299972
0
LINE
8
DEFAULT_255_2_778
10
22.0313077
20
1.1299972
11
23.3876077
21
1.1299972
0
LINE
8
DEFAULT_255_2_778
10
23.3876077
20
1.1299972
11
23.3849077
21
1.2617972
0
LINE
8
DEFAULT_255_2_778
10
22.8968077
20
1.7641972
11
22.9021077
21
3.7363972
0
LINE
8
DEFAULT_255_2_778
10
22.9021077
20
3.7363972
11
22.7470077
21
3.7363972
0
LINE
8
DEFAULT_255_2_778
10
22.7470077
20
3.7363972
11
22.7428077
21
3.7339972
0
LINE
8
DEFAULT_255_2_778
10
26.8594077
20
3.4783972
11
26.8605077
21
3.4757972
0
ARC
8
DEFAULT_255_2_778
10
1.6684452
20
9.5657707
40
0.8960721
50
90.0528872
51
142.6300694
0
ARC
8
DEFAULT_255_2_778
10
1.6624074
20
9.5659211
40
0.8911895
50
142.402143
51
180.0307735
0
ARC
8
DEFAULT_255_2_778
10
1.6699939
20
1.4565425
40
0.898779
50
180.1529979
51
265.8237976
0
ARC
8
DEFAULT_255_2_778
10
1.6675579
20
1.4585437
40
0.9006013
50
265.9876333
51
270.0038262
0
ARC
8
DEFAULT_255_2_778
10
16.0786153
20
0.7784245
40
9.5700374
50
180.9758299
51
181.3201424
0
ARC
8
DEFAULT_255_2_778
10
16.5771009
20
0.786735
40
10.0685923
50
180.5066154
51
180.9748038
0
ARC
8
DEFAULT_255_2_778
10
17.1762358
20
0.7921105
40
10.6677512
50
180.0602718
51
180.5070329
0
ARC
8
DEFAULT_255_2_778
10
17.1021159
20
0.7927153
40
10.593632
50
179.9990041
51
180.0639648
0
ARC
8
DEFAULT_255_2_778
10
18.855979
20
0.7861303
40
12.3474969
50
178.2564741
51
179.9685891
0
ARC
8
DEFAULT_255_2_778
10
21.3997147
20
0.7108468
40
14.8923456
50
176.8254635
51
178.2647305
0
ARC
8
DEFAULT_255_2_778
10
24.0035658
20
0.5659629
40
17.5002244
50
175.3027543
51
176.8239374
0
ARC
8
DEFAULT_255_2_778
10
26.4578198
20
0.3666595
40
19.9625565
50
174.03509
51
175.3094887
0
ARC
8
DEFAULT_255_2_778
10
28.6419072
20
0.1380269
40
22.158578
50
172.588143
51
174.0339893
0
ARC
8
DEFAULT_255_2_778
10
30.5573365
20
-0.1105643
40
24.0900712
50
171.0211762
51
172.5895172
0
ARC
8
DEFAULT_255_2_778
10
31.8065309
20
-0.3066732
40
25.3545647
50
169.2865803
51
171.0240127
0
ARC
8
DEFAULT_255_2_778
10
32.0448141
20
-0.3492865
40
25.5966164
50
167.1752749
51
169.2920098
0
ARC
8
DEFAULT_255_2_778
10
31.3311668
20
-0.1870455
40
24.8647593
50
165.845716
51
167.1747815
0
ARC
8
DEFAULT_255_2_778
10
28.4270447
20
0.5844041
40
21.8601916
50
160.5133328
51
165.9449817
0
ARC
8
DEFAULT_255_2_778
10
24.0907805
20
2.090364
40
17.2699637
50
157.3498741
51
160.4243322
0
ARC
8
DEFAULT_255_2_778
10
21.4636334
20
3.1848485
40
14.4239497
50
154.3879636
51
157.3433163
0
ARC
8
DEFAULT_255_2_778
10
19.2988774
20
4.2233867
40
12.0229646
50
151.1725583
51
154.3914088
0
ARC
8
DEFAULT_255_2_778
10
17.6221577
20
5.1432635
40
10.1104913
50
148.2786677
51
151.1578941
0
LINE
8
DEFAULT_255_2_778
10
9.022018
20
10.4618424
11
1.667618
21
10.4618424
0
LINE
8
DEFAULT_255_2_778
10
0.771218
20
9.5654424
11
0.771218
21
1.4541424
0
LINE
8
DEFAULT_255_2_778
10
1.667618
20
0.5579424
11
6.511118
21
0.5579424
0
LINE
8
DEFAULT_255_2_778
10
9.022018
20
10.4592424
11
9.022018
21
10.4618424
0
ARC
8
DEFAULT_255_2_778
10
1.6658506
20
9.5704496
40
0.6303585
50
89.8353189
51
90.0060959
0
ARC
8
DEFAULT_255_2_778
10
1.6659387
20
9.5681071
40
0.6327012
50
90.0140471
51
134.9857762
0
ARC
8
DEFAULT_255_2_778
10
1.6661608
20
9.5683292
40
0.6327012
50
135.0142238
51
179.9859529
0
ARC
8
DEFAULT_255_2_778
10
1.6638184
20
9.5684173
40
0.6303587
50
179.9939041
51
180.1646811
0
ARC
8
DEFAULT_255_2_778
10
5.8478705
20
-10.5217747
40
13.4616348
50
109.1150428
51
110.9552806
0
ARC
8
DEFAULT_255_2_778
10
6.6985843
20
-12.9700699
40
16.0535183
50
107.4739626
51
109.1224471
0
ARC
8
DEFAULT_255_2_778
10
7.3744425
20
-15.1131513
40
18.3006455
50
105.8433513
51
107.4775996
0
ARC
8
DEFAULT_255_2_778
10
7.8701902
20
-16.8624703
40
20.118854
50
103.5306728
51
105.841462
0
ARC
8
DEFAULT_255_2_778
10
7.9367715
20
-17.1155309
40
20.3804693
50
101.2234689
51
103.5462075
0
ARC
8
DEFAULT_255_2_778
10
7.5769709
20
-15.2669417
40
18.4972044
50
98.5223771
51
101.2447883
0
ARC
8
DEFAULT_255_2_778
10
7.1432566
20
-12.3908207
40
15.588567
50
96.3587108
51
98.5124659
0
ARC
8
DEFAULT_255_2_778
10
6.8565427
20
-9.8235855
40
13.0053713
50
94.3058338
51
96.3559718
0
ARC
8
DEFAULT_255_2_778
10
6.6763874
20
-7.4026641
40
10.577757
50
91.8747765
51
94.3172987
0
ARC
8
DEFAULT_255_2_778
10
6.609784
20
-5.4773
40
8.6512454
50
90.0265568
51
91.8510728
0
ARC
8
DEFAULT_255_2_778
10
6.6061024
20
-4.555668
40
7.7296123
50
89.4062711
51
90.0024338
0
ARC
8
DEFAULT_255_2_778
10
6.6090355
20
-4.2463373
40
7.4202679
50
89.199044
51
89.4041671
0
ARC
8
DEFAULT_255_2_778
10
23.7847367
20
-0.108651
40
17.3845589
50
168.2239039
51
169.1184067
0
ARC
8
DEFAULT_255_2_778
10
29.6541035
20
-1.331928
40
23.3800466
50
167.4046526
51
168.2247251
0
ARC
8
DEFAULT_255_2_778
10
36.3000163
20
-2.8135835
40
30.189118
50
166.7679479
51
167.4107934
0
ARC
8
DEFAULT_255_2_778
10
42.6106255
20
-4.2944021
40
36.6711397
50
166.2836113
51
166.7725813
0
ARC
8
DEFAULT_255_2_778
10
49.3415898
20
-5.9390167
40
43.6001103
50
165.7149652
51
166.2813867
0
ARC
8
DEFAULT_255_2_778
10
56.7419523
20
-7.822319
40
51.2363523
50
165.1697948
51
165.7160143
0
ARC
8
DEFAULT_255_2_778
10
64.1807111
20
-9.7938938
40
58.9319506
50
164.4730234
51
165.1679395
0
ARC
8
DEFAULT_255_2_778
10
69.347266
20
-11.2256129
40
64.2932097
50
163.7343177
51
164.4762118
0
ARC
8
DEFAULT_255_2_778
10
68.8921864
20
-11.0876493
40
63.8177032
50
163.0186468
51
163.7387864
0
ARC
8
DEFAULT_255_2_778
10
64.9478248
20
-9.8855412
40
59.6942281
50
162.636163
51
163.016443
0
ARC
8
DEFAULT_255_2_778
10
60.8412905
20
-8.6007674
40
55.3914074
50
162.2336706
51
162.6368638
0
ARC
8
DEFAULT_255_2_778
10
55.613993
20
-6.9244651
40
49.9019059
50
161.7599701
51
162.2351889
0
ARC
8
DEFAULT_255_2_778
10
49.6815725
20
-4.968832
40
43.6554579
50
161.2619587
51
161.7606665
0
ARC
8
DEFAULT_255_2_778
10
43.9414267
20
-3.0216792
40
37.594049
50
160.7636163
51
161.2619181
0
ARC
8
DEFAULT_255_2_778
10
39.1929701
20
-1.3660054
40
32.5652227
50
160.3454704
51
160.7614642
0
ARC
8
DEFAULT_255_2_778
10
34.9680305
20
0.1441956
40
28.0784846
50
159.8255972
51
160.3478444
0
ARC
8
DEFAULT_255_2_778
10
31.0447527
20
1.5851324
40
23.8989624
50
159.3343545
51
159.82434
0
ARC
8
DEFAULT_255_2_778
10
27.694414
20
2.8492684
40
20.3180673
50
158.7838937
51
159.335525
0
LINE
8
DEFAULT_255_2_778
10
8.7545624
20
10.2008055
11
1.6676624
21
10.2008055
0
LINE
8
DEFAULT_255_2_778
10
1.0334624
20
9.5666055
11
1.0334624
21
2.0495055
0
LINE
8
DEFAULT_255_2_778
10
8.7534624
20
10.2021055
11
8.7545624
21
10.2008055
0
ARC
8
DEFAULT_255_2_778
10
9.9656456
20
9.8473227
40
1.1707706
50
48.7679212
51
58.9583147
0
ARC
8
DEFAULT_255_2_778
10
10.0836883
20
10.0448947
40
0.9406225
50
58.9131085
51
74.2678798
0
ARC
8
DEFAULT_255_2_778
10
10.1021868
20
10.098396
40
0.8841158
50
74.4816833
51
90.0968472
0
ARC
8
DEFAULT_255_2_778
10
10.1108291
20
9.9026997
40
1.0798584
50
90.5378521
51
109.2793418
0
ARC
8
DEFAULT_255_2_778
10
10.2774575
20
9.4055158
40
1.6041914
50
109.0338489
51
119.7159112
0
ARC
8
DEFAULT_255_2_778
10
10.6449782
20
8.753881
40
2.3523153
50
119.6227258
51
127.1603455
0
ARC
8
DEFAULT_255_2_778
10
11.1832248
20
8.0328995
40
3.2520333
50
127.0448999
51
131.6495379
0
ARC
8
DEFAULT_255_2_778
10
12.9213301
20
6.2970851
40
5.7105775
50
136.8584443
51
141.4677838
0
ARC
8
DEFAULT_255_2_778
10
14.3224814
20
5.1783436
40
7.5035649
50
141.4502907
51
145.4853291
0
ARC
8
DEFAULT_255_2_778
10
15.9815279
20
4.0375794
40
9.5169647
50
145.4857877
51
149.5856452
0
ARC
8
DEFAULT_255_2_778
10
18.0511435
20
2.8418586
40
11.9071189
50
149.6653722
51
158.4187979
0
ARC
8
DEFAULT_255_2_778
10
17.5123153
20
3.0441713
40
11.3316539
50
158.367924
51
161.2832116
0
ARC
8
DEFAULT_255_2_778
10
16.3033938
20
3.4535135
40
10.0553107
50
161.2818625
51
163.9055626
0
ARC
8
DEFAULT_255_2_778
10
15.0062332
20
3.8281172
40
8.7051427
50
163.9076746
51
166.3379464
0
ARC
8
DEFAULT_255_2_778
10
13.6951903
20
4.1455917
40
7.3562091
50
166.3288368
51
169.0787513
0
ARC
8
DEFAULT_255_2_778
10
4.474975
20
4.4866418
40
2.2576626
50
16.6271717
51
27.7916982
0
ARC
8
DEFAULT_255_2_778
10
1.5960985
20
3.5747433
40
5.2773345
50
14.0087338
51
17.1700217
0
ARC
8
DEFAULT_255_2_778
10
-5.9272147
20
1.6515977
40
13.0425081
50
13.8073457
51
14.2054621
0
ARC
8
DEFAULT_255_2_778
10
6.5175896
20
4.3574944
40
0.3052444
50
12.4874477
51
15.8991699
0
ARC
8
DEFAULT_255_2_778
10
5.6970191
20
4.1306505
40
1.1565859
50
15.5709572
51
17.9779875
0
ARC
8
DEFAULT_255_2_778
10
4.326304
20
3.6886622
40
2.5967979
50
17.9191839
51
19.8304864
0
ARC
8
DEFAULT_255_2_778
10
6.1083336
20
4.4064048
40
0.6765675
50
20.242756
51
23.7690572
0
ARC
8
DEFAULT_255_2_778
10
4.9444462
20
3.8963175
40
1.9473237
50
23.7018067
51
26.3361714
0
ARC
8
DEFAULT_255_2_778
10
2.3944643
20
2.6430271
40
4.7886469
50
26.2397404
51
27.6902071
0
ARC
8
DEFAULT_255_2_778
10
-1.292269
20
0.7155314
40
8.9488417
50
27.6489414
51
28.5055648
0
ARC
8
DEFAULT_255_2_778
10
-3.9400719
20
-0.7151475
40
11.9584382
50
28.4748551
51
28.6731391
0
ARC
8
DEFAULT_255_2_778
10
-6.7442228
20
-2.2542455
40
15.1571982
50
28.6916401
51
29.3806362
0
ARC
8
DEFAULT_255_2_778
10
-7.9761234
20
-2.9433853
40
16.5687504
50
29.367221
51
29.6408878
0
ARC
8
DEFAULT_255_2_778
10
-5.7950533
20
-1.701102
40
14.0587041
50
29.6366251
51
29.9047317
0
ARC
8
DEFAULT_255_2_778
10
21.0418064
20
0.3077614
40
15.4798144
50
161.1545547
51
163.3836551
0
ARC
8
DEFAULT_255_2_778
10
4.4043526
20
3.7556669
40
2.0524485
50
23.3190961
51
28.4804814
0
ARC
8
DEFAULT_255_2_778
10
3.0913389
20
3.1921469
40
3.4812789
50
18.5520758
51
23.2817359
0
ARC
8
DEFAULT_255_2_778
10
1.162807
20
2.5384895
40
5.5175698
50
15.1579622
51
18.6153771
0
ARC
8
DEFAULT_255_2_778
10
-0.082552
20
2.1911523
40
6.8104299
50
13.8044194
51
15.2388528
0
ARC
8
DEFAULT_255_2_778
10
-0.1845211
20
2.1649596
40
6.9157037
50
12.9342659
51
13.8135778
0
ARC
8
DEFAULT_255_2_778
10
0.5182028
20
2.3253563
40
6.1949076
50
12.1080855
51
12.9431983
0
ARC
8
DEFAULT_255_2_778
10
2.1742401
20
2.6802342
40
4.5012731
50
11.5174559
51
12.1129423
0
ARC
8
DEFAULT_255_2_778
10
4.6214402
20
3.1779636
40
2.0039705
50
11.0715708
51
11.5436663
0
ARC
8
DEFAULT_255_2_778
10
6.1659713
20
3.4448019
40
0.4383221
50
15.6163859
51
16.9928281
0
ARC
8
DEFAULT_255_2_778
10
4.4432057
20
2.9198821
40
2.2392832
50
16.9549818
51
18.3468163
0
ARC
8
DEFAULT_255_2_778
10
1.2126574
20
1.8594712
40
5.6394111
50
18.2415098
51
18.9157274
0
ARC
8
DEFAULT_255_2_778
10
-2.9489333
20
0.4349739
40
10.0380505
50
18.9070337
51
19.4561189
0
ARC
8
DEFAULT_255_2_778
10
5.7822027
20
3.5142632
40
0.7798396
50
19.8055959
51
24.5204956
0
ARC
8
DEFAULT_255_2_778
10
4.2572915
20
2.8279793
40
2.4520588
50
24.3224252
51
26.7747111
0
ARC
8
DEFAULT_255_2_778
10
1.0324559
20
1.2076682
40
6.0610693
50
26.7166089
51
28.2312292
0
ARC
8
DEFAULT_255_2_778
10
-2.2760253
20
-0.5523128
40
9.8085289
50
28.1471678
51
28.4774069
0
ARC
8
DEFAULT_255_2_778
10
-3.8199548
20
-1.3890886
40
11.564636
50
28.4742651
51
28.6863704
0
ARC
8
DEFAULT_255_2_778
10
-7.3430686
20
-3.3243664
40
15.5842874
50
28.7106195
51
29.3572668
0
ARC
8
DEFAULT_255_2_778
10
-12.7373591
20
-6.3524882
40
21.7703904
50
29.34326
51
29.6295471
0
ARC
8
DEFAULT_255_2_778
10
-20.7824199
20
-10.9266645
40
31.0249078
50
29.6270693
51
29.7293618
0
ARC
8
DEFAULT_255_2_778
10
153.7534809
20
88.7749412
40
169.9805424
50
209.7243383
51
209.7379991
0
ARC
8
DEFAULT_255_2_778
10
13.6485726
20
2.4610829
40
7.780027
50
164.8536094
51
166.4298809
0
ARC
8
DEFAULT_255_2_778
10
10.247237
20
3.2773442
40
4.2821235
50
166.3683472
51
168.94927
0
ARC
8
DEFAULT_255_2_778
10
8.0106924
20
3.7101802
40
2.0040878
50
168.8381643
51
173.0913515
0
ARC
8
DEFAULT_255_2_778
10
6.8419074
20
3.8502046
40
0.8269476
50
172.9817703
51
179.4403445
0
ARC
8
DEFAULT_255_2_778
10
6.3580696
20
3.8552396
40
0.3430839
50
179.4919115
51
187.6607289
0
ARC
8
DEFAULT_255_2_778
10
6.1525046
20
3.8260105
40
0.1354663
50
186.998803
51
203.3038295
0
ARC
8
DEFAULT_255_2_778
10
6.0981078
20
3.8048506
40
0.0771644
50
204.8529129
51
206.4368774
0
ARC
8
DEFAULT_255_2_778
10
5.005921
20
3.1910529
40
1.1757855
50
20.9768072
51
29.5256878
0
ARC
8
DEFAULT_255_2_778
10
3.2937449
20
2.5201278
40
3.0147027
50
16.2216751
51
21.2337204
0
ARC
8
DEFAULT_255_2_778
10
1.115856
20
1.8629025
40
5.2895329
50
14.5514758
51
16.4670962
0
ARC
8
DEFAULT_255_2_778
10
-6.7741036
20
-0.0073104
40
13.3973971
50
8.6212902
51
13.8153215
0
ARC
8
DEFAULT_255_2_778
10
17.4013001
20
1.4682399
40
10.9285748
50
177.7819929
51
179.4592808
0
ARC
8
DEFAULT_255_2_778
10
17.3997111
20
1.4682811
40
10.9269856
50
179.459418
51
180.1116468
0
ARC
8
DEFAULT_255_2_778
10
17.3854087
20
1.468147
40
10.912683
50
180.1110887
51
184.7757693
0
ARC
8
DEFAULT_255_2_778
10
14.9695585
20
1.2482585
40
8.4869321
50
184.6543174
51
187.8712515
0
ARC
8
DEFAULT_255_2_778
10
11.8461046
20
0.8127942
40
5.3332719
50
187.8324459
51
191.7628047
0
ARC
8
DEFAULT_255_2_778
10
9.5630706
20
0.3344817
40
3.0006739
50
191.7084356
51
196.8386763
0
ARC
8
DEFAULT_255_2_778
10
8.0868977
20
-0.1187643
40
1.4565111
50
196.5948654
51
205.1820614
0
ARC
8
DEFAULT_255_2_778
10
10.2895377
20
0.3974986
40
3.6155334
50
191.2697554
51
197.6245076
0
ARC
8
DEFAULT_255_2_778
10
11.6416622
20
0.6696037
40
4.9947639
50
186.0173678
51
191.2997497
0
ARC
8
DEFAULT_255_2_778
10
13.2751159
20
0.8452172
40
6.6376281
50
181.6724302
51
186.0468118
0
ARC
8
DEFAULT_255_2_778
10
14.575608
20
0.8937073
40
7.9389884
50
179.9849213
51
181.7483117
0
ARC
8
DEFAULT_255_2_778
10
15.4053028
20
0.8937829
40
8.7686832
50
178.3438267
51
179.986842
0
ARC
8
DEFAULT_255_2_778
10
15.9771782
20
0.879052
40
9.3407455
50
177.7848173
51
178.3548888
0
ARC
8
DEFAULT_255_2_778
10
17.2350592
20
0.8307701
40
10.5995528
50
174.0843437
51
177.786842
0
ARC
8
DEFAULT_255_2_778
10
19.4694346
20
0.6008382
40
12.8457271
50
170.5542401
51
174.0913776
0
ARC
8
DEFAULT_255_2_778
10
21.5978907
20
0.2493489
40
15.003009
50
167.2220794
51
170.5641137
0
ARC
8
DEFAULT_255_2_778
10
23.4093886
20
-0.1595712
40
16.8600865
50
163.8563039
51
167.2284033
0
ARC
8
DEFAULT_255_2_778
10
24.5934726
20
-0.4973142
40
18.0913881
50
161.3248194
51
163.8715259
0
ARC
8
DEFAULT_255_2_778
10
24.1446142
20
-1.007421
40
17.8405203
50
156.089103
51
159.3108419
0
ARC
8
DEFAULT_255_2_778
10
23.1261268
20
-0.5559238
40
16.7264439
50
153.4070028
51
156.0888961
0
ARC
8
DEFAULT_255_2_778
10
21.8193265
20
0.1010448
40
15.2637999
50
150.4207792
51
153.4163056
0
ARC
8
DEFAULT_255_2_778
10
20.2430633
20
0.997112
40
13.4506421
50
147.3808188
51
150.4258951
0
ARC
8
DEFAULT_255_2_778
10
18.7025839
20
1.9820611
40
11.6222
50
144.5781072
51
147.3768517
0
ARC
8
DEFAULT_255_2_778
10
17.2406068
20
3.0245701
40
9.8265952
50
141.3450642
51
144.5909125
0
ARC
8
DEFAULT_255_2_778
10
16.0972492
20
3.9334963
40
8.365982
50
139.1509078
51
141.3151116
0
ARC
8
DEFAULT_255_2_778
10
15.3166535
20
4.6084584
40
7.3340405
50
136.943579
51
139.1509192
0
ARC
8
DEFAULT_255_2_778
10
14.6336995
20
5.2467635
40
6.3992361
50
134.6288321
51
136.9447682
0
ARC
8
DEFAULT_255_2_778
10
14.0392334
20
5.849182
40
5.5528921
50
132.1765413
51
134.6302818
0
ARC
8
DEFAULT_255_2_778
10
13.5295507
20
6.4119464
40
4.7936294
50
129.5628171
51
132.1781466
0
ARC
8
DEFAULT_255_2_778
10
13.2336496
20
6.7665892
40
4.3317597
50
128.5989849
51
129.5332194
0
ARC
8
DEFAULT_255_2_778
10
12.1836332
20
8.325809
40
2.4628139
50
132.1402812
51
135.7915711
0
ARC
8
DEFAULT_255_2_778
10
12.8279986
20
7.6979363
40
3.3624974
50
135.778499
51
138.8294641
0
ARC
8
DEFAULT_255_2_778
10
13.6268837
20
6.9966197
40
4.4255401
50
138.8034351
51
141.0502676
0
ARC
8
DEFAULT_255_2_778
10
14.5829237
20
6.2235199
40
5.6550504
50
141.0478901
51
143.0712151
0
ARC
8
DEFAULT_255_2_778
10
15.8327427
20
5.2842269
40
7.2184821
50
143.0717222
51
144.959643
0
ARC
8
DEFAULT_255_2_778
10
17.4007899
20
4.1836518
40
9.1342162
50
144.9546621
51
146.5908899
0
ARC
8
DEFAULT_255_2_778
10
18.840089
20
3.2295781
40
10.8610125
50
146.5701818
51
147.4253159
0
ARC
8
DEFAULT_255_2_778
10
20.577423
20
2.1248966
40
12.9198067
50
147.4451551
51
148.9277575
0
ARC
8
DEFAULT_255_2_778
10
23.3553976
20
0.45222
40
16.1624892
50
148.9316129
51
150.4380271
0
ARC
8
DEFAULT_255_2_778
10
27.8409228
20
-2.0764647
40
21.3116683
50
150.4743017
51
152.7102515
0
ARC
8
DEFAULT_255_2_778
10
32.2516852
20
-4.3698872
40
26.2830272
50
152.6756557
51
154.1207196
0
ARC
8
DEFAULT_255_2_778
10
33.6897954
20
-5.0737415
40
27.8841338
50
154.1092796
51
154.9835323
0
ARC
8
DEFAULT_255_2_778
10
33.030219
20
-4.7677137
40
27.1570221
50
154.9801512
51
155.7845253
0
ARC
8
DEFAULT_255_2_778
10
30.8053436
20
-3.7682
40
24.7179452
50
155.7821842
51
156.5161313
0
ARC
8
DEFAULT_255_2_778
10
27.8065076
20
-2.4647118
40
21.4480677
50
156.5175058
51
157.1044471
0
ARC
8
DEFAULT_255_2_778
10
24.3263463
20
-0.9969891
40
17.6710676
50
157.0983639
51
157.8316858
0
ARC
8
DEFAULT_255_2_778
10
20.549828
20
0.5418027
40
13.5930815
50
157.8319158
51
158.5462294
0
ARC
8
DEFAULT_255_2_778
10
17.0889474
20
1.9004643
40
9.875064
50
158.5387191
51
159.4113244
0
ARC
8
DEFAULT_255_2_778
10
29.4879751
20
-2.7414795
40
23.1145293
50
159.447866
51
162.0188288
0
ARC
8
DEFAULT_255_2_778
10
26.3497908
20
-1.7218547
40
19.8148575
50
162.0218733
51
164.7643596
0
ARC
8
DEFAULT_255_2_778
10
23.7429282
20
-1.0163889
40
17.1142294
50
164.7496795
51
168.5017905
0
ARC
8
DEFAULT_255_2_778
10
22.2604473
20
-0.70356
40
15.5991459
50
168.5423293
51
169.9299014
0
ARC
8
DEFAULT_255_2_778
10
8.7420459
20
1.4200279
40
1.9370005
50
151.4907489
51
161.831902
0
ARC
8
DEFAULT_255_2_778
10
8.9145556
20
1.3246002
40
2.1341401
50
141.7362919
51
151.4500174
0
ARC
8
DEFAULT_255_2_778
10
9.1495304
20
1.1405457
40
2.4326168
50
134.455059
51
141.7598877
0
ARC
8
DEFAULT_255_2_778
10
9.3127258
20
0.9783598
40
2.6626804
50
131.6447773
51
134.5175054
0
ARC
8
DEFAULT_255_2_778
10
9.4428565
20
0.8298894
40
2.8601026
50
126.3394674
51
131.6164078
0
ARC
8
DEFAULT_255_2_778
10
9.5406669
20
0.6989871
40
3.0235065
50
122.4882194
51
126.3625812
0
ARC
8
DEFAULT_255_2_778
10
9.5299904
20
0.7171111
40
3.0024843
50
119.462444
51
122.5021346
0
ARC
8
DEFAULT_255_2_778
10
9.4126648
20
0.9258589
40
2.7630252
50
117.0476155
51
119.4732358
0
ARC
8
DEFAULT_255_2_778
10
9.1933133
20
1.3566281
40
2.2796239
50
115.0562197
51
117.0607657
0
ARC
8
DEFAULT_255_2_778
10
8.8920761
20
2.0017058
40
1.5676767
50
113.5265222
51
115.0674239
0
ARC
8
DEFAULT_255_2_778
10
8.5325599
20
2.8295892
40
0.6651018
50
112.3344508
51
113.598678
0
ARC
8
DEFAULT_255_2_778
10
5.3266906
20
5.834552
40
3.7989294
50
321.0191695
51
321.3384403
0
ARC
8
DEFAULT_255_2_778
10
0.6348369
20
9.5909366
40
9.8092468
50
321.3262785
51
321.7704612
0
ARC
8
DEFAULT_255_2_778
10
-3.2972698
20
12.6917254
40
14.8168761
50
321.760613
51
322.1988776
0
ARC
8
DEFAULT_255_2_778
10
-5.9958458
20
14.7867019
40
18.2331952
50
322.1947517
51
322.6067616
0
ARC
8
DEFAULT_255_2_778
10
-8.12408
20
16.4129374
40
20.911632
50
322.6079033
51
323.1929086
0
ARC
8
DEFAULT_255_2_778
10
-9.7203715
20
17.6080953
40
22.9057603
50
323.1915646
51
323.8897079
0
ARC
8
DEFAULT_255_2_778
10
-10.4845876
20
18.1664528
40
23.8522215
50
323.8880172
51
324.7668233
0
ARC
8
DEFAULT_255_2_778
10
-10.4123892
20
18.1164559
40
23.7644056
50
324.7648617
51
325.5862945
0
ARC
8
DEFAULT_255_2_778
10
-9.7726297
20
17.6789602
40
22.9893609
50
325.5846874
51
326.5015376
0
ARC
8
DEFAULT_255_2_778
10
9.2611132
20
2.2333747
40
2.6733117
50
120.9381865
51
121.2840442
0
ARC
8
DEFAULT_255_2_778
10
11.185429
20
-0.9726785
40
6.4125315
50
120.5335591
51
120.9583363
0
ARC
8
DEFAULT_255_2_778
10
12.5391031
20
-3.2649437
40
9.0746569
50
120.1323812
51
120.5423559
0
ARC
8
DEFAULT_255_2_778
10
13.5034559
20
-4.9268079
40
10.9960545
50
119.5337921
51
120.1312482
0
ARC
8
DEFAULT_255_2_778
10
14.0844525
20
-5.9511988
40
12.173736
50
118.7977287
51
119.5363569
0
ARC
8
DEFAULT_255_2_778
10
14.1940354
20
-6.1488515
40
12.3997323
50
117.8308722
51
118.8015051
0
ARC
8
DEFAULT_255_2_778
10
13.8183976
20
-5.4328827
40
11.5912085
50
116.3654825
51
117.8411133
0
ARC
8
DEFAULT_255_2_778
10
13.3430974
20
-4.4795349
40
10.5259501
50
115.7617641
51
116.3519739
0
ARC
8
DEFAULT_255_2_778
10
12.7870004
20
-3.3168336
40
9.2371156
50
113.9034535
51
115.789795
0
ARC
8
DEFAULT_255_2_778
10
11.9689812
20
-1.4653861
40
7.2130093
50
111.4602856
51
113.9220656
0
ARC
8
DEFAULT_255_2_778
10
11.3172875
20
0.1907692
40
5.4332468
50
108.9116112
51
111.4539794
0
ARC
8
DEFAULT_255_2_778
10
10.9941581
20
1.1213916
40
4.4481324
50
107.761746
51
108.8592699
0
ARC
8
DEFAULT_255_2_778
10
-7.8457774
20
16.453179
40
20.7067412
50
327.5985052
51
327.9442868
0
ARC
8
DEFAULT_255_2_778
10
-7.3759731
20
16.1588876
40
20.1523735
50
327.9445023
51
328.3039481
0
ARC
8
DEFAULT_255_2_778
10
-6.1511256
20
15.407945
40
18.7156609
50
328.289825
51
329.8138957
0
ARC
8
DEFAULT_255_2_778
10
-1.9905292
20
13.0445998
40
13.9310271
50
329.6118621
51
335.5204132
0
ARC
8
DEFAULT_255_2_778
10
1.1479752
20
11.5604354
40
10.4597753
50
335.7956826
51
336.3152102
0
ARC
8
DEFAULT_255_2_778
10
2.5224313
20
10.9705596
40
8.9641426
50
336.2389234
51
339.8563041
0
ARC
8
DEFAULT_255_2_778
10
4.4281557
20
10.2691675
40
6.9334457
50
339.8745167
51
343.4021258
0
ARC
8
DEFAULT_255_2_778
10
5.8571937
20
9.8438566
40
5.4424601
50
343.3956074
51
347.4372113
0
ARC
8
DEFAULT_255_2_778
10
7.0222765
20
9.5850527
40
4.2489791
50
347.4263056
51
352.178622
0
ARC
8
DEFAULT_255_2_778
10
7.9787407
20
9.4551663
40
3.2837375
50
352.1527543
51
358.1296491
0
ARC
8
DEFAULT_255_2_778
10
8.4779198
20
9.4327619
40
2.7840998
50
358.2551912
51
359.9902848
0
ARC
8
DEFAULT_255_2_778
10
8.8832171
20
9.4384258
40
2.3788105
50
359.8522083
51
7.2493505
0
ARC
8
DEFAULT_255_2_778
10
9.3947489
20
9.5053244
40
1.8629268
50
7.193534
51
17.5932071
0
ARC
8
DEFAULT_255_2_778
10
9.7744327
20
9.6329168
40
1.4624526
50
17.324352
51
44.7030715
0
ARC
8
DEFAULT_255_2_778
10
9.7572193
20
9.6112769
40
1.4899129
50
44.8289115
51
48.3227441
0
LINE
8
DEFAULT_255_2_778
10
9.0220129
20
10.4628961
11
8.7545129
21
10.2019961
0
LINE
8
DEFAULT_255_2_778
10
6.7384129
20
4.7642961
11
6.7770129
21
4.6041961
0
LINE
8
DEFAULT_255_2_778
10
6.7770129
20
4.6041961
11
6.8156129
21
4.4234961
0
LINE
8
DEFAULT_255_2_778
10
6.7691129
20
4.5695961
11
6.7431129
21
4.6404961
0
LINE
8
DEFAULT_255_2_778
10
6.4719129
20
2.0009961
11
6.4809129
21
1.8911961
0
LINE
8
DEFAULT_255_2_778
10
6.7688129
20
-0.7385039
11
6.8437129
21
-0.6972039
0
LINE
8
DEFAULT_255_2_778
10
9.3982129
20
4.9907961
11
8.2449129
21
4.6833961
0
LINE
8
DEFAULT_255_2_778
10
8.2449129
20
4.6833961
11
7.8729129
21
4.5179961
0
ENDSEC
0
EOF