0
SECTION
2
HEADER
9
$MEASUREMENT
70
1
0
ENDSEC
0
SECTION
2
TABLES
0
TABLE
2
LTYPE
0
LTYPE
72
65
70
64
2
CONTINUOUS
3
______
73
0
40
0
0
ENDTAB
0
TABLE
2
LAYER
0
LAYER
2
DEFAULT_255_2_778
70
0
62
255
6
CONTINUOUS
0
ENDTAB
0
ENDSEC
0
SECTION
2
ENTITIES
0
ARC
8
DEFAULT_255_2_778
10
10.6854929
20
5.8489468
40
0.7529336
50
252.4481807
51
266.2204913
0
ARC
8
DEFAULT_255_2_778
10
10.5482115
20
5.4376151
40
0.3194251
50
220.5311488
51
253.6761936
0
ARC
8
DEFAULT_255_2_778
10
10.5390221
20
5.4060045
40
0.292456
50
177.4236096
51
216.9919165
0
ARC
8
DEFAULT_255_2_778
10
10.5788887
20
5.4280187
40
0.3321453
50
105.2822886
51
181.5299099
0
ARC
8
DEFAULT_255_2_778
10
10.7179753
20
5.0620916
40
0.7227776
50
91.1142159
51
108.2737098
0
ARC
8
DEFAULT_255_2_778
10
10.7397937
20
4.7442656
40
1.0410852
50
89.9852486
51
91.974662
0
ARC
8
DEFAULT_255_2_778
10
10.7598534
20
4.6905872
40
1.0949425
50
70.9052594
51
91.0357028
0
ARC
8
DEFAULT_255_2_778
10
10.8660351
20
5.0271999
40
0.7421796
50
51.2421706
51
70.1504559
0
ARC
8
DEFAULT_255_2_778
10
10.8978086
20
4.9976904
40
1.0428901
50
51.8264816
51
78.6276073
0
ARC
8
DEFAULT_255_2_778
10
10.7546063
20
4.3800692
40
1.6767256
50
77.9918353
51
90.4149976
0
ARC
8
DEFAULT_255_2_778
10
10.7316
20
4.933497
40
1.1233063
50
89.4459711
51
107.6348043
0
ARC
8
DEFAULT_255_2_778
10
10.6025139
20
5.3163692
40
0.7193544
50
107.0749224
51
137.5730462
0
ARC
8
DEFAULT_255_2_778
10
10.5106794
20
5.418082
40
0.583095
50
138.8625422
51
180.4196856
0
ARC
8
DEFAULT_255_2_778
10
10.638717
20
5.4064401
40
0.7111552
50
179.4061372
51
179.9991356
0
ARC
8
DEFAULT_255_2_778
10
10.5594356
20
5.3937792
40
0.6320009
50
178.8511423
51
202.6224016
0
ARC
8
DEFAULT_255_2_778
10
10.4424828
20
5.3626394
40
0.512326
50
204.4392084
51
249.0732806
0
ARC
8
DEFAULT_255_2_778
10
10.6377618
20
5.8067633
40
0.9971864
50
247.7074663
51
262.6674408
0
ARC
8
DEFAULT_255_2_778
10
10.7188491
20
6.2953547
40
1.4922403
50
261.9737578
51
265.1529941
0
ARC
8
DEFAULT_255_2_778
10
10.9124279
20
4.1137976
40
0.666373
50
70.3948722
51
86.0043042
0
ARC
8
DEFAULT_255_2_778
10
11.0536701
20
4.4829373
40
0.2713974
50
357.6632683
51
72.3363048
0
ARC
8
DEFAULT_255_2_778
10
10.8390548
20
4.4572431
40
0.4860071
50
359.9891129
51
1.7248402
0
ARC
8
DEFAULT_255_2_778
10
10.9889833
20
4.445954
40
0.336265
50
289.2016587
51
1.9081552
0
ARC
8
DEFAULT_255_2_778
10
10.8079426
20
4.8564081
40
0.7842527
50
275.0438814
51
291.8306847
0
ARC
8
DEFAULT_255_2_778
10
10.7386133
20
5.4282822
40
1.3601375
50
269.8293297
51
275.8351162
0
ARC
8
DEFAULT_255_2_778
10
10.7149002
20
5.1945568
40
1.1265776
50
250.0117479
51
271.000005
0
ARC
8
DEFAULT_255_2_778
10
10.6000826
20
4.8549014
40
0.7681782
50
223.9097717
51
249.399956
0
ARC
8
DEFAULT_255_2_778
10
10.6299098
20
4.9599582
40
1.1708636
50
226.8847458
51
267.1719792
0
ARC
8
DEFAULT_255_2_778
10
10.737484
20
5.8052127
40
2.0214655
50
265.3083407
51
270.1099104
0
ARC
8
DEFAULT_255_2_778
10
10.7528215
20
5.2240456
40
1.4403404
50
269.5441346
51
283.2803829
0
ARC
8
DEFAULT_255_2_778
10
10.8817457
20
4.7005265
40
0.9012207
50
282.9488088
51
303.8742362
0
ARC
8
DEFAULT_255_2_778
10
11.0570694
20
4.442012
40
0.588867
50
303.7306088
51
1.3952778
0
ARC
8
DEFAULT_255_2_778
10
10.6425108
20
4.4735492
40
1.0033984
50
359.0178952
51
359.9962217
0
ARC
8
DEFAULT_255_2_778
10
10.9280827
20
4.4841196
40
0.7179053
50
359.1510669
51
16.5600521
0
ARC
8
DEFAULT_255_2_778
10
11.139228
20
4.5325355
40
0.5019074
50
18.1325178
51
77.5028009
0
ARC
8
DEFAULT_255_2_778
10
10.8835834
20
3.7537066
40
1.3200935
50
73.9825594
51
85.1383325
0
ARC
8
DEFAULT_255_2_778
10
13.7573799
20
4.3439063
40
1.725459
50
89.339787
51
98.3244707
0
ARC
8
DEFAULT_255_2_778
10
13.5978698
20
5.3267156
40
0.7300763
50
97.1048447
51
141.5125107
0
ARC
8
DEFAULT_255_2_778
10
13.841872
20
5.1042376
40
1.0597597
50
140.3073099
51
142.6108327
0
ARC
8
DEFAULT_255_2_778
10
13.6471699
20
5.269873
40
0.5104949
50
98.4359727
51
148.5730403
0
ARC
8
DEFAULT_255_2_778
10
13.7587378
20
4.6454501
40
1.1446828
50
89.3130446
51
99.374791
0
ARC
8
DEFAULT_255_2_778
10
13.7847898
20
4.7498504
40
1.0402735
50
78.6568002
51
90.6790121
0
ARC
8
DEFAULT_255_2_778
10
13.8979936
20
5.2838852
40
0.4944405
50
54.6736075
51
79.346965
0
ARC
8
DEFAULT_255_2_778
10
13.9428984
20
5.3780743
40
0.3920344
50
5.1032894
51
52.0673261
0
ARC
8
DEFAULT_255_2_778
10
13.5689436
20
5.3078478
40
0.771626
50
359.7403379
51
7.8282491
0
ARC
8
DEFAULT_255_2_778
10
13.6644985
20
3.9538656
40
1.1335372
50
89.450894
51
103.8251285
0
ARC
8
DEFAULT_255_2_778
10
13.556077
20
4.3751602
40
0.6985545
50
103.447165
51
128.0112429
0
ARC
8
DEFAULT_255_2_778
10
13.4937154
20
4.4783796
40
0.5790055
50
129.4393209
51
178.2702755
0
ARC
8
DEFAULT_255_2_778
10
13.7223753
20
4.4448129
40
0.8090134
50
176.3825854
51
180.0256478
0
ARC
8
DEFAULT_255_2_778
10
13.6098667
20
4.4345958
40
0.6965746
50
179.189364
51
208.954199
0
ARC
8
DEFAULT_255_2_778
10
13.4280741
20
4.3425005
40
0.4929763
50
209.8170371
51
224.6661216
0
ARC
8
DEFAULT_255_2_778
10
13.52594
20
4.4425969
40
0.6329498
50
224.8827302
51
259.3914263
0
ARC
8
DEFAULT_255_2_778
10
13.6650199
20
5.0806984
40
1.285893
50
258.5345951
51
268.7699378
0
ARC
8
DEFAULT_255_2_778
10
13.7040599
20
5.907256
40
2.1132055
50
268.1927596
51
270.0325864
0
ARC
8
DEFAULT_255_2_778
10
13.7180072
20
5.2457797
40
1.4517848
50
269.4969852
51
277.2753017
0
ARC
8
DEFAULT_255_2_778
10
13.8220314
20
4.4969325
40
0.6958434
50
276.5873379
51
308.1359319
0
ARC
8
DEFAULT_255_2_778
10
13.5910069
20
4.8070583
40
1.082481
50
307.6172168
51
312.6081512
0
ARC
8
DEFAULT_255_2_778
10
13.360103
20
5.0632381
40
1.4273514
50
312.4683252
51
313.8126456
0
ARC
8
DEFAULT_255_2_778
10
13.7761202
20
5.3279396
40
0.8935417
50
0.0263636
51
19.0523341
0
ARC
8
DEFAULT_255_2_778
10
14.0392442
20
5.4118031
40
0.6174913
50
19.6668369
51
70.8740931
0
ARC
8
DEFAULT_255_2_778
10
13.8604256
20
4.97193
40
1.0919551
50
69.5713563
51
84.0667235
0
ARC
8
DEFAULT_255_2_778
10
13.7858781
20
4.3782265
40
1.6902324
50
83.6336074
51
90.1768239
0
ARC
8
DEFAULT_255_2_778
10
13.3871052
20
4.5921872
40
0.9511331
50
349.1237137
51
0.7267251
0
ARC
8
DEFAULT_255_2_778
10
13.9414219
20
4.4785655
40
0.3853978
50
324.6713648
51
350.1625298
0
ARC
8
DEFAULT_255_2_778
10
14.0706525
20
4.3962687
40
0.2324998
50
311.912679
51
322.801126
0
ARC
8
DEFAULT_255_2_778
10
13.8260848
20
4.6795229
40
0.6067008
50
266.089249
51
311.2313312
0
ARC
8
DEFAULT_255_2_778
10
13.7351366
20
6.6065468
40
2.5327971
50
269.9462786
51
271.1214146
0
ARC
8
DEFAULT_255_2_778
10
13.7198664
20
5.1135178
40
1.0398469
50
259.2902896
51
270.7105575
0
ARC
8
DEFAULT_255_2_778
10
13.6023178
20
4.528744
40
0.4434673
50
235.1734725
51
260.1728446
0
ARC
8
DEFAULT_255_2_778
10
13.5411821
20
4.4138522
40
0.3146187
50
181.2436556
51
232.3626156
0
ARC
8
DEFAULT_255_2_778
10
13.8113318
20
4.4539042
40
0.5865707
50
179.9173006
51
184.5841384
0
ARC
8
DEFAULT_255_2_778
10
13.6137277
20
4.468737
40
0.3892173
50
148.3747502
51
182.0593277
0
ARC
8
DEFAULT_255_2_778
10
13.5726886
20
4.4709326
40
0.3536677
50
104.9418846
51
145.1897452
0
ARC
8
DEFAULT_255_2_778
10
13.694975
20
4.0831984
40
0.7600394
50
90.8113622
51
106.3124113
0
ARC
8
DEFAULT_255_2_778
10
13.7176822
20
3.698525
40
1.1451259
50
89.9860117
51
91.6748815
0
ARC
8
DEFAULT_255_2_778
10
15.9436519
20
5.0916836
40
0.6866097
50
74.1841147
51
91.1675221
0
ARC
8
DEFAULT_255_2_778
10
15.9768584
20
5.2516825
40
0.5237474
50
51.6308405
51
72.9086896
0
ARC
8
DEFAULT_255_2_778
10
15.787684
20
5.0027769
40
0.8363446
50
44.5538546
51
52.0545087
0
ARC
8
DEFAULT_255_2_778
10
15.4728818
20
4.6871707
40
1.2820992
50
41.1925724
51
44.7343764
0
ARC
8
DEFAULT_255_2_778
10
15.5453228
20
4.7394388
40
1.4960112
50
42.1436944
51
46.4368282
0
ARC
8
DEFAULT_255_2_778
10
15.7963956
20
5.0020851
40
1.1326663
50
46.483741
51
50.5394019
0
ARC
8
DEFAULT_255_2_778
10
16.0102728
20
5.2759679
40
0.7853337
50
49.8872155
51
87.1960843
0
ARC
8
DEFAULT_255_2_778
10
15.9338064
20
4.5611658
40
1.5035907
50
85.6179895
51
90.157936
0
ARC
8
DEFAULT_255_2_778
10
15.9141943
20
5.0583549
40
1.0065148
50
89.119482
51
116.5256988
0
ARC
8
DEFAULT_255_2_778
10
15.8642348
20
5.1905719
40
0.8660228
50
117.4749722
51
152.6575055
0
ARC
8
DEFAULT_255_2_778
10
16.1382224
20
5.0433904
40
1.1770114
50
152.4193131
51
168.7604827
0
ARC
8
DEFAULT_255_2_778
10
16.6415449
20
4.9397601
40
1.6908832
50
168.6405381
51
180.1815138
0
ARC
8
DEFAULT_255_2_778
10
16.986944
20
4.9286241
40
2.036282
50
179.837385
51
180.0020618
0
ARC
8
DEFAULT_255_2_778
10
16.6362699
20
4.9185584
40
1.6856377
50
179.6603508
51
191.2104787
0
ARC
8
DEFAULT_255_2_778
10
16.1372215
20
4.8166096
40
1.1762949
50
191.0652431
51
207.9214032
0
ARC
8
DEFAULT_255_2_778
10
15.878961
20
4.6797842
40
0.8840284
50
207.9236964
51
265.7970014
0
ARC
8
DEFAULT_255_2_778
10
15.9287246
20
4.9499362
40
1.1574857
50
264.3202322
51
270.046389
0
ARC
8
DEFAULT_255_2_778
10
15.9437908
20
4.9700038
40
1.1776377
50
269.3125623
51
280.8398533
0
ARC
8
DEFAULT_255_2_778
10
16.0124983
20
4.5747626
40
0.7765576
50
281.345218
51
308.2956425
0
ARC
8
DEFAULT_255_2_778
10
15.7720176
20
4.900581
40
1.1813716
50
307.6563518
51
313.6515593
0
ARC
8
DEFAULT_255_2_778
10
15.4429196
20
5.2485658
40
1.6603245
50
313.5796246
51
317.241284
0
ARC
8
DEFAULT_255_2_778
10
15.4912979
20
5.1581584
40
1.2557013
50
313.8795962
51
318.9217547
0
ARC
8
DEFAULT_255_2_778
10
15.7809832
20
4.8585065
40
0.8389197
50
308.5575406
51
313.804312
0
ARC
8
DEFAULT_255_2_778
10
15.9549134
20
4.6322098
40
0.5535718
50
267.7701674
51
309.0792365
0
ARC
8
DEFAULT_255_2_778
10
15.9298653
20
5.0413525
40
0.9623018
50
269.9997879
51
270.2089667
0
ARC
8
DEFAULT_255_2_778
10
15.8992883
20
4.6678756
40
0.589618
50
214.6016385
51
272.9722916
0
ARC
8
DEFAULT_255_2_778
10
15.9596811
20
4.7272529
40
0.673205
50
189.1340266
51
215.8425864
0
ARC
8
DEFAULT_255_2_778
10
16.7580234
20
4.8760872
40
1.4851882
50
181.2695828
51
189.9138925
0
ARC
8
DEFAULT_255_2_778
10
17.9978908
20
4.9286119
40
2.7260301
50
179.9508417
51
181.7958941
0
ARC
8
DEFAULT_255_2_778
10
17.2310393
20
4.9466942
40
1.9592408
50
173.6892138
51
180.460403
0
ARC
8
DEFAULT_255_2_778
10
16.1418167
20
5.075165
40
0.8625337
50
156.9567766
51
174.2182056
0
ARC
8
DEFAULT_255_2_778
10
15.9690692
20
5.1375028
40
0.6792465
50
144.8094575
51
156.0918104
0
ARC
8
DEFAULT_255_2_778
10
15.9022955
20
5.1880179
40
0.5955712
50
87.3470935
51
145.078965
0
ARC
8
DEFAULT_255_2_778
10
12.5865246
20
4.4043574
40
0.6700537
50
178.6322853
51
211.1840191
0
ARC
8
DEFAULT_255_2_778
10
12.4303616
20
4.3236478
40
0.4948055
50
212.5518695
51
257.2110292
0
ARC
8
DEFAULT_255_2_778
10
12.4803899
20
4.5095242
40
0.6871874
50
256.5738916
51
270.3645159
0
ARC
8
DEFAULT_255_2_778
10
12.5331234
20
4.4546746
40
0.3560076
50
245.3516586
51
271.8412088
0
ARC
8
DEFAULT_255_2_778
10
12.5066349
20
4.3569266
40
0.2566623
50
182.8419665
51
241.623116
0
ARC
8
DEFAULT_255_2_778
10
12.8232531
20
4.4179834
40
0.5776961
50
179.7651978
51
187.3377649
0
LINE
8
DEFAULT_255_2_778
10
10.9946618
20
5.0677508
11
10.6358618
21
5.0976508
0
LINE
8
DEFAULT_255_2_778
10
11.3306618
20
5.6059508
11
11.5423618
21
5.8175508
0
LINE
8
DEFAULT_255_2_778
10
10.5927618
20
4.8084508
11
10.9588618
21
4.7785508
0
LINE
8
DEFAULT_255_2_778
10
10.0466618
20
4.3221508
11
9.8296618
21
4.1052508
0
LINE
8
DEFAULT_255_2_778
10
10.9954618
20
5.0690508
11
10.9946618
21
5.0677508
0
LINE
8
DEFAULT_255_2_778
10
12.9998618
20
5.7477508
11
13.2115618
21
5.5360508
0
LINE
8
DEFAULT_255_2_778
10
14.3405618
20
5.3043508
11
14.3405618
21
5.0873508
0
LINE
8
DEFAULT_255_2_778
10
14.3405618
20
5.0873508
11
13.6753618
21
5.0873508
0
LINE
8
DEFAULT_255_2_778
10
14.3482618
20
4.0332508
11
14.3482618
21
3.8162508
0
LINE
8
DEFAULT_255_2_778
10
14.3482618
20
3.8162508
11
14.6696618
21
3.8162508
0
LINE
8
DEFAULT_255_2_778
10
14.6696618
20
3.8162508
11
14.6696618
21
5.3283508
0
LINE
8
DEFAULT_255_2_778
10
13.7806618
20
6.0684508
11
13.7772618
21
6.0692508
0
LINE
8
DEFAULT_255_2_778
10
13.7179618
20
4.8436508
11
14.3384618
21
4.8436508
0
LINE
8
DEFAULT_255_2_778
10
14.3384618
20
4.8436508
11
14.3381618
21
4.6042508
0
LINE
8
DEFAULT_255_2_778
10
16.4376618
20
5.5315508
11
16.6545618
21
5.7432508
0
LINE
8
DEFAULT_255_2_778
10
16.6619618
20
4.1213508
11
16.4378618
21
4.3330508
0
LINE
8
DEFAULT_255_2_778
10
15.9298618
20
5.7829508
11
15.9296618
21
5.7781508
0
LINE
8
DEFAULT_255_2_778
10
18.7098618
20
6.0427508
11
18.3063618
21
6.0427508
0
LINE
8
DEFAULT_255_2_778
10
18.3063618
20
6.0427508
11
17.2975618
21
5.0637508
0
LINE
8
DEFAULT_255_2_778
10
17.2975618
20
5.0637508
11
17.2975618
21
7.0296508
0
LINE
8
DEFAULT_255_2_778
10
17.2975618
20
7.0296508
11
16.9760618
21
7.0296508
0
LINE
8
DEFAULT_255_2_778
10
16.9760618
20
7.0296508
11
16.9760618
21
3.8234508
0
LINE
8
DEFAULT_255_2_778
10
16.9760618
20
3.8234508
11
17.2975618
21
3.8234508
0
LINE
8
DEFAULT_255_2_778
10
17.2975618
20
3.8234508
11
17.2975618
21
4.6304508
0
LINE
8
DEFAULT_255_2_778
10
17.2975618
20
4.6304508
11
17.6935618
21
5.0264508
0
LINE
8
DEFAULT_255_2_778
10
17.6935618
20
5.0264508
11
18.4336618
21
3.8231508
0
LINE
8
DEFAULT_255_2_778
10
18.4336618
20
3.8231508
11
18.8371618
21
3.8231508
0
LINE
8
DEFAULT_255_2_778
10
18.8371618
20
3.8231508
11
17.9179618
21
5.2505508
0
LINE
8
DEFAULT_255_2_778
10
17.9179618
20
5.2505508
11
18.7098618
21
6.0427508
0
LINE
8
DEFAULT_255_2_778
10
12.5516618
20
5.6908508
11
12.8506618
21
5.9898508
0
LINE
8
DEFAULT_255_2_778
10
12.8506618
20
5.9898508
11
12.2381618
21
5.9898508
0
LINE
8
DEFAULT_255_2_778
10
12.2381618
20
5.9898508
11
12.2381618
21
6.7222508
0
LINE
8
DEFAULT_255_2_778
10
12.2381618
20
6.7222508
11
11.9166618
21
6.7222508
0
LINE
8
DEFAULT_255_2_778
10
11.9166618
20
6.7222508
11
11.9166618
21
4.4203508
0
LINE
8
DEFAULT_255_2_778
10
12.4847618
20
3.8223508
11
12.7165618
21
3.8223508
0
LINE
8
DEFAULT_255_2_778
10
12.7165618
20
3.8223508
11
12.7165618
21
4.0988508
0
LINE
8
DEFAULT_255_2_778
10
12.7165618
20
4.0988508
11
12.5445618
21
4.0988508
0
LINE
8
DEFAULT_255_2_778
10
12.2455618
20
4.4203508
11
12.2455618
21
5.6882508
0
LINE
8
DEFAULT_255_2_778
10
12.2455618
20
5.6882508
11
12.5516618
21
5.6908508
0
LINE
8
DEFAULT_255_2_778
10
0.2578543
20
-0.195317
11
0.2578543
21
2.687083
0
LINE
8
DEFAULT_255_2_778
10
0.2578543
20
2.687083
11
0.9759543
21
2.687083
0
LINE
8
DEFAULT_255_2_778
10
0.9759543
20
2.687083
11
0.9759543
21
0.522783
0
LINE
8
DEFAULT_255_2_778
10
0.9759543
20
0.522783
11
6.0125543
21
0.522783
0
LINE
8
DEFAULT_255_2_778
10
6.0125543
20
0.522783
11
6.0125543
21
2.687083
0
LINE
8
DEFAULT_255_2_778
10
6.0125543
20
2.687083
11
6.7401543
21
2.687083
0
LINE
8
DEFAULT_255_2_778
10
6.7401543
20
2.687083
11
6.7401543
21
-0.195317
0
LINE
8
DEFAULT_255_2_778
10
6.7401543
20
-0.195317
11
0.2578543
21
-0.195317
0
LINE
8
DEFAULT_255_2_778
10
1.7731198
20
2.8835955
11
5.3047198
21
2.1459955
0
LINE
8
DEFAULT_255_2_778
10
5.3047198
20
2.1459955
11
5.4524198
21
2.8541955
0
LINE
8
DEFAULT_255_2_778
10
5.4524198
20
2.8541955
11
1.9207198
21
3.5918955
0
LINE
8
DEFAULT_255_2_778
10
1.9207198
20
3.5918955
11
1.7731198
21
2.8835955
0
LINE
8
DEFAULT_255_2_778
10
2.2353198
20
4.5755955
11
5.5013198
21
3.0507955
0
LINE
8
DEFAULT_255_2_778
10
5.5013198
20
3.0507955
11
5.8064198
21
3.7000955
0
LINE
8
DEFAULT_255_2_778
10
5.8064198
20
3.7000955
11
2.5404198
21
5.2346955
0
LINE
8
DEFAULT_255_2_778
10
2.5404198
20
5.2346955
11
2.2353198
21
4.5755955
0
LINE
8
DEFAULT_255_2_778
10
3.1402198
20
6.1789955
11
5.9143198
21
3.8770955
0
LINE
8
DEFAULT_255_2_778
10
5.9143198
20
3.8770955
11
6.3766198
21
4.4279955
0
LINE
8
DEFAULT_255_2_778
10
6.3766198
20
4.4279955
11
3.6024198
21
6.7298955
0
LINE
8
DEFAULT_255_2_778
10
3.6024198
20
6.7298955
11
3.1402198
21
6.1789955
0
LINE
8
DEFAULT_255_2_778
10
4.9306198
20
7.8807955
11
4.3501198
21
7.4478955
0
LINE
8
DEFAULT_255_2_778
10
4.3501198
20
7.4478955
11
6.5044198
21
4.5559955
0
LINE
8
DEFAULT_255_2_778
10
6.5044198
20
4.5559955
11
7.0849198
21
4.9888955
0
LINE
8
DEFAULT_255_2_778
10
7.0849198
20
4.9888955
11
4.9306198
21
7.8807955
0
LINE
8
DEFAULT_255_2_778
10
1.6945198
20
1.2505955
11
5.2950198
21
1.2505955
0
LINE
8
DEFAULT_255_2_778
10
5.2950198
20
1.2505955
11
5.2950198
21
1.9686955
0
LINE
8
DEFAULT_255_2_778
10
5.2950198
20
1.9686955
11
1.6945198
21
1.9686955
0
LINE
8
DEFAULT_255_2_778
10
1.6945198
20
1.9686955
11
1.6945198
21
1.2505955
0
LINE
8
DEFAULT_255_2_778
10
1.6945198
20
1.2505955
11
1.6945198
21
1.2505955
0
ARC
8
DEFAULT_255_2_778
10
10.7211949
20
1.1248624
40
1.1285764
50
89.6460566
51
103.7699111
0
ARC
8
DEFAULT_255_2_778
10
10.6697767
20
1.3394816
40
0.9078874
50
103.8421086
51
122.1506515
0
ARC
8
DEFAULT_255_2_778
10
10.6596157
20
1.3611736
40
0.8841195
50
122.3412084
51
136.5217946
0
ARC
8
DEFAULT_255_2_778
10
10.6447702
20
1.3629333
40
0.872182
50
135.9346308
51
173.1148737
0
ARC
8
DEFAULT_255_2_778
10
11.9179906
20
1.1442749
40
2.1633933
50
171.4077379
51
178.8876267
0
ARC
8
DEFAULT_255_2_778
10
13.8807634
20
1.0735437
40
4.1272983
50
178.4348727
51
180.0503436
0
ARC
8
DEFAULT_255_2_778
10
12.8379517
20
1.049299
40
3.084554
50
179.6170127
51
184.9232088
0
ARC
8
DEFAULT_255_2_778
10
11.0757262
20
0.8890798
40
1.3151067
50
184.5575446
51
197.2607746
0
ARC
8
DEFAULT_255_2_778
10
10.6083983
20
0.7505512
40
0.8277456
50
197.7021301
51
224.5057549
0
ARC
8
DEFAULT_255_2_778
10
10.6533968
20
0.7764928
40
0.8781192
50
223.6547546
51
242.370863
0
ARC
8
DEFAULT_255_2_778
10
10.690736
20
0.851364
40
0.9617701
50
242.4685594
51
259.9945357
0
ARC
8
DEFAULT_255_2_778
10
10.7249601
20
1.0332835
40
1.1468708
50
259.8897987
51
270.1601948
0
ARC
8
DEFAULT_255_2_778
10
10.7347447
20
1.0301517
40
1.1437534
50
269.670473
51
284.024896
0
ARC
8
DEFAULT_255_2_778
10
10.7849964
20
0.8251232
40
0.932659
50
284.0822497
51
301.8771487
0
ARC
8
DEFAULT_255_2_778
10
10.8182439
20
0.7680829
40
0.8666652
50
302.0020847
51
316.3912001
0
ARC
8
DEFAULT_255_2_778
10
10.8184198
20
0.7770378
40
0.8727393
50
315.9575551
51
353.1118964
0
ARC
8
DEFAULT_255_2_778
10
9.5455762
20
0.9955686
40
2.1635601
50
351.4088307
51
358.8875413
0
ARC
8
DEFAULT_255_2_778
10
7.583227
20
1.0662897
40
4.1270412
50
358.4348238
51
0.050361
0
ARC
8
DEFAULT_255_2_778
10
8.6223767
20
1.0905665
40
3.087959
50
359.6168585
51
4.917188
0
ARC
8
DEFAULT_255_2_778
10
10.3877098
20
1.2508826
40
1.3154083
50
4.5509076
51
17.2508614
0
ARC
8
DEFAULT_255_2_778
10
10.8556833
20
1.3895344
40
0.8273926
50
17.6916815
51
44.5054132
0
ARC
8
DEFAULT_255_2_778
10
10.820342
20
1.3699255
40
0.86641
50
43.7919378
51
62.1857366
0
ARC
8
DEFAULT_255_2_778
10
10.7640266
20
1.2632216
40
0.9870629
50
62.1845629
51
79.8192356
0
ARC
8
DEFAULT_255_2_778
10
10.7311053
20
1.0927063
40
1.1607147
50
79.7074967
51
90.1450603
0
ARC
8
DEFAULT_255_2_778
10
10.7409455
20
0.7732424
40
0.3660482
50
267.9993708
51
314.446146
0
ARC
8
DEFAULT_255_2_778
10
10.7150777
20
0.772444
40
0.3652613
50
225.5008785
51
272.0536047
0
ARC
8
DEFAULT_255_2_778
10
10.7969267
20
0.8186123
40
0.4563018
50
186.6849263
51
222.2318358
0
ARC
8
DEFAULT_255_2_778
10
11.9989741
20
1.0166863
40
1.6741982
50
179.5056746
51
188.6290761
0
ARC
8
DEFAULT_255_2_778
10
15.0976743
20
1.0715983
40
4.7730077
50
179.9853676
51
180.4857867
0
ARC
8
DEFAULT_255_2_778
10
12.2838069
20
1.1083319
40
1.9594621
50
172.5696786
51
181.0385252
0
ARC
8
DEFAULT_255_2_778
10
10.8431833
20
1.309006
40
0.5051438
50
143.5596541
51
174.0088537
0
ARC
8
DEFAULT_255_2_778
10
10.693001
20
1.4011519
40
0.3299371
50
135.1558378
51
140.9405359
0
ARC
8
DEFAULT_255_2_778
10
10.7064364
20
1.3911806
40
0.3465031
50
90.9307595
51
135.5534162
0
ARC
8
DEFAULT_255_2_778
10
10.7278837
20
1.1986735
40
0.539644
50
89.9699577
51
92.8759448
0
ARC
8
DEFAULT_255_2_778
10
10.7412556
20
1.3732905
40
0.3652613
50
45.5008785
51
92.0536047
0
ARC
8
DEFAULT_255_2_778
10
10.6598549
20
1.3272669
40
0.4558726
50
6.6710349
51
42.256241
0
ARC
8
DEFAULT_255_2_778
10
9.4556631
20
1.1291209
40
1.6758965
50
359.5008362
51
8.6172316
0
ARC
8
DEFAULT_255_2_778
10
6.3336674
20
1.0740416
40
4.7979994
50
359.9853799
51
0.4833903
0
ARC
8
DEFAULT_255_2_778
10
9.173436
20
1.037324
40
1.9585523
50
352.5680024
51
1.0383828
0
ARC
8
DEFAULT_255_2_778
10
10.6131596
20
0.8367286
40
0.5051361
50
323.5589946
51
354.0067197
0
ARC
8
DEFAULT_255_2_778
10
10.7632952
20
0.7446175
40
0.3299879
50
315.1560613
51
320.9398646
0
ARC
8
DEFAULT_255_2_778
10
14.8182754
20
1.2061453
40
1.0473501
50
89.3002323
51
112.9578026
0
ARC
8
DEFAULT_255_2_778
10
14.7720357
20
1.3476256
40
0.8991286
50
113.7612347
51
153.942914
0
ARC
8
DEFAULT_255_2_778
10
15.0971062
20
1.1777183
40
1.2658307
50
153.4973005
51
170.0035206
0
ARC
8
DEFAULT_255_2_778
10
15.6076054
20
1.0811235
40
1.7853592
50
169.7945363
51
180.2729828
0
ARC
8
DEFAULT_255_2_778
10
15.8714241
20
1.062844
40
2.0491808
50
179.7267344
51
188.1636837
0
ARC
8
DEFAULT_255_2_778
10
15.1974144
20
0.9632709
40
1.3678648
50
188.0441535
51
200.1993788
0
ARC
8
DEFAULT_255_2_778
10
14.7981373
20
0.8139915
40
0.9416027
50
200.0635296
51
219.1491659
0
ARC
8
DEFAULT_255_2_778
10
14.7969079
20
0.8728102
40
0.9788838
50
221.8654896
51
270.3581354
0
ARC
8
DEFAULT_255_2_778
10
14.8903556
20
1.6038562
40
1.7121392
50
267.0763132
51
270.0271415
0
ARC
8
DEFAULT_255_2_778
10
14.9024267
20
1.4547566
40
1.5630799
50
269.5872511
51
279.0241622
0
ARC
8
DEFAULT_255_2_778
10
14.9966983
20
0.8813527
40
0.9819919
50
278.8394455
51
298.2329075
0
ARC
8
DEFAULT_255_2_778
10
14.8625384
20
1.0778693
40
1.2188558
50
299.4192668
51
316.1196807
0
ARC
8
DEFAULT_255_2_778
10
14.2278307
20
1.7456576
40
2.1396269
50
315.0114091
51
315.9467201
0
ARC
8
DEFAULT_255_2_778
10
14.5088359
20
1.5004978
40
1.2756378
50
311.0708822
51
315.2175599
0
ARC
8
DEFAULT_255_2_778
10
14.7545708
20
1.2237482
40
0.9055574
50
309.8329687
51
310.8534447
0
ARC
8
DEFAULT_255_2_778
10
14.9647417
20
0.9510542
40
0.5616833
50
276.0146433
51
311.1878812
0
ARC
8
DEFAULT_255_2_778
10
14.8974911
20
1.4398032
40
1.0549049
50
269.6564932
51
276.8656622
0
ARC
8
DEFAULT_255_2_778
10
14.8810915
20
0.9418112
40
0.556985
50
244.2491595
51
271.0364651
0
ARC
8
DEFAULT_255_2_778
10
14.8580964
20
0.8585098
40
0.4722196
50
183.2816598
51
242.3706429
0
ARC
8
DEFAULT_255_2_778
10
15.064371
20
0.9002961
40
0.6812047
50
179.9477533
51
185.798159
0
ARC
8
DEFAULT_255_2_778
10
14.2495307
20
1.1735388
40
1.5762459
50
359.3231004
51
0.000372
0
ARC
8
DEFAULT_255_2_778
10
14.4855101
20
1.1849117
40
1.3403148
50
359.5142645
51
18.1843284
0
ARC
8
DEFAULT_255_2_778
10
14.8878339
20
1.336469
40
0.9109732
50
17.0249071
51
75.2699723
0
ARC
8
DEFAULT_255_2_778
10
14.8380953
20
1.1338725
40
1.1195632
50
75.4444444
51
90.3289998
0
ARC
8
DEFAULT_255_2_778
10
15.5917769
20
1.2223287
40
1.203576
50
171.0457477
51
176.8093857
0
ARC
8
DEFAULT_255_2_778
10
14.9008396
20
1.3240057
40
0.5052835
50
164.7186676
51
170.240213
0
ARC
8
DEFAULT_255_2_778
10
14.9176178
20
1.3165196
40
0.5234491
50
155.2197967
51
164.4122578
0
ARC
8
DEFAULT_255_2_778
10
14.7988386
20
1.3833789
40
0.3877373
50
105.1393046
51
156.8333796
0
ARC
8
DEFAULT_255_2_778
10
14.8278266
20
1.2780021
40
0.4970276
50
89.5919109
51
105.1924435
0
ARC
8
DEFAULT_255_2_778
10
14.843964
20
1.3574954
40
0.4177119
50
90.0001665
51
91.7281936
0
ARC
8
DEFAULT_255_2_778
10
14.8438561
20
1.3598242
40
0.4153832
50
25.0829122
51
89.9852817
0
ARC
8
DEFAULT_255_2_778
10
14.7265393
20
1.3023829
40
0.5459922
50
0.0309084
51
25.3232458
0
ARC
8
DEFAULT_255_2_778
10
14.7305681
20
1.3026814
40
0.5419633
50
358.5870081
51
359.9995807
0
ARC
8
DEFAULT_255_2_778
10
17.2092425
20
1.31463
40
0.5102373
50
158.6006513
51
180.8885783
0
ARC
8
DEFAULT_255_2_778
10
17.0707248
20
1.3684463
40
0.3616336
50
117.0887697
51
158.5318475
0
ARC
8
DEFAULT_255_2_778
10
17.0723027
20
1.3618656
40
0.3682143
50
95.9072883
51
116.841065
0
ARC
8
DEFAULT_255_2_778
10
17.0727151
20
1.3609056
40
0.3692118
50
90.0075311
51
95.9556228
0
ARC
8
DEFAULT_255_2_778
10
17.0828084
20
1.3110069
40
0.419233
50
70.9974574
51
91.3861917
0
ARC
8
DEFAULT_255_2_778
10
17.0885273
20
1.3632528
40
0.3681551
50
48.5948584
51
69.191155
0
ARC
8
DEFAULT_255_2_778
10
16.8263473
20
1.0474218
40
0.7785413
50
44.7697885
51
49.4953497
0
ARC
8
DEFAULT_255_2_778
10
17.3107197
20
1.5539856
40
0.6908724
50
43.4390317
51
89.1605258
0
ARC
8
DEFAULT_255_2_778
10
17.2676394
20
1.0982071
40
1.1478103
50
87.343322
51
90.0385763
0
ARC
8
DEFAULT_255_2_778
10
17.2444555
20
1.4767864
40
0.7695572
50
88.3311893
51
90.0002549
0
ARC
8
DEFAULT_255_2_778
10
17.2461611
20
1.456282
40
0.7900635
50
90.123938
51
115.634033
0
ARC
8
DEFAULT_255_2_778
10
17.2092029
20
1.5198087
40
0.7168242
50
115.1674356
51
134.7254348
0
ARC
8
DEFAULT_255_2_778
10
17.090276
20
1.6484496
40
0.54177
50
135.3631422
51
138.5874878
0
ARC
8
DEFAULT_255_2_778
10
18.7891206
20
2.4463709
40
0.2291376
50
143.5978609
51
183.3159081
0
ARC
8
DEFAULT_255_2_778
10
18.7448779
20
2.4559945
40
0.1887265
50
87.7372724
51
137.9693252
0
ARC
8
DEFAULT_255_2_778
10
18.7622052
20
2.3040963
40
0.3406208
50
89.9896647
51
91.6614774
0
ARC
8
DEFAULT_255_2_778
10
18.6489911
20
2.3523907
40
0.7781727
50
89.3759461
51
108.4749832
0
ARC
8
DEFAULT_255_2_778
10
18.5905425
20
2.5303581
40
0.5908564
50
108.5680653
51
144.5312099
0
ARC
8
DEFAULT_255_2_778
10
18.6850019
20
2.4750342
40
0.6999571
50
145.3296095
51
179.1913113
0
ARC
8
DEFAULT_255_2_778
10
18.7594402
20
2.4653299
40
0.7745734
50
178.5512511
51
180.0009347
0
ARC
8
DEFAULT_255_2_778
10
21.3561852
20
1.1220035
40
1.1290353
50
89.6457096
51
103.7671076
0
ARC
8
DEFAULT_255_2_778
10
21.3046738
20
1.3370368
40
0.9079219
50
103.8391248
51
122.1488004
0
ARC
8
DEFAULT_255_2_778
10
21.2944536
20
1.3588368
40
0.8840309
50
122.3398049
51
136.5220005
0
ARC
8
DEFAULT_255_2_778
10
21.2795543
20
1.3605794
40
0.8720666
50
135.9315105
51
173.1140814
0
ARC
8
DEFAULT_255_2_778
10
22.5529405
20
1.1419179
40
2.1634428
50
171.407904
51
178.8881719
0
ARC
8
DEFAULT_255_2_778
10
24.5171975
20
1.0711463
40
4.1288324
50
178.4351643
51
180.0503601
0
ARC
8
DEFAULT_255_2_778
10
23.4835183
20
1.0471691
40
3.0952186
50
179.6233323
51
184.8730057
0
ARC
8
DEFAULT_255_2_778
10
21.7151745
20
0.8876935
40
1.319748
50
184.4960449
51
197.1974622
0
ARC
8
DEFAULT_255_2_778
10
21.243361
20
0.7483358
40
0.8278499
50
197.6384685
51
224.5068938
0
ARC
8
DEFAULT_255_2_778
10
21.2877588
20
0.7732997
40
0.8771134
50
223.6368018
51
242.4123542
0
ARC
8
DEFAULT_255_2_778
10
21.3255721
20
0.8492052
40
0.9619017
50
242.5099363
51
260.0172258
0
ARC
8
DEFAULT_255_2_778
10
21.3599553
20
1.0322662
40
1.1481535
50
259.9110001
51
270.1602533
0
ARC
8
DEFAULT_255_2_778
10
21.369747
20
1.0279232
40
1.1438248
50
269.670376
51
284.0204539
0
ARC
8
DEFAULT_255_2_778
10
21.4201086
20
0.8224251
40
0.9322481
50
284.077269
51
301.8777367
0
ARC
8
DEFAULT_255_2_778
10
21.4536478
20
0.7649142
40
0.865701
50
302.0029057
51
316.4098245
0
ARC
8
DEFAULT_255_2_778
10
21.4540798
20
0.7745602
40
0.8720696
50
315.9312261
51
353.1120228
0
ARC
8
DEFAULT_255_2_778
10
20.181299
20
0.993146
40
2.1628368
50
351.4066656
51
358.8877702
0
ARC
8
DEFAULT_255_2_778
10
18.2182301
20
1.0638897
40
4.1270381
50
358.434824
51
0.0503612
0
ARC
8
DEFAULT_255_2_778
10
19.248972
20
1.0878735
40
3.0963616
50
359.6233204
51
4.8721125
0
ARC
8
DEFAULT_255_2_778
10
21.0182648
20
1.2474072
40
1.3199406
50
4.4949929
51
17.1960021
0
ARC
8
DEFAULT_255_2_778
10
21.490293
20
1.3868181
40
0.8278214
50
17.637031
51
44.5069441
0
ARC
8
DEFAULT_255_2_778
10
21.4551809
20
1.3674602
40
0.8664993
50
43.7922598
51
62.1853009
0
ARC
8
DEFAULT_255_2_778
10
21.3989438
20
1.260924
40
0.9869675
50
62.1836599
51
79.8170806
0
ARC
8
DEFAULT_255_2_778
10
21.3661007
20
1.0908328
40
1.1601881
50
79.7057105
51
90.1448995
0
ARC
8
DEFAULT_255_2_778
10
21.3758784
20
0.7707701
40
0.3659736
50
268.0094855
51
314.4504029
0
ARC
8
DEFAULT_255_2_778
10
21.3500777
20
0.770044
40
0.3652613
50
225.5008785
51
272.0536047
0
ARC
8
DEFAULT_255_2_778
10
21.4314784
20
0.8160676
40
0.4558726
50
186.6710349
51
222.256241
0
ARC
8
DEFAULT_255_2_778
10
22.6356701
20
1.0142136
40
1.6758965
50
179.5008362
51
188.6172316
0
ARC
8
DEFAULT_255_2_778
10
25.7576658
20
1.069293
40
4.7979994
50
179.9853799
51
180.4833903
0
ARC
8
DEFAULT_255_2_778
10
22.9240056
20
1.1063237
40
1.9646653
50
172.6004653
51
181.044285
0
ARC
8
DEFAULT_255_2_778
10
21.4755357
20
1.3074156
40
0.5025246
50
143.3318306
51
174.0682872
0
ARC
8
DEFAULT_255_2_778
10
21.3273584
20
1.3987997
40
0.3294481
50
135.082921
51
140.6893831
0
ARC
8
DEFAULT_255_2_778
10
21.3414364
20
1.3887806
40
0.3465031
50
90.9307595
51
135.5534162
0
ARC
8
DEFAULT_255_2_778
10
21.3628837
20
1.1962735
40
0.539644
50
89.9699577
51
92.8759448
0
ARC
8
DEFAULT_255_2_778
10
21.3761884
20
1.3709624
40
0.3651871
50
45.4966469
51
92.0434805
0
ARC
8
DEFAULT_255_2_778
10
21.294756
20
1.3248641
40
0.4558736
50
6.6732691
51
42.2565964
0
ARC
8
DEFAULT_255_2_778
10
20.0912388
20
1.1267876
40
1.6752207
50
359.5012093
51
8.6189478
0
ARC
8
DEFAULT_255_2_778
10
16.9722897
20
1.0717408
40
4.7942771
50
359.9853781
51
0.4835771
0
ARC
8
DEFAULT_255_2_778
10
19.8013146
20
1.0346894
40
1.9655786
50
352.6021349
51
1.0444232
0
ARC
8
DEFAULT_255_2_778
10
21.2495647
20
0.8338521
40
0.503684
50
323.5043964
51
354.0459116
0
ARC
8
DEFAULT_255_2_778
10
21.3988075
20
0.7422001
40
0.3295419
50
315.0831329
51
320.880803
0
ARC
8
DEFAULT_255_2_778
10
19.8935835
20
0.5497392
40
0.6313416
50
177.4510055
51
241.5735718
0
ARC
8
DEFAULT_255_2_778
10
19.9051088
20
0.6266993
40
0.7050071
50
243.7276964
51
265.3458768
0
ARC
8
DEFAULT_255_2_778
10
19.9343699
20
0.8565004
40
0.9364838
50
264.702326
51
270.0670964
0
ARC
8
DEFAULT_255_2_778
10
20.0310373
20
0.6469575
40
0.240157
50
241.2642979
51
272.9427745
0
ARC
8
DEFAULT_255_2_778
10
20.0126411
20
0.5762837
40
0.1702804
50
178.4924848
51
235.2480413
0
ARC
8
DEFAULT_255_2_778
10
20.2440309
20
0.6084528
40
0.4025647
50
179.9196616
51
183.9440496
0
LINE
8
DEFAULT_255_2_778
10
10.7281666
20
2.2534173
11
10.7281666
21
2.2534173
0
LINE
8
DEFAULT_255_2_778
10
10.9972666
20
0.5119173
11
10.9972666
21
0.5119173
0
LINE
8
DEFAULT_255_2_778
10
13.2393666
20
2.2238173
11
12.7763666
21
0.7963173
0
LINE
8
DEFAULT_255_2_778
10
12.7763666
20
0.7963173
11
12.3053666
21
2.2238173
0
LINE
8
DEFAULT_255_2_778
10
12.3053666
20
2.2238173
11
11.6999666
21
2.2238173
0
LINE
8
DEFAULT_255_2_778
10
11.6999666
20
2.2238173
11
12.5519666
21
-0.0859827
0
LINE
8
DEFAULT_255_2_778
10
12.5519666
20
-0.0859827
11
13.0004666
21
-0.0859827
0
LINE
8
DEFAULT_255_2_778
10
13.0004666
20
-0.0859827
11
13.8449666
21
2.2238173
0
LINE
8
DEFAULT_255_2_778
10
13.8449666
20
2.2238173
11
13.2393666
21
2.2238173
0
LINE
8
DEFAULT_255_2_778
10
15.7655666
20
0.2579173
11
15.4142666
21
0.6019173
0
LINE
8
DEFAULT_255_2_778
10
14.3831666
20
0.9009173
11
15.8256666
21
0.9009173
0
LINE
8
DEFAULT_255_2_778
10
15.8256666
20
0.9009173
11
15.8256666
21
1.1549173
0
LINE
8
DEFAULT_255_2_778
10
14.8316666
20
2.2534173
11
14.8310666
21
2.2534173
0
LINE
8
DEFAULT_255_2_778
10
15.2723666
20
1.2893173
11
14.3900666
21
1.2893173
0
LINE
8
DEFAULT_255_2_778
10
16.6844666
20
2.0068173
11
16.6844666
21
2.2309173
0
LINE
8
DEFAULT_255_2_778
10
16.6844666
20
2.2309173
11
16.1235666
21
2.2309173
0
LINE
8
DEFAULT_255_2_778
10
16.1235666
20
2.2309173
11
16.1235666
21
-0.0859827
0
LINE
8
DEFAULT_255_2_778
10
16.1235666
20
-0.0859827
11
16.6990666
21
-0.0859827
0
LINE
8
DEFAULT_255_2_778
10
16.6990666
20
-0.0859827
11
16.6990666
21
1.3067173
0
LINE
8
DEFAULT_255_2_778
10
17.3790666
20
1.5957173
11
17.8123666
21
2.0290173
0
LINE
8
DEFAULT_255_2_778
10
16.6839666
20
2.0068173
11
16.6844666
21
2.0068173
0
LINE
8
DEFAULT_255_2_778
10
17.9848666
20
2.4627173
11
17.9848666
21
-0.0857827
0
LINE
8
DEFAULT_255_2_778
10
17.9848666
20
-0.0857827
11
18.5603666
21
-0.0857827
0
LINE
8
DEFAULT_255_2_778
10
18.5603666
20
-0.0857827
11
18.5603666
21
1.7380173
0
LINE
8
DEFAULT_255_2_778
10
18.5603666
20
1.7380173
11
18.9837666
21
1.7380173
0
LINE
8
DEFAULT_255_2_778
10
18.9837666
20
1.7380173
11
18.9837666
21
2.1791173
0
LINE
8
DEFAULT_255_2_778
10
18.9837666
20
2.1791173
11
18.5603666
21
2.1791173
0
LINE
8
DEFAULT_255_2_778
10
18.5603666
20
2.1791173
11
18.5603666
21
2.4331173
0
LINE
8
DEFAULT_255_2_778
10
18.7622666
20
2.6447173
11
18.9863666
21
2.6447173
0
LINE
8
DEFAULT_255_2_778
10
18.9863666
20
2.6447173
11
18.9863666
21
3.1305173
0
LINE
8
DEFAULT_255_2_778
10
18.9863666
20
3.1305173
11
18.6574666
21
3.1305173
0
LINE
8
DEFAULT_255_2_778
10
17.9848666
20
2.4653173
11
17.9848666
21
2.4627173
0
LINE
8
DEFAULT_255_2_778
10
21.3631666
20
2.2510173
11
21.3631666
21
2.2510173
0
LINE
8
DEFAULT_255_2_778
10
21.6321666
20
0.5095173
11
21.6321666
21
0.5095173
0
LINE
8
DEFAULT_255_2_778
10
25.0627666
20
2.2214173
11
24.6891666
21
0.7940173
0
LINE
8
DEFAULT_255_2_778
10
24.6891666
20
0.7940173
11
24.2182666
21
2.2214173
0
LINE
8
DEFAULT_255_2_778
10
24.2182666
20
2.2214173
11
23.8001666
21
2.2214173
0
LINE
8
DEFAULT_255_2_778
10
23.8001666
20
2.2214173
11
23.3292666
21
0.7940173
0
LINE
8
DEFAULT_255_2_778
10
23.3292666
20
0.7940173
11
22.9556666
21
2.2214173
0
LINE
8
DEFAULT_255_2_778
10
22.9556666
20
2.2214173
11
22.3452666
21
2.2214173
0
LINE
8
DEFAULT_255_2_778
10
22.3452666
20
2.2214173
11
23.0553666
21
-0.0883827
0
LINE
8
DEFAULT_255_2_778
10
23.0553666
20
-0.0883827
11
23.5263666
21
-0.0883827
0
LINE
8
DEFAULT_255_2_778
10
23.5263666
20
-0.0883827
11
24.0121666
21
1.3615173
0
LINE
8
DEFAULT_255_2_778
10
24.0121666
20
1.3615173
11
24.4978666
21
-0.0883827
0
LINE
8
DEFAULT_255_2_778
10
24.4978666
20
-0.0883827
11
24.9688666
21
-0.0883827
0
LINE
8
DEFAULT_255_2_778
10
24.9688666
20
-0.0883827
11
25.6713666
21
2.2214173
0
LINE
8
DEFAULT_255_2_778
10
25.6713666
20
2.2214173
11
25.0627666
21
2.2214173
0
LINE
8
DEFAULT_255_2_778
10
19.8385666
20
0.6074173
11
19.8385666
21
3.1263173
0
LINE
8
DEFAULT_255_2_778
10
19.8385666
20
3.1263173
11
19.2628666
21
3.1263173
0
LINE
8
DEFAULT_255_2_778
10
19.2628666
20
3.1263173
11
19.2628666
21
0.5778173
0
LINE
8
DEFAULT_255_2_778
10
19.9354666
20
-0.0799827
11
20.2642666
21
-0.0799827
0
LINE
8
DEFAULT_255_2_778
10
20.2642666
20
-0.0799827
11
20.2642666
21
0.4071173
0
LINE
8
DEFAULT_255_2_778
10
20.2642666
20
0.4071173
11
20.0433666
21
0.4071173
0
LINE
8
DEFAULT_255_2_778
10
19.8414666
20
0.6090173
11
19.8385666
21
0.6074173
0
ENDSEC
0
EOF