0
SECTION
2
HEADER
9
$MEASUREMENT
70
1
0
ENDSEC
0
SECTION
2
TABLES
0
TABLE
2
LTYPE
0
LTYPE
72
65
70
64
2
CONTINUOUS
3
______
73
0
40
0
0
ENDTAB
0
TABLE
2
LAYER
0
LAYER
2
DEFAULT_255_2_778
70
0
62
255
6
CONTINUOUS
0
ENDTAB
0
ENDSEC
0
SECTION
2
ENTITIES
0
ARC
8
DEFAULT_255_2_778
10
14.8184636
20
6.7606765
40
1.8592011
50
257.227825
51
265.7233595
0
ARC
8
DEFAULT_255_2_778
10
14.6357633
20
5.9745864
40
1.0521801
50
243.7004526
51
257.4671491
0
ARC
8
DEFAULT_255_2_778
10
14.4289717
20
5.5693422
40
0.5972893
50
214.8330307
51
244.2604257
0
ARC
8
DEFAULT_255_2_778
10
14.4677573
20
5.5689811
40
0.6293197
50
181.1892145
51
212.7886399
0
ARC
8
DEFAULT_255_2_778
10
14.7943404
20
5.6029075
40
0.9569216
50
179.973376
51
182.8145082
0
ARC
8
DEFAULT_255_2_778
10
14.5813626
20
5.6177623
40
0.7440832
50
150.558596
51
181.109675
0
ARC
8
DEFAULT_255_2_778
10
14.5511956
20
5.6132899
40
0.7202537
50
116.7954127
51
149.0690275
0
ARC
8
DEFAULT_255_2_778
10
14.7448867
20
5.2516466
40
1.1304243
50
101.7155864
51
117.2952745
0
ARC
8
DEFAULT_255_2_778
10
14.8781417
20
4.6411328
40
1.7552897
50
91.6836363
51
101.9281482
0
ARC
8
DEFAULT_255_2_778
10
14.9057013
20
4.1401661
40
2.2568862
50
89.9843201
51
92.009327
0
ARC
8
DEFAULT_255_2_778
10
14.9259862
20
3.7442583
40
2.6528668
50
78.433046
51
90.4247712
0
ARC
8
DEFAULT_255_2_778
10
15.1304768
20
4.6729054
40
1.7021352
50
51.670207
51
78.9087449
0
ARC
8
DEFAULT_255_2_778
10
15.3101054
20
4.8011647
40
2.1271636
50
51.3165592
51
72.4615482
0
ARC
8
DEFAULT_255_2_778
10
15.0341298
20
3.9728753
40
3.0001444
50
72.2028639
51
83.857568
0
ARC
8
DEFAULT_255_2_778
10
14.9145555
20
2.9844374
40
3.9957239
50
83.6693706
51
90.1224079
0
ARC
8
DEFAULT_255_2_778
10
14.8956664
20
4.3839261
40
2.5962467
50
89.7715322
51
101.3371845
0
ARC
8
DEFAULT_255_2_778
10
14.7698581
20
4.9918368
40
1.9754701
50
101.2255552
51
116.1732387
0
ARC
8
DEFAULT_255_2_778
10
14.5245348
20
5.4746075
40
1.4340099
50
115.8845546
51
140.5728181
0
ARC
8
DEFAULT_255_2_778
10
14.3845133
20
5.6074534
40
1.2415582
50
141.2044722
51
172.9313187
0
ARC
8
DEFAULT_255_2_778
10
14.5928071
20
5.5725704
40
1.4525894
50
172.5768966
51
180.0717188
0
ARC
8
DEFAULT_255_2_778
10
14.6619395
20
5.5582731
40
1.5217718
50
179.5301511
51
193.5330046
0
ARC
8
DEFAULT_255_2_778
10
14.215409
20
5.4460155
40
1.0613804
50
193.2819733
51
241.8824359
0
ARC
8
DEFAULT_255_2_778
10
14.5137952
20
5.9569434
40
1.6527853
50
241.106577
51
254.5616815
0
ARC
8
DEFAULT_255_2_778
10
14.7542951
20
6.7985533
40
2.5280611
50
254.3852462
51
262.9784901
0
ARC
8
DEFAULT_255_2_778
10
14.8648685
20
7.5761423
40
3.3133679
50
262.7244632
51
265.1063893
0
ARC
8
DEFAULT_255_2_778
10
15.2404964
20
2.5357096
40
1.6798102
50
76.1211357
51
85.3759255
0
ARC
8
DEFAULT_255_2_778
10
15.4294549
20
3.2780865
40
0.9137973
50
60.2149375
51
76.4577117
0
ARC
8
DEFAULT_255_2_778
10
15.5989269
20
3.580204
40
0.567414
50
2.082226
51
59.9127805
0
ARC
8
DEFAULT_255_2_778
10
15.1841134
20
3.5148795
40
0.9856068
50
359.9112115
51
5.002305
0
ARC
8
DEFAULT_255_2_778
10
15.3903526
20
3.5011939
40
0.7794612
50
336.3184634
51
0.8937504
0
ARC
8
DEFAULT_255_2_778
10
15.4441814
20
3.4992463
40
0.7296527
50
297.5195733
51
334.7605859
0
ARC
8
DEFAULT_255_2_778
10
15.1783484
20
3.9667967
40
1.2672834
50
283.5538497
51
298.4112905
0
ARC
8
DEFAULT_255_2_778
10
14.9753071
20
4.773966
40
2.0995738
50
274.1515721
51
283.7781432
0
ARC
8
DEFAULT_255_2_778
10
14.894888
20
5.6920956
40
3.0211475
50
269.9057631
51
274.4121495
0
ARC
8
DEFAULT_255_2_778
10
14.8706957
20
5.3804459
40
2.7095619
50
257.9093759
51
270.4064928
0
ARC
8
DEFAULT_255_2_778
10
14.6458766
20
4.4393454
40
1.7423952
50
224.3311537
51
258.6561949
0
ARC
8
DEFAULT_255_2_778
10
14.6175974
20
4.5294696
40
2.451366
50
226.4816479
51
243.3046095
0
ARC
8
DEFAULT_255_2_778
10
14.6652843
20
4.6786836
40
2.6062127
50
243.841696
51
261.2909269
0
ARC
8
DEFAULT_255_2_778
10
14.8693478
20
5.9042534
40
3.8485841
50
261.0506708
51
269.2984309
0
ARC
8
DEFAULT_255_2_778
10
14.9055572
20
6.9763643
40
4.9211121
50
269.0297207
51
270.0053765
0
ARC
8
DEFAULT_255_2_778
10
14.9174575
20
5.3848254
40
3.3295929
50
269.8031649
51
278.7330638
0
ARC
8
DEFAULT_255_2_778
10
15.050689
20
4.5390417
40
2.4733883
50
278.6573019
51
289.9446174
0
ARC
8
DEFAULT_255_2_778
10
15.2944872
20
3.8796966
40
1.7704318
50
289.806574
51
305.6934493
0
ARC
8
DEFAULT_255_2_778
10
15.6022202
20
3.4712507
40
1.2592196
50
305.1647981
51
354.1685896
0
ARC
8
DEFAULT_255_2_778
10
15.3529786
20
3.5088619
40
1.5110412
50
353.7100321
51
0.0602996
0
ARC
8
DEFAULT_255_2_778
10
14.665503
20
3.5475756
40
2.1988294
50
359.0326144
51
359.9965726
0
ARC
8
DEFAULT_255_2_778
10
15.1185126
20
3.5579341
40
1.7458514
50
359.6557327
51
9.9985068
0
ARC
8
DEFAULT_255_2_778
10
15.6756532
20
3.6593635
40
1.1795662
50
9.8451707
51
26.2684592
0
ARC
8
DEFAULT_255_2_778
10
15.7955532
20
3.689721
40
1.0589282
50
27.6668723
51
70.9050476
0
ARC
8
DEFAULT_255_2_778
10
15.378256
20
2.6860605
40
2.1448931
50
69.1416145
51
80.4992857
0
ARC
8
DEFAULT_255_2_778
10
15.1270781
20
1.3304049
40
3.5234949
50
80.1095343
51
84.6677695
0
ARC
8
DEFAULT_255_2_778
10
21.4638146
20
2.5824224
40
4.4303763
50
89.7374136
51
94.8172139
0
ARC
8
DEFAULT_255_2_778
10
21.2849025
20
4.6112064
40
2.393747
50
94.6279189
51
104.6243186
0
ARC
8
DEFAULT_255_2_778
10
21.0606776
20
5.4559222
40
1.5197902
50
104.485335
51
137.2437685
0
ARC
8
DEFAULT_255_2_778
10
21.4881016
20
5.0312578
40
2.1220324
50
136.6594846
51
142.7384332
0
ARC
8
DEFAULT_255_2_778
10
21.4035234
20
5.1014277
40
1.3797323
50
132.0460372
51
146.5199584
0
ARC
8
DEFAULT_255_2_778
10
21.1738399
20
5.3326037
40
1.0543516
50
102.3711044
51
131.1906812
0
ARC
8
DEFAULT_255_2_778
10
21.3661043
20
4.5481793
40
1.8618581
50
93.4657506
51
102.978673
0
ARC
8
DEFAULT_255_2_778
10
21.4603432
20
3.2789242
40
3.1345367
50
89.8651799
51
93.7826657
0
ARC
8
DEFAULT_255_2_778
10
21.4798513
20
3.8660328
40
2.5474483
50
83.0254412
51
90.2728748
0
ARC
8
DEFAULT_255_2_778
10
21.6042588
20
4.8465755
40
1.559061
50
71.9455289
51
83.1879127
0
ARC
8
DEFAULT_255_2_778
10
21.7984099
20
5.4264713
40
0.9475591
50
52.313556
51
72.2399808
0
ARC
8
DEFAULT_255_2_778
10
21.8691249
20
5.5475141
40
0.8087398
50
12.2969019
51
51.0356248
0
ARC
8
DEFAULT_255_2_778
10
21.2480252
20
5.384715
40
1.4505096
50
0.4956212
51
13.3549343
0
ARC
8
DEFAULT_255_2_778
10
20.7162503
20
5.3606218
40
1.9825688
50
359.9950967
51
1.0589543
0
ARC
8
DEFAULT_255_2_778
10
21.2459241
20
2.2339634
40
2.6566111
50
89.7650284
51
98.8844004
0
ARC
8
DEFAULT_255_2_778
10
21.1301461
20
2.9571896
40
1.9241832
50
98.8042162
51
111.0035041
0
ARC
8
DEFAULT_255_2_778
10
20.9383166
20
3.4462294
40
1.3988846
50
110.8478648
51
129.8809006
0
ARC
8
DEFAULT_255_2_778
10
20.8356271
20
3.5907346
40
1.2222289
50
130.5303678
51
171.3040675
0
ARC
8
DEFAULT_255_2_778
10
21.2466152
20
3.5020265
40
1.6421031
50
170.4125212
51
180.1665867
0
ARC
8
DEFAULT_255_2_778
10
21.194539
20
3.489445
40
1.5900393
50
179.7186741
51
199.8191037
0
ARC
8
DEFAULT_255_2_778
10
20.8174745
20
3.3465995
40
1.186895
50
199.5033855
51
223.4405113
0
ARC
8
DEFAULT_255_2_778
10
20.6578266
20
3.2140554
40
0.9799326
50
224.2319378
51
224.6690673
0
ARC
8
DEFAULT_255_2_778
10
20.9107185
20
3.463441
40
1.3351049
50
224.6507025
51
254.2879495
0
ARC
8
DEFAULT_255_2_778
10
21.1158272
20
4.146276
40
2.0480081
50
253.9373728
51
263.2112343
0
ARC
8
DEFAULT_255_2_778
10
21.2739203
20
5.4151134
40
3.3266446
50
263.0907359
51
268.7409078
0
ARC
8
DEFAULT_255_2_778
10
21.3199643
20
6.7580932
40
4.6703412
50
268.5382046
51
270.0215266
0
ARC
8
DEFAULT_255_2_778
10
21.3338445
20
5.6933859
40
3.6056541
50
269.8073181
51
274.2657748
0
ARC
8
DEFAULT_255_2_778
10
21.4486247
20
4.225322
40
2.1331261
50
274.1244064
51
282.4116185
0
ARC
8
DEFAULT_255_2_778
10
21.5843556
20
3.5963495
40
1.4896826
50
282.5127163
51
308.2812419
0
ARC
8
DEFAULT_255_2_778
10
21.1465273
20
4.1993297
40
2.2344535
50
307.5152038
51
310.9281047
0
ARC
8
DEFAULT_255_2_778
10
20.7041793
20
4.7095203
40
2.9097061
50
310.9276406
51
313.7129328
0
ARC
8
DEFAULT_255_2_778
10
21.2805223
20
5.3900696
40
2.1311838
50
0.5184091
51
12.1105906
0
ARC
8
DEFAULT_255_2_778
10
21.9276191
20
5.5346099
40
1.4681747
50
11.8934912
51
31.9796538
0
ARC
8
DEFAULT_255_2_778
10
22.0674597
20
5.6021836
40
1.3138754
50
32.7098332
51
62.6060855
0
ARC
8
DEFAULT_255_2_778
10
21.8202866
20
5.148531
40
1.8304143
50
62.2702711
51
75.0441425
0
ARC
8
DEFAULT_255_2_778
10
21.6135718
20
4.3913548
40
2.6152926
50
74.9498461
51
83.9198106
0
ARC
8
DEFAULT_255_2_778
10
21.4945432
20
3.3263016
40
3.6869661
50
83.833589
51
90.1666557
0
ARC
8
DEFAULT_255_2_778
10
20.3629434
20
3.8252931
40
2.3362088
50
353.0478814
51
0.3055617
0
ARC
8
DEFAULT_255_2_778
10
21.3744747
20
3.6971244
40
1.3166098
50
341.8179134
51
353.2563644
0
ARC
8
DEFAULT_255_2_778
10
21.961516
20
3.4983695
40
0.6968835
50
321.4018956
51
342.2826011
0
ARC
8
DEFAULT_255_2_778
10
22.1234389
20
3.380033
40
0.4965828
50
312.0778821
51
320.4174877
0
ARC
8
DEFAULT_255_2_778
10
21.7102842
20
3.7889008
40
1.0774252
50
293.629533
51
313.8149035
0
ARC
8
DEFAULT_255_2_778
10
21.5520155
20
4.2936014
40
1.6042708
50
269.5571609
51
291.5828001
0
ARC
8
DEFAULT_255_2_778
10
21.3961058
20
7.7510535
40
5.063709
50
269.9005772
51
271.6240361
0
ARC
8
DEFAULT_255_2_778
10
21.3741598
20
5.2641872
40
2.5768686
50
263.3509523
51
270.2925907
0
ARC
8
DEFAULT_255_2_778
10
21.2431415
20
4.1780891
40
1.4829119
50
252.6545637
51
263.520204
0
ARC
8
DEFAULT_255_2_778
10
21.0438155
20
3.5589893
40
0.83256
50
232.947902
51
253.0460193
0
ARC
8
DEFAULT_255_2_778
10
20.9438298
20
3.4024902
40
0.6475768
50
188.9768051
51
231.6648994
0
ARC
8
DEFAULT_255_2_778
10
21.4132649
20
3.5059253
40
1.1277724
50
179.6074372
51
190.4462308
0
ARC
8
DEFAULT_255_2_778
10
21.2569963
20
3.5269798
40
0.9715687
50
162.3145572
51
180.7859885
0
ARC
8
DEFAULT_255_2_778
10
20.9898126
20
3.6041196
40
0.6936206
50
111.7419288
51
161.680648
0
ARC
8
DEFAULT_255_2_778
10
21.2082074
20
3.1306969
40
1.2145754
50
98.9081807
51
113.03885
0
ARC
8
DEFAULT_255_2_778
10
21.3376169
20
2.3542779
40
2.0016827
50
90.1668545
51
99.1262635
0
ARC
8
DEFAULT_255_2_778
10
21.3544582
20
1.7862803
40
2.5697719
50
89.9986454
51
90.5054687
0
ARC
8
DEFAULT_255_2_778
10
26.1632327
20
4.6813744
40
1.6998307
50
80.9045328
51
90.4521372
0
ARC
8
DEFAULT_255_2_778
10
26.2497287
20
5.2365557
40
1.1379592
50
52.0815559
51
80.7859828
0
ARC
8
DEFAULT_255_2_778
10
26.0591307
20
4.9582163
40
1.4748123
50
52.5052932
51
52.8853926
0
ARC
8
DEFAULT_255_2_778
10
25.9072948
20
4.7671391
40
1.7188406
50
46.8534438
51
52.3665665
0
ARC
8
DEFAULT_255_2_778
10
25.487223
20
4.3160157
40
2.3352572
50
43.2787847
51
46.9030323
0
ARC
8
DEFAULT_255_2_778
10
25.0043482
20
3.8570429
40
3.0014527
50
41.5225965
51
43.3381553
0
ARC
8
DEFAULT_255_2_778
10
25.1810055
20
3.9941862
40
3.4309825
50
42.2316667
51
44.986791
0
ARC
8
DEFAULT_255_2_778
10
25.66741
20
4.4808038
40
2.742952
50
44.9803299
51
48.3394686
0
ARC
8
DEFAULT_255_2_778
10
25.9416933
20
4.7866963
40
2.332101
50
48.3783952
51
50.6337635
0
ARC
8
DEFAULT_255_2_778
10
26.2619102
20
5.1936715
40
1.8143906
50
50.2999081
51
62.3964157
0
ARC
8
DEFAULT_255_2_778
10
26.3302948
20
5.281996
40
1.7045471
50
63.0577918
51
83.7083693
0
ARC
8
DEFAULT_255_2_778
10
26.1715876
20
4.075286
40
2.9214929
50
83.2080834
51
89.9470341
0
ARC
8
DEFAULT_255_2_778
10
26.1498737
20
2.9909585
40
4.0058936
50
89.6507988
51
90.0007826
0
ARC
8
DEFAULT_255_2_778
10
26.1357498
20
4.6532016
40
2.3436928
50
89.6560524
51
105.6677826
0
ARC
8
DEFAULT_255_2_778
10
25.9999977
20
5.11618
40
1.8612643
50
105.4930403
51
147.1291543
0
ARC
8
DEFAULT_255_2_778
10
26.3228192
20
4.9038372
40
2.2476514
50
147.049227
51
160.6150222
0
ARC
8
DEFAULT_255_2_778
10
26.8947928
20
4.6996757
40
2.8549651
50
160.5600008
51
170.5522925
0
ARC
8
DEFAULT_255_2_778
10
27.6911829
20
4.5643858
40
3.6627612
50
170.5095966
51
178.3367581
0
ARC
8
DEFAULT_255_2_778
10
28.314556
20
4.535077
40
4.2867371
50
178.1870191
51
180.0096877
0
ARC
8
DEFAULT_255_2_778
10
27.8705816
20
4.5243618
40
3.8427756
50
179.8510432
51
187.3783814
0
ARC
8
DEFAULT_255_2_778
10
27.0538507
20
4.4167047
40
3.0189824
50
187.3427042
51
196.7577941
0
ARC
8
DEFAULT_255_2_778
10
26.4493982
20
4.2324919
40
2.3870873
50
196.7071489
51
209.2170056
0
ARC
8
DEFAULT_255_2_778
10
26.0750796
20
4.0212464
40
1.9572783
50
209.1684593
51
228.0894594
0
ARC
8
DEFAULT_255_2_778
10
26.0553539
20
4.0321718
40
1.9523566
50
228.7344457
51
262.7129931
0
ARC
8
DEFAULT_255_2_778
10
26.1462254
20
4.5079295
40
2.4359799
50
262.0122366
51
270.0845234
0
ARC
8
DEFAULT_255_2_778
10
26.1635924
20
4.8981349
40
2.8262163
50
269.7207696
51
276.6216529
0
ARC
8
DEFAULT_255_2_778
10
26.3093489
20
3.7946142
40
1.7133391
50
276.0352751
51
304.1076069
0
ARC
8
DEFAULT_255_2_778
10
26.1081896
20
4.1042519
40
2.0825264
50
303.9130404
51
307.4114719
0
ARC
8
DEFAULT_255_2_778
10
25.8542034
20
4.4330397
40
2.4979864
50
307.4571015
51
311.8127691
0
ARC
8
DEFAULT_255_2_778
10
25.3907315
20
4.95255
40
3.1941881
50
311.7962931
51
315.0949325
0
ARC
8
DEFAULT_255_2_778
10
24.8519245
20
5.4938262
40
3.9579193
50
315.0513395
51
316.8041335
0
ARC
8
DEFAULT_255_2_778
10
25.0111067
20
5.2041739
40
2.9804939
50
315.5483162
51
318.7283778
0
ARC
8
DEFAULT_255_2_778
10
25.613181
20
4.6126442
40
2.1364559
50
311.3424039
51
315.5649737
0
ARC
8
DEFAULT_255_2_778
10
25.9115885
20
4.2766583
40
1.6870918
50
308.2705341
51
311.2711189
0
ARC
8
DEFAULT_255_2_778
10
26.188048
20
3.9087341
40
1.2270519
50
293.0570985
51
308.7765227
0
ARC
8
DEFAULT_255_2_778
10
26.2124265
20
3.895478
40
1.2054301
50
273.7926375
51
292.2376659
0
ARC
8
DEFAULT_255_2_778
10
26.1529197
20
4.5057888
40
1.8184398
50
269.8928481
51
274.3915252
0
ARC
8
DEFAULT_255_2_778
10
26.1344069
20
4.2179147
40
1.5306371
50
251.8529535
51
270.5656943
0
ARC
8
DEFAULT_255_2_778
10
26.0484069
20
3.9286636
40
1.2290166
50
214.4904713
51
251.4628924
0
ARC
8
DEFAULT_255_2_778
10
26.1709684
20
4.0311788
40
1.3881673
50
214.8392529
51
215.1134104
0
ARC
8
DEFAULT_255_2_778
10
26.1518129
20
4.0584872
40
1.3884466
50
193.7971562
51
216.2158837
0
ARC
8
DEFAULT_255_2_778
10
26.9829679
20
4.2775094
40
2.2478997
50
186.0777864
51
194.166346
0
ARC
8
DEFAULT_255_2_778
10
28.6241574
20
4.4594685
40
3.8991363
50
181.3622555
51
186.1831381
0
ARC
8
DEFAULT_255_2_778
10
30.7796786
20
4.530202
40
6.0557611
50
179.9626262
51
181.5464595
0
ARC
8
DEFAULT_255_2_778
10
29.6499667
20
4.5499127
40
4.926073
50
176.241737
51
180.1833133
0
ARC
8
DEFAULT_255_2_778
10
27.5190842
20
4.6954623
40
2.7902382
50
169.4068471
51
176.3559805
0
ARC
8
DEFAULT_255_2_778
10
26.4342163
20
4.9041871
40
1.6854984
50
155.6464435
51
169.6017004
0
ARC
8
DEFAULT_255_2_778
10
26.2433451
20
4.9785788
40
1.4809749
50
144.9044983
51
155.223329
0
ARC
8
DEFAULT_255_2_778
10
26.053984
20
5.1329233
40
1.2374243
50
116.1047593
51
145.7107595
0
ARC
8
DEFAULT_255_2_778
10
26.1102911
20
4.9775693
40
1.4018196
50
92.852175
51
115.3774318
0
ARC
8
DEFAULT_255_2_778
10
26.1487413
20
4.6053386
40
1.7756138
50
89.9749075
51
93.4936994
0
ARC
8
DEFAULT_255_2_778
10
35.4763285
20
4.6414857
40
2.5659766
50
89.8394443
51
98.9785431
0
ARC
8
DEFAULT_255_2_778
10
35.4098304
20
5.0624131
40
2.1398287
50
98.9787726
51
110.1317729
0
ARC
8
DEFAULT_255_2_778
10
35.3370516
20
5.2661146
40
1.9235245
50
110.1847278
51
122.8822735
0
ARC
8
DEFAULT_255_2_778
10
35.334949
20
5.2743814
40
1.9154427
50
122.9637078
51
135.7505765
0
ARC
8
DEFAULT_255_2_778
10
35.3799353
20
5.2279536
40
1.980064
50
135.6965822
51
136.4675836
0
ARC
8
DEFAULT_255_2_778
10
35.2500237
20
5.3248019
40
1.8192765
50
135.8608448
51
168.0513943
0
ARC
8
DEFAULT_255_2_778
10
36.6061659
20
4.9887484
40
3.2159689
50
167.1961121
51
174.7338957
0
ARC
8
DEFAULT_255_2_778
10
38.9386959
20
4.7596376
40
5.5596997
50
174.5889925
51
178.5459809
0
ARC
8
DEFAULT_255_2_778
10
42.2952094
20
4.6555319
40
8.917794
50
178.4245402
51
180.0506267
0
ARC
8
DEFAULT_255_2_778
10
41.2964011
20
4.6284516
40
7.9190054
50
179.8610793
51
182.7649257
0
ARC
8
DEFAULT_255_2_778
10
37.7867463
20
4.4510899
40
4.4048878
50
182.6627489
51
188.0951555
0
ARC
8
DEFAULT_255_2_778
10
35.9543645
20
4.1834587
40
2.553087
50
187.9395692
51
198.0314464
0
ARC
8
DEFAULT_255_2_778
10
35.2130886
20
3.9432297
40
1.7738576
50
198.0644941
51
224.3401015
0
ARC
8
DEFAULT_255_2_778
10
35.3075868
20
3.9996585
40
1.8810576
50
223.5576297
51
235.8218319
0
ARC
8
DEFAULT_255_2_778
10
35.3528031
20
4.0672134
40
1.9623467
50
235.8376856
51
248.5490279
0
ARC
8
DEFAULT_255_2_778
10
35.4182285
20
4.2374901
40
2.1447552
50
248.5858312
51
260.1858109
0
ARC
8
DEFAULT_255_2_778
10
35.4768831
20
4.579749
40
2.4920033
50
260.1982934
51
270.1318779
0
LINE
8
DEFAULT_255_2_778
10
35.482619
20
2.0877523
11
35.4835189
21
2.0877522
0
ARC
8
DEFAULT_255_2_778
10
35.4903969
20
4.674686
40
2.586943
50
269.8476656
51
279.2684849
0
ARC
8
DEFAULT_255_2_778
10
35.5540979
20
4.2834284
40
2.1905337
50
279.2723291
51
290.439628
0
ARC
8
DEFAULT_255_2_778
10
35.6310521
20
4.0737043
40
1.96714
50
290.4725632
51
303.0413487
0
ARC
8
DEFAULT_255_2_778
10
35.6814589
20
3.9943662
40
1.873149
50
303.0720516
51
315.6539682
0
ARC
8
DEFAULT_255_2_778
10
35.7074265
20
3.967381
40
1.8357166
50
315.6897642
51
316.4868811
0
ARC
8
DEFAULT_255_2_778
10
35.7330431
20
3.9704166
40
1.8193373
50
315.8620825
51
348.0531589
0
ARC
8
DEFAULT_255_2_778
10
34.3764752
20
4.3065721
40
3.2164666
50
347.1970351
51
354.7341293
0
ARC
8
DEFAULT_255_2_778
10
32.0438968
20
4.5356778
40
5.560245
50
354.5892403
51
358.5459827
0
ARC
8
DEFAULT_255_2_778
10
28.6876537
20
4.6397734
40
8.9180688
50
358.4245652
51
0.0506184
0
ARC
8
DEFAULT_255_2_778
10
29.687114
20
4.6668551
40
7.9186282
50
359.8610553
51
2.7649926
0
ARC
8
DEFAULT_255_2_778
10
33.1969533
20
4.8442306
40
4.4043256
50
2.6627933
51
8.0956311
0
ARC
8
DEFAULT_255_2_778
10
35.0291795
20
5.1118535
40
2.55268
50
7.9400563
51
18.0328271
0
ARC
8
DEFAULT_255_2_778
10
35.7700633
20
5.3519508
40
1.7738643
50
18.0666051
51
44.3409658
0
ARC
8
DEFAULT_255_2_778
10
35.7154556
20
5.3301433
40
1.8283005
50
43.633638
51
55.9551168
0
ARC
8
DEFAULT_255_2_778
10
35.6164057
20
5.1849605
40
2.0040513
50
55.9324368
51
68.4990558
0
ARC
8
DEFAULT_255_2_778
10
35.5432819
20
4.9981144
40
2.2046962
50
68.5106719
51
80.0840149
0
ARC
8
DEFAULT_255_2_778
10
35.4893816
20
4.6879485
40
2.5195105
50
80.0912182
51
90.1333227
0
ARC
8
DEFAULT_255_2_778
10
35.5260852
20
3.9747465
40
0.765322
50
276.676187
51
314.9332644
0
ARC
8
DEFAULT_255_2_778
10
35.4853871
20
4.203741
40
0.9975907
50
269.8927045
51
277.4687887
0
ARC
8
DEFAULT_255_2_778
10
35.4722552
20
4.0875695
40
0.8814893
50
248.4652653
51
270.7321483
0
ARC
8
DEFAULT_255_2_778
10
35.4300049
20
3.9594219
40
0.7468184
50
224.8255215
51
247.8716361
0
ARC
8
DEFAULT_255_2_778
10
35.5400623
20
4.0399921
40
0.8819122
50
193.1258257
51
223.4974677
0
ARC
8
DEFAULT_255_2_778
10
36.690711
20
4.3486454
40
2.0729633
50
183.7015257
51
194.211796
0
ARC
8
DEFAULT_255_2_778
10
40.3065454
20
4.6055156
40
5.6978838
50
179.5742755
51
183.9318015
0
ARC
8
DEFAULT_255_2_778
10
40.1743315
20
4.6927163
40
5.5656933
50
175.8403055
51
180.4618566
0
ARC
8
DEFAULT_255_2_778
10
36.6264858
20
4.9577232
40
2.0079829
50
165.2572521
51
176.0389085
0
ARC
8
DEFAULT_255_2_778
10
35.5318025
20
5.2611479
40
0.8722496
50
136.3833225
51
166.2334698
0
ARC
8
DEFAULT_255_2_778
10
35.4265787
20
5.3515121
40
0.7337697
50
97.989107
51
135.8237993
0
ARC
8
DEFAULT_255_2_778
10
35.4792198
20
5.044483
40
1.045178
50
89.7643242
51
98.5075842
0
ARC
8
DEFAULT_255_2_778
10
35.4947996
20
5.2085992
40
0.8811251
50
68.4607203
51
90.7335504
0
ARC
8
DEFAULT_255_2_778
10
35.536875
20
5.3363774
40
0.7468631
50
44.8226613
51
67.8642335
0
ARC
8
DEFAULT_255_2_778
10
35.426718
20
5.2556517
40
0.8821369
50
13.1326528
51
43.4979816
0
ARC
8
DEFAULT_255_2_778
10
34.2763961
20
4.946952
40
2.0728844
50
3.706421
51
14.2180454
0
ARC
8
DEFAULT_255_2_778
10
30.6657313
20
4.6901346
40
5.6926448
50
359.574428
51
3.9366245
0
ARC
8
DEFAULT_255_2_778
10
30.800425
20
4.6030755
40
5.5579744
50
355.8343006
51
0.4615964
0
ARC
8
DEFAULT_255_2_778
10
34.3429809
20
4.3379638
40
2.005532
50
345.2188027
51
356.0364555
0
ARC
8
DEFAULT_255_2_778
10
35.435404
20
4.0345324
40
0.8719698
50
316.3770436
51
346.1835619
0
ARC
8
DEFAULT_255_2_778
10
44.365553
20
4.807237
40
2.400546
50
89.7096238
51
104.2273513
0
ARC
8
DEFAULT_255_2_778
10
44.244279
20
5.2587417
40
1.9330957
50
104.0320882
51
148.3595268
0
ARC
8
DEFAULT_255_2_778
10
44.641785
20
5.0007564
40
2.4068763
50
148.0950337
51
161.5361714
0
ARC
8
DEFAULT_255_2_778
10
45.2569102
20
4.7921002
40
3.0564215
50
161.4780291
51
171.4946188
0
ARC
8
DEFAULT_255_2_778
10
46.0654019
20
4.66758
40
3.8744399
50
171.4417813
51
179.1276553
0
ARC
8
DEFAULT_255_2_778
10
46.6081175
20
4.6483799
40
4.4173984
50
178.9858201
51
180.0029538
0
ARC
8
DEFAULT_255_2_778
10
46.9353006
20
4.6383184
40
4.7445919
50
179.8812477
51
185.2963684
0
ARC
8
DEFAULT_255_2_778
10
45.8044451
20
4.5312049
40
3.6086778
50
185.2603298
51
192.1854535
0
ARC
8
DEFAULT_255_2_778
10
44.9558497
20
4.3460309
40
2.7401165
50
192.1460752
51
201.0817966
0
ARC
8
DEFAULT_255_2_778
10
44.3883151
20
4.1259326
40
2.1313991
50
201.048886
51
212.8787482
0
ARC
8
DEFAULT_255_2_778
10
44.1011118
20
3.9409462
40
1.7897775
50
212.8965652
51
230.9741118
0
ARC
8
DEFAULT_255_2_778
10
44.2991677
20
4.2814773
40
2.1798746
50
232.5660918
51
265.5328381
0
ARC
8
DEFAULT_255_2_778
10
44.5004304
20
5.5963478
40
3.5078024
50
263.9280112
51
270.1125166
0
ARC
8
DEFAULT_255_2_778
10
44.519071
20
5.7931556
40
3.7046221
50
269.8182429
51
275.743033
0
ARC
8
DEFAULT_255_2_778
10
44.6320291
20
4.6955455
40
2.601219
50
275.6867211
51
284.4245215
0
ARC
8
DEFAULT_255_2_778
10
44.7727876
20
4.1469684
40
2.0348714
50
284.4338601
51
301.0642353
0
ARC
8
DEFAULT_255_2_778
10
44.4405884
20
4.6491622
40
2.6365821
50
301.6167991
51
314.3414246
0
ARC
8
DEFAULT_255_2_778
10
43.4810418
20
5.6958296
40
4.0560569
50
313.7015871
51
314.9543368
0
ARC
8
DEFAULT_255_2_778
10
43.0722622
20
6.1056976
40
4.6349287
50
314.9505262
51
315.9371832
0
ARC
8
DEFAULT_255_2_778
10
43.4033747
20
5.8605334
40
3.1614238
50
312.8645321
51
315.0661651
0
ARC
8
DEFAULT_255_2_778
10
44.0681511
20
5.1440117
40
2.1840135
50
309.8692675
51
312.8689654
0
ARC
8
DEFAULT_255_2_778
10
44.6752465
20
4.3737241
40
1.2039612
50
280.8808042
51
311.1939119
0
ARC
8
DEFAULT_255_2_778
10
44.5642346
20
4.9568466
40
1.797556
50
272.6120745
51
280.8470863
0
ARC
8
DEFAULT_255_2_778
10
44.5105925
20
5.8555123
40
2.6977622
50
269.9304756
51
272.8803374
0
ARC
8
DEFAULT_255_2_778
10
44.4973564
20
4.4677817
40
1.3100674
50
254.1773795
51
270.4357169
0
ARC
8
DEFAULT_255_2_778
10
44.405832
20
4.1560889
40
0.9852342
50
224.3530128
51
254.3559365
0
ARC
8
DEFAULT_255_2_778
10
44.4611453
20
4.18516
40
1.0452617
50
191.5316534
51
223.3728179
0
ARC
8
DEFAULT_255_2_778
10
44.7992362
20
4.2702507
40
1.3936278
50
179.7779295
51
192.1806546
0
ARC
8
DEFAULT_255_2_778
10
43.1040958
20
4.8665415
40
3.4283576
50
359.3299984
51
359.9991549
0
ARC
8
DEFAULT_255_2_778
10
43.4622846
20
4.8773474
40
3.0701879
50
359.7973973
51
11.624769
0
ARC
8
DEFAULT_255_2_778
10
44.067914
20
5.0063441
40
2.4509919
50
11.5238857
51
27.5884834
0
ARC
8
DEFAULT_255_2_778
10
44.5231521
20
5.2582783
40
1.9308808
50
27.2187644
51
71.595713
0
ARC
8
DEFAULT_255_2_778
10
44.4198635
20
4.9442962
40
2.261414
50
71.6242115
51
85.3163031
0
ARC
8
DEFAULT_255_2_778
10
44.3793347
20
4.5603401
40
2.6474128
50
85.1206222
51
90.0414604
0
ARC
8
DEFAULT_255_2_778
10
47.348656
20
4.8633532
40
3.935056
50
173.8709208
51
176.2961955
0
ARC
8
DEFAULT_255_2_778
10
44.6835828
20
5.1566013
40
1.2539267
50
164.8118764
51
174.1919389
0
ARC
8
DEFAULT_255_2_778
10
44.5197994
20
5.1895379
40
1.087292
50
156.4142268
51
164.2257105
0
ARC
8
DEFAULT_255_2_778
10
44.8010059
20
5.0722409
40
1.3919492
50
155.3877975
51
156.6208033
0
ARC
8
DEFAULT_255_2_778
10
44.3173338
20
5.312149
40
0.8524674
50
114.6754617
51
156.5086045
0
ARC
8
DEFAULT_255_2_778
10
44.3494436
20
5.2134977
40
0.9555911
50
94.4306663
51
113.9555241
0
ARC
8
DEFAULT_255_2_778
10
44.3770024
20
4.9785918
40
1.1919606
50
89.9511345
51
94.8791155
0
ARC
8
DEFAULT_255_2_778
10
44.3861687
20
5.1704118
40
1.0001735
50
71.7632117
51
90.4668682
0
ARC
8
DEFAULT_255_2_778
10
44.4157826
20
5.2868919
40
0.8803161
50
33.329344
51
71.2213414
0
ARC
8
DEFAULT_255_2_778
10
44.2775759
20
5.1821324
40
1.0534153
50
26.4871283
51
33.9598264
0
ARC
8
DEFAULT_255_2_778
10
44.1598172
20
5.1467794
40
1.1747662
50
0.0014117
51
25.4688173
0
ARC
8
DEFAULT_255_2_778
10
44.1604957
20
5.1468019
40
1.1740877
50
358.5724595
51
0.0003182
0
ARC
8
DEFAULT_255_2_778
10
49.6312242
20
5.1604745
40
1.20563
50
166.555835
51
180.3669938
0
ARC
8
DEFAULT_255_2_778
10
49.3392549
20
5.2315385
40
0.9051403
50
146.7141571
51
166.6339809
0
ARC
8
DEFAULT_255_2_778
10
49.2331031
20
5.2984962
40
0.7796593
50
115.1616962
51
146.5462335
0
ARC
8
DEFAULT_255_2_778
10
49.236541
20
5.2900341
40
0.7887804
50
96.2481163
51
115.1263779
0
ARC
8
DEFAULT_255_2_778
10
49.235369
20
5.3010324
40
0.7777198
50
90.0110571
51
96.2504762
0
ARC
8
DEFAULT_255_2_778
10
49.2456504
20
5.0215448
40
1.0572588
50
79.180903
51
90.5653157
0
ARC
8
DEFAULT_255_2_778
10
49.2949057
20
5.3276229
40
0.7474307
50
47.2807335
51
78.4853238
0
ARC
8
DEFAULT_255_2_778
10
48.7919159
20
4.7179615
40
1.5372038
50
45.3257349
51
48.9231439
0
ARC
8
DEFAULT_255_2_778
10
48.3702043
20
4.2850275
40
2.1415696
50
44.5404764
51
45.4461181
0
ARC
8
DEFAULT_255_2_778
10
49.6154623
20
5.5264499
40
1.711584
50
44.5158259
51
57.8731421
0
ARC
8
DEFAULT_255_2_778
10
49.7601668
20
5.7201494
40
1.4707219
50
58.6343082
51
85.7669441
0
ARC
8
DEFAULT_255_2_778
10
49.6587653
20
4.8713304
40
2.3250284
50
84.818871
51
90.1366802
0
ARC
8
DEFAULT_255_2_778
10
49.6049357
20
5.5233761
40
1.6736727
50
88.3468625
51
89.9997513
0
ARC
8
DEFAULT_255_2_778
10
49.6065163
20
5.4979376
40
1.6991119
50
90.0530549
51
107.6123782
0
ARC
8
DEFAULT_255_2_778
10
49.6082467
20
5.4828302
40
1.7140372
50
107.5147075
51
122.5451508
0
ARC
8
DEFAULT_255_2_778
10
49.4653174
20
5.6990297
40
1.4549032
50
122.3806448
51
135.5016176
0
ARC
8
DEFAULT_255_2_778
10
49.2674989
20
5.9031206
40
1.1707805
50
135.8404247
51
138.5751727
0
ARC
8
DEFAULT_255_2_778
10
53.063498
20
7.6064428
40
0.6021171
50
160.184352
51
181.2267352
0
ARC
8
DEFAULT_255_2_778
10
52.8295578
20
7.6855929
40
0.3552304
50
95.7965141
51
159.4035034
0
ARC
8
DEFAULT_255_2_778
10
52.8958828
20
7.3862162
40
0.6607428
50
89.7367242
51
98.898067
0
ARC
8
DEFAULT_255_2_778
10
52.6635063
20
7.3020812
40
1.8008915
50
89.7259847
51
101.6962888
0
ARC
8
DEFAULT_255_2_778
10
52.5832678
20
7.684145
40
1.410495
50
101.6508345
51
118.4874578
0
ARC
8
DEFAULT_255_2_778
10
52.5202815
20
7.811113
40
1.2688684
50
118.7222411
51
148.1915954
0
ARC
8
DEFAULT_255_2_778
10
52.7570392
20
7.6790009
40
1.5397534
50
148.6574618
51
178.9820697
0
ARC
8
DEFAULT_255_2_778
10
52.9064415
20
7.6609586
40
1.6895226
50
178.4603112
51
180.000218
0
ARC
8
DEFAULT_255_2_778
10
58.5294375
20
4.6418518
40
2.5656104
50
89.8396216
51
98.9791799
0
ARC
8
DEFAULT_255_2_778
10
58.4630038
20
5.0623144
40
2.1399317
50
98.9792968
51
110.1361943
0
ARC
8
DEFAULT_255_2_778
10
58.3902828
20
5.2658148
40
1.9238364
50
110.1891913
51
122.882643
0
ARC
8
DEFAULT_255_2_778
10
58.3879196
20
5.274463
40
1.9152927
50
122.9637357
51
135.7497578
0
ARC
8
DEFAULT_255_2_778
10
58.4302711
20
5.2306062
40
1.976233
50
135.6957744
51
136.468141
0
ARC
8
DEFAULT_255_2_778
10
58.3031237
20
5.3248019
40
1.8192765
50
135.8608448
51
168.0513943
0
ARC
8
DEFAULT_255_2_778
10
59.6592659
20
4.9887484
40
3.2159689
50
167.1961121
51
174.7338957
0
ARC
8
DEFAULT_255_2_778
10
61.9917959
20
4.7596376
40
5.5596997
50
174.5889925
51
178.5459809
0
ARC
8
DEFAULT_255_2_778
10
65.3483094
20
4.6555319
40
8.917794
50
178.4245402
51
180.0506267
0
ARC
8
DEFAULT_255_2_778
10
64.3495011
20
4.6284516
40
7.9190054
50
179.8610793
51
182.7649257
0
ARC
8
DEFAULT_255_2_778
10
60.8398463
20
4.4510899
40
4.4048878
50
182.6627489
51
188.0951555
0
ARC
8
DEFAULT_255_2_778
10
59.0074645
20
4.1834587
40
2.553087
50
187.9395692
51
198.0314464
0
ARC
8
DEFAULT_255_2_778
10
58.2661886
20
3.9432297
40
1.7738576
50
198.0644941
51
224.3401015
0
ARC
8
DEFAULT_255_2_778
10
58.3613611
20
4.0006997
40
1.8822637
50
223.5664547
51
235.8241836
0
ARC
8
DEFAULT_255_2_778
10
58.4062027
20
4.0677148
40
1.9628957
50
235.8401328
51
248.5482578
0
ARC
8
DEFAULT_255_2_778
10
58.4714156
20
4.2374609
40
2.1447327
50
248.5852247
51
260.1846961
0
ARC
8
DEFAULT_255_2_778
10
58.529989
20
4.5792358
40
2.4914901
50
260.1972823
51
270.131774
0
LINE
8
DEFAULT_255_2_778
10
58.5357191
20
2.0877523
11
58.5366189
21
2.0877522
0
ARC
8
DEFAULT_255_2_778
10
58.5434969
20
4.674686
40
2.586943
50
269.8476656
51
279.2684849
0
ARC
8
DEFAULT_255_2_778
10
58.6071979
20
4.2834284
40
2.1905337
50
279.2723291
51
290.439628
0
ARC
8
DEFAULT_255_2_778
10
58.6841521
20
4.0737043
40
1.96714
50
290.4725632
51
303.0413487
0
ARC
8
DEFAULT_255_2_778
10
58.7345589
20
3.9943662
40
1.873149
50
303.0720516
51
315.6539682
0
ARC
8
DEFAULT_255_2_778
10
58.7605265
20
3.967381
40
1.8357166
50
315.6897642
51
316.4868811
0
ARC
8
DEFAULT_255_2_778
10
58.7861431
20
3.9704166
40
1.8193373
50
315.8620825
51
348.0531589
0
ARC
8
DEFAULT_255_2_778
10
57.4295752
20
4.3065721
40
3.2164666
50
347.1970351
51
354.7341293
0
ARC
8
DEFAULT_255_2_778
10
55.0969968
20
4.5356778
40
5.560245
50
354.5892403
51
358.5459827
0
ARC
8
DEFAULT_255_2_778
10
51.7407537
20
4.6397734
40
8.9180688
50
358.4245652
51
0.0506184
0
ARC
8
DEFAULT_255_2_778
10
52.7358875
20
4.6668783
40
7.9229548
50
359.8609639
51
2.763314
0
ARC
8
DEFAULT_255_2_778
10
56.2493185
20
4.8443371
40
4.4050608
50
2.6609616
51
8.0928716
0
ARC
8
DEFAULT_255_2_778
10
58.0825865
20
5.1120221
40
2.5523753
50
7.9371874
51
18.0310712
0
ARC
8
DEFAULT_255_2_778
10
58.8236762
20
5.3521598
40
1.7733514
50
18.0649075
51
44.3477195
0
ARC
8
DEFAULT_255_2_778
10
58.7685556
20
5.3301433
40
1.8283005
50
43.633638
51
55.9551168
0
ARC
8
DEFAULT_255_2_778
10
58.6695057
20
5.1849605
40
2.0040513
50
55.9324368
51
68.4990558
0
ARC
8
DEFAULT_255_2_778
10
58.5963819
20
4.9981144
40
2.2046962
50
68.5106719
51
80.0840149
0
ARC
8
DEFAULT_255_2_778
10
58.5424816
20
4.6879485
40
2.5195105
50
80.0912182
51
90.1333227
0
ARC
8
DEFAULT_255_2_778
10
58.578549
20
3.9760184
40
0.7667425
50
276.3147516
51
314.9050806
0
ARC
8
DEFAULT_255_2_778
10
58.5383414
20
4.2072169
40
1.0010663
50
269.9014158
51
277.1466371
0
ARC
8
DEFAULT_255_2_778
10
58.5253383
20
4.0872051
40
0.8811251
50
248.4607203
51
270.7335504
0
ARC
8
DEFAULT_255_2_778
10
58.4832629
20
3.9594269
40
0.7468631
50
224.8226613
51
247.8642335
0
ARC
8
DEFAULT_255_2_778
10
58.5934281
20
4.0401604
40
0.8821483
50
193.1334743
51
223.497982
0
ARC
8
DEFAULT_255_2_778
10
59.743556
20
4.3488258
40
2.0726995
50
183.7069949
51
194.2187875
0
ARC
8
DEFAULT_255_2_778
10
63.3529102
20
4.6055822
40
5.6911483
50
179.574442
51
183.9371341
0
ARC
8
DEFAULT_255_2_778
10
63.2211573
20
4.6926419
40
5.5594188
50
175.8348344
51
180.4616116
0
ARC
8
DEFAULT_255_2_778
10
59.6793695
20
4.9575414
40
2.0077576
50
165.2501944
51
176.0332603
0
ARC
8
DEFAULT_255_2_778
10
58.5851716
20
5.2609788
40
0.8724888
50
136.382942
51
166.2258814
0
ARC
8
DEFAULT_255_2_778
10
58.4795552
20
5.3519994
40
0.7332699
50
97.9847615
51
135.838937
0
ARC
8
DEFAULT_255_2_778
10
58.5323191
20
5.0445084
40
1.0451526
50
89.7642779
51
98.5076933
0
ARC
8
DEFAULT_255_2_778
10
58.5478827
20
5.2082348
40
0.8814893
50
68.4652653
51
90.7321483
0
ARC
8
DEFAULT_255_2_778
10
58.590133
20
5.3363824
40
0.7468184
50
44.8255215
51
67.8716361
0
ARC
8
DEFAULT_255_2_778
10
58.4796919
20
5.2556988
40
0.8822685
50
13.1275144
51
43.4856538
0
ARC
8
DEFAULT_255_2_778
10
57.3288003
20
4.9469362
40
2.0735823
50
3.7056099
51
14.2136105
0
ARC
8
DEFAULT_255_2_778
10
53.7175412
20
4.6901292
40
5.6939347
50
359.5745791
51
3.9357861
0
ARC
8
DEFAULT_255_2_778
10
53.8521248
20
4.6030837
40
5.5593744
50
355.8352669
51
0.4613958
0
ARC
8
DEFAULT_255_2_778
10
57.3953816
20
4.337984
40
2.0062338
50
345.2234949
51
356.0372653
0
ARC
8
DEFAULT_255_2_778
10
58.4883849
20
4.0344832
40
0.8720944
50
316.3893153
51
346.1889041
0
ARC
8
DEFAULT_255_2_778
10
55.3936967
20
3.5317507
40
1.4128498
50
178.105756
51
230.6449764
0
ARC
8
DEFAULT_255_2_778
10
55.2894009
20
3.4755989
40
1.3040731
50
232.6241421
51
252.1127413
0
ARC
8
DEFAULT_255_2_778
10
55.394213
20
3.7974851
40
1.642593
50
252.0820446
51
265.2981278
0
ARC
8
DEFAULT_255_2_778
10
55.4347476
20
4.1839376
40
2.0310863
50
265.0521352
51
270.0584321
0
ARC
8
DEFAULT_255_2_778
10
55.6509985
20
3.8509321
40
0.6451015
50
253.7635192
51
271.1120958
0
ARC
8
DEFAULT_255_2_778
10
55.5641757
20
3.5484676
40
0.3304269
50
183.9852899
51
253.5537231
0
ARC
8
DEFAULT_255_2_778
10
55.9975899
20
3.6386458
40
0.7713848
50
179.6578559
51
188.4343006
0
ARC
8
DEFAULT_255_2_778
10
19.04795
20
3.417314
40
1.5943019
50
179.4595517
51
199.1934054
0
ARC
8
DEFAULT_255_2_778
10
18.5720358
20
3.2360839
40
1.0853604
50
198.4176031
51
250.0123644
0
ARC
8
DEFAULT_255_2_778
10
18.6519566
20
3.4766321
40
1.3387567
50
250.3169399
51
266.2567287
0
ARC
8
DEFAULT_255_2_778
10
18.6837132
20
3.7974152
40
1.6609635
50
265.8860319
51
270.0381444
0
ARC
8
DEFAULT_255_2_778
10
18.8001442
20
3.6155473
40
0.8798726
50
254.7711586
51
270.7602605
0
ARC
8
DEFAULT_255_2_778
10
18.7000751
20
3.2643698
40
0.5147593
50
193.3112219
51
255.2508448
0
ARC
8
DEFAULT_255_2_778
10
19.1908118
20
3.4131434
40
1.0270577
50
180.0348175
51
195.0849121
0
ARC
8
DEFAULT_255_2_778
10
19.605096
20
3.4322763
40
1.4414771
50
179.9969866
51
180.7853263
0
LINE
8
DEFAULT_255_2_778
10
15.4577189
20
4.8418522
11
14.6798189
21
4.9066522
0
LINE
8
DEFAULT_255_2_778
10
16.1861189
20
6.0081522
11
16.6396189
21
6.4616522
0
LINE
8
DEFAULT_255_2_778
10
14.5822189
20
4.2748522
11
15.3759189
21
4.2100522
0
LINE
8
DEFAULT_255_2_778
10
13.3995189
20
3.2217522
11
12.9296189
21
2.7518522
0
LINE
8
DEFAULT_255_2_778
10
15.4545189
20
4.8386522
11
15.4577189
21
4.8418522
0
LINE
8
DEFAULT_255_2_778
10
19.7992189
20
6.3160522
11
20.2527189
21
5.8625522
0
LINE
8
DEFAULT_255_2_778
10
22.6988189
20
5.3604522
11
22.6988189
21
4.8905522
0
LINE
8
DEFAULT_255_2_778
10
22.6988189
20
4.8905522
11
21.2568189
21
4.8905522
0
LINE
8
DEFAULT_255_2_778
10
22.7149189
20
2.6063522
11
22.7149189
21
2.1364522
0
LINE
8
DEFAULT_255_2_778
10
22.7149189
20
2.1364522
11
23.4116189
21
2.1364522
0
LINE
8
DEFAULT_255_2_778
10
23.4116189
20
2.1364522
11
23.4116189
21
5.4093522
0
LINE
8
DEFAULT_255_2_778
10
21.4838189
20
7.0132522
11
21.4841189
21
7.0127522
0
LINE
8
DEFAULT_255_2_778
10
21.3545189
20
4.3560522
11
22.6991189
21
4.3560522
0
LINE
8
DEFAULT_255_2_778
10
22.6991189
20
4.3560522
11
22.6991189
21
3.8374522
0
LINE
8
DEFAULT_255_2_778
10
22.6991189
20
3.8374522
11
22.6991189
21
3.8377522
0
LINE
8
DEFAULT_255_2_778
10
27.2515189
20
5.8467522
11
27.7214189
21
6.3002522
0
LINE
8
DEFAULT_255_2_778
10
27.7373189
20
2.7846522
11
27.2512189
21
3.2381522
0
LINE
8
DEFAULT_255_2_778
10
26.1495189
20
6.3809522
11
26.1498189
21
6.3811522
0
LINE
8
DEFAULT_255_2_778
10
32.1762189
20
6.9481522
11
31.3015189
21
6.9481522
0
LINE
8
DEFAULT_255_2_778
10
31.3015189
20
6.9481522
11
29.1144189
21
4.8262522
0
LINE
8
DEFAULT_255_2_778
10
29.1144189
20
4.8262522
11
29.1144189
21
9.0865522
0
LINE
8
DEFAULT_255_2_778
10
29.1144189
20
9.0865522
11
28.4178189
21
9.0865522
0
LINE
8
DEFAULT_255_2_778
10
28.4178189
20
9.0865522
11
28.4178189
21
2.1364522
0
LINE
8
DEFAULT_255_2_778
10
28.4178189
20
2.1364522
11
29.1144189
21
2.1364522
0
LINE
8
DEFAULT_255_2_778
10
29.1144189
20
2.1364522
11
29.1144189
21
3.8861522
0
LINE
8
DEFAULT_255_2_778
10
29.1144189
20
3.8861522
11
29.9730189
21
4.7447522
0
LINE
8
DEFAULT_255_2_778
10
29.9730189
20
4.7447522
11
31.5769189
21
2.1364522
0
LINE
8
DEFAULT_255_2_778
10
31.5769189
20
2.1364522
11
32.4516189
21
2.1364522
0
LINE
8
DEFAULT_255_2_778
10
32.4516189
20
2.1364522
11
30.4593189
21
5.2307522
0
LINE
8
DEFAULT_255_2_778
10
30.4593189
20
5.2307522
11
32.1791189
21
6.9505522
0
LINE
8
DEFAULT_255_2_778
10
32.1791189
20
6.9505522
11
32.1762189
21
6.9481522
0
LINE
8
DEFAULT_255_2_778
10
35.4835189
20
7.2074522
11
35.4835189
21
7.2074522
0
LINE
8
DEFAULT_255_2_778
10
36.0666189
20
3.4329522
11
36.0666189
21
3.4329522
0
LINE
8
DEFAULT_255_2_778
10
40.9270189
20
7.1429522
11
39.9227189
21
4.0486522
0
LINE
8
DEFAULT_255_2_778
10
39.9227189
20
4.0486522
11
38.9021189
21
7.1429522
0
LINE
8
DEFAULT_255_2_778
10
38.9021189
20
7.1429522
11
37.5898189
21
7.1429522
0
LINE
8
DEFAULT_255_2_778
10
37.5898189
20
7.1429522
11
39.4366189
21
2.1369522
0
LINE
8
DEFAULT_255_2_778
10
39.4366189
20
2.1369522
11
40.4087189
21
2.1369522
0
LINE
8
DEFAULT_255_2_778
10
40.4087189
20
2.1369522
11
42.2396189
21
7.1429522
0
LINE
8
DEFAULT_255_2_778
10
42.2396189
20
7.1429522
11
40.9273189
21
7.1429522
0
LINE
8
DEFAULT_255_2_778
10
40.9273189
20
7.1429522
11
40.9270189
21
7.1429522
0
LINE
8
DEFAULT_255_2_778
10
46.4028189
20
2.8823522
11
45.6414189
21
3.6276522
0
LINE
8
DEFAULT_255_2_778
10
43.4056189
20
4.2756522
11
46.5322189
21
4.2756522
0
LINE
8
DEFAULT_255_2_778
10
46.5322189
20
4.2756522
11
46.5322189
21
4.8264522
0
LINE
8
DEFAULT_255_2_778
10
44.3774189
20
7.2077522
11
44.3777189
21
7.2077522
0
LINE
8
DEFAULT_255_2_778
10
45.3342189
20
5.1175522
11
43.4226189
21
5.1175522
0
LINE
8
DEFAULT_255_2_778
10
43.4226189
20
5.1175522
11
43.4218189
21
5.1175522
0
LINE
8
DEFAULT_255_2_778
10
48.3951189
20
6.6727522
11
48.3951189
21
7.1582522
0
LINE
8
DEFAULT_255_2_778
10
48.3951189
20
7.1582522
11
47.1781189
21
7.1582522
0
LINE
8
DEFAULT_255_2_778
10
47.1781189
20
7.1582522
11
47.1781189
21
2.1364522
0
LINE
8
DEFAULT_255_2_778
10
47.1781189
20
2.1364522
11
48.4256189
21
2.1364522
0
LINE
8
DEFAULT_255_2_778
10
48.4256189
20
2.1364522
11
48.4256189
21
5.1527522
0
LINE
8
DEFAULT_255_2_778
10
49.8966189
20
5.7871522
11
50.8359189
21
6.7264522
0
LINE
8
DEFAULT_255_2_778
10
48.3896189
20
6.6777522
11
48.3951189
21
6.6727522
0
LINE
8
DEFAULT_255_2_778
10
51.2140189
20
7.6609522
11
51.2140189
21
2.1364522
0
LINE
8
DEFAULT_255_2_778
10
51.2140189
20
2.1364522
11
52.4615189
21
2.1364522
0
LINE
8
DEFAULT_255_2_778
10
52.4615189
20
2.1364522
11
52.4615189
21
6.0867522
0
LINE
8
DEFAULT_255_2_778
10
52.4615189
20
6.0867522
11
53.3876189
21
6.0867522
0
LINE
8
DEFAULT_255_2_778
10
53.3876189
20
6.0867522
11
53.3876189
21
7.0426522
0
LINE
8
DEFAULT_255_2_778
10
53.3876189
20
7.0426522
11
52.4615189
21
7.0426522
0
LINE
8
DEFAULT_255_2_778
10
52.4615189
20
7.0426522
11
52.4615189
21
7.5935522
0
LINE
8
DEFAULT_255_2_778
10
52.8989189
20
8.0469522
11
53.3849189
21
8.0469522
0
LINE
8
DEFAULT_255_2_778
10
53.3849189
20
8.0469522
11
53.3849189
21
9.1029522
0
LINE
8
DEFAULT_255_2_778
10
53.3849189
20
9.1029522
11
52.6721189
21
9.1029522
0
LINE
8
DEFAULT_255_2_778
10
51.2169189
20
7.6609522
11
51.2140189
21
7.6609522
0
LINE
8
DEFAULT_255_2_778
10
58.5366189
20
7.2074522
11
58.5366189
21
7.2074522
0
LINE
8
DEFAULT_255_2_778
10
59.1198189
20
3.4329522
11
59.1198189
21
3.4329522
0
LINE
8
DEFAULT_255_2_778
10
66.5532189
20
7.1450522
11
65.7436189
21
4.0507522
0
LINE
8
DEFAULT_255_2_778
10
65.7436189
20
4.0507522
11
64.7231189
21
7.1450522
0
LINE
8
DEFAULT_255_2_778
10
64.7231189
20
7.1450522
11
63.8156189
21
7.1450522
0
LINE
8
DEFAULT_255_2_778
10
63.8156189
20
7.1450522
11
62.7951189
21
4.0507522
0
LINE
8
DEFAULT_255_2_778
10
62.7951189
20
4.0507522
11
61.9855189
21
7.1450522
0
LINE
8
DEFAULT_255_2_778
10
61.9855189
20
7.1450522
11
60.6572189
21
7.1450522
0
LINE
8
DEFAULT_255_2_778
10
60.6572189
20
7.1450522
11
62.1963189
21
2.1391522
0
LINE
8
DEFAULT_255_2_778
10
62.1963189
20
2.1391522
11
63.2168189
21
2.1391522
0
LINE
8
DEFAULT_255_2_778
10
63.2168189
20
2.1391522
11
64.2699189
21
5.2818522
0
LINE
8
DEFAULT_255_2_778
10
64.2699189
20
5.2818522
11
65.3229189
21
2.1391522
0
LINE
8
DEFAULT_255_2_778
10
65.3229189
20
2.1391522
11
66.3434189
21
2.1391522
0
LINE
8
DEFAULT_255_2_778
10
66.3434189
20
2.1391522
11
67.8656189
21
7.1450522
0
LINE
8
DEFAULT_255_2_778
10
67.8656189
20
7.1450522
11
66.5532189
21
7.1450522
0
LINE
8
DEFAULT_255_2_778
10
66.5532189
20
7.1450522
11
66.5532189
21
7.1450522
0
LINE
8
DEFAULT_255_2_778
10
55.2291189
20
3.6456522
11
55.2291189
21
9.1029522
0
LINE
8
DEFAULT_255_2_778
10
55.2291189
20
9.1029522
11
53.9816189
21
9.1029522
0
LINE
8
DEFAULT_255_2_778
10
53.9816189
20
9.1029522
11
53.9816189
21
3.5784522
0
LINE
8
DEFAULT_255_2_778
10
55.4368189
20
2.1528522
11
56.1495189
21
2.1528522
0
LINE
8
DEFAULT_255_2_778
10
56.1495189
20
2.1528522
11
56.1495189
21
3.2059522
0
LINE
8
DEFAULT_255_2_778
10
56.1495189
20
3.2059522
11
55.6635189
21
3.2059522
0
LINE
8
DEFAULT_255_2_778
10
55.2262189
20
3.6432522
11
55.2291189
21
3.6456522
0
LINE
8
DEFAULT_255_2_778
10
18.8277189
20
6.1867522
11
19.4759189
21
6.8349522
0
LINE
8
DEFAULT_255_2_778
10
19.4759189
20
6.8349522
11
18.1504189
21
6.8349522
0
LINE
8
DEFAULT_255_2_778
10
18.1504189
20
6.8349522
11
18.1504189
21
8.4224522
0
LINE
8
DEFAULT_255_2_778
10
18.1504189
20
8.4224522
11
17.4537189
21
8.4224522
0
LINE
8
DEFAULT_255_2_778
10
17.4537189
20
8.4224522
11
17.4537189
21
3.4323522
0
LINE
8
DEFAULT_255_2_778
10
18.6848189
20
2.1364522
11
19.1870189
21
2.1364522
0
LINE
8
DEFAULT_255_2_778
10
19.1870189
20
2.1364522
11
19.1870189
21
2.7357522
0
LINE
8
DEFAULT_255_2_778
10
19.1870189
20
2.7357522
11
18.8118189
21
2.7357522
0
LINE
8
DEFAULT_255_2_778
10
18.1636189
20
3.4323522
11
18.1636189
21
6.1840522
0
LINE
8
DEFAULT_255_2_778
10
18.1636189
20
6.1840522
11
18.8250189
21
6.1840522
0
LINE
8
DEFAULT_255_2_778
10
18.8250189
20
6.1840522
11
18.8277189
21
6.1867522
0
LINE
8
DEFAULT_255_2_778
10
0.1323306
20
-0.2288913
11
0.1323306
21
4.5177087
0
LINE
8
DEFAULT_255_2_778
10
0.1323306
20
4.5177087
11
1.3150306
21
4.5177087
0
LINE
8
DEFAULT_255_2_778
10
1.3150306
20
4.5177087
11
1.3150306
21
0.9538087
0
LINE
8
DEFAULT_255_2_778
10
1.3150306
20
0.9538087
11
9.6097306
21
0.9538087
0
LINE
8
DEFAULT_255_2_778
10
9.6097306
20
0.9538087
11
9.6097306
21
4.5177087
0
LINE
8
DEFAULT_255_2_778
10
9.6097306
20
4.5177087
11
10.8082306
21
4.5177087
0
LINE
8
DEFAULT_255_2_778
10
10.8082306
20
4.5177087
11
10.8082306
21
-0.2288913
0
LINE
8
DEFAULT_255_2_778
10
10.8082306
20
-0.2288913
11
0.1323306
21
-0.2288913
0
LINE
8
DEFAULT_255_2_778
10
2.6272166
20
4.8418755
11
8.4428166
21
3.6269755
0
LINE
8
DEFAULT_255_2_778
10
8.4428166
20
3.6269755
11
8.6857166
21
4.7910755
0
LINE
8
DEFAULT_255_2_778
10
8.6857166
20
4.7910755
11
2.8701166
21
6.0060755
0
LINE
8
DEFAULT_255_2_778
10
2.8701166
20
6.0060755
11
2.6272166
21
4.8418755
0
LINE
8
DEFAULT_255_2_778
10
2.6272166
20
4.8418755
11
2.6272166
21
4.8418755
0
LINE
8
DEFAULT_255_2_778
10
3.3887166
20
7.6279755
11
8.7672166
21
5.1144755
0
LINE
8
DEFAULT_255_2_778
10
8.7672166
20
5.1144755
11
9.2693166
21
6.1833755
0
LINE
8
DEFAULT_255_2_778
10
9.2693166
20
6.1833755
11
3.8909166
21
8.7106755
0
LINE
8
DEFAULT_255_2_778
10
3.8909166
20
8.7106755
11
3.3887166
21
7.6253755
0
LINE
8
DEFAULT_255_2_778
10
3.3887166
20
7.6253755
11
3.3887166
21
7.6279755
0
LINE
8
DEFAULT_255_2_778
10
4.8791166
20
10.2684755
11
9.4474166
21
6.4783755
0
LINE
8
DEFAULT_255_2_778
10
9.4474166
20
6.4783755
11
10.2089166
21
7.3858755
0
LINE
8
DEFAULT_255_2_778
10
10.2089166
20
7.3858755
11
5.6403166
21
11.1762755
0
LINE
8
DEFAULT_255_2_778
10
5.6403166
20
11.1762755
11
4.8788166
21
10.2687755
0
LINE
8
DEFAULT_255_2_778
10
4.8788166
20
10.2687755
11
4.8791166
21
10.2684755
0
LINE
8
DEFAULT_255_2_778
10
7.8274166
20
13.0717755
11
6.8712166
21
12.3589755
0
LINE
8
DEFAULT_255_2_778
10
6.8712166
20
12.3589755
11
10.4166166
21
7.5964755
0
LINE
8
DEFAULT_255_2_778
10
10.4166166
20
7.5964755
11
11.3752166
21
8.3092755
0
LINE
8
DEFAULT_255_2_778
10
11.3752166
20
8.3092755
11
7.8274166
21
13.0717755
0
LINE
8
DEFAULT_255_2_778
10
7.8274166
20
13.0717755
11
7.8274166
21
13.0717755
0
LINE
8
DEFAULT_255_2_778
10
2.4976166
20
2.1523755
11
8.4243166
21
2.1523755
0
LINE
8
DEFAULT_255_2_778
10
8.4243166
20
2.1523755
11
8.4243166
21
3.3350755
0
LINE
8
DEFAULT_255_2_778
10
8.4243166
20
3.3350755
11
2.4976166
21
3.3350755
0
LINE
8
DEFAULT_255_2_778
10
2.4976166
20
3.3350755
11
2.4976166
21
2.1523755
0
LINE
8
DEFAULT_255_2_778
10
2.4976166
20
2.1523755
11
2.4976166
21
2.1523755
0
ENDSEC
0
EOF