0
SECTION
2
HEADER
9
$MEASUREMENT
70
1
0
ENDSEC
0
SECTION
2
TABLES
0
TABLE
2
LTYPE
0
LTYPE
72
65
70
64
2
CONTINUOUS
3
______
73
0
40
0
0
ENDTAB
0
TABLE
2
LAYER
0
LAYER
2
DEFAULT_255_2_778
70
0
62
255
6
CONTINUOUS
0
ENDTAB
0
ENDSEC
0
SECTION
2
ENTITIES
0
ARC
8
DEFAULT_255_2_778
10
6.2744058
20
8.6971048
40
2.0948201
50
89.9368852
51
114.2674944
0
ARC
8
DEFAULT_255_2_778
10
6.27933
20
8.6860867
40
2.1068884
50
114.2664238
51
168.6367639
0
ARC
8
DEFAULT_255_2_778
10
6.2879271
20
8.6896885
40
2.1146141
50
168.7783378
51
180.0315592
0
ARC
8
DEFAULT_255_2_778
10
6.2683712
20
8.6862072
40
2.0950591
50
179.936648
51
204.2660911
0
ARC
8
DEFAULT_255_2_778
10
6.2791524
20
8.6910143
40
2.1068633
50
204.2647742
51
258.6365704
0
ARC
8
DEFAULT_255_2_778
10
6.2755476
20
8.6996169
40
2.1145935
50
258.7782552
51
270.0315869
0
ARC
8
DEFAULT_255_2_778
10
10.9309224
20
5.9697326
40
0.6152918
50
0.0922938
51
89.9170371
0
ARC
8
DEFAULT_255_2_778
10
10.9308371
20
5.9717
40
0.615377
50
270.0908963
51
359.909099
0
ARC
8
DEFAULT_255_2_778
10
6.2773034
20
8.6908572
40
3.3345336
50
252.3581568
51
269.9898617
0
ARC
8
DEFAULT_255_2_778
10
6.2858258
20
8.6976756
40
3.3436196
50
196.4360767
51
252.2543949
0
ARC
8
DEFAULT_255_2_778
10
6.2818185
20
8.6896274
40
3.3375054
50
180.0155146
51
196.3230237
0
ARC
8
DEFAULT_255_2_778
10
6.2483226
20
8.691046
40
3.30401
50
161.5767834
51
180.0402716
0
ARC
8
DEFAULT_255_2_778
10
6.2965415
20
8.6680797
40
3.3570222
50
103.8366962
51
161.4649835
0
ARC
8
DEFAULT_255_2_778
10
6.2750468
20
8.7110181
40
3.3102061
50
89.971154
51
103.6531881
0
ARC
8
DEFAULT_255_2_778
10
12.2466768
20
13.6338338
40
1.1884939
50
30.0413689
51
90.147684
0
ARC
8
DEFAULT_255_2_778
10
4.9650681
20
13.6289626
40
1.1933613
50
90.0314372
51
149.8346293
0
ARC
8
DEFAULT_255_2_778
10
1.3310131
20
7.326681
40
1.1961283
50
150.3876094
51
180.141056
0
ARC
8
DEFAULT_255_2_778
10
1.3667678
20
7.3237492
40
1.2318795
50
180.000605
51
182.1648276
0
ARC
8
DEFAULT_255_2_778
10
1.3854839
20
7.3256046
40
1.2506529
50
182.217378
51
208.9503712
0
ARC
8
DEFAULT_255_2_778
10
10.9344209
20
5.9509426
40
2.0948201
50
269.9368852
51
294.2674944
0
ARC
8
DEFAULT_255_2_778
10
10.9294967
20
5.9619607
40
2.1068884
50
294.2664238
51
348.6367639
0
ARC
8
DEFAULT_255_2_778
10
10.9208996
20
5.958359
40
2.1146141
50
348.7783378
51
0.0315592
0
ARC
8
DEFAULT_255_2_778
10
10.9403341
20
5.9618483
40
2.0951805
50
359.9364319
51
24.2643519
0
ARC
8
DEFAULT_255_2_778
10
10.9297743
20
5.9571436
40
2.106741
50
24.2629778
51
78.6378938
0
ARC
8
DEFAULT_255_2_778
10
10.9332828
20
5.9481814
40
2.1148426
50
78.7789209
51
90.0316837
0
ARC
8
DEFAULT_255_2_778
10
6.2880255
20
8.6783359
40
0.6153129
50
180.0849393
51
269.9150607
0
ARC
8
DEFAULT_255_2_778
10
6.288004
20
8.6764329
40
0.6152914
50
90.0829327
51
179.9077364
0
ARC
8
DEFAULT_255_2_778
10
10.9415319
20
5.9569986
40
3.3347252
50
72.3586694
51
89.9900103
0
ARC
8
DEFAULT_255_2_778
10
10.9330347
20
5.9503315
40
3.3436594
50
16.4365966
51
72.2545343
0
ARC
8
DEFAULT_255_2_778
10
10.9367154
20
5.9582385
40
3.3378983
50
0.0186284
51
16.324295
0
ARC
8
DEFAULT_255_2_778
10
10.9395143
20
5.9600848
40
3.3350992
50
342.3574879
51
359.9869255
0
ARC
8
DEFAULT_255_2_778
10
10.933306
20
5.9683684
40
3.3435316
50
286.4345935
51
342.2544575
0
ARC
8
DEFAULT_255_2_778
10
10.9412206
20
5.9647926
40
3.337869
50
270.0153236
51
286.3216514
0
ARC
8
DEFAULT_255_2_778
10
4.9525473
20
1.015028
40
1.1895053
50
210.0585063
51
270.075434
0
ARC
8
DEFAULT_255_2_778
10
12.2330804
20
1.0186735
40
1.1931499
50
270.0255942
51
329.8404646
0
ARC
8
DEFAULT_255_2_778
10
15.866488
20
7.3213536
40
1.196579
50
330.4005795
51
0.1416174
0
ARC
8
DEFAULT_255_2_778
10
15.8306241
20
7.3243035
40
1.2324393
50
0.0003581
51
2.1635973
0
ARC
8
DEFAULT_255_2_778
10
15.8120112
20
7.3224624
40
1.2511088
50
2.215671
51
28.9378006
0
LINE
8
DEFAULT_255_2_778
10
15.2744134
20
10.7919237
11
6.2767134
21
10.7919237
0
LINE
8
DEFAULT_255_2_778
10
6.2767134
20
6.5850237
11
10.9318134
21
6.5850237
0
LINE
8
DEFAULT_255_2_778
10
10.9318134
20
5.3563237
11
6.2767134
21
5.3563237
0
LINE
8
DEFAULT_255_2_778
10
6.2767134
20
12.0212237
11
14.5561134
21
12.0212237
0
LINE
8
DEFAULT_255_2_778
10
14.5561134
20
12.0212237
11
13.2755134
21
14.2288237
0
LINE
8
DEFAULT_255_2_778
10
12.2436134
20
14.8223237
11
4.9644134
21
14.8223237
0
LINE
8
DEFAULT_255_2_778
10
3.9333134
20
14.2286237
11
0.2911134
21
7.9177237
0
LINE
8
DEFAULT_255_2_778
10
0.2911134
20
6.7202237
11
1.9447134
21
3.8561237
0
LINE
8
DEFAULT_255_2_778
10
1.9447134
20
3.8561237
11
10.9321134
21
3.8561237
0
LINE
8
DEFAULT_255_2_778
10
10.9321134
20
8.0630237
11
6.2871134
21
8.0630237
0
LINE
8
DEFAULT_255_2_778
10
6.2871134
20
9.2917237
11
10.9421134
21
9.2917237
0
LINE
8
DEFAULT_255_2_778
10
10.9421134
20
2.6269237
11
2.6525134
21
2.6269237
0
LINE
8
DEFAULT_255_2_778
10
2.6525134
20
2.6269237
11
3.9230134
21
0.4192237
0
LINE
8
DEFAULT_255_2_778
10
4.9541134
20
-0.1744763
11
12.2336134
21
-0.1744763
0
LINE
8
DEFAULT_255_2_778
10
13.2647134
20
0.4192237
11
16.9069134
21
6.7303237
0
LINE
8
DEFAULT_255_2_778
10
16.9069134
20
7.9278237
11
15.2744134
21
10.7919237
0
ENDSEC
0
EOF