0
SECTION
2
HEADER
9
$MEASUREMENT
70
1
0
ENDSEC
0
SECTION
2
TABLES
0
TABLE
2
LTYPE
0
LTYPE
72
65
70
64
2
CONTINUOUS
3
______
73
0
40
0
0
ENDTAB
0
TABLE
2
LAYER
0
LAYER
2
DEFAULT_255_2_778
70
0
62
255
6
CONTINUOUS
0
ENDTAB
0
ENDSEC
0
SECTION
2
ENTITIES
0
LINE
8
DEFAULT_255_2_778
10
20.9248219
20
142.7977397
11
43.2647219
21
142.7977397
0
LINE
8
DEFAULT_255_2_778
10
43.2647219
20
142.7977397
11
43.2647219
21
133.5378397
0
LINE
8
DEFAULT_255_2_778
10
43.2647219
20
133.5378397
11
20.9248219
21
133.5378397
0
LINE
8
DEFAULT_255_2_778
10
20.9248219
20
133.5378397
11
20.9248219
21
142.7977397
0
LINE
8
DEFAULT_255_2_778
10
74.3029219
20
-0.0698603
11
74.3029219
21
133.5378397
0
LINE
8
DEFAULT_255_2_778
10
76.6752219
20
133.5378397
11
76.6752219
21
-0.0698603
0
LINE
8
DEFAULT_255_2_778
10
4.7136219
20
-0.0698603
11
4.7136219
21
133.5378397
0
LINE
8
DEFAULT_255_2_778
10
7.0858219
20
133.5378397
11
7.0858219
21
-0.0698603
0
LINE
8
DEFAULT_255_2_778
10
0.1667219
20
133.5378397
11
80.2667219
21
133.5378397
0
LINE
8
DEFAULT_255_2_778
10
80.2667219
20
133.5378397
11
80.2667219
21
-0.2021603
0
LINE
8
DEFAULT_255_2_778
10
80.2667219
20
-0.2021603
11
0.1667219
21
-0.2021603
0
LINE
8
DEFAULT_255_2_778
10
0.1667219
20
-0.2021603
11
0.1667219
21
133.5378397
0
ARC
8
DEFAULT_255_2_778
10
14.7156961
20
113.8300774
40
1.1875245
50
146.0192692
51
180.1376225
0
ARC
8
DEFAULT_255_2_778
10
14.7154612
20
113.8306401
40
1.1870153
50
95.8330311
51
146.0354562
0
ARC
8
DEFAULT_255_2_778
10
14.7185447
20
113.8029043
40
1.2149207
50
89.9891367
51
95.8447628
0
ARC
8
DEFAULT_255_2_778
10
14.7216274
20
113.8303039
40
1.1875245
50
56.0192692
51
90.1376225
0
ARC
8
DEFAULT_255_2_778
10
14.7221902
20
113.8305388
40
1.1870153
50
5.8330311
51
56.0354562
0
ARC
8
DEFAULT_255_2_778
10
14.6944544
20
113.8274553
40
1.2149207
50
359.9891367
51
5.8447628
0
ARC
8
DEFAULT_255_2_778
10
14.721854
20
113.8243726
40
1.1875245
50
326.0192692
51
0.1376225
0
ARC
8
DEFAULT_255_2_778
10
14.7220889
20
113.8238098
40
1.1870153
50
275.8330311
51
326.0354562
0
ARC
8
DEFAULT_255_2_778
10
14.7190054
20
113.8515456
40
1.2149207
50
269.9891367
51
275.8447628
0
ARC
8
DEFAULT_255_2_778
10
14.7159226
20
113.824146
40
1.1875245
50
236.0192692
51
270.1376225
0
ARC
8
DEFAULT_255_2_778
10
14.7153599
20
113.8239111
40
1.1870153
50
185.8330311
51
236.0354562
0
ARC
8
DEFAULT_255_2_778
10
14.7430957
20
113.8269946
40
1.2149207
50
179.9891367
51
185.8447628
0
LINE
8
DEFAULT_255_2_778
10
13.528175
20
113.827225
11
13.528175
21
113.827225
0
ARC
8
DEFAULT_255_2_778
10
14.7156961
20
118.5922774
40
1.1875245
50
146.0192692
51
180.1376225
0
ARC
8
DEFAULT_255_2_778
10
14.7154612
20
118.5928401
40
1.1870153
50
95.8330311
51
146.0354562
0
ARC
8
DEFAULT_255_2_778
10
14.7185447
20
118.5651043
40
1.2149207
50
89.9891367
51
95.8447628
0
ARC
8
DEFAULT_255_2_778
10
14.7216274
20
118.5925039
40
1.1875245
50
56.0192692
51
90.1376225
0
ARC
8
DEFAULT_255_2_778
10
14.7221902
20
118.5927388
40
1.1870153
50
5.8330311
51
56.0354562
0
ARC
8
DEFAULT_255_2_778
10
14.6944544
20
118.5896553
40
1.2149207
50
359.9891367
51
5.8447628
0
ARC
8
DEFAULT_255_2_778
10
14.721854
20
118.5865726
40
1.1875245
50
326.0192692
51
0.1376225
0
ARC
8
DEFAULT_255_2_778
10
14.7220889
20
118.5860098
40
1.1870153
50
275.8330311
51
326.0354562
0
ARC
8
DEFAULT_255_2_778
10
14.7190054
20
118.6137456
40
1.2149207
50
269.9891367
51
275.8447628
0
ARC
8
DEFAULT_255_2_778
10
14.7159226
20
118.586346
40
1.1875245
50
236.0192692
51
270.1376225
0
ARC
8
DEFAULT_255_2_778
10
14.7153599
20
118.5861111
40
1.1870153
50
185.8330311
51
236.0354562
0
ARC
8
DEFAULT_255_2_778
10
14.7430957
20
118.5891946
40
1.2149207
50
179.9891367
51
185.8447628
0
LINE
8
DEFAULT_255_2_778
10
13.528175
20
118.589425
11
13.528175
21
118.589425
0
ARC
8
DEFAULT_255_2_778
10
9.6502228
20
127.5693859
40
0.8847063
50
140.6463007
51
178.9899987
0
ARC
8
DEFAULT_255_2_778
10
10.1049543
20
127.227982
40
1.453016
50
125.5822804
51
141.6068592
0
ARC
8
DEFAULT_255_2_778
10
10.5234217
20
126.6544125
40
2.1629932
50
113.849954
51
125.7567855
0
ARC
8
DEFAULT_255_2_778
10
10.8426076
20
125.9444953
40
2.9413533
50
103.7955514
51
113.9450105
0
ARC
8
DEFAULT_255_2_778
10
11.0090923
20
125.2825128
40
3.6239411
50
94.1502152
51
103.8560579
0
ARC
8
DEFAULT_255_2_778
10
11.0411981
20
124.9381853
40
3.9696955
50
89.9862037
51
94.2527223
0
ARC
8
DEFAULT_255_2_778
10
70.2370785
20
125.0586129
40
3.8492721
50
80.341772
51
90.0866964
0
ARC
8
DEFAULT_255_2_778
10
70.3385578
20
125.6369637
40
3.2620948
50
70.6171305
51
80.3946512
0
ARC
8
DEFAULT_255_2_778
10
70.5922949
20
126.3480998
40
2.5070566
50
59.78724
51
70.6935664
0
ARC
8
DEFAULT_255_2_778
10
70.9738419
20
126.9961424
40
1.7550468
50
46.3671241
51
59.9052782
0
ARC
8
DEFAULT_255_2_778
10
71.4080578
20
127.4423864
40
1.1324597
50
25.4275292
51
46.68845
0
ARC
8
DEFAULT_255_2_778
10
71.6883836
20
127.5819706
40
0.8193761
50
0.2104756
51
25.0289958
0
ARC
8
DEFAULT_255_2_778
10
71.6231155
20
7.2212829
40
0.884776
50
320.6479033
51
358.9895808
0
ARC
8
DEFAULT_255_2_778
10
71.1683271
20
7.5627034
40
1.453141
50
305.5848905
51
321.6086746
0
ARC
8
DEFAULT_255_2_778
10
70.7498659
20
8.1362122
40
2.1630656
50
293.852593
51
305.7593335
0
ARC
8
DEFAULT_255_2_778
10
70.4307344
20
8.8459302
40
2.9412216
50
283.7975061
51
293.9475571
0
ARC
8
DEFAULT_255_2_778
10
70.2643013
20
9.5076207
40
3.6235137
50
274.1509343
51
283.8579601
0
ARC
8
DEFAULT_255_2_778
10
70.23221
20
9.8517919
40
3.9691114
50
269.9861992
51
274.2533468
0
ARC
8
DEFAULT_255_2_778
10
11.03633
20
9.7313562
40
3.84868
50
260.3402646
51
270.0867022
0
ARC
8
DEFAULT_255_2_778
10
10.9348878
20
9.1533269
40
3.2618259
50
250.6147687
51
260.393182
0
ARC
8
DEFAULT_255_2_778
10
10.681212
20
8.4424515
40
2.5070539
50
239.7845904
51
250.6911493
0
ARC
8
DEFAULT_255_2_778
10
10.2996922
20
7.7945219
40
1.7551553
50
226.3648203
51
239.9025744
0
ARC
8
DEFAULT_255_2_778
10
9.86546
20
7.3482993
40
1.1325724
50
205.4265896
51
226.6861966
0
ARC
8
DEFAULT_255_2_778
10
9.5850713
20
7.2086939
40
0.819423
50
180.2107002
51
205.0282704
0
LINE
8
DEFAULT_255_2_778
10
11.042154
20
128.9078806
11
70.231254
21
128.9078806
0
LINE
8
DEFAULT_255_2_778
10
72.507754
20
127.5849806
11
72.507754
21
7.2056806
0
LINE
8
DEFAULT_255_2_778
10
70.231254
20
5.8826806
11
11.042154
21
5.8826806
0
LINE
8
DEFAULT_255_2_778
10
8.765654
20
7.2056806
11
8.765654
21
127.5849806
0
LINE
8
DEFAULT_255_2_778
10
13.7927668
20
110.4397965
11
25.4344668
21
110.4397965
0
LINE
8
DEFAULT_255_2_778
10
25.4344668
20
110.4397965
11
25.4344668
21
83.7181965
0
LINE
8
DEFAULT_255_2_778
10
25.4344668
20
83.7181965
11
13.7927668
21
83.7181965
0
LINE
8
DEFAULT_255_2_778
10
13.7927668
20
83.7181965
11
13.7927668
21
110.4397965
0
ARC
8
DEFAULT_255_2_778
10
19.3468038
20
103.2985121
40
0.7915853
50
129.1369327
51
180.1437658
0
ARC
8
DEFAULT_255_2_778
10
19.3469235
20
103.2992042
40
0.7911243
50
89.8553383
51
129.1752939
0
ARC
8
DEFAULT_255_2_778
10
19.350933
20
103.2988407
40
0.7914878
50
39.4724188
51
90.1456489
0
ARC
8
DEFAULT_255_2_778
10
19.3514087
20
103.2985353
40
0.7913148
50
359.8545077
51
39.5113881
0
ARC
8
DEFAULT_255_2_778
10
19.351342
20
103.2945176
40
0.7913815
50
309.1282118
51
0.1454017
0
ARC
8
DEFAULT_255_2_778
10
19.3509595
20
103.2942003
40
0.7913769
50
269.8524075
51
309.1641908
0
ARC
8
DEFAULT_255_2_778
10
19.3469168
20
103.2942449
40
0.7914215
50
219.1312896
51
270.1450914
0
ARC
8
DEFAULT_255_2_778
10
19.3464297
20
103.2945101
40
0.7912112
50
179.854026
51
219.1684493
0
ARC
8
DEFAULT_255_2_778
10
19.3476965
20
103.2997488
40
1.5862788
50
152.631006
51
180.1164114
0
ARC
8
DEFAULT_255_2_778
10
19.3449764
20
103.3002004
40
1.5836558
50
98.8307121
51
152.6002735
0
ARC
8
DEFAULT_255_2_778
10
19.3482862
20
103.2716136
40
1.6124124
50
89.9774447
51
98.7909868
0
ARC
8
DEFAULT_255_2_778
10
19.3521439
20
103.2977504
40
1.5862788
50
62.631006
51
90.1164114
0
ARC
8
DEFAULT_255_2_778
10
19.3525955
20
103.3004704
40
1.5836558
50
8.8307121
51
62.6002735
0
ARC
8
DEFAULT_255_2_778
10
19.3240087
20
103.2971606
40
1.6124124
50
359.9774447
51
8.7909868
0
ARC
8
DEFAULT_255_2_778
10
19.3501454
20
103.293303
40
1.5862788
50
332.631006
51
0.1164114
0
ARC
8
DEFAULT_255_2_778
10
19.3528655
20
103.2928514
40
1.5836558
50
278.8307121
51
332.6002735
0
ARC
8
DEFAULT_255_2_778
10
19.3495557
20
103.3214381
40
1.6124124
50
269.9774447
51
278.7909868
0
ARC
8
DEFAULT_255_2_778
10
19.345698
20
103.2953014
40
1.5862788
50
242.631006
51
270.1164114
0
ARC
8
DEFAULT_255_2_778
10
19.3452464
20
103.2925813
40
1.5836558
50
188.8307121
51
242.6002735
0
ARC
8
DEFAULT_255_2_778
10
19.3738332
20
103.2958911
40
1.6124124
50
179.9774447
51
188.7909868
0
ARC
8
DEFAULT_255_2_778
10
19.3520095
20
103.3000203
40
2.1197914
50
157.360155
51
180.0944512
0
ARC
8
DEFAULT_255_2_778
10
19.3441674
20
103.3008713
40
2.1122273
50
100.3190248
51
157.2995746
0
ARC
8
DEFAULT_255_2_778
10
19.3478251
20
103.2681851
40
2.1450411
50
89.9707284
51
100.2587507
0
ARC
8
DEFAULT_255_2_778
10
19.3524154
20
103.2934374
40
2.1197914
50
67.360155
51
90.0944512
0
ARC
8
DEFAULT_255_2_778
10
19.3532664
20
103.3012794
40
2.1122273
50
10.3190248
51
67.2995746
0
ARC
8
DEFAULT_255_2_778
10
19.3205802
20
103.2976218
40
2.1450411
50
359.9707284
51
10.2587507
0
ARC
8
DEFAULT_255_2_778
10
19.3458324
20
103.2930315
40
2.1197914
50
337.360155
51
0.0944512
0
ARC
8
DEFAULT_255_2_778
10
19.3536745
20
103.2921805
40
2.1122273
50
280.3190248
51
337.2995746
0
ARC
8
DEFAULT_255_2_778
10
19.3500168
20
103.3248667
40
2.1450411
50
269.9707284
51
280.2587507
0
ARC
8
DEFAULT_255_2_778
10
19.3454265
20
103.2996144
40
2.1197914
50
247.360155
51
270.0944512
0
ARC
8
DEFAULT_255_2_778
10
19.3445756
20
103.2917724
40
2.1122273
50
190.3190248
51
247.2995746
0
ARC
8
DEFAULT_255_2_778
10
19.3772617
20
103.29543
40
2.1450411
50
179.9707284
51
190.2587507
0
LINE
8
DEFAULT_255_2_778
10
17.232221
20
99.9892259
11
16.438521
21
99.9892259
0
LINE
8
DEFAULT_255_2_778
10
16.438521
20
99.9892259
11
16.438521
21
97.8725259
0
LINE
8
DEFAULT_255_2_778
10
16.438521
20
97.8725259
11
22.259321
21
97.8725259
0
LINE
8
DEFAULT_255_2_778
10
22.259321
20
97.8725259
11
22.259321
21
99.9892259
0
LINE
8
DEFAULT_255_2_778
10
22.259321
20
99.9892259
11
21.465621
21
99.9892259
0
LINE
8
DEFAULT_255_2_778
10
16.173921
20
98.5340259
11
14.851021
21
98.5340259
0
LINE
8
DEFAULT_255_2_778
10
14.851021
20
98.5340259
11
14.851021
21
102.5025259
0
LINE
8
DEFAULT_255_2_778
10
14.851021
20
102.5025259
11
15.777021
21
102.5025259
0
LINE
8
DEFAULT_255_2_778
10
15.777021
20
102.5025259
11
15.777021
21
99.1955259
0
LINE
8
DEFAULT_255_2_778
10
15.777021
20
99.1955259
11
16.173921
21
99.1955259
0
LINE
8
DEFAULT_255_2_778
10
16.173921
20
99.1955259
11
16.173921
21
98.5340259
0
LINE
8
DEFAULT_255_2_778
10
22.259321
20
108.0585259
11
23.450021
21
108.0585259
0
LINE
8
DEFAULT_255_2_778
10
23.450021
20
108.0585259
11
23.450021
21
98.6663259
0
LINE
8
DEFAULT_255_2_778
10
23.450021
20
98.6663259
11
22.259321
21
98.6663259
0
LINE
8
DEFAULT_255_2_778
10
22.259321
20
98.6663259
11
22.259321
21
99.1955259
0
LINE
8
DEFAULT_255_2_778
10
22.259321
20
99.1955259
11
22.920821
21
99.1955259
0
LINE
8
DEFAULT_255_2_778
10
22.920821
20
99.1955259
11
22.920821
21
107.3973259
0
LINE
8
DEFAULT_255_2_778
10
22.920821
20
107.3973259
11
22.259321
21
107.3973259
0
LINE
8
DEFAULT_255_2_778
10
16.306221
20
107.9265259
11
14.983321
21
107.9265259
0
LINE
8
DEFAULT_255_2_778
10
14.983321
20
107.9265259
11
14.983321
21
103.9580259
0
LINE
8
DEFAULT_255_2_778
10
14.983321
20
103.9580259
11
15.909321
21
103.9580259
0
LINE
8
DEFAULT_255_2_778
10
15.909321
20
103.9580259
11
15.909321
21
107.2650259
0
LINE
8
DEFAULT_255_2_778
10
15.909321
20
107.2650259
11
16.306221
21
107.2650259
0
LINE
8
DEFAULT_255_2_778
10
16.306221
20
107.2650259
11
16.306221
21
107.9265259
0
LINE
8
DEFAULT_255_2_778
10
21.465621
20
106.8681259
11
22.127021
21
106.8681259
0
LINE
8
DEFAULT_255_2_778
10
22.127021
20
106.8681259
11
22.127021
21
108.7202259
0
LINE
8
DEFAULT_255_2_778
10
22.127021
20
108.7202259
11
16.306221
21
108.7202259
0
LINE
8
DEFAULT_255_2_778
10
16.306221
20
108.7202259
11
16.306221
21
106.8681259
0
LINE
8
DEFAULT_255_2_778
10
16.306221
20
106.8681259
11
17.232221
21
106.8681259
0
LINE
8
DEFAULT_255_2_778
10
19.348921
20
102.5028259
11
19.348921
21
103.9580259
0
LINE
8
DEFAULT_255_2_778
10
18.687521
20
103.2965259
11
20.142721
21
103.2965259
0
LINE
8
DEFAULT_255_2_778
10
18.555221
20
103.2965259
11
18.555221
21
103.2965259
0
LINE
8
DEFAULT_255_2_778
10
17.761421
20
103.2965259
11
17.761421
21
103.2965259
0
LINE
8
DEFAULT_255_2_778
10
17.232221
20
103.2965259
11
17.232221
21
103.2965259
0
LINE
8
DEFAULT_255_2_778
10
17.232221
20
100.6509259
11
21.201021
21
100.6509259
0
LINE
8
DEFAULT_255_2_778
10
21.201021
20
100.6509259
11
21.201021
21
99.0634259
0
LINE
8
DEFAULT_255_2_778
10
21.201021
20
99.0634259
11
17.232221
21
99.0634259
0
LINE
8
DEFAULT_255_2_778
10
17.232221
20
99.0634259
11
17.232221
21
100.6509259
0
LINE
8
DEFAULT_255_2_778
10
17.232221
20
107.5298259
11
21.201021
21
107.5298259
0
LINE
8
DEFAULT_255_2_778
10
21.201021
20
107.5298259
11
21.201021
21
105.9423259
0
LINE
8
DEFAULT_255_2_778
10
21.201021
20
105.9423259
11
17.232221
21
105.9423259
0
LINE
8
DEFAULT_255_2_778
10
17.232221
20
105.9423259
11
17.232221
21
107.5298259
0
ARC
8
DEFAULT_255_2_778
10
19.3468038
20
90.7316121
40
0.7915853
50
129.1369327
51
180.1437658
0
ARC
8
DEFAULT_255_2_778
10
19.3469235
20
90.7323042
40
0.7911243
50
89.8553383
51
129.1752939
0
ARC
8
DEFAULT_255_2_778
10
19.350933
20
90.7319407
40
0.7914878
50
39.4724188
51
90.1456489
0
ARC
8
DEFAULT_255_2_778
10
19.3514087
20
90.7316353
40
0.7913148
50
359.8545077
51
39.5113881
0
ARC
8
DEFAULT_255_2_778
10
19.351342
20
90.7276176
40
0.7913815
50
309.1282118
51
0.1454017
0
ARC
8
DEFAULT_255_2_778
10
19.3509595
20
90.7273003
40
0.7913769
50
269.8524075
51
309.1641908
0
ARC
8
DEFAULT_255_2_778
10
19.3469168
20
90.7273449
40
0.7914215
50
219.1312896
51
270.1450914
0
ARC
8
DEFAULT_255_2_778
10
19.3464297
20
90.7276101
40
0.7912112
50
179.854026
51
219.1684493
0
ARC
8
DEFAULT_255_2_778
10
19.3476965
20
90.7328488
40
1.5862788
50
152.631006
51
180.1164114
0
ARC
8
DEFAULT_255_2_778
10
19.3449764
20
90.7333004
40
1.5836558
50
98.8307121
51
152.6002735
0
ARC
8
DEFAULT_255_2_778
10
19.3482862
20
90.7047136
40
1.6124124
50
89.9774447
51
98.7909868
0
ARC
8
DEFAULT_255_2_778
10
19.3521439
20
90.7308504
40
1.5862788
50
62.631006
51
90.1164114
0
ARC
8
DEFAULT_255_2_778
10
19.3525955
20
90.7335704
40
1.5836558
50
8.8307121
51
62.6002735
0
ARC
8
DEFAULT_255_2_778
10
19.3240087
20
90.7302606
40
1.6124124
50
359.9774447
51
8.7909868
0
ARC
8
DEFAULT_255_2_778
10
19.3501454
20
90.726403
40
1.5862788
50
332.631006
51
0.1164114
0
ARC
8
DEFAULT_255_2_778
10
19.3528655
20
90.7259514
40
1.5836558
50
278.8307121
51
332.6002735
0
ARC
8
DEFAULT_255_2_778
10
19.3495557
20
90.7545381
40
1.6124124
50
269.9774447
51
278.7909868
0
ARC
8
DEFAULT_255_2_778
10
19.345698
20
90.7284014
40
1.5862788
50
242.631006
51
270.1164114
0
ARC
8
DEFAULT_255_2_778
10
19.3452464
20
90.7256813
40
1.5836558
50
188.8307121
51
242.6002735
0
ARC
8
DEFAULT_255_2_778
10
19.3738332
20
90.7289911
40
1.6124124
50
179.9774447
51
188.7909868
0
ARC
8
DEFAULT_255_2_778
10
19.3520095
20
90.7331203
40
2.1197914
50
157.360155
51
180.0944512
0
ARC
8
DEFAULT_255_2_778
10
19.3441674
20
90.7339713
40
2.1122273
50
100.3190248
51
157.2995746
0
ARC
8
DEFAULT_255_2_778
10
19.3478251
20
90.7012851
40
2.1450411
50
89.9707284
51
100.2587507
0
ARC
8
DEFAULT_255_2_778
10
19.3524154
20
90.7265374
40
2.1197914
50
67.360155
51
90.0944512
0
ARC
8
DEFAULT_255_2_778
10
19.3532664
20
90.7343794
40
2.1122273
50
10.3190248
51
67.2995746
0
ARC
8
DEFAULT_255_2_778
10
19.3205802
20
90.7307218
40
2.1450411
50
359.9707284
51
10.2587507
0
ARC
8
DEFAULT_255_2_778
10
19.3458324
20
90.7261315
40
2.1197914
50
337.360155
51
0.0944512
0
ARC
8
DEFAULT_255_2_778
10
19.3536745
20
90.7252805
40
2.1122273
50
280.3190248
51
337.2995746
0
ARC
8
DEFAULT_255_2_778
10
19.3500168
20
90.7579667
40
2.1450411
50
269.9707284
51
280.2587507
0
ARC
8
DEFAULT_255_2_778
10
19.3454265
20
90.7327144
40
2.1197914
50
247.360155
51
270.0944512
0
ARC
8
DEFAULT_255_2_778
10
19.3445756
20
90.7248724
40
2.1122273
50
190.3190248
51
247.2995746
0
ARC
8
DEFAULT_255_2_778
10
19.3772617
20
90.72853
40
2.1450411
50
179.9707284
51
190.2587507
0
LINE
8
DEFAULT_255_2_778
10
17.232221
20
87.4223259
11
16.438521
21
87.4223259
0
LINE
8
DEFAULT_255_2_778
10
16.438521
20
87.4223259
11
16.438521
21
85.3056259
0
LINE
8
DEFAULT_255_2_778
10
16.438521
20
85.3056259
11
22.259321
21
85.3056259
0
LINE
8
DEFAULT_255_2_778
10
22.259321
20
85.3056259
11
22.259321
21
87.4223259
0
LINE
8
DEFAULT_255_2_778
10
22.259321
20
87.4223259
11
21.465621
21
87.4223259
0
LINE
8
DEFAULT_255_2_778
10
16.173921
20
85.9671259
11
14.851021
21
85.9671259
0
LINE
8
DEFAULT_255_2_778
10
14.851021
20
85.9671259
11
14.851021
21
89.9356259
0
LINE
8
DEFAULT_255_2_778
10
14.851021
20
89.9356259
11
15.777021
21
89.9356259
0
LINE
8
DEFAULT_255_2_778
10
15.777021
20
89.9356259
11
15.777021
21
86.6286259
0
LINE
8
DEFAULT_255_2_778
10
15.777021
20
86.6286259
11
16.173921
21
86.6286259
0
LINE
8
DEFAULT_255_2_778
10
16.173921
20
86.6286259
11
16.173921
21
85.9671259
0
LINE
8
DEFAULT_255_2_778
10
22.259321
20
95.4916259
11
23.450021
21
95.4916259
0
LINE
8
DEFAULT_255_2_778
10
23.450021
20
95.4916259
11
23.450021
21
86.0994259
0
LINE
8
DEFAULT_255_2_778
10
23.450021
20
86.0994259
11
22.259321
21
86.0994259
0
LINE
8
DEFAULT_255_2_778
10
22.259321
20
86.0994259
11
22.259321
21
86.6286259
0
LINE
8
DEFAULT_255_2_778
10
22.259321
20
86.6286259
11
22.920821
21
86.6286259
0
LINE
8
DEFAULT_255_2_778
10
22.920821
20
86.6286259
11
22.920821
21
94.8304259
0
LINE
8
DEFAULT_255_2_778
10
22.920821
20
94.8304259
11
22.259321
21
94.8304259
0
LINE
8
DEFAULT_255_2_778
10
16.306221
20
95.3596259
11
14.983321
21
95.3596259
0
LINE
8
DEFAULT_255_2_778
10
14.983321
20
95.3596259
11
14.983321
21
91.3911259
0
LINE
8
DEFAULT_255_2_778
10
14.983321
20
91.3911259
11
15.909321
21
91.3911259
0
LINE
8
DEFAULT_255_2_778
10
15.909321
20
91.3911259
11
15.909321
21
94.6981259
0
LINE
8
DEFAULT_255_2_778
10
15.909321
20
94.6981259
11
16.306221
21
94.6981259
0
LINE
8
DEFAULT_255_2_778
10
16.306221
20
94.6981259
11
16.306221
21
95.3596259
0
LINE
8
DEFAULT_255_2_778
10
21.465621
20
94.3012259
11
22.127021
21
94.3012259
0
LINE
8
DEFAULT_255_2_778
10
22.127021
20
94.3012259
11
22.127021
21
96.1533259
0
LINE
8
DEFAULT_255_2_778
10
22.127021
20
96.1533259
11
16.306221
21
96.1533259
0
LINE
8
DEFAULT_255_2_778
10
16.306221
20
96.1533259
11
16.306221
21
94.3012259
0
LINE
8
DEFAULT_255_2_778
10
16.306221
20
94.3012259
11
17.232221
21
94.3012259
0
LINE
8
DEFAULT_255_2_778
10
19.348921
20
89.9359259
11
19.348921
21
91.3911259
0
LINE
8
DEFAULT_255_2_778
10
18.687521
20
90.7296259
11
20.142721
21
90.7296259
0
LINE
8
DEFAULT_255_2_778
10
18.555221
20
90.7296259
11
18.555221
21
90.7296259
0
LINE
8
DEFAULT_255_2_778
10
17.761421
20
90.7296259
11
17.761421
21
90.7296259
0
LINE
8
DEFAULT_255_2_778
10
17.232221
20
90.7296259
11
17.232221
21
90.7296259
0
LINE
8
DEFAULT_255_2_778
10
17.232221
20
88.0840259
11
21.201021
21
88.0840259
0
LINE
8
DEFAULT_255_2_778
10
21.201021
20
88.0840259
11
21.201021
21
86.4965259
0
LINE
8
DEFAULT_255_2_778
10
21.201021
20
86.4965259
11
17.232221
21
86.4965259
0
LINE
8
DEFAULT_255_2_778
10
17.232221
20
86.4965259
11
17.232221
21
88.0840259
0
LINE
8
DEFAULT_255_2_778
10
17.232221
20
94.9629259
11
21.201021
21
94.9629259
0
LINE
8
DEFAULT_255_2_778
10
21.201021
20
94.9629259
11
21.201021
21
93.3754259
0
LINE
8
DEFAULT_255_2_778
10
21.201021
20
93.3754259
11
17.232221
21
93.3754259
0
LINE
8
DEFAULT_255_2_778
10
17.232221
20
93.3754259
11
17.232221
21
94.9629259
0
ENDSEC
0
EOF