0
SECTION
2
HEADER
9
$MEASUREMENT
70
1
0
ENDSEC
0
SECTION
2
TABLES
0
TABLE
2
LTYPE
0
LTYPE
72
65
70
64
2
CONTINUOUS
3
______
73
0
40
0
0
ENDTAB
0
TABLE
2
LAYER
0
LAYER
2
DEFAULT_255_2_778
70
0
62
255
6
CONTINUOUS
0
ENDTAB
0
ENDSEC
0
SECTION
2
ENTITIES
0
ARC
8
DEFAULT_255_2_778
10
0.6894039
20
93.4823826
40
0.5280127
50
89.8710178
51
180.1289822
0
ARC
8
DEFAULT_255_2_778
10
85.8353812
20
93.4823826
40
0.5280127
50
359.8710178
51
90.1289822
0
ARC
8
DEFAULT_255_2_778
10
85.8353812
20
0.3794054
40
0.5280127
50
269.8710178
51
0.1289822
0
ARC
8
DEFAULT_255_2_778
10
0.6894039
20
0.3794054
40
0.5280127
50
179.8710178
51
270.1289822
0
LINE
8
DEFAULT_255_2_778
10
0.6905926
20
94.010394
11
85.8341926
21
94.010394
0
LINE
8
DEFAULT_255_2_778
10
86.3633926
20
93.481194
11
86.3633926
21
0.380594
0
LINE
8
DEFAULT_255_2_778
10
85.8341926
20
-0.148606
11
0.6905926
21
-0.148606
0
LINE
8
DEFAULT_255_2_778
10
0.1613926
20
0.380594
11
0.1613926
21
93.481194
0
LINE
8
DEFAULT_255_2_778
10
20.9687386
20
94.0104279
11
20.9687386
21
-0.1484721
0
LINE
8
DEFAULT_255_2_778
10
15.0238386
20
78.1521279
11
17.9964386
21
78.1521279
0
LINE
8
DEFAULT_255_2_778
10
17.9964386
20
78.1521279
11
17.9964386
21
67.2494279
0
LINE
8
DEFAULT_255_2_778
10
17.9964386
20
67.2494279
11
15.0238386
21
67.2494279
0
LINE
8
DEFAULT_255_2_778
10
15.0238386
20
67.2494279
11
15.0238386
21
78.1521279
0
LINE
8
DEFAULT_255_2_778
10
15.0238386
20
22.6480279
11
17.9964386
21
22.6480279
0
LINE
8
DEFAULT_255_2_778
10
17.9964386
20
22.6480279
11
17.9964386
21
12.7365279
0
LINE
8
DEFAULT_255_2_778
10
17.9964386
20
12.7365279
11
15.0238386
21
12.7365279
0
LINE
8
DEFAULT_255_2_778
10
15.0238386
20
12.7365279
11
15.0238386
21
22.6480279
0
ARC
8
DEFAULT_255_2_778
10
86.8911071
20
79.6062848
40
0.5280127
50
89.8710178
51
180.1289822
0
ARC
8
DEFAULT_255_2_778
10
89.7980844
20
79.6062848
40
0.5280127
50
359.8710178
51
90.1289822
0
ARC
8
DEFAULT_255_2_778
10
89.7980844
20
11.2823075
40
0.5280127
50
269.8710178
51
0.1289822
0
ARC
8
DEFAULT_255_2_778
10
86.8911071
20
11.2823075
40
0.5280127
50
179.8710178
51
270.1289822
0
LINE
8
DEFAULT_255_2_778
10
86.8922958
20
80.1342961
11
89.7968958
21
80.1342961
0
LINE
8
DEFAULT_255_2_778
10
90.3260958
20
79.6050961
11
90.3260958
21
11.2834961
0
LINE
8
DEFAULT_255_2_778
10
89.7968958
20
10.7542961
11
86.8922958
21
10.7542961
0
LINE
8
DEFAULT_255_2_778
10
86.3630958
20
11.2834961
11
86.3630958
21
79.6050961
0
ENDSEC
0
EOF