0
SECTION
2
HEADER
9
$MEASUREMENT
70
1
0
ENDSEC
0
SECTION
2
TABLES
0
TABLE
2
LTYPE
0
LTYPE
72
65
70
64
2
CONTINUOUS
3
______
73
0
40
0
0
ENDTAB
0
TABLE
2
LAYER
0
LAYER
2
DEFAULT_255_2_778
70
0
62
255
6
CONTINUOUS
0
LAYER
2
DEFAULT_255_1_234
70
0
62
255
6
CONTINUOUS
0
ENDTAB
0
ENDSEC
0
SECTION
2
ENTITIES
0
ARC
8
DEFAULT_255_2_778
10
3.5700693
20
20.2426538
40
0.7914215
50
129.1312896
51
180.1450914
0
ARC
8
DEFAULT_255_2_778
10
3.5703345
20
20.2431409
40
0.7912112
50
89.854026
51
129.1684493
0
ARC
8
DEFAULT_255_2_778
10
25.7993937
20
20.2428275
40
0.7915249
50
39.4792447
51
90.147911
0
ARC
8
DEFAULT_255_2_778
10
25.7999935
20
20.2426741
40
0.7911595
50
359.8533901
51
39.5154338
0
ARC
8
DEFAULT_255_2_778
10
25.7996693
20
-1.9863985
40
0.7914836
50
309.4761667
51
0.1482649
0
ARC
8
DEFAULT_255_2_778
10
25.799398
20
-1.9868295
40
0.7913235
50
269.8517415
51
309.511178
0
ARC
8
DEFAULT_255_2_778
10
3.570342
20
-1.9867714
40
0.7913815
50
219.1282118
51
270.1454017
0
ARC
8
DEFAULT_255_2_778
10
3.5700247
20
-1.9863889
40
0.7913769
50
179.8524075
51
219.1641908
0
LINE
8
DEFAULT_255_2_778
10
3.5723503
20
21.0343497
11
25.7973503
21
21.0343497
0
LINE
8
DEFAULT_255_2_778
10
26.5911503
20
20.2406497
11
26.5911503
21
-1.9843503
0
LINE
8
DEFAULT_255_2_778
10
25.7973503
20
-2.7781503
11
3.5723503
21
-2.7781503
0
LINE
8
DEFAULT_255_2_778
10
2.7786503
20
-1.9843503
11
2.7786503
21
20.2406497
0
LINE
8
DEFAULT_255_1_234
10
10.6728119
20
-0.5300208
11
10.6728119
21
-0.6513
0
LINE
8
DEFAULT_255_1_234
10
10.6728119
20
-0.6513
11
9.906584
21
-0.6513
0
LINE
8
DEFAULT_255_1_234
10
9.906584
20
-0.6513
11
9.906584
21
-0.5444779
0
LINE
8
DEFAULT_255_1_234
10
9.906584
20
-0.5444779
11
10.3113836
21
-0.0947005
0
LINE
8
DEFAULT_255_1_234
10
10.0326823
20
0.1735595
11
9.8840952
21
0.1735595
0
LINE
8
DEFAULT_255_1_234
10
10.3989296
20
-0.1902782
11
10.0856918
21
-0.5300208
0
LINE
8
DEFAULT_255_1_234
10
10.0856918
20
-0.5300208
11
10.6728119
21
-0.5300208
0
ARC
8
DEFAULT_255_1_234
10
8.962367
20
1.0982527
40
1.8008286
50
318.5132453
51
320.7828378
0
ARC
8
DEFAULT_255_1_234
10
9.4910644
20
0.6679426
40
1.1191493
50
320.7372736
51
323.9737074
0
ARC
8
DEFAULT_255_1_234
10
9.8830501
20
0.3839361
40
0.6350923
50
323.8961724
51
328.6421089
0
ARC
8
DEFAULT_255_1_234
10
10.0877096
20
0.2577031
40
0.3946393
50
328.8299013
51
331.789948
0
ARC
8
DEFAULT_255_1_234
10
10.1874274
20
0.2062509
40
0.2824501
50
331.4255242
51
352.9364833
0
ARC
8
DEFAULT_255_1_234
10
10.2010775
20
0.2031976
40
0.2685315
50
353.2248685
51
0.0169286
0
ARC
8
DEFAULT_255_1_234
10
10.2220652
20
0.205495
40
0.2475536
50
359.4866256
51
15.9339782
0
ARC
8
DEFAULT_255_1_234
10
10.2727637
20
0.2191286
40
0.1950618
50
16.1714718
51
43.5284424
0
ARC
8
DEFAULT_255_1_234
10
10.2804946
20
0.2268573
40
0.184134
50
43.4415429
51
83.1661404
0
ARC
8
DEFAULT_255_1_234
10
10.2670864
20
0.1531771
40
0.258926
50
82.160215
51
90.1505798
0
ARC
8
DEFAULT_255_1_234
10
10.2639291
20
0.0994865
40
0.3126255
50
89.5460705
51
102.5418777
0
ARC
8
DEFAULT_255_1_234
10
10.2396377
20
0.2025665
40
0.2067346
50
102.1739365
51
129.2061916
0
ARC
8
DEFAULT_255_1_234
10
10.2317449
20
0.2150094
40
0.1921118
50
129.7279328
51
135.7542026
0
ARC
8
DEFAULT_255_1_234
10
10.2438977
20
0.2053045
40
0.2075944
50
136.175737
51
166.3674722
0
ARC
8
DEFAULT_255_1_234
10
10.3445896
20
0.1783182
40
0.3118201
50
165.9092917
51
178.8683903
0
ARC
8
DEFAULT_255_1_234
10
10.4310757
20
0.1736179
40
0.3983935
50
178.438168
51
180.0083905
0
ARC
8
DEFAULT_255_1_234
10
10.2909359
20
0.1775231
40
0.4068601
50
163.2878735
51
180.5581814
0
ARC
8
DEFAULT_255_1_234
10
10.2107621
20
0.199584
40
0.3237344
50
133.454115
51
162.9470031
0
ARC
8
DEFAULT_255_1_234
10
10.2286162
20
0.1806
40
0.349795
50
100.7869394
51
133.4384016
0
ARC
8
DEFAULT_255_1_234
10
10.2633934
20
0.0257319
40
0.5084616
50
89.6605301
51
101.3704185
0
ARC
8
DEFAULT_255_1_234
10
10.2700273
20
0.0318496
40
0.502348
50
78.2171172
51
90.4130393
0
ARC
8
DEFAULT_255_1_234
10
10.3055351
20
0.1942637
40
0.3361092
50
55.9268222
51
78.4888551
0
ARC
8
DEFAULT_255_1_234
10
10.3251791
20
0.2281324
40
0.2970617
50
47.9292255
51
55.4054003
0
ARC
8
DEFAULT_255_1_234
10
10.3353352
20
0.2384502
40
0.2825983
50
4.3347696
51
48.0560701
0
ARC
8
DEFAULT_255_1_234
10
10.2257745
20
0.2214601
40
0.393225
50
359.925209
51
5.5967654
0
ARC
8
DEFAULT_255_1_234
10
10.2686637
20
0.2270816
40
0.3503892
50
337.8914096
51
358.9967724
0
ARC
8
DEFAULT_255_1_234
10
9.9973049
20
0.3317706
40
0.6412172
50
326.9135351
51
338.3505194
0
ARC
8
DEFAULT_255_1_234
10
9.5987353
20
0.5872284
40
1.1146189
50
319.6472867
51
327.095818
0
ARC
8
DEFAULT_255_1_234
10
9.2154356
20
0.9034
40
1.6114559
50
317.2586784
51
319.9046139
0
LINE
8
DEFAULT_255_1_234
10
10.8687863
20
0.5181211
11
11.0679734
21
0.5181211
0
LINE
8
DEFAULT_255_1_234
10
11.0679734
20
0.5181211
11
11.4502841
21
-0.4360494
0
LINE
8
DEFAULT_255_1_234
10
11.4502841
20
-0.4360494
11
11.8325949
21
0.5181211
0
LINE
8
DEFAULT_255_1_234
10
11.8325949
20
0.5181211
11
12.0325852
21
0.5181211
0
LINE
8
DEFAULT_255_1_234
10
12.0325852
20
0.5181211
11
12.0325852
21
-0.6513
0
LINE
8
DEFAULT_255_1_234
10
12.0325852
20
-0.6513
11
11.8783758
21
-0.6513
0
LINE
8
DEFAULT_255_1_234
10
11.8783758
20
-0.6513
11
11.8783758
21
-0.1959004
0
LINE
8
DEFAULT_255_1_234
10
11.8783758
20
-0.1959004
11
11.8928329
21
0.2956419
0
LINE
8
DEFAULT_255_1_234
10
11.8928329
20
0.2956419
11
11.5089158
21
-0.6513
0
LINE
8
DEFAULT_255_1_234
10
11.5089158
20
-0.6513
11
11.3908493
21
-0.6513
0
LINE
8
DEFAULT_255_1_234
10
11.3908493
20
-0.6513
11
11.0077354
21
0.2932324
0
LINE
8
DEFAULT_255_1_234
10
11.0077354
20
0.2932324
11
11.0229957
21
-0.1959004
0
LINE
8
DEFAULT_255_1_234
10
11.0229957
20
-0.1959004
11
11.0229957
21
-0.6513
0
LINE
8
DEFAULT_255_1_234
10
11.0229957
20
-0.6513
11
10.8687863
21
-0.6513
0
LINE
8
DEFAULT_255_1_234
10
10.8687863
20
-0.6513
11
10.8687863
21
0.5181211
0
LINE
8
DEFAULT_255_1_234
10
12.4598736
20
0.5181211
11
12.4598736
21
-0.5252017
0
LINE
8
DEFAULT_255_1_234
10
12.4598736
20
-0.5252017
11
13.0140636
21
-0.5252017
0
LINE
8
DEFAULT_255_1_234
10
13.0140636
20
-0.5252017
11
13.0140636
21
-0.6513
0
LINE
8
DEFAULT_255_1_234
10
13.0140636
20
-0.6513
11
12.3048611
21
-0.6513
0
LINE
8
DEFAULT_255_1_234
10
12.3048611
20
-0.6513
11
12.3048611
21
0.5181211
0
LINE
8
DEFAULT_255_1_234
10
12.3048611
20
0.5181211
11
12.4598736
21
0.5181211
0
LINE
8
DEFAULT_255_1_234
10
13.8726564
20
-0.6513
11
13.6188535
21
-0.1782306
0
LINE
8
DEFAULT_255_1_234
10
13.6188535
20
-0.1782306
11
13.344168
21
-0.1782306
0
LINE
8
DEFAULT_255_1_234
10
13.344168
20
-0.1782306
11
13.344168
21
-0.6513
0
LINE
8
DEFAULT_255_1_234
10
13.344168
20
-0.6513
11
13.1891555
21
-0.6513
0
LINE
8
DEFAULT_255_1_234
10
13.1891555
20
-0.6513
11
13.1891555
21
0.5181211
0
LINE
8
DEFAULT_255_1_234
10
13.1891555
20
0.5181211
11
13.5762853
21
0.5181211
0
LINE
8
DEFAULT_255_1_234
10
13.7634248
20
-0.1453005
11
14.0381102
21
-0.6416619
0
LINE
8
DEFAULT_255_1_234
10
14.0381102
20
-0.6416619
11
14.0381102
21
-0.6513
0
LINE
8
DEFAULT_255_1_234
10
14.0381102
20
-0.6513
11
13.8726564
21
-0.6513
0
LINE
8
DEFAULT_255_1_234
10
13.344168
20
0.3912196
11
13.344168
21
-0.0521323
0
LINE
8
DEFAULT_255_1_234
10
13.344168
20
-0.0521323
11
13.5811043
21
-0.0521323
0
LINE
8
DEFAULT_255_1_234
10
13.5803011
20
0.3912196
11
13.344168
21
0.3912196
0
ARC
8
DEFAULT_255_1_234
10
13.5804492
20
-0.1780239
40
0.6961575
50
80.653586
51
90.3427061
0
ARC
8
DEFAULT_255_1_234
10
13.6223967
20
0.0682348
40
0.4463577
50
65.6987447
51
80.8329603
0
ARC
8
DEFAULT_255_1_234
10
13.6701607
20
0.1777322
40
0.3269094
50
50.0017161
51
65.4305835
0
ARC
8
DEFAULT_255_1_234
10
13.6920072
20
0.2072482
40
0.2902647
50
11.628416
51
49.5603263
0
ARC
8
DEFAULT_255_1_234
10
13.5384408
20
0.1697299
40
0.4482792
50
359.5655735
51
12.3691
0
ARC
8
DEFAULT_255_1_234
10
13.6461267
20
0.1634644
40
0.3405924
50
341.9983148
51
0.4822259
0
ARC
8
DEFAULT_255_1_234
10
13.6856108
20
0.1527471
40
0.2997359
50
323.8609373
51
341.61416
0
ARC
8
DEFAULT_255_1_234
10
13.6554352
20
0.1760484
40
0.3378487
50
296.7018614
51
323.6876402
0
ARC
8
DEFAULT_255_1_234
10
13.6113247
20
0.2549235
40
0.4281516
50
290.8086567
51
297.2323311
0
ARC
8
DEFAULT_255_1_234
10
13.5836776
20
0.3072351
40
0.3593766
50
269.589728
51
281.8058135
0
ARC
8
DEFAULT_255_1_234
10
13.6087676
20
0.1924743
40
0.2419125
50
281.5501019
51
303.9357432
0
ARC
8
DEFAULT_255_1_234
10
13.6224863
20
0.1686936
40
0.2145323
50
304.4415616
51
311.2106213
0
ARC
8
DEFAULT_255_1_234
10
13.6356969
20
0.1547632
40
0.1953505
50
310.9875673
51
356.2715578
0
ARC
8
DEFAULT_255_1_234
10
13.5600617
20
0.1660422
40
0.2716331
50
354.9348262
51
0.0609027
0
ARC
8
DEFAULT_255_1_234
10
13.5413492
20
0.1687435
40
0.2903554
50
359.5239371
51
12.8808918
0
ARC
8
DEFAULT_255_1_234
10
13.6391047
20
0.1926728
40
0.1897315
50
12.4173452
51
43.1022135
0
ARC
8
DEFAULT_255_1_234
10
13.6452652
20
0.1963724
40
0.1827118
50
43.5751728
51
48.203944
0
ARC
8
DEFAULT_255_1_234
10
13.6283144
20
0.1742302
40
0.2105272
50
48.7809703
51
72.6969569
0
ARC
8
DEFAULT_255_1_234
10
13.5928768
20
0.066682
40
0.3237537
50
72.3702241
51
84.8791103
0
ARC
8
DEFAULT_255_1_234
10
13.5781244
20
-0.0675231
40
0.4587478
50
84.5400526
51
89.7281406
0
LINE
8
DEFAULT_255_1_234
10
14.4886907
20
-0.0938974
11
14.4886907
21
-0.2151766
0
LINE
8
DEFAULT_255_1_234
10
14.4886907
20
-0.2151766
11
14.0967419
21
-0.2151766
0
LINE
8
DEFAULT_255_1_234
10
14.0967419
20
-0.2151766
11
14.0967419
21
-0.0938974
0
LINE
8
DEFAULT_255_1_234
10
14.0967419
20
-0.0938974
11
14.4886907
21
-0.0938974
0
LINE
8
DEFAULT_255_1_234
10
15.413947
20
-0.6513
11
15.3023058
21
-0.3460939
0
LINE
8
DEFAULT_255_1_234
10
15.3023058
20
-0.3460939
11
14.8123698
21
-0.3460939
0
LINE
8
DEFAULT_255_1_234
10
14.8123698
20
-0.3460939
11
14.702335
21
-0.6513
0
LINE
8
DEFAULT_255_1_234
10
14.702335
20
-0.6513
11
14.5433065
21
-0.6513
0
LINE
8
DEFAULT_255_1_234
10
14.5433065
20
-0.6513
11
14.9898712
21
0.5181211
0
LINE
8
DEFAULT_255_1_234
10
14.9898712
20
0.5181211
11
15.1248044
21
0.5181211
0
LINE
8
DEFAULT_255_1_234
10
15.1248044
20
0.5181211
11
15.5721722
21
-0.6513
0
LINE
8
DEFAULT_255_1_234
10
15.5721722
20
-0.6513
11
15.413947
21
-0.6513
0
LINE
8
DEFAULT_255_1_234
10
15.0573378
20
0.3277689
11
14.8589539
21
-0.2191925
0
LINE
8
DEFAULT_255_1_234
10
14.8589539
20
-0.2191925
11
15.2565249
21
-0.2191925
0
LINE
8
DEFAULT_255_1_234
10
15.2565249
20
-0.2191925
11
15.0573378
21
0.3277689
0
LINE
8
DEFAULT_255_1_234
10
16.425946
20
-0.2802337
11
16.5809585
21
-0.2802337
0
LINE
8
DEFAULT_255_1_234
10
15.6806007
20
-0.1212053
11
15.6806007
21
-0.0087609
0
LINE
8
DEFAULT_255_1_234
10
16.5809585
20
0.1422357
11
16.425946
21
0.1422357
0
LINE
8
DEFAULT_255_1_234
10
15.8356132
20
-0.0127768
11
15.8356132
21
-0.1260243
0
ARC
8
DEFAULT_255_1_234
10
16.0328972
20
-0.2205154
40
0.5513052
50
340.1774281
51
353.7814284
0
ARC
8
DEFAULT_255_1_234
10
16.1900325
20
-0.2790418
40
0.3836379
50
311.4558989
51
340.4421614
0
ARC
8
DEFAULT_255_1_234
10
16.1866993
20
-0.2679472
40
0.3941894
50
282.4333181
51
310.7513653
0
ARC
8
DEFAULT_255_1_234
10
16.1427732
20
-0.0864321
40
0.5809175
50
269.9358511
51
282.809604
0
ARC
8
DEFAULT_255_1_234
10
16.1375798
20
0.0593212
40
0.7266847
50
270.0021091
51
270.3581957
0
ARC
8
DEFAULT_255_1_234
10
16.1323215
20
-0.2007415
40
0.4666519
50
250.7884749
51
270.6489167
0
ARC
8
DEFAULT_255_1_234
10
16.115505
20
-0.2644681
40
0.4009729
50
219.3627325
51
250.0611886
0
ARC
8
DEFAULT_255_1_234
10
16.1984261
20
-0.1939958
40
0.5097822
50
193.5479632
51
219.5756669
0
ARC
8
DEFAULT_255_1_234
10
16.4355882
20
-0.1324081
40
0.7547848
50
181.1218675
51
193.87563
0
ARC
8
DEFAULT_255_1_234
10
16.6426063
20
-0.121342
40
0.9620055
50
179.9918545
51
181.5394234
0
ARC
8
DEFAULT_255_1_234
10
16.4575165
20
-0.0050212
40
0.7769248
50
169.5837241
51
180.2757934
0
ARC
8
DEFAULT_255_1_234
10
16.2738103
20
0.0289229
40
0.590109
50
155.0365899
51
169.6003176
0
ARC
8
DEFAULT_255_1_234
10
16.1602567
20
0.0836677
40
0.4640625
50
136.783148
51
155.2472683
0
ARC
8
DEFAULT_255_1_234
10
16.1213044
20
0.1167562
40
0.4130255
50
121.7633186
51
136.428115
0
ARC
8
DEFAULT_255_1_234
10
16.1348006
20
0.0918227
40
0.4413323
50
95.6459699
51
121.5490577
0
ARC
8
DEFAULT_255_1_234
10
16.1505288
20
-0.0190051
40
0.55319
50
89.924208
51
96.1377933
0
ARC
8
DEFAULT_255_1_234
10
16.1555721
20
-0.0071458
40
0.5413475
50
76.6779277
51
90.4563316
0
ARC
8
DEFAULT_255_1_234
10
16.1949344
20
0.1519114
40
0.3775041
50
47.485847
51
76.9287264
0
ARC
8
DEFAULT_255_1_234
10
16.1802317
20
0.1419159
40
0.3948286
50
16.5424086
51
46.8933463
0
ARC
8
DEFAULT_255_1_234
10
16.0194474
20
0.0890861
40
0.564021
50
5.4072051
51
17.0365086
0
ARC
8
DEFAULT_255_1_234
10
15.8755491
20
0.0659679
40
0.5556559
50
7.8891745
51
15.9239216
0
ARC
8
DEFAULT_255_1_234
10
16.0742504
20
0.1236631
40
0.3487515
50
15.7653144
51
27.9410532
0
ARC
8
DEFAULT_255_1_234
10
16.1846722
20
0.182779
40
0.2235026
50
27.8166557
51
46.4008329
0
ARC
8
DEFAULT_255_1_234
10
16.1896365
20
0.1822082
40
0.2205286
50
47.4371857
51
75.0698205
0
ARC
8
DEFAULT_255_1_234
10
16.1587759
20
0.0747765
40
0.3322915
50
74.7008593
51
87.8124495
0
ARC
8
DEFAULT_255_1_234
10
16.1514447
20
-0.0308156
40
0.4380987
50
87.3814673
51
90.0240855
0
ARC
8
DEFAULT_255_1_234
10
16.147599
20
0.0869291
40
0.3203749
50
89.3451631
51
108.5745436
0
ARC
8
DEFAULT_255_1_234
10
16.1339095
20
0.1382908
40
0.2673494
50
109.2998449
51
143.3037509
0
ARC
8
DEFAULT_255_1_234
10
16.2101168
20
0.0796881
40
0.3634757
50
143.0753173
51
163.1916937
0
ARC
8
DEFAULT_255_1_234
10
16.4052896
20
0.0180967
40
0.5681262
50
162.9373603
51
174.6208611
0
ARC
8
DEFAULT_255_1_234
10
16.6678938
20
-0.010699
40
0.8322832
50
174.3419979
51
180.1430411
0
ARC
8
DEFAULT_255_1_234
10
16.5748094
20
-0.1301302
40
0.7392076
50
179.6817502
51
189.150529
0
ARC
8
DEFAULT_255_1_234
10
16.3247342
20
-0.171781
40
0.4856932
50
188.9910863
51
203.5773039
0
ARC
8
DEFAULT_255_1_234
10
16.2167675
20
-0.2165789
40
0.3688271
50
203.9077269
51
215.1312379
0
ARC
8
DEFAULT_255_1_234
10
16.1244769
20
-0.2881059
40
0.2522457
50
213.9071664
51
263.8849284
0
ARC
8
DEFAULT_255_1_234
10
16.1370098
20
-0.2096482
40
0.3316174
50
263.1758525
51
270.1031083
0
ARC
8
DEFAULT_255_1_234
10
16.140219
20
-0.0849635
40
0.4563091
50
269.6719807
51
279.0609165
0
ARC
8
DEFAULT_255_1_234
10
16.1668958
20
-0.2462093
40
0.2928759
50
278.8750225
51
293.6346586
0
ARC
8
DEFAULT_255_1_234
10
16.1989166
20
-0.32141
40
0.2111472
50
293.8553404
51
310.0518804
0
ARC
8
DEFAULT_255_1_234
10
16.199402
20
-0.3276484
40
0.2060917
50
311.0646779
51
332.0108348
0
ARC
8
DEFAULT_255_1_234
10
16.0801747
20
-0.2619022
40
0.3422352
50
331.6588543
51
343.2878891
0
ARC
8
DEFAULT_255_1_234
10
15.8739262
20
-0.1985202
40
0.5580003
50
343.1446044
51
351.010618
0
ARC
8
DEFAULT_255_1_234
10
15.7197908
20
-0.1704129
40
0.7146438
50
350.7157277
51
351.1602153
0
LINE
8
DEFAULT_255_1_234
10
17.5190656
20
-0.5300208
11
17.5190656
21
-0.6513
0
LINE
8
DEFAULT_255_1_234
10
17.5190656
20
-0.6513
11
16.7528377
21
-0.6513
0
LINE
8
DEFAULT_255_1_234
10
16.7528377
20
-0.6513
11
16.7528377
21
-0.5444779
0
LINE
8
DEFAULT_255_1_234
10
16.7528377
20
-0.5444779
11
17.1576374
21
-0.0947005
0
LINE
8
DEFAULT_255_1_234
10
16.878936
20
0.1735595
11
16.7303489
21
0.1735595
0
LINE
8
DEFAULT_255_1_234
10
17.2451833
20
-0.1902782
11
16.9319455
21
-0.5300208
0
LINE
8
DEFAULT_255_1_234
10
16.9319455
20
-0.5300208
11
17.5190656
21
-0.5300208
0
ARC
8
DEFAULT_255_1_234
10
15.8086207
20
1.0982527
40
1.8008286
50
318.5132453
51
320.7828378
0
ARC
8
DEFAULT_255_1_234
10
16.3373181
20
0.6679426
40
1.1191493
50
320.7372736
51
323.9737074
0
ARC
8
DEFAULT_255_1_234
10
16.7293038
20
0.3839361
40
0.6350923
50
323.8961724
51
328.6421089
0
ARC
8
DEFAULT_255_1_234
10
16.9339633
20
0.2577031
40
0.3946393
50
328.8299013
51
331.789948
0
ARC
8
DEFAULT_255_1_234
10
17.0336812
20
0.2062509
40
0.2824501
50
331.4255242
51
352.9364833
0
ARC
8
DEFAULT_255_1_234
10
17.0473312
20
0.2031976
40
0.2685315
50
353.2248685
51
0.0169286
0
ARC
8
DEFAULT_255_1_234
10
17.0683189
20
0.205495
40
0.2475536
50
359.4866256
51
15.9339782
0
ARC
8
DEFAULT_255_1_234
10
17.1190174
20
0.2191286
40
0.1950618
50
16.1714718
51
43.5284424
0
ARC
8
DEFAULT_255_1_234
10
17.1267483
20
0.2268573
40
0.184134
50
43.4415429
51
83.1661404
0
ARC
8
DEFAULT_255_1_234
10
17.1133401
20
0.1531771
40
0.258926
50
82.160215
51
90.1505798
0
ARC
8
DEFAULT_255_1_234
10
17.1101828
20
0.0994865
40
0.3126255
50
89.5460705
51
102.5418777
0
ARC
8
DEFAULT_255_1_234
10
17.0858915
20
0.2025665
40
0.2067346
50
102.1739365
51
129.2061916
0
ARC
8
DEFAULT_255_1_234
10
17.0779986
20
0.2150094
40
0.1921118
50
129.7279328
51
135.7542026
0
ARC
8
DEFAULT_255_1_234
10
17.0901514
20
0.2053045
40
0.2075944
50
136.175737
51
166.3674722
0
ARC
8
DEFAULT_255_1_234
10
17.1908433
20
0.1783182
40
0.3118201
50
165.9092917
51
178.8683903
0
ARC
8
DEFAULT_255_1_234
10
17.2773295
20
0.1736179
40
0.3983935
50
178.438168
51
180.0083905
0
ARC
8
DEFAULT_255_1_234
10
17.1371897
20
0.1775231
40
0.4068601
50
163.2878735
51
180.5581814
0
ARC
8
DEFAULT_255_1_234
10
17.0570158
20
0.199584
40
0.3237344
50
133.454115
51
162.9470031
0
ARC
8
DEFAULT_255_1_234
10
17.0748699
20
0.1806
40
0.349795
50
100.7869394
51
133.4384016
0
ARC
8
DEFAULT_255_1_234
10
17.1096471
20
0.0257319
40
0.5084616
50
89.6605301
51
101.3704185
0
ARC
8
DEFAULT_255_1_234
10
17.116281
20
0.0318496
40
0.502348
50
78.2171172
51
90.4130393
0
ARC
8
DEFAULT_255_1_234
10
17.1517888
20
0.1942637
40
0.3361092
50
55.9268222
51
78.4888551
0
ARC
8
DEFAULT_255_1_234
10
17.1714328
20
0.2281324
40
0.2970617
50
47.9292255
51
55.4054003
0
ARC
8
DEFAULT_255_1_234
10
17.1815889
20
0.2384502
40
0.2825983
50
4.3347696
51
48.0560701
0
ARC
8
DEFAULT_255_1_234
10
17.0720282
20
0.2214601
40
0.393225
50
359.925209
51
5.5967654
0
ARC
8
DEFAULT_255_1_234
10
17.1149174
20
0.2270816
40
0.3503892
50
337.8914096
51
358.9967724
0
ARC
8
DEFAULT_255_1_234
10
16.8435586
20
0.3317706
40
0.6412172
50
326.9135351
51
338.3505194
0
ARC
8
DEFAULT_255_1_234
10
16.444989
20
0.5872284
40
1.1146189
50
319.6472867
51
327.095818
0
ARC
8
DEFAULT_255_1_234
10
16.0616893
20
0.9034
40
1.6114559
50
317.2586784
51
319.9046139
0
LINE
8
DEFAULT_255_1_234
10
18.4427155
20
-0.5300208
11
18.4427155
21
-0.6513
0
LINE
8
DEFAULT_255_1_234
10
18.4427155
20
-0.6513
11
17.6764876
21
-0.6513
0
LINE
8
DEFAULT_255_1_234
10
17.6764876
20
-0.6513
11
17.6764876
21
-0.5444779
0
LINE
8
DEFAULT_255_1_234
10
17.6764876
20
-0.5444779
11
18.0812873
21
-0.0947005
0
LINE
8
DEFAULT_255_1_234
10
17.8025859
20
0.1735595
11
17.6539988
21
0.1735595
0
LINE
8
DEFAULT_255_1_234
10
18.1688332
20
-0.1902782
11
17.8555954
21
-0.5300208
0
LINE
8
DEFAULT_255_1_234
10
17.8555954
20
-0.5300208
11
18.4427155
21
-0.5300208
0
ARC
8
DEFAULT_255_1_234
10
16.7322706
20
1.0982527
40
1.8008286
50
318.5132453
51
320.7828378
0
ARC
8
DEFAULT_255_1_234
10
17.260968
20
0.6679426
40
1.1191493
50
320.7372736
51
323.9737074
0
ARC
8
DEFAULT_255_1_234
10
17.6529537
20
0.3839361
40
0.6350923
50
323.8961724
51
328.6421089
0
ARC
8
DEFAULT_255_1_234
10
17.8576132
20
0.2577031
40
0.3946393
50
328.8299013
51
331.789948
0
ARC
8
DEFAULT_255_1_234
10
17.9573311
20
0.2062509
40
0.2824501
50
331.4255242
51
352.9364833
0
ARC
8
DEFAULT_255_1_234
10
17.9709811
20
0.2031976
40
0.2685315
50
353.2248685
51
0.0169286
0
ARC
8
DEFAULT_255_1_234
10
17.9919688
20
0.205495
40
0.2475536
50
359.4866256
51
15.9339782
0
ARC
8
DEFAULT_255_1_234
10
18.0426673
20
0.2191286
40
0.1950618
50
16.1714718
51
43.5284424
0
ARC
8
DEFAULT_255_1_234
10
18.0503982
20
0.2268573
40
0.184134
50
43.4415429
51
83.1661404
0
ARC
8
DEFAULT_255_1_234
10
18.03699
20
0.1531771
40
0.258926
50
82.160215
51
90.1505798
0
ARC
8
DEFAULT_255_1_234
10
18.0338328
20
0.0994865
40
0.3126255
50
89.5460705
51
102.5418777
0
ARC
8
DEFAULT_255_1_234
10
18.0095414
20
0.2025665
40
0.2067346
50
102.1739365
51
129.2061916
0
ARC
8
DEFAULT_255_1_234
10
18.0016485
20
0.2150094
40
0.1921118
50
129.7279328
51
135.7542026
0
ARC
8
DEFAULT_255_1_234
10
18.0138013
20
0.2053045
40
0.2075944
50
136.175737
51
166.3674722
0
ARC
8
DEFAULT_255_1_234
10
18.1144932
20
0.1783182
40
0.3118201
50
165.9092917
51
178.8683903
0
ARC
8
DEFAULT_255_1_234
10
18.2009794
20
0.1736179
40
0.3983935
50
178.438168
51
180.0083905
0
ARC
8
DEFAULT_255_1_234
10
18.0608396
20
0.1775231
40
0.4068601
50
163.2878735
51
180.5581814
0
ARC
8
DEFAULT_255_1_234
10
17.9806657
20
0.199584
40
0.3237344
50
133.454115
51
162.9470031
0
ARC
8
DEFAULT_255_1_234
10
17.9985198
20
0.1806
40
0.349795
50
100.7869394
51
133.4384016
0
ARC
8
DEFAULT_255_1_234
10
18.033297
20
0.0257319
40
0.5084616
50
89.6605301
51
101.3704185
0
ARC
8
DEFAULT_255_1_234
10
18.0399309
20
0.0318496
40
0.502348
50
78.2171172
51
90.4130393
0
ARC
8
DEFAULT_255_1_234
10
18.0754387
20
0.1942637
40
0.3361092
50
55.9268222
51
78.4888551
0
ARC
8
DEFAULT_255_1_234
10
18.0950827
20
0.2281324
40
0.2970617
50
47.9292255
51
55.4054003
0
ARC
8
DEFAULT_255_1_234
10
18.1052388
20
0.2384502
40
0.2825983
50
4.3347696
51
48.0560701
0
ARC
8
DEFAULT_255_1_234
10
17.9956781
20
0.2214601
40
0.393225
50
359.925209
51
5.5967654
0
ARC
8
DEFAULT_255_1_234
10
18.0385673
20
0.2270816
40
0.3503892
50
337.8914096
51
358.9967724
0
ARC
8
DEFAULT_255_1_234
10
17.7672085
20
0.3317706
40
0.6412172
50
326.9135351
51
338.3505194
0
ARC
8
DEFAULT_255_1_234
10
17.3686389
20
0.5872284
40
1.1146189
50
319.6472867
51
327.095818
0
ARC
8
DEFAULT_255_1_234
10
16.9853392
20
0.9034
40
1.6114559
50
317.2586784
51
319.9046139
0
ARC
8
DEFAULT_255_2_778
10
12.6050348
20
18.5413041
40
0.3813723
50
156.9728279
51
180.9672924
0
ARC
8
DEFAULT_255_2_778
10
12.4650905
20
18.6039556
40
0.2280903
50
120.6143155
51
157.7057572
0
ARC
8
DEFAULT_255_2_778
10
12.423185
20
18.6658889
40
0.1535155
50
105.6024085
51
118.9253865
0
ARC
8
DEFAULT_255_2_778
10
12.4163051
20
18.690658
40
0.1278087
50
90.2188612
51
105.6183161
0
ARC
8
DEFAULT_255_2_778
10
12.4186564
20
18.5235412
40
0.2949385
50
82.1187511
51
90.5516271
0
ARC
8
DEFAULT_255_2_778
10
12.4470429
20
18.6882036
40
0.128059
50
23.164146
51
84.5981403
0
ARC
8
DEFAULT_255_2_778
10
12.3195078
20
18.6364267
40
0.2656921
50
1.2065942
51
22.6109196
0
ARC
8
DEFAULT_255_2_778
10
12.1068205
20
18.6185377
40
0.4788966
50
359.9555286
51
2.8107684
0
ARC
8
DEFAULT_255_2_778
10
12.4802764
20
18.6071207
40
0.6523641
50
359.5121336
51
18.1513483
0
ARC
8
DEFAULT_255_2_778
10
12.6313291
20
18.6581245
40
0.4929411
50
17.987628
51
47.7515239
0
ARC
8
DEFAULT_255_2_778
10
12.6654537
20
18.6898389
40
0.4465388
50
48.2567149
51
90.320171
0
ARC
8
DEFAULT_255_2_778
10
12.6638541
20
18.6417874
40
0.4945841
50
90.103751
51
104.0317339
0
ARC
8
DEFAULT_255_2_778
10
12.6706581
20
18.6104342
40
0.5266526
50
103.9228462
51
106.737064
0
ARC
8
DEFAULT_255_2_778
10
12.6850928
20
18.5677316
40
0.5717052
50
106.8899656
51
120.2615348
0
ARC
8
DEFAULT_255_2_778
10
12.7341581
20
18.4832122
40
0.6694339
50
120.2432243
51
131.2854864
0
ARC
8
DEFAULT_255_2_778
10
12.785036
20
18.422452
40
0.7486631
50
131.143212
51
134.0802792
0
ARC
8
DEFAULT_255_2_778
10
15.2709404
20
17.4494131
40
0.1197666
50
309.5218924
51
339.9060311
0
ARC
8
DEFAULT_255_2_778
10
15.3039085
20
17.4119254
40
0.0698871
50
287.710739
51
308.230668
0
ARC
8
DEFAULT_255_2_778
10
15.3092212
20
17.3962982
40
0.0533853
50
270.2503717
51
287.3813074
0
ARC
8
DEFAULT_255_2_778
10
15.3118783
20
17.3971536
40
0.0542942
50
194.7346052
51
267.4414086
0
ARC
8
DEFAULT_255_2_778
10
15.3603123
20
17.420172
40
0.107451
50
190.9475811
51
200.0439116
0
ARC
8
DEFAULT_255_2_778
10
14.9941035
20
17.4072621
40
0.2608211
50
358.353068
51
64.1268931
0
ARC
8
DEFAULT_255_2_778
10
15.0249058
20
17.4529249
40
0.206441
50
66.2890109
51
89.9969258
0
ARC
8
DEFAULT_255_2_778
10
15.0382115
20
17.4176645
40
0.2420668
50
93.1483498
51
177.0819403
0
ARC
8
DEFAULT_255_2_778
10
15.0906424
20
17.3998292
40
0.2957256
50
174.1467469
51
180.0122521
0
ARC
8
DEFAULT_255_2_778
10
15.0902349
20
17.403293
40
0.2953391
50
180.6842551
51
197.2976119
0
ARC
8
DEFAULT_255_2_778
10
15.1427344
20
17.4194135
40
0.3502574
50
197.2618666
51
237.3003567
0
ARC
8
DEFAULT_255_2_778
10
15.1574152
20
17.448055
40
0.3823034
50
237.7678185
51
267.0989043
0
ARC
8
DEFAULT_255_2_778
10
15.1676437
20
17.533385
40
0.468079
50
266.3770992
51
270.0209723
0
ARC
8
DEFAULT_255_2_778
10
15.1676985
20
17.5636308
40
0.4983248
50
270.0133909
51
272.716577
0
ARC
8
DEFAULT_255_2_778
10
15.1758148
20
17.4490424
40
0.3834899
50
272.3167324
51
299.1303886
0
ARC
8
DEFAULT_255_2_778
10
15.1234049
20
17.5225329
40
0.4733038
50
300.3417229
51
327.7658215
0
ARC
8
DEFAULT_255_2_778
10
14.9406676
20
17.6510134
40
0.6964958
50
326.843622
51
335.4998036
0
ARC
8
DEFAULT_255_2_778
10
14.8514976
20
17.6932766
40
0.7951648
50
335.3932154
51
340.0324022
0
ARC
8
DEFAULT_255_2_778
10
14.8370312
20
17.6988094
40
0.8106509
50
340.0140149
51
340.5492811
0
ARC
8
DEFAULT_255_2_778
10
10.7612214
20
18.3969581
40
0.768197
50
90.8730151
51
175.0627552
0
ARC
8
DEFAULT_255_2_778
10
10.8136126
20
18.3805058
40
0.8218958
50
174.2343992
51
180.0097514
0
ARC
8
DEFAULT_255_2_778
10
10.7889867
20
18.3772729
40
0.7972759
50
179.7777162
51
222.1414196
0
ARC
8
DEFAULT_255_2_778
10
10.7511509
20
18.339335
40
0.7437709
50
221.9300285
51
269.8741254
0
ARC
8
DEFAULT_255_2_778
10
10.7376549
20
18.3637244
40
0.7682501
50
270.8846918
51
355.0667038
0
ARC
8
DEFAULT_255_2_778
10
10.6852873
20
18.3802267
40
0.8219296
50
354.2345114
51
0.0097094
0
ARC
8
DEFAULT_255_2_778
10
10.7100678
20
18.3834703
40
0.7971551
50
359.7768758
51
42.1436072
0
ARC
8
DEFAULT_255_2_778
10
10.7478782
20
18.4213788
40
0.7436889
50
41.9327014
51
89.8737509
0
ARC
8
DEFAULT_255_2_778
10
10.7319112
20
18.0041045
40
0.2064136
50
282.3154686
51
2.5716381
0
ARC
8
DEFAULT_255_2_778
10
10.749558
20
17.9690913
40
0.1687253
50
269.98603
51
278.995025
0
ARC
8
DEFAULT_255_2_778
10
10.7617107
20
18.0005042
40
0.2005094
50
178.6786273
51
266.5134562
0
ARC
8
DEFAULT_255_2_778
10
10.8074017
20
18.0133655
40
0.2462849
50
179.9999044
51
181.9167359
0
ARC
8
DEFAULT_255_2_778
10
10.7673954
20
18.7566548
40
0.2064787
50
103.0315545
51
182.5228891
0
ARC
8
DEFAULT_255_2_778
10
10.7494718
20
18.7917048
40
0.1685611
50
89.9846994
51
99.7807169
0
ARC
8
DEFAULT_255_2_778
10
10.7371616
20
18.7597176
40
0.2009286
50
358.490526
51
86.4746259
0
ARC
8
DEFAULT_255_2_778
10
10.6939639
20
18.7475644
40
0.244153
50
0.0003602
51
1.6101146
0
ARC
8
DEFAULT_255_2_778
10
13.7769085
20
18.3798122
40
1.0339085
50
353.7729731
51
0.0306848
0
ARC
8
DEFAULT_255_2_778
10
14.0136678
20
18.3834703
40
0.7971551
50
359.7768758
51
42.1436072
0
ARC
8
DEFAULT_255_2_778
10
14.0514782
20
18.4213788
40
0.7436889
50
41.9327014
51
89.8737509
0
ARC
8
DEFAULT_255_2_778
10
14.0648214
20
18.3969581
40
0.768197
50
90.8730151
51
175.0627552
0
ARC
8
DEFAULT_255_2_778
10
14.1172126
20
18.3805058
40
0.8218958
50
174.2343992
51
180.0097514
0
ARC
8
DEFAULT_255_2_778
10
14.0925867
20
18.3772729
40
0.7972759
50
179.7777162
51
222.1414196
0
ARC
8
DEFAULT_255_2_778
10
14.0547509
20
18.339335
40
0.7437709
50
221.9300285
51
269.8741254
0
ARC
8
DEFAULT_255_2_778
10
14.0479775
20
18.3493375
40
0.753789
50
270.3906469
51
332.9011285
0
ARC
8
DEFAULT_255_2_778
10
14.0503073
20
18.3608988
40
0.5766383
50
270.2493497
51
330.3649047
0
ARC
8
DEFAULT_255_2_778
10
14.0738266
20
17.9892117
40
0.2060198
50
188.4673322
51
264.146848
0
ARC
8
DEFAULT_255_2_778
10
14.1170452
20
18.0133502
40
0.2529285
50
180.0643852
51
192.4374066
0
ARC
8
DEFAULT_255_2_778
10
14.070552
20
18.7568297
40
0.2060435
50
102.2220352
51
182.5768883
0
ARC
8
DEFAULT_255_2_778
10
14.0532765
20
18.7910306
40
0.1692354
50
89.9863487
51
98.9553742
0
ARC
8
DEFAULT_255_2_778
10
14.0410627
20
18.7599487
40
0.2006917
50
358.1298546
51
86.4993767
0
ARC
8
DEFAULT_255_2_778
10
13.9951604
20
18.7475582
40
0.2465564
50
0.0018041
51
1.3574921
0
ARC
8
DEFAULT_255_2_778
10
18.8395085
20
18.3798122
40
1.0339085
50
353.7729731
51
0.0306848
0
ARC
8
DEFAULT_255_2_778
10
19.0763127
20
18.3834756
40
0.7971102
50
359.7764759
51
42.1460177
0
ARC
8
DEFAULT_255_2_778
10
19.1140101
20
18.4212511
40
0.7438166
50
41.9370909
51
89.8762358
0
ARC
8
DEFAULT_255_2_778
10
19.1273214
20
18.3969581
40
0.768197
50
90.8730151
51
175.0627552
0
ARC
8
DEFAULT_255_2_778
10
19.1797126
20
18.3805058
40
0.8218958
50
174.2343992
51
180.0097514
0
ARC
8
DEFAULT_255_2_778
10
19.1550867
20
18.3772729
40
0.7972759
50
179.7777162
51
222.1414196
0
ARC
8
DEFAULT_255_2_778
10
19.1172509
20
18.339335
40
0.7437709
50
221.9300285
51
269.8741254
0
ARC
8
DEFAULT_255_2_778
10
19.1104966
20
18.3497973
40
0.7542487
50
270.3889576
51
332.8797533
0
ARC
8
DEFAULT_255_2_778
10
19.1130363
20
18.3610205
40
0.5767603
50
270.2563581
51
330.3578833
0
ARC
8
DEFAULT_255_2_778
10
19.1366787
20
17.988807
40
0.2056225
50
188.7424888
51
264.120891
0
ARC
8
DEFAULT_255_2_778
10
19.180402
20
18.0133673
40
0.2531853
50
180.0682018
51
192.7352383
0
ARC
8
DEFAULT_255_2_778
10
19.1332623
20
18.756531
40
0.2062492
50
102.479692
51
182.5468765
0
ARC
8
DEFAULT_255_2_778
10
19.1155784
20
18.7915755
40
0.1684904
50
89.986931
51
99.1816697
0
ARC
8
DEFAULT_255_2_778
10
19.1031384
20
18.7593685
40
0.201085
50
358.3379179
51
86.4421934
0
ARC
8
DEFAULT_255_2_778
10
19.0609425
20
18.7473683
40
0.2432745
50
359.9994511
51
1.4527903
0
LINE
8
DEFAULT_255_2_778
10
20.0578169
20
17.6918659
11
20.5605169
21
17.6918659
0
LINE
8
DEFAULT_255_2_778
10
20.5605169
20
17.6918659
11
20.5605169
21
19.7114659
0
LINE
8
DEFAULT_255_2_778
10
20.5605169
20
19.7114659
11
20.0578169
21
19.7114659
0
LINE
8
DEFAULT_255_2_778
10
20.0578169
20
19.7114659
11
20.0578169
21
17.6918659
0
LINE
8
DEFAULT_255_2_778
10
20.0578169
20
17.6918659
11
20.0578169
21
17.6918659
0
LINE
8
DEFAULT_255_2_778
10
20.0578169
20
17.6918659
11
20.0578169
21
17.6918659
0
LINE
8
DEFAULT_255_2_778
10
21.2995169
20
19.7114659
11
21.2995169
21
17.6918659
0
LINE
8
DEFAULT_255_2_778
10
21.2995169
20
17.6918659
11
20.7970169
21
17.6918659
0
LINE
8
DEFAULT_255_2_778
10
20.7970169
20
17.6918659
11
20.7970169
21
19.7114659
0
LINE
8
DEFAULT_255_2_778
10
20.7970169
20
19.7114659
11
21.2995169
21
19.7114659
0
LINE
8
DEFAULT_255_2_778
10
21.2995169
20
19.7114659
11
21.2995169
21
19.7114659
0
LINE
8
DEFAULT_255_2_778
10
21.2995169
20
19.7114659
11
21.2995169
21
19.7114659
0
LINE
8
DEFAULT_255_2_778
10
9.1419169
20
18.9269659
11
8.7355169
21
18.9269659
0
LINE
8
DEFAULT_255_2_778
10
8.7355169
20
18.9269659
11
8.7355169
21
19.7114659
0
LINE
8
DEFAULT_255_2_778
10
8.7355169
20
19.7114659
11
8.0703169
21
19.7114659
0
LINE
8
DEFAULT_255_2_778
10
8.0703169
20
19.7114659
11
8.0703169
21
17.6918659
0
LINE
8
DEFAULT_255_2_778
10
8.0703169
20
17.6918659
11
8.7355169
21
17.6918659
0
LINE
8
DEFAULT_255_2_778
10
8.7355169
20
17.6918659
11
8.7355169
21
18.6933659
0
LINE
8
DEFAULT_255_2_778
10
8.7355169
20
18.6933659
11
9.1419169
21
18.6933659
0
LINE
8
DEFAULT_255_2_778
10
9.1419169
20
18.6933659
11
9.1419169
21
17.6918659
0
LINE
8
DEFAULT_255_2_778
10
9.1419169
20
17.6918659
11
9.8070169
21
17.6918659
0
LINE
8
DEFAULT_255_2_778
10
9.8070169
20
17.6918659
11
9.8070169
21
19.7114659
0
LINE
8
DEFAULT_255_2_778
10
9.8070169
20
19.7114659
11
9.1419169
21
19.7114659
0
LINE
8
DEFAULT_255_2_778
10
9.1419169
20
19.7114659
11
9.1419169
21
18.9269659
0
LINE
8
DEFAULT_255_2_778
10
9.1419169
20
18.9269659
11
9.1419169
21
18.9269659
0
LINE
8
DEFAULT_255_2_778
10
9.1419169
20
18.9269659
11
9.1419169
21
18.9269659
0
LINE
8
DEFAULT_255_2_778
10
12.2645169
20
18.9605659
11
12.2237169
21
19.0941659
0
LINE
8
DEFAULT_255_2_778
10
12.2237169
20
19.0941659
11
11.6768169
21
19.0941659
0
LINE
8
DEFAULT_255_2_778
10
11.6768169
20
19.0941659
11
11.6768169
21
17.6921659
0
LINE
8
DEFAULT_255_2_778
10
11.6768169
20
17.6921659
11
12.2237169
21
17.6921659
0
LINE
8
DEFAULT_255_2_778
10
12.2237169
20
17.6921659
11
12.2237169
21
18.5348659
0
LINE
8
DEFAULT_255_2_778
10
12.2237169
20
18.5348659
11
12.2237169
21
18.5348659
0
LINE
8
DEFAULT_255_2_778
10
12.5857169
20
18.6181659
11
12.5857169
21
18.6181659
0
LINE
8
DEFAULT_255_2_778
10
12.5857169
20
18.6181659
11
12.5857169
21
17.6918659
0
LINE
8
DEFAULT_255_2_778
10
12.5857169
20
17.6918659
11
13.1326169
21
17.6918659
0
LINE
8
DEFAULT_255_2_778
10
13.1326169
20
17.6918659
11
13.1326169
21
18.6015659
0
LINE
8
DEFAULT_255_2_778
10
13.1326169
20
18.6015659
11
13.1326169
21
18.6015659
0
LINE
8
DEFAULT_255_2_778
10
12.2642169
20
18.9602659
11
12.2642169
21
18.9602659
0
LINE
8
DEFAULT_255_2_778
10
12.2642169
20
18.9602659
11
12.2642169
21
18.9602659
0
LINE
8
DEFAULT_255_2_778
10
12.2642169
20
18.9602659
11
12.2642169
21
18.9602659
0
LINE
8
DEFAULT_255_2_778
10
12.2642169
20
18.9602659
11
12.2645169
21
18.9605659
0
LINE
8
DEFAULT_255_2_778
10
17.8816169
20
18.2803659
11
17.6265169
21
19.0939659
0
LINE
8
DEFAULT_255_2_778
10
17.6265169
20
19.0939659
11
17.2532169
21
19.0939659
0
LINE
8
DEFAULT_255_2_778
10
17.2532169
20
19.0939659
11
16.9981169
21
18.2469659
0
LINE
8
DEFAULT_255_2_778
10
16.9981169
20
18.2469659
11
16.7322169
21
19.0939659
0
LINE
8
DEFAULT_255_2_778
10
16.7322169
20
19.0939659
11
16.2113169
21
19.0939659
0
LINE
8
DEFAULT_255_2_778
10
16.2113169
20
19.0939659
11
16.2076169
21
19.0939659
0
LINE
8
DEFAULT_255_2_778
10
16.2076169
20
19.0939659
11
16.0007169
21
19.0939659
0
LINE
8
DEFAULT_255_2_778
10
16.0007169
20
19.0939659
11
15.7382169
21
18.3805659
0
LINE
8
DEFAULT_255_2_778
10
15.7382169
20
18.3805659
11
15.3688169
21
19.0939659
0
LINE
8
DEFAULT_255_2_778
10
15.3688169
20
19.0939659
11
14.7441169
21
19.0939659
0
LINE
8
DEFAULT_255_2_778
10
14.7441169
20
19.0939659
11
15.4794169
21
17.6752659
0
LINE
8
DEFAULT_255_2_778
10
15.4794169
20
17.6752659
11
15.3834169
21
17.4082659
0
LINE
8
DEFAULT_255_2_778
10
15.3834169
20
17.4082659
11
15.3834169
21
17.4082659
0
LINE
8
DEFAULT_255_2_778
10
15.6014169
20
17.4288659
11
15.6014169
21
17.4288659
0
LINE
8
DEFAULT_255_2_778
10
15.6014169
20
17.4288659
11
16.2091169
21
19.0880659
0
LINE
8
DEFAULT_255_2_778
10
16.2091169
20
19.0880659
11
16.6473169
21
17.6916659
0
LINE
8
DEFAULT_255_2_778
10
16.6473169
20
17.6916659
11
17.0463169
21
17.6916659
0
LINE
8
DEFAULT_255_2_778
10
17.0463169
20
17.6916659
11
17.2902169
21
18.4970659
0
LINE
8
DEFAULT_255_2_778
10
17.2902169
20
18.4970659
11
17.5416169
21
17.6916659
0
LINE
8
DEFAULT_255_2_778
10
17.5416169
20
17.6916659
11
17.9186169
21
17.6916659
0
LINE
8
DEFAULT_255_2_778
10
17.9186169
20
17.6916659
11
18.3435169
21
19.0936659
0
LINE
8
DEFAULT_255_2_778
10
18.3435169
20
19.0936659
11
18.1255169
21
19.0936659
0
LINE
8
DEFAULT_255_2_778
10
18.1255169
20
19.0936659
11
17.8816169
21
18.2800659
0
LINE
8
DEFAULT_255_2_778
10
17.8816169
20
18.2800659
11
17.8816169
21
18.2800659
0
LINE
8
DEFAULT_255_2_778
10
17.8816169
20
18.2800659
11
17.8816169
21
18.2800659
0
LINE
8
DEFAULT_255_2_778
10
17.8816169
20
18.2800659
11
17.8816169
21
18.2803659
0
LINE
8
DEFAULT_255_2_778
10
10.7495169
20
19.1650659
11
10.7495169
21
19.1650659
0
LINE
8
DEFAULT_255_2_778
10
10.7495169
20
19.1650659
11
10.7495169
21
19.1650659
0
LINE
8
DEFAULT_255_2_778
10
10.7495169
20
19.1650659
11
10.7495169
21
19.1650659
0
LINE
8
DEFAULT_255_2_778
10
10.7495169
20
19.1650659
11
10.7495169
21
19.1650659
0
LINE
8
DEFAULT_255_2_778
10
10.5611169
20
18.0133659
11
10.5611169
21
18.0133659
0
LINE
8
DEFAULT_255_2_778
10
10.5611169
20
18.0133659
11
10.5611169
21
18.7475659
0
LINE
8
DEFAULT_255_2_778
10
10.5611169
20
18.7475659
11
10.5611169
21
18.7475659
0
LINE
8
DEFAULT_255_2_778
10
10.9381169
20
18.7475659
11
10.9381169
21
18.7475659
0
LINE
8
DEFAULT_255_2_778
10
10.9381169
20
18.7475659
11
10.9381169
21
18.0133659
0
LINE
8
DEFAULT_255_2_778
10
10.9381169
20
18.0133659
11
10.9381169
21
18.0133659
0
LINE
8
DEFAULT_255_2_778
10
10.9381169
20
18.0133659
11
10.9381169
21
18.0133659
0
LINE
8
DEFAULT_255_2_778
10
10.9381169
20
18.0133659
11
10.9381169
21
18.0133659
0
LINE
8
DEFAULT_255_2_778
10
14.7190169
20
18.0059659
11
14.7190169
21
18.0059659
0
LINE
8
DEFAULT_255_2_778
10
14.7190169
20
18.0059659
11
14.5515169
21
18.0757659
0
LINE
8
DEFAULT_255_2_778
10
14.5515169
20
18.0757659
11
14.5515169
21
18.0757659
0
LINE
8
DEFAULT_255_2_778
10
13.8641169
20
18.0130659
11
13.8641169
21
18.0130659
0
LINE
8
DEFAULT_255_2_778
10
13.8641169
20
18.0130659
11
13.8641169
21
18.2676659
0
LINE
8
DEFAULT_255_2_778
10
13.8641169
20
18.2676659
11
14.8042169
21
18.2676659
0
LINE
8
DEFAULT_255_2_778
10
14.8042169
20
18.2676659
11
14.8042169
21
18.2676659
0
LINE
8
DEFAULT_255_2_778
10
14.8042169
20
18.2676659
11
14.8042169
21
18.2676659
0
LINE
8
DEFAULT_255_2_778
10
14.8042169
20
18.2676659
11
14.8047169
21
18.2676659
0
LINE
8
DEFAULT_255_2_778
10
14.2417169
20
18.7475659
11
14.2417169
21
18.7475659
0
LINE
8
DEFAULT_255_2_778
10
14.2417169
20
18.7475659
11
14.2417169
21
18.4679659
0
LINE
8
DEFAULT_255_2_778
10
14.2417169
20
18.4679659
11
13.8647169
21
18.4679659
0
LINE
8
DEFAULT_255_2_778
10
13.8647169
20
18.4679659
11
13.8647169
21
18.7475659
0
LINE
8
DEFAULT_255_2_778
10
13.8647169
20
18.7475659
11
13.8647169
21
18.7475659
0
LINE
8
DEFAULT_255_2_778
10
13.8647169
20
18.7475659
11
13.8647169
21
18.7475659
0
LINE
8
DEFAULT_255_2_778
10
13.8647169
20
18.7475659
11
13.8647169
21
18.7475659
0
LINE
8
DEFAULT_255_2_778
10
19.7818169
20
18.0059659
11
19.7818169
21
18.0059659
0
LINE
8
DEFAULT_255_2_778
10
19.7818169
20
18.0059659
11
19.6143169
21
18.0757659
0
LINE
8
DEFAULT_255_2_778
10
19.6143169
20
18.0757659
11
19.6143169
21
18.0757659
0
LINE
8
DEFAULT_255_2_778
10
18.9272169
20
18.0130659
11
18.9272169
21
18.0130659
0
LINE
8
DEFAULT_255_2_778
10
18.9272169
20
18.0130659
11
18.9272169
21
18.2676659
0
LINE
8
DEFAULT_255_2_778
10
18.9272169
20
18.2676659
11
19.8673169
21
18.2676659
0
LINE
8
DEFAULT_255_2_778
10
19.8673169
20
18.2676659
11
19.8673169
21
18.2676659
0
LINE
8
DEFAULT_255_2_778
10
19.8673169
20
18.2676659
11
19.8673169
21
18.2676659
0
LINE
8
DEFAULT_255_2_778
10
19.8673169
20
18.2676659
11
19.8673169
21
18.2676659
0
LINE
8
DEFAULT_255_2_778
10
19.3042169
20
18.7473659
11
19.3042169
21
18.7473659
0
LINE
8
DEFAULT_255_2_778
10
19.3042169
20
18.7473659
11
19.3042169
21
18.4679659
0
LINE
8
DEFAULT_255_2_778
10
19.3042169
20
18.4679659
11
18.9272169
21
18.4679659
0
LINE
8
DEFAULT_255_2_778
10
18.9272169
20
18.4679659
11
18.9272169
21
18.7475659
0
LINE
8
DEFAULT_255_2_778
10
18.9272169
20
18.7475659
11
18.9272169
21
18.7475659
0
LINE
8
DEFAULT_255_2_778
10
18.9272169
20
18.7475659
11
18.9272169
21
18.7475659
0
LINE
8
DEFAULT_255_2_778
10
18.9272169
20
18.7475659
11
18.9272169
21
18.7473659
0
LINE
8
DEFAULT_255_1_234
10
6.9674364
20
15.7316211
11
7.1666235
21
15.7316211
0
LINE
8
DEFAULT_255_1_234
10
7.1666235
20
15.7316211
11
7.5489342
21
14.7774506
0
LINE
8
DEFAULT_255_1_234
10
7.5489342
20
14.7774506
11
7.931245
21
15.7316211
0
LINE
8
DEFAULT_255_1_234
10
7.931245
20
15.7316211
11
8.1312353
21
15.7316211
0
LINE
8
DEFAULT_255_1_234
10
8.1312353
20
15.7316211
11
8.1312353
21
14.5622
0
LINE
8
DEFAULT_255_1_234
10
8.1312353
20
14.5622
11
7.9770259
21
14.5622
0
LINE
8
DEFAULT_255_1_234
10
7.9770259
20
14.5622
11
7.9770259
21
15.0175996
0
LINE
8
DEFAULT_255_1_234
10
7.9770259
20
15.0175996
11
7.991483
21
15.5091419
0
LINE
8
DEFAULT_255_1_234
10
7.991483
20
15.5091419
11
7.6075659
21
14.5622
0
LINE
8
DEFAULT_255_1_234
10
7.6075659
20
14.5622
11
7.4894994
21
14.5622
0
LINE
8
DEFAULT_255_1_234
10
7.4894994
20
14.5622
11
7.1063854
21
15.5067324
0
LINE
8
DEFAULT_255_1_234
10
7.1063854
20
15.5067324
11
7.1216458
21
15.0175996
0
LINE
8
DEFAULT_255_1_234
10
7.1216458
20
15.0175996
11
7.1216458
21
14.5622
0
LINE
8
DEFAULT_255_1_234
10
7.1216458
20
14.5622
11
6.9674364
21
14.5622
0
LINE
8
DEFAULT_255_1_234
10
6.9674364
20
14.5622
11
6.9674364
21
15.7316211
0
LINE
8
DEFAULT_255_1_234
10
9.072555
20
14.5622
11
8.9167393
21
14.5622
0
LINE
8
DEFAULT_255_1_234
10
8.7488759
20
15.089082
11
8.8934472
21
15.089082
0
LINE
8
DEFAULT_255_1_234
10
8.8934472
20
15.089082
11
8.8934472
21
15.1573518
0
LINE
8
DEFAULT_255_1_234
10
8.5223809
20
15.1902819
11
8.3729906
21
15.1902819
0
LINE
8
DEFAULT_255_1_234
10
9.0420344
20
15.1653835
11
9.0420344
21
14.765403
0
LINE
8
DEFAULT_255_1_234
10
9.072555
20
14.5750508
11
9.072555
21
14.5622
0
LINE
8
DEFAULT_255_1_234
10
8.8934472
20
14.8055617
11
8.8934472
21
14.9838663
0
LINE
8
DEFAULT_255_1_234
10
8.8934472
20
14.9838663
11
8.776987
21
14.9838663
0
ARC
8
DEFAULT_255_1_234
10
9.0206931
20
14.6126194
40
0.1155358
50
197.0791116
51
205.8741701
0
ARC
8
DEFAULT_255_1_234
10
9.144553
20
14.6518654
40
0.2454626
50
192.2918602
51
197.3448991
0
ARC
8
DEFAULT_255_1_234
10
9.3398979
20
14.6952663
40
0.4455697
50
189.1576348
51
192.3971359
0
ARC
8
DEFAULT_255_1_234
10
9.621326
20
14.7411549
40
0.7307142
50
186.8689952
51
189.1979448
0
ARC
8
DEFAULT_255_1_234
10
8.6384414
20
14.8958258
40
0.353352
50
294.0080019
51
316.7604136
0
ARC
8
DEFAULT_255_1_234
10
8.6513478
20
14.8776572
40
0.3315331
50
269.5042461
51
293.2479736
0
ARC
8
DEFAULT_255_1_234
10
8.6453963
20
14.9177491
40
0.3716254
50
255.403374
51
270.4753162
0
ARC
8
DEFAULT_255_1_234
10
8.6223935
20
14.8284825
40
0.2794431
50
228.6140946
51
255.354999
0
ARC
8
DEFAULT_255_1_234
10
8.5891459
20
14.7966491
40
0.2336109
50
181.8953303
51
229.5703879
0
ARC
8
DEFAULT_255_1_234
10
8.6482964
20
14.8030708
40
0.2929755
50
179.984097
51
182.7679515
0
ARC
8
DEFAULT_255_1_234
10
8.6399906
20
14.8065413
40
0.28469
50
161.0341165
51
180.6820968
0
ARC
8
DEFAULT_255_1_234
10
8.5960452
20
14.8179729
40
0.2394402
50
125.0523775
51
160.2033967
0
ARC
8
DEFAULT_255_1_234
10
8.6622461
20
14.7276431
40
0.3514152
50
106.2671988
51
125.4298572
0
ARC
8
DEFAULT_255_1_234
10
8.7194917
20
14.5405842
40
0.5470269
50
95.4857064
51
106.534858
0
ARC
8
DEFAULT_255_1_234
10
8.7468071
20
14.2906758
40
0.7984089
50
89.8515322
51
95.7224983
0
ARC
8
DEFAULT_255_1_234
10
8.6828666
20
15.1591759
40
0.2105886
50
359.503704
51
14.3184734
0
ARC
8
DEFAULT_255_1_234
10
8.740279
20
15.1741017
40
0.1512684
50
14.2187004
51
45.2025693
0
ARC
8
DEFAULT_255_1_234
10
8.7438986
20
15.1755251
40
0.1477163
50
45.8098026
51
73.0032427
0
ARC
8
DEFAULT_255_1_234
10
8.7189954
20
15.0993896
40
0.2278113
50
72.610967
51
85.7232876
0
ARC
8
DEFAULT_255_1_234
10
8.7099948
20
15.0080569
40
0.3195681
50
85.3352114
51
90.0850615
0
ARC
8
DEFAULT_255_1_234
10
8.7076351
20
15.0671391
40
0.2604924
50
89.5853149
51
103.4592217
0
ARC
8
DEFAULT_255_1_234
10
8.6923954
20
15.1306597
40
0.1951693
50
103.44851
51
126.5404292
0
ARC
8
DEFAULT_255_1_234
10
8.6684834
20
15.161243
40
0.1563639
50
126.1729825
51
141.5004088
0
ARC
8
DEFAULT_255_1_234
10
8.6306435
20
15.1909385
40
0.1082645
50
141.3333588
51
180.3474677
0
ARC
8
DEFAULT_255_1_234
10
8.5632145
20
15.1892174
40
0.1902269
50
151.6374668
51
179.6793754
0
ARC
8
DEFAULT_255_1_234
10
8.6234387
20
15.1592334
40
0.2574753
50
142.4988163
51
152.1325379
0
ARC
8
DEFAULT_255_1_234
10
8.6552347
20
15.1342735
40
0.2978957
50
120.8284787
51
142.4132259
0
ARC
8
DEFAULT_255_1_234
10
8.6968456
20
15.0691301
40
0.3751664
50
113.9638113
51
121.1869885
0
ARC
8
DEFAULT_255_1_234
10
8.7104608
20
15.0359544
40
0.4110136
50
93.3784663
51
113.8198047
0
ARC
8
DEFAULT_255_1_234
10
8.718139
20
14.9594446
40
0.487853
50
89.9745882
51
93.7491274
0
ARC
8
DEFAULT_255_1_234
10
8.7216276
20
14.9630605
40
0.4842481
50
79.1325877
51
90.3871757
0
ARC
8
DEFAULT_255_1_234
10
8.7541396
20
15.1255435
40
0.3185522
50
60.1435559
51
79.3654871
0
ARC
8
DEFAULT_255_1_234
10
8.7798085
20
15.174843
40
0.2630271
50
48.6192091
51
59.646742
0
ARC
8
DEFAULT_255_1_234
10
8.7845823
20
15.1811691
40
0.2551253
50
9.0349315
51
48.4844544
0
ARC
8
DEFAULT_255_1_234
10
8.6769667
20
15.1576793
40
0.3651489
50
1.2089744
51
10.0233366
0
ARC
8
DEFAULT_255_1_234
10
9.8056412
20
14.7629518
40
0.7636108
50
179.8160804
51
185.3206488
0
ARC
8
DEFAULT_255_1_234
10
9.5360894
20
14.7372155
40
0.4928344
50
185.2474014
51
192.7953707
0
ARC
8
DEFAULT_255_1_234
10
9.3599151
20
14.6967824
40
0.3120807
50
192.7197759
51
202.9585048
0
ARC
8
DEFAULT_255_1_234
10
8.6701334
20
14.9365928
40
0.2611453
50
270.0069004
51
300.5035019
0
ARC
8
DEFAULT_255_1_234
10
8.6823942
20
14.9237927
40
0.2439274
50
299.5482464
51
315.6095048
0
ARC
8
DEFAULT_255_1_234
10
8.7114039
20
14.8941155
40
0.2024389
50
315.868035
51
334.0596869
0
ARC
8
DEFAULT_255_1_234
10
8.7726399
20
14.2864943
40
0.6973855
50
89.6428514
51
97.2870891
0
ARC
8
DEFAULT_255_1_234
10
8.7285162
20
14.6168571
40
0.3640992
50
96.9938028
51
109.7781797
0
ARC
8
DEFAULT_255_1_234
10
8.6619787
20
14.7949891
40
0.1739759
50
109.0087453
51
135.326626
0
ARC
8
DEFAULT_255_1_234
10
8.6346392
20
14.8288473
40
0.1308198
50
137.4539381
51
182.1082805
0
ARC
8
DEFAULT_255_1_234
10
8.6720382
20
14.8223893
40
0.1681384
50
179.4392907
51
195.7200177
0
ARC
8
DEFAULT_255_1_234
10
8.630881
20
14.8111426
40
0.1254738
50
195.8684065
51
230.1572205
0
ARC
8
DEFAULT_255_1_234
10
8.6551237
20
14.8401769
40
0.1632985
50
230.1530708
51
259.7485588
0
ARC
8
DEFAULT_255_1_234
10
8.6689941
20
14.9055386
40
0.230094
50
259.2463819
51
270.291543
0
LINE
8
DEFAULT_255_1_234
10
9.9215097
20
15.1758248
11
9.7721194
21
15.1758248
0
LINE
8
DEFAULT_255_1_234
10
9.238812
20
14.8296569
11
9.3873991
21
14.8296569
0
ARC
8
DEFAULT_255_1_234
10
9.6533012
20
14.7941959
40
0.1276617
50
359.3334982
51
18.5871358
0
ARC
8
DEFAULT_255_1_234
10
9.674165
20
14.7997133
40
0.1061371
50
19.3540742
51
54.6485071
0
ARC
8
DEFAULT_255_1_234
10
9.6237552
20
14.7301919
40
0.1920087
50
54.3827097
51
65.0622807
0
ARC
8
DEFAULT_255_1_234
10
9.5468948
20
14.56849
40
0.3710447
50
64.8282493
51
71.4200025
0
ARC
8
DEFAULT_255_1_234
10
9.4566823
20
14.3038107
40
0.6506741
50
71.3164301
51
75.8006402
0
ARC
8
DEFAULT_255_1_234
10
9.3725643
20
13.9797561
40
0.9854641
50
75.6809531
51
78.0061883
0
ARC
8
DEFAULT_255_1_234
10
9.8174177
20
16.077677
40
1.1591028
50
254.6901892
51
258.0466452
0
ARC
8
DEFAULT_255_1_234
10
9.7136085
20
15.7017781
40
0.7691345
50
249.9010773
51
254.755261
0
ARC
8
DEFAULT_255_1_234
10
9.6132427
20
15.4291982
40
0.478665
50
243.3097214
51
249.9709442
0
ARC
8
DEFAULT_255_1_234
10
9.5503448
20
15.3037778
40
0.3383568
50
234.4047477
51
243.2862168
0
ARC
8
DEFAULT_255_1_234
10
9.4880972
20
15.2178232
40
0.2322322
50
220.8667099
51
234.5493881
0
ARC
8
DEFAULT_255_1_234
10
9.4538913
20
15.1866817
40
0.1859923
50
214.3062465
51
220.5065136
0
ARC
8
DEFAULT_255_1_234
10
9.4512992
20
15.183588
40
0.1821108
50
186.912965
51
213.9618616
0
ARC
8
DEFAULT_255_1_234
10
9.5045087
20
15.1922009
40
0.2359799
50
179.8808832
51
187.4339886
0
ARC
8
DEFAULT_255_1_234
10
9.489022
20
15.1942088
40
0.2204978
50
132.005434
51
180.3942919
0
ARC
8
DEFAULT_255_1_234
10
9.5546834
20
15.1336083
40
0.3095791
50
129.2319861
51
133.5302299
0
ARC
8
DEFAULT_255_1_234
10
9.5600342
20
15.1241928
40
0.3202615
50
100.4410011
51
128.9081242
0
ARC
8
DEFAULT_255_1_234
10
9.5874225
20
14.9956455
40
0.4516583
50
89.6985377
51
100.9026564
0
ARC
8
DEFAULT_255_1_234
10
9.5931267
20
14.9796166
40
0.4676928
50
77.6965325
51
90.4076836
0
ARC
8
DEFAULT_255_1_234
10
9.6262252
20
15.1223413
40
0.3211988
50
50.7276602
51
78.0399361
0
ARC
8
DEFAULT_255_1_234
10
9.670671
20
15.1741296
40
0.2529778
50
25.7545084
51
51.0957453
0
ARC
8
DEFAULT_255_1_234
10
9.6707935
20
15.1791206
40
0.250738
50
359.2468627
51
24.7394243
0
ARC
8
DEFAULT_255_1_234
10
9.6423387
20
15.1762664
40
0.1297815
50
359.8050318
51
45.1544908
0
ARC
8
DEFAULT_255_1_234
10
9.6016528
20
15.1414794
40
0.1831883
50
43.8047702
51
49.6271585
0
ARC
8
DEFAULT_255_1_234
10
9.602443
20
15.1415678
40
0.18261
50
49.7980766
51
82.1218353
0
ARC
8
DEFAULT_255_1_234
10
9.5905402
20
15.0768998
40
0.2483163
50
81.4465357
51
90.1710293
0
ARC
8
DEFAULT_255_1_234
10
9.5881005
20
15.024288
40
0.300932
50
89.6766211
51
99.1264602
0
ARC
8
DEFAULT_255_1_234
10
9.5709466
20
15.1276537
40
0.1961547
50
98.968313
51
113.4570237
0
ARC
8
DEFAULT_255_1_234
10
9.5513551
20
15.1744965
40
0.1453859
50
113.722589
51
127.4763106
0
ARC
8
DEFAULT_255_1_234
10
9.5345198
20
15.1945124
40
0.1192639
50
126.9083309
51
150.3165862
0
ARC
8
DEFAULT_255_1_234
10
9.529753
20
15.1995981
40
0.112623
50
151.3635175
51
180.0701457
0
ARC
8
DEFAULT_255_1_234
10
9.5606315
20
15.197499
40
0.1435149
50
179.2169974
51
179.9954013
0
ARC
8
DEFAULT_255_1_234
10
9.5245372
20
15.1962056
40
0.1074286
50
179.3040112
51
198.4225446
0
ARC
8
DEFAULT_255_1_234
10
9.5053506
20
15.1912127
40
0.0876573
50
199.2895851
51
238.6034594
0
ARC
8
DEFAULT_255_1_234
10
9.5656352
20
15.285845
40
0.1998512
50
237.9846301
51
246.8744712
0
ARC
8
DEFAULT_255_1_234
10
9.6514297
20
15.4821205
40
0.4140547
50
246.6234531
51
251.8168941
0
ARC
8
DEFAULT_255_1_234
10
9.7544841
20
15.7915905
40
0.7402308
50
251.713434
51
255.0778414
0
ARC
8
DEFAULT_255_1_234
10
9.8744104
20
16.2382563
40
1.2027155
50
255.0367487
51
257.4705983
0
ARC
8
DEFAULT_255_1_234
10
9.3636113
20
13.9368863
40
1.1546601
50
73.6837552
51
77.5016755
0
ARC
8
DEFAULT_255_1_234
10
9.4724888
20
14.3068581
40
0.7690009
50
68.7044154
51
73.7249639
0
ARC
8
DEFAULT_255_1_234
10
9.5627909
20
14.5395654
40
0.5193873
50
63.590599
51
68.6626804
0
ARC
8
DEFAULT_255_1_234
10
9.6398928
20
14.6933123
40
0.3473927
50
54.7106439
51
63.7013633
0
ARC
8
DEFAULT_255_1_234
10
9.7023382
20
14.78054
40
0.2401192
50
41.0622434
51
54.8487496
0
ARC
8
DEFAULT_255_1_234
10
9.7364769
20
14.8118592
40
0.1938094
50
34.4950568
51
40.7105546
0
ARC
8
DEFAULT_255_1_234
10
9.7411576
20
14.8167078
40
0.1872106
50
9.3763373
51
34.0833615
0
ARC
8
DEFAULT_255_1_234
10
9.6758447
20
14.8041728
40
0.2536988
50
359.7694872
51
9.7663171
0
ARC
8
DEFAULT_255_1_234
10
9.6955947
20
14.7998764
40
0.2339696
50
335.8654732
51
0.8022045
0
ARC
8
DEFAULT_255_1_234
10
9.7030992
20
14.8012197
40
0.2277108
50
307.7357725
51
334.7849066
0
ARC
8
DEFAULT_255_1_234
10
9.6630168
20
14.8462645
40
0.2878951
50
307.0241536
51
308.5578354
0
ARC
8
DEFAULT_255_1_234
10
9.6372499
20
14.8848801
40
0.3342515
50
282.9362969
51
306.5646424
0
ARC
8
DEFAULT_255_1_234
10
9.6010796
20
15.0316108
40
0.4853615
50
271.1026298
51
283.2200835
0
ARC
8
DEFAULT_255_1_234
10
9.594704
20
15.1557418
40
0.6096052
50
269.9919117
51
271.4772449
0
ARC
8
DEFAULT_255_1_234
10
9.5920795
20
15.0479436
40
0.5018135
50
259.0723564
51
270.289833
0
ARC
8
DEFAULT_255_1_234
10
9.5708528
20
14.9362271
40
0.388099
50
245.4963068
51
259.0227342
0
ARC
8
DEFAULT_255_1_234
10
9.5430484
20
14.8780615
40
0.3236422
50
228.9684658
51
245.7044727
0
ARC
8
DEFAULT_255_1_234
10
9.5164928
20
14.8453575
40
0.2815426
50
214.4011705
51
228.6759915
0
ARC
8
DEFAULT_255_1_234
10
9.4875668
20
14.829529
40
0.2487548
50
179.9705531
51
215.1572795
0
ARC
8
DEFAULT_255_1_234
10
9.5576268
20
14.8368806
40
0.1703809
50
182.4299387
51
203.0329699
0
ARC
8
DEFAULT_255_1_234
10
9.5391926
20
14.8312396
40
0.1512226
50
203.798802
51
232.548466
0
ARC
8
DEFAULT_255_1_234
10
9.5668447
20
14.8663826
40
0.1959374
50
232.3782728
51
256.3934612
0
ARC
8
DEFAULT_255_1_234
10
9.5898809
20
14.9553842
40
0.2878639
50
256.104506
51
268.4626716
0
ARC
8
DEFAULT_255_1_234
10
9.5945293
20
15.0350487
40
0.3676329
50
268.0715632
51
270.0138206
0
ARC
8
DEFAULT_255_1_234
10
9.5963818
20
15.0078083
40
0.3403971
50
269.7031147
51
278.8341955
0
ARC
8
DEFAULT_255_1_234
10
9.6145911
20
14.8947876
40
0.2259217
50
278.6728789
51
292.8232582
0
ARC
8
DEFAULT_255_1_234
10
9.6346449
20
14.8446449
40
0.171929
50
293.1452328
51
303.6655899
0
ARC
8
DEFAULT_255_1_234
10
9.6611328
20
14.8070204
40
0.1259367
50
303.1248165
51
321.742847
0
ARC
8
DEFAULT_255_1_234
10
9.6797208
20
14.7907156
40
0.1012531
50
322.4748573
51
1.1291126
0
LINE
8
DEFAULT_255_1_234
10
10.1761158
20
15.6416656
11
10.324703
21
15.6416656
0
LINE
8
DEFAULT_255_1_234
10
10.324703
20
15.6416656
11
10.324703
21
15.4312341
0
LINE
8
DEFAULT_255_1_234
10
10.324703
20
15.4312341
11
10.4869441
21
15.4312341
0
LINE
8
DEFAULT_255_1_234
10
10.4869441
20
15.4312341
11
10.4869441
21
15.3163802
0
LINE
8
DEFAULT_255_1_234
10
10.4869441
20
15.3163802
11
10.324703
21
15.3163802
0
LINE
8
DEFAULT_255_1_234
10
10.324703
20
15.3163802
11
10.324703
21
14.7774506
0
LINE
8
DEFAULT_255_1_234
10
10.49096
20
14.6826761
11
10.49096
21
14.5622
0
LINE
8
DEFAULT_255_1_234
10
10.1761158
20
14.7774506
11
10.1761158
21
15.3163802
0
LINE
8
DEFAULT_255_1_234
10
10.1761158
20
15.3163802
11
10.0178906
21
15.3163802
0
LINE
8
DEFAULT_255_1_234
10
10.0178906
20
15.3163802
11
10.0178906
21
15.4312341
0
LINE
8
DEFAULT_255_1_234
10
10.0178906
20
15.4312341
11
10.1761158
21
15.4312341
0
LINE
8
DEFAULT_255_1_234
10
10.1761158
20
15.4312341
11
10.1761158
21
15.6416656
0
ARC
8
DEFAULT_255_1_234
10
10.5254533
20
14.7764084
40
0.200753
50
179.7025659
51
187.917967
0
ARC
8
DEFAULT_255_1_234
10
10.4508559
20
14.7656724
40
0.1253883
50
187.7545981
51
200.2447476
0
ARC
8
DEFAULT_255_1_234
10
10.408788
20
14.7499859
40
0.0804913
50
200.130383
51
219.174133
0
ARC
8
DEFAULT_255_1_234
10
10.3952056
20
14.7407515
40
0.0641445
50
220.4434483
51
249.6172
0
ARC
8
DEFAULT_255_1_234
10
10.4106907
20
14.7796968
40
0.1060489
50
249.1032952
51
262.775154
0
ARC
8
DEFAULT_255_1_234
10
10.4195079
20
14.8425715
40
0.1695354
50
262.4913187
51
270.2611758
0
ARC
8
DEFAULT_255_1_234
10
10.4192496
20
14.8641103
40
0.191075
50
270.3091804
51
275.6625139
0
ARC
8
DEFAULT_255_1_234
10
10.404972
20
15.0142435
40
0.3418851
50
275.5610264
51
279.0879356
0
ARC
8
DEFAULT_255_1_234
10
10.3719598
20
15.2237699
40
0.5539959
50
279.0365489
51
281.5011378
0
ARC
8
DEFAULT_255_1_234
10
10.3362674
20
15.4041423
40
0.7378639
50
281.4243939
51
282.1017894
0
ARC
8
DEFAULT_255_1_234
10
10.3705921
20
14.9959858
40
0.4501761
50
275.2597045
51
285.5083879
0
ARC
8
DEFAULT_255_1_234
10
10.3767246
20
14.9403606
40
0.3942242
50
270.0268409
51
275.1132796
0
ARC
8
DEFAULT_255_1_234
10
10.3747211
20
14.8076614
40
0.261534
50
257.3573315
51
270.479383
0
ARC
8
DEFAULT_255_1_234
10
10.3534102
20
14.7178406
40
0.1692304
50
230.8037497
51
257.741658
0
ARC
8
DEFAULT_255_1_234
10
10.3466005
20
14.7068777
40
0.1564393
50
219.974146
51
230.1990686
0
ARC
8
DEFAULT_255_1_234
10
10.3797952
20
14.7322579
40
0.1981916
50
196.5084186
51
219.4318458
0
ARC
8
DEFAULT_255_1_234
10
10.4813397
20
14.7641194
40
0.3046086
50
184.6404872
51
196.8269686
0
ARC
8
DEFAULT_255_1_234
10
10.6058461
20
14.7766908
40
0.4297309
50
179.8986958
51
184.9681077
0
LINE
8
DEFAULT_255_1_234
10
10.6226805
20
14.9726218
11
10.6226805
21
14.9999297
0
LINE
8
DEFAULT_255_1_234
10
11.359994
20
15.0159932
11
11.359994
21
14.9541488
0
LINE
8
DEFAULT_255_1_234
10
11.359994
20
14.9541488
11
10.7712676
21
14.9541488
0
LINE
8
DEFAULT_255_1_234
10
11.257991
20
14.7846792
11
11.3487496
21
14.7139999
0
LINE
8
DEFAULT_255_1_234
10
10.7760867
20
15.0762313
11
11.2114069
21
15.0762313
0
LINE
8
DEFAULT_255_1_234
10
11.2114069
20
15.0762313
11
11.2114069
21
15.0874757
0
ARC
8
DEFAULT_255_1_234
10
11.016617
20
14.9837332
40
0.4376191
50
252.3266134
51
270.5810217
0
ARC
8
DEFAULT_255_1_234
10
10.9961259
20
14.9096644
40
0.3608374
50
223.3000567
51
251.8561855
0
ARC
8
DEFAULT_255_1_234
10
11.0172619
20
14.9301937
40
0.3902993
50
190.9374509
51
223.3654032
0
ARC
8
DEFAULT_255_1_234
10
11.1897592
20
14.9691885
40
0.5670891
50
179.6531105
51
191.4989439
0
ARC
8
DEFAULT_255_1_234
10
11.2019604
20
15.0031417
40
0.5792888
50
167.4007466
51
180.3176909
0
ARC
8
DEFAULT_255_1_234
10
11.0967666
20
15.0253885
40
0.471777
50
154.1835823
51
167.250763
0
ARC
8
DEFAULT_255_1_234
10
11.0336133
20
15.0586417
40
0.4004528
50
134.3149965
51
154.5315275
0
ARC
8
DEFAULT_255_1_234
10
11.0118628
20
15.0777228
40
0.371612
50
122.8616532
51
133.9707695
0
ARC
8
DEFAULT_255_1_234
10
11.0015202
20
15.0999703
40
0.3473289
50
89.8249009
51
123.4199222
0
ARC
8
DEFAULT_255_1_234
10
11.0065243
20
15.0352967
40
0.4120197
50
74.7876118
51
90.5482747
0
ARC
8
DEFAULT_255_1_234
10
11.0358987
20
15.143803
40
0.2996077
50
39.8178249
51
74.7633718
0
ARC
8
DEFAULT_255_1_234
10
10.9846307
20
15.1038351
40
0.3645855
50
16.8990863
51
39.4829761
0
ARC
8
DEFAULT_255_1_234
10
10.7951603
20
15.0431526
40
0.5635218
50
4.9636328
51
17.2026414
0
ARC
8
DEFAULT_255_1_234
10
10.5533673
20
15.017634
40
0.8066286
50
359.8834553
51
5.2834307
0
ARC
8
DEFAULT_255_1_234
10
11.1571198
20
14.9607803
40
0.3859091
50
180.9846213
51
194.9401313
0
ARC
8
DEFAULT_255_1_234
10
11.0521476
20
14.9320849
40
0.2770883
50
194.80314
51
222.0412631
0
ARC
8
DEFAULT_255_1_234
10
11.0217357
20
14.9019116
40
0.2343055
50
221.5417084
51
268.8614402
0
ARC
8
DEFAULT_255_1_234
10
11.0290352
20
14.9695686
40
0.3021528
50
267.732405
51
270.0097136
0
ARC
8
DEFAULT_255_1_234
10
11.0308162
20
14.9897105
40
0.3222994
50
269.6924892
51
280.4117579
0
ARC
8
DEFAULT_255_1_234
10
11.0484569
20
14.8978193
40
0.2287344
50
280.2255091
51
298.6338936
0
ARC
8
DEFAULT_255_1_234
10
11.0601361
20
14.8734223
40
0.2017294
50
299.0430333
51
300.4643464
0
ARC
8
DEFAULT_255_1_234
10
10.9921366
20
14.9868038
40
0.3339357
50
300.6577328
51
322.0378878
0
ARC
8
DEFAULT_255_1_234
10
10.9570905
20
15.0172021
40
0.3802736
50
321.6750233
51
322.3046845
0
ARC
8
DEFAULT_255_1_234
10
11.0501867
20
14.900537
40
0.3520454
50
276.9728461
51
328.0035423
0
ARC
8
DEFAULT_255_1_234
10
11.022492
20
15.0485841
40
0.5024498
50
269.8361028
51
278.0581756
0
ARC
8
DEFAULT_255_1_234
10
10.9997657
20
15.1230757
40
0.202159
50
89.2018686
51
117.2851756
0
ARC
8
DEFAULT_255_1_234
10
11.0050826
20
15.1188752
40
0.2083484
50
118.0551165
51
137.4540413
0
ARC
8
DEFAULT_255_1_234
10
11.0425566
20
15.0848304
40
0.2589774
50
137.5109581
51
158.8516286
0
ARC
8
DEFAULT_255_1_234
10
11.1563402
20
15.0389074
40
0.38167
50
158.5845963
51
170.1721436
0
ARC
8
DEFAULT_255_1_234
10
11.2732791
20
15.0156823
40
0.5008657
50
169.8376422
51
173.0566086
0
ARC
8
DEFAULT_255_1_234
10
10.8035865
20
15.0667509
40
0.4083467
50
2.9091802
51
12.8847116
0
ARC
8
DEFAULT_255_1_234
10
10.9406541
20
15.0990101
40
0.2675383
50
12.6957781
51
28.6404489
0
ARC
8
DEFAULT_255_1_234
10
10.9948212
20
15.1270458
40
0.2065654
50
29.0169854
51
41.1487595
0
ARC
8
DEFAULT_255_1_234
10
11.0150997
20
15.1447003
40
0.1796786
50
41.1646065
51
85.0013516
0
ARC
8
DEFAULT_255_1_234
10
11.0030094
20
15.0712431
40
0.2539726
50
83.7280015
51
90.0964893
0
LINE
8
DEFAULT_255_1_234
10
11.9519332
20
15.4360531
11
11.9519332
21
15.2979072
0
LINE
8
DEFAULT_255_1_234
10
11.6804604
20
15.1790375
11
11.6804604
21
14.5622
0
LINE
8
DEFAULT_255_1_234
10
11.6804604
20
14.5622
11
11.5318732
21
14.5622
0
LINE
8
DEFAULT_255_1_234
10
11.5318732
20
14.5622
11
11.5318732
21
15.4312341
0
LINE
8
DEFAULT_255_1_234
10
11.5318732
20
15.4312341
11
11.6764445
21
15.4312341
0
LINE
8
DEFAULT_255_1_234
10
11.6764445
20
15.4312341
11
11.6788541
21
15.3308374
0
ARC
8
DEFAULT_255_1_234
10
11.8852737
20
14.8919342
40
0.4114092
50
80.6754243
51
86.8932892
0
ARC
8
DEFAULT_255_1_234
10
11.8792271
20
14.79517
40
0.5083596
50
86.8038578
51
90.0431435
0
ARC
8
DEFAULT_255_1_234
10
11.8755252
20
15.0408866
40
0.2626638
50
89.2759698
51
106.6213787
0
ARC
8
DEFAULT_255_1_234
10
11.8550816
20
15.115183
40
0.1856317
50
107.1346045
51
157.6458115
0
ARC
8
DEFAULT_255_1_234
10
11.9242418
20
15.0768311
40
0.2643398
50
155.6586782
51
157.2539184
0
ARC
8
DEFAULT_255_1_234
10
11.903762
20
15.1937157
40
0.2634121
50
127.8165941
51
148.6302098
0
ARC
8
DEFAULT_255_1_234
10
11.8784089
20
15.2197218
40
0.2273596
50
91.3329982
51
126.7875809
0
ARC
8
DEFAULT_255_1_234
10
11.8860029
20
15.1482195
40
0.299078
50
89.986594
51
92.4688449
0
ARC
8
DEFAULT_255_1_234
10
11.8868424
20
15.1757078
40
0.2715908
50
85.3589899
51
90.1623399
0
ARC
8
DEFAULT_255_1_234
10
11.895294
20
15.2761164
40
0.1708278
50
78.401942
51
85.4594656
0
ARC
8
DEFAULT_255_1_234
10
11.9097824
20
15.3452236
40
0.1002194
50
67.7858312
51
78.5728455
0
ARC
8
DEFAULT_255_1_234
10
11.9205676
20
15.3731887
40
0.0702548
50
63.4835954
51
67.3062642
0
LINE
8
DEFAULT_255_1_234
10
12.2667773
20
15.7316211
11
12.2667773
21
14.6882983
0
LINE
8
DEFAULT_255_1_234
10
12.2667773
20
14.6882983
11
12.8209672
21
14.6882983
0
LINE
8
DEFAULT_255_1_234
10
12.8209672
20
14.6882983
11
12.8209672
21
14.5622
0
LINE
8
DEFAULT_255_1_234
10
12.8209672
20
14.5622
11
12.1117647
21
14.5622
0
LINE
8
DEFAULT_255_1_234
10
12.1117647
20
14.5622
11
12.1117647
21
15.7316211
0
LINE
8
DEFAULT_255_1_234
10
12.1117647
20
15.7316211
11
12.2667773
21
15.7316211
0
LINE
8
DEFAULT_255_1_234
10
12.9342147
20
14.9943075
11
12.9342147
21
15.0047488
0
LINE
8
DEFAULT_255_1_234
10
13.725341
20
14.9975202
11
13.725341
21
14.987079
0
ARC
8
DEFAULT_255_1_234
10
13.4928327
20
15.0079837
40
0.5586273
50
166.3003825
51
180.3317926
0
ARC
8
DEFAULT_255_1_234
10
13.4065486
20
15.0272964
40
0.4702272
50
153.8608245
51
166.0967125
0
ARC
8
DEFAULT_255_1_234
10
13.3399889
20
15.062975
40
0.3947658
50
135.1316692
51
154.253643
0
ARC
8
DEFAULT_255_1_234
10
13.3121448
20
15.0875666
40
0.3576898
50
121.7044358
51
134.776924
0
ARC
8
DEFAULT_255_1_234
10
13.3188442
20
15.0746867
40
0.3721701
50
93.4002104
51
121.5398234
0
ARC
8
DEFAULT_255_1_234
10
13.3283398
20
14.9921228
40
0.4551749
50
89.9706281
51
93.9769836
0
ARC
8
DEFAULT_255_1_234
10
13.333049
20
15.0311362
40
0.4161854
50
71.3323442
51
90.6161982
0
ARC
8
DEFAULT_255_1_234
10
13.3493186
20
15.0913578
40
0.3539455
50
41.1815071
51
70.707185
0
ARC
8
DEFAULT_255_1_234
10
13.3015586
20
15.0479919
40
0.4184468
50
12.1971897
51
41.3445735
0
ARC
8
DEFAULT_255_1_234
10
13.1089594
20
15.0021425
40
0.616399
50
359.5703439
51
12.5804035
0
ARC
8
DEFAULT_255_1_234
10
13.1562669
20
14.9839116
40
0.5690829
50
347.0197749
51
0.3188898
0
ARC
8
DEFAULT_255_1_234
10
13.2521171
20
14.9632808
40
0.4710501
50
334.3504053
51
346.846361
0
ARC
8
DEFAULT_255_1_234
10
13.3366594
20
14.9193805
40
0.3758475
50
310.422922
51
334.8045033
0
ARC
8
DEFAULT_255_1_234
10
13.344842
20
14.9129782
40
0.3656736
50
301.8486886
51
310.097356
0
ARC
8
DEFAULT_255_1_234
10
13.3416146
20
14.9205638
40
0.3738224
50
274.307774
51
301.655379
0
ARC
8
DEFAULT_255_1_234
10
13.3305453
20
15.0083361
40
0.4621997
50
269.9546461
51
274.8588071
0
ARC
8
DEFAULT_255_1_234
10
13.3256387
20
14.9582249
40
0.4121134
50
250.888809
51
270.631312
0
ARC
8
DEFAULT_255_1_234
10
13.3106307
20
14.9023277
40
0.3544073
50
221.1701932
51
250.2227191
0
ARC
8
DEFAULT_255_1_234
10
13.3590461
20
14.9464439
40
0.4198961
50
191.6263638
51
221.3526367
0
ARC
8
DEFAULT_255_1_234
10
13.5478457
20
14.9901329
40
0.6136451
50
179.610213
51
192.0693181
0
ARC
8
DEFAULT_255_1_234
10
13.5901685
20
14.9838633
40
0.5065736
50
179.636298
51
190.6162791
0
ARC
8
DEFAULT_255_1_234
10
13.4259353
20
14.951859
40
0.3392576
50
190.4136628
51
208.7170242
0
ARC
8
DEFAULT_255_1_234
10
13.3748977
20
14.9265366
40
0.2823401
50
209.1867941
51
217.4225593
0
ARC
8
DEFAULT_255_1_234
10
13.3219811
20
14.8799558
40
0.2120636
50
216.1156896
51
265.2575835
0
ARC
8
DEFAULT_255_1_234
10
13.329896
20
14.9373109
40
0.2698952
50
264.5897417
51
270.0601757
0
ARC
8
DEFAULT_255_1_234
10
13.333202
20
14.8993185
40
0.2319225
50
269.2532621
51
291.8792492
0
ARC
8
DEFAULT_255_1_234
10
13.3361242
20
14.8815238
40
0.2143562
50
292.9269754
51
323.1776747
0
ARC
8
DEFAULT_255_1_234
10
13.2968064
20
14.9163452
40
0.2667346
50
322.2518483
51
323.0930371
0
ARC
8
DEFAULT_255_1_234
10
13.2673723
20
14.934499
40
0.3011886
50
323.6941278
51
343.8493282
0
ARC
8
DEFAULT_255_1_234
10
13.1095266
20
14.982535
40
0.4661719
50
343.5748474
51
355.0079071
0
ARC
8
DEFAULT_255_1_234
10
12.9087511
20
15.0033424
40
0.6680042
50
354.7285225
51
0.1206288
0
ARC
8
DEFAULT_255_1_234
10
13.0855977
20
15.0079751
40
0.4911667
50
359.623636
51
11.2015604
0
ARC
8
DEFAULT_255_1_234
10
13.2390205
20
15.039564
40
0.3345323
50
10.9989411
51
30.8319188
0
ARC
8
DEFAULT_255_1_234
10
13.2786077
20
15.0604297
40
0.2898553
50
31.3008956
51
37.3959224
0
ARC
8
DEFAULT_255_1_234
10
13.3282656
20
15.1023653
40
0.2249582
50
36.5915954
51
62.2442953
0
ARC
8
DEFAULT_255_1_234
10
13.3329109
20
15.1020602
40
0.2231053
50
63.3365542
51
89.7195421
0
ARC
8
DEFAULT_255_1_234
10
13.3285963
20
15.0451884
40
0.2800267
50
88.8936788
51
90.0047485
0
ARC
8
DEFAULT_255_1_234
10
13.3254322
20
15.1024787
40
0.2227586
50
89.1921125
51
114.7099455
0
ARC
8
DEFAULT_255_1_234
10
13.3283086
20
15.1062628
40
0.2205633
50
115.7997161
51
142.2900762
0
ARC
8
DEFAULT_255_1_234
10
13.3721819
20
15.0672658
40
0.2791541
50
141.4658779
51
142.3795754
0
ARC
8
DEFAULT_255_1_234
10
13.3830723
20
15.0629557
40
0.2904292
50
143.0175714
51
163.234115
0
ARC
8
DEFAULT_255_1_234
10
13.5408896
20
15.0130054
40
0.4559523
50
162.9447461
51
174.3732162
0
ARC
8
DEFAULT_255_1_234
10
13.755471
20
14.9889143
40
0.6718682
50
174.1228657
51
180.1565175
0
LINE
8
DEFAULT_255_1_234
10
14.4674736
20
15.3348532
11
14.4747021
21
15.4312341
0
LINE
8
DEFAULT_255_1_234
10
14.4747021
20
15.4312341
11
14.6104385
21
15.4312341
0
LINE
8
DEFAULT_255_1_234
10
14.6104385
20
15.4312341
11
14.6104385
21
14.5830825
0
LINE
8
DEFAULT_255_1_234
10
13.9205122
20
14.3702415
11
13.9976169
21
14.4593938
0
LINE
8
DEFAULT_255_1_234
10
14.4610482
20
14.5742476
11
14.4610482
21
14.6489428
0
LINE
8
DEFAULT_255_1_234
10
14.4610482
20
14.7999395
11
14.4610482
21
15.1967073
0
ARC
8
DEFAULT_255_1_234
10
14.5909184
20
15.008267
40
0.7145938
50
169.8803029
51
180.346492
0
ARC
8
DEFAULT_255_1_234
10
14.3555956
20
15.0519732
40
0.4752555
50
152.8532592
51
170.0826994
0
ARC
8
DEFAULT_255_1_234
10
14.272273
20
15.0914298
40
0.3831198
50
142.0149503
51
152.4184154
0
ARC
8
DEFAULT_255_1_234
10
14.2085687
20
15.1494197
40
0.2972906
50
94.3317211
51
143.267544
0
ARC
8
DEFAULT_255_1_234
10
14.2189586
20
15.0711614
40
0.3761364
50
89.949086
51
95.0094918
0
ARC
8
DEFAULT_255_1_234
10
14.2231156
20
15.0870946
40
0.3602233
50
72.9495766
51
90.6080422
0
ARC
8
DEFAULT_255_1_234
10
14.2436262
20
15.1613804
40
0.2831969
50
37.7742493
51
72.5100279
0
ARC
8
DEFAULT_255_1_234
10
14.1516175
20
14.5792461
40
0.4588371
50
346.3654765
51
0.4790689
0
ARC
8
DEFAULT_255_1_234
10
14.2883999
20
14.5444784
40
0.3177173
50
314.3365179
51
346.6439967
0
ARC
8
DEFAULT_255_1_234
10
14.2781901
20
14.558812
40
0.3351156
50
280.7143003
51
313.8723582
0
ARC
8
DEFAULT_255_1_234
10
14.2446554
20
14.7082406
40
0.4882011
50
269.662739
51
281.3210136
0
ARC
8
DEFAULT_255_1_234
10
14.2430233
20
14.667007
40
0.4469607
50
245.5258041
51
269.8408437
0
ARC
8
DEFAULT_255_1_234
10
14.2048789
20
14.5954537
40
0.3660692
50
232.6665166
51
246.3199597
0
ARC
8
DEFAULT_255_1_234
10
14.1564583
20
14.5312155
40
0.2856276
50
214.3037329
51
232.5747698
0
ARC
8
DEFAULT_255_1_234
10
14.2682764
20
14.6737759
40
0.3452771
50
218.3818001
51
236.3658697
0
ARC
8
DEFAULT_255_1_234
10
14.2282588
20
14.6179637
40
0.2766535
50
236.8638847
51
270.6382346
0
ARC
8
DEFAULT_255_1_234
10
14.2337419
20
14.6510542
40
0.3097363
50
269.5557741
51
282.3971413
0
ARC
8
DEFAULT_255_1_234
10
14.2573494
20
14.5495559
40
0.2055403
50
282.04403
51
308.3081445
0
ARC
8
DEFAULT_255_1_234
10
14.2658892
20
14.5359365
40
0.1895677
50
308.8344832
51
315.2032883
0
ARC
8
DEFAULT_255_1_234
10
14.2580465
20
14.541677
40
0.199183
50
315.6210926
51
345.6795494
0
ARC
8
DEFAULT_255_1_234
10
14.1601352
20
14.5689308
40
0.3008009
50
345.2625808
51
358.6313382
0
ARC
8
DEFAULT_255_1_234
10
14.0712774
20
14.5741622
40
0.3897707
50
358.1745328
51
0.0125581
0
ARC
8
DEFAULT_255_1_234
10
14.2397432
20
14.8402802
40
0.2925507
50
275.695063
51
319.1537421
0
ARC
8
DEFAULT_255_1_234
10
14.2185576
20
14.9626945
40
0.4165589
50
269.8801937
51
276.923904
0
ARC
8
DEFAULT_255_1_234
10
14.2132482
20
14.851705
40
0.3056007
50
244.0749417
51
270.8321594
0
ARC
8
DEFAULT_255_1_234
10
14.2207595
20
14.8537057
40
0.3107397
50
217.7817538
51
242.9905588
0
ARC
8
DEFAULT_255_1_234
10
14.2818153
20
14.9079252
40
0.3922508
50
217.5213304
51
218.5773048
0
ARC
8
DEFAULT_255_1_234
10
14.3088685
20
14.9236333
40
0.4232938
50
195.3495212
51
216.9774018
0
ARC
8
DEFAULT_255_1_234
10
14.5111699
20
14.9824389
40
0.6339531
50
183.9386736
51
195.634887
0
ARC
8
DEFAULT_255_1_234
10
14.7387999
20
15.0028851
40
0.8624629
50
179.9295504
51
184.2550478
0
ARC
8
DEFAULT_255_1_234
10
14.6066412
20
14.9840275
40
0.5809212
50
179.6990322
51
188.5748787
0
ARC
8
DEFAULT_255_1_234
10
14.405323
20
14.9525858
40
0.377167
50
188.411837
51
202.0556851
0
ARC
8
DEFAULT_255_1_234
10
14.308446
20
14.914553
40
0.2731001
50
202.2924333
51
215.4475715
0
ARC
8
DEFAULT_255_1_234
10
14.2440087
20
14.8646537
40
0.191695
50
214.4673484
51
264.336154
0
ARC
8
DEFAULT_255_1_234
10
14.2542027
20
14.9283255
40
0.2560911
50
263.4724496
51
270.0961704
0
ARC
8
DEFAULT_255_1_234
10
14.2582229
20
14.913392
40
0.2411839
50
269.1470351
51
291.7977507
0
ARC
8
DEFAULT_255_1_234
10
14.2644663
20
14.8854994
40
0.2130159
50
293.0244875
51
327.6231489
0
ARC
8
DEFAULT_255_1_234
10
14.1936844
20
14.9372511
40
0.3005627
50
326.5166824
51
332.8160514
0
ARC
8
DEFAULT_255_1_234
10
14.2287878
20
15.0732491
40
0.2630339
50
27.9929136
51
47.6313992
0
ARC
8
DEFAULT_255_1_234
10
14.2649402
20
15.1076486
40
0.2132848
50
48.5793389
51
88.624502
0
ARC
8
DEFAULT_255_1_234
10
14.2563248
20
15.0327538
40
0.2884455
50
87.2706405
51
90.0170635
0
ARC
8
DEFAULT_255_1_234
10
14.2534572
20
15.098645
40
0.2225717
50
89.2839171
51
110.1848324
0
ARC
8
DEFAULT_255_1_234
10
14.2473059
20
15.125227
40
0.1955293
50
111.1807684
51
145.0424799
0
ARC
8
DEFAULT_255_1_234
10
14.2579839
20
15.112955
40
0.2113491
50
143.9743769
51
144.1060945
0
ARC
8
DEFAULT_255_1_234
10
14.3122806
20
15.077775
40
0.2759807
50
144.7982748
51
162.8715388
0
ARC
8
DEFAULT_255_1_234
10
14.4817456
20
15.0232842
40
0.453983
50
162.5984223
51
173.3418672
0
ARC
8
DEFAULT_255_1_234
10
14.7485234
20
14.9901851
40
0.7228019
50
173.1877442
51
180.2462216
0
LINE
8
DEFAULT_255_1_234
10
14.995962
20
15.4312341
11
14.995962
21
14.5622
0
LINE
8
DEFAULT_255_1_234
10
14.995962
20
14.5622
11
14.8473748
21
14.5622
0
LINE
8
DEFAULT_255_1_234
10
14.8473748
20
14.5622
11
14.8473748
21
15.4312341
0
LINE
8
DEFAULT_255_1_234
10
14.8473748
20
15.4312341
11
14.995962
21
15.4312341
0
ARC
8
DEFAULT_255_1_234
10
14.9331897
20
15.6626889
40
0.097867
50
161.415052
51
180.5526306
0
ARC
8
DEFAULT_255_1_234
10
14.9207675
20
15.6661077
40
0.0850062
50
138.1827368
51
160.9307106
0
ARC
8
DEFAULT_255_1_234
10
14.909762
20
15.6756588
40
0.0704362
50
104.6368899
51
138.0039868
0
ARC
8
DEFAULT_255_1_234
10
14.9204775
20
15.6389963
40
0.1086221
50
92.0600725
51
105.2189128
0
ARC
8
DEFAULT_255_1_234
10
14.9228124
20
15.6047117
40
0.1429728
50
89.9756393
51
92.5012496
0
ARC
8
DEFAULT_255_1_234
10
14.9238143
20
15.6272731
40
0.1204151
50
78.0235316
51
90.4478182
0
ARC
8
DEFAULT_255_1_234
10
14.9330235
20
15.6686295
40
0.0780493
50
55.051506
51
78.3369085
0
ARC
8
DEFAULT_255_1_234
10
14.9380509
20
15.6770711
40
0.0682538
50
42.0501187
51
54.4513741
0
ARC
8
DEFAULT_255_1_234
10
14.9245376
20
15.6646798
40
0.0865878
50
1.7497075
51
42.1496013
0
ARC
8
DEFAULT_255_1_234
10
14.8990709
20
15.6617738
40
0.1121515
50
359.9852656
51
2.8364544
0
ARC
8
DEFAULT_255_1_234
10
14.9156701
20
15.6608229
40
0.0955566
50
342.1070653
51
0.552888
0
ARC
8
DEFAULT_255_1_234
10
14.9299399
20
15.6568904
40
0.0807713
50
316.7107116
51
341.6516965
0
ARC
8
DEFAULT_255_1_234
10
14.9366436
20
15.6508823
40
0.0717724
50
285.4397031
51
316.5324284
0
ARC
8
DEFAULT_255_1_234
10
14.9256353
20
15.6874554
40
0.1099597
50
272.3547054
51
285.8953117
0
ARC
8
DEFAULT_255_1_234
10
14.9229511
20
15.7240048
40
0.1465932
50
269.9695369
51
272.8160237
0
ARC
8
DEFAULT_255_1_234
10
14.9219692
20
15.7020863
40
0.1246779
50
258.8431134
51
270.4153935
0
ARC
8
DEFAULT_255_1_234
10
14.9129735
20
15.6585414
40
0.0802162
50
238.5431189
51
259.1288175
0
ARC
8
DEFAULT_255_1_234
10
14.9061619
20
15.6461856
40
0.0661247
50
222.5062634
51
237.9906969
0
ARC
8
DEFAULT_255_1_234
10
14.9189207
20
15.6577889
40
0.0833707
50
184.1069131
51
222.460413
0
ARC
8
DEFAULT_255_1_234
10
14.9458448
20
15.6616349
40
0.1105176
50
179.9429482
51
185.0960898
0
LINE
8
DEFAULT_255_1_234
10
15.7870882
20
14.8360823
11
15.9276436
21
14.8360823
0
LINE
8
DEFAULT_255_1_234
10
15.1951491
20
14.9886853
11
15.1951491
21
15.0135837
0
LINE
8
DEFAULT_255_1_234
10
15.9276436
20
15.1324534
11
15.7870882
21
15.1324534
0
LINE
8
DEFAULT_255_1_234
10
15.3437362
20
15.0079615
11
15.3437362
21
14.9798504
0
ARC
8
DEFAULT_255_1_234
10
15.5858917
20
14.8814121
40
0.2140268
50
269.0327816
51
309.2224514
0
ARC
8
DEFAULT_255_1_234
10
15.6068672
20
14.8599108
40
0.1841255
50
308.396669
51
329.6984113
0
ARC
8
DEFAULT_255_1_234
10
15.6206527
20
14.849482
40
0.166974
50
330.401383
51
355.3970571
0
ARC
8
DEFAULT_255_1_234
10
15.6663393
20
14.8512082
40
0.2617417
50
329.2357853
51
356.6870514
0
ARC
8
DEFAULT_255_1_234
10
15.6113415
20
14.8802971
40
0.3238945
50
324.8706984
51
329.7905871
0
ARC
8
DEFAULT_255_1_234
10
15.6035133
20
14.8870106
40
0.3341614
50
298.8769168
51
324.7016144
0
ARC
8
DEFAULT_255_1_234
10
15.5703325
20
14.9398917
40
0.3965068
50
296.9023738
51
299.385174
0
ARC
8
DEFAULT_255_1_234
10
15.5832938
20
14.9111422
40
0.365007
50
269.8406811
51
297.1299281
0
ARC
8
DEFAULT_255_1_234
10
15.5779595
20
14.9749407
40
0.4288259
50
253.315473
51
270.5771285
0
ARC
8
DEFAULT_255_1_234
10
15.553263
20
14.8855739
40
0.3361372
50
221.1002312
51
252.9744583
0
ARC
8
DEFAULT_255_1_234
10
15.5992627
20
14.925059
40
0.3967576
50
194.5394537
51
221.0302238
0
ARC
8
DEFAULT_255_1_234
10
15.7841448
20
14.9765952
40
0.5886672
50
182.0499201
51
194.8773585
0
ARC
8
DEFAULT_255_1_234
10
15.9611646
20
14.988406
40
0.7660157
50
179.9791086
51
182.4591564
0
ARC
8
DEFAULT_255_1_234
10
15.787369
20
15.0165498
40
0.5922274
50
168.614861
51
180.2869651
0
ARC
8
DEFAULT_255_1_234
10
15.6671835
20
15.0401269
40
0.4697532
50
154.9162259
51
168.5402336
0
ARC
8
DEFAULT_255_1_234
10
15.5750343
20
15.085663
40
0.3669966
50
133.5746694
51
155.2558665
0
ARC
8
DEFAULT_255_1_234
10
15.5587502
20
15.0995467
40
0.3457206
50
122.0165146
51
133.2055214
0
ARC
8
DEFAULT_255_1_234
10
15.562334
20
15.0907361
40
0.355095
50
97.8731644
51
121.7531281
0
ARC
8
DEFAULT_255_1_234
10
15.5802423
20
14.9850159
40
0.4622833
50
89.8471353
51
98.2769494
0
ARC
8
DEFAULT_255_1_234
10
15.5851176
20
15.0460091
40
0.401305
50
73.3760412
51
90.5199766
0
ARC
8
DEFAULT_255_1_234
10
15.6047539
20
15.1182516
40
0.3264695
50
47.7085968
51
73.0509704
0
ARC
8
DEFAULT_255_1_234
10
15.6177409
20
15.1295128
40
0.309407
50
3.7443473
51
48.0843753
0
ARC
8
DEFAULT_255_1_234
10
15.5190359
20
15.1137614
40
0.4090351
50
2.6192045
51
5.0432185
0
ARC
8
DEFAULT_255_1_234
10
15.5647212
20
15.1177592
40
0.2228519
50
3.780656
51
23.9356886
0
ARC
8
DEFAULT_255_1_234
10
15.5875828
20
15.1258155
40
0.198697
50
24.4869552
51
46.9440088
0
ARC
8
DEFAULT_255_1_234
10
15.5876679
20
15.1281484
40
0.1969404
50
46.498716
51
89.3298174
0
ARC
8
DEFAULT_255_1_234
10
15.5815033
20
15.0686723
40
0.2565428
50
88.1083975
51
90.0061569
0
ARC
8
DEFAULT_255_1_234
10
15.5787463
20
15.0740759
40
0.251154
50
89.3773333
51
107.2071161
0
ARC
8
DEFAULT_255_1_234
10
15.5644586
20
15.125819
40
0.1975072
50
107.6883219
51
143.3583002
0
ARC
8
DEFAULT_255_1_234
10
15.6211969
20
15.0831873
40
0.2684762
50
143.2846717
51
162.935323
0
ARC
8
DEFAULT_255_1_234
10
15.7717571
20
15.0348652
40
0.4265927
50
162.6650068
51
174.0805419
0
ARC
8
DEFAULT_255_1_234
10
15.986041
20
15.0099636
40
0.6423078
50
173.8423985
51
180.1785963
0
ARC
8
DEFAULT_255_1_234
10
15.931251
20
14.9768039
40
0.5875227
50
179.7028978
51
188.2277152
0
ARC
8
DEFAULT_255_1_234
10
15.7210812
20
14.9453247
40
0.3750127
50
188.0629871
51
201.1160002
0
ARC
8
DEFAULT_255_1_234
10
15.611301
20
14.9034238
40
0.2575093
50
201.2187293
51
216.9761968
0
ARC
8
DEFAULT_255_1_234
10
15.5661573
20
14.8695993
40
0.2010998
50
217.0135981
51
265.2056839
0
ARC
8
DEFAULT_255_1_234
10
15.5817433
20
14.9617695
40
0.2943543
50
263.681807
51
270.104251
0
LINE
8
DEFAULT_255_1_234
10
16.5252049
20
15.7316211
11
16.724392
21
15.7316211
0
LINE
8
DEFAULT_255_1_234
10
16.724392
20
15.7316211
11
17.1067028
21
14.7774506
0
LINE
8
DEFAULT_255_1_234
10
17.1067028
20
14.7774506
11
17.4890135
21
15.7316211
0
LINE
8
DEFAULT_255_1_234
10
17.4890135
20
15.7316211
11
17.6890038
21
15.7316211
0
LINE
8
DEFAULT_255_1_234
10
17.6890038
20
15.7316211
11
17.6890038
21
14.5622
0
LINE
8
DEFAULT_255_1_234
10
17.6890038
20
14.5622
11
17.5347944
21
14.5622
0
LINE
8
DEFAULT_255_1_234
10
17.5347944
20
14.5622
11
17.5347944
21
15.0175996
0
LINE
8
DEFAULT_255_1_234
10
17.5347944
20
15.0175996
11
17.5492516
21
15.5091419
0
LINE
8
DEFAULT_255_1_234
10
17.5492516
20
15.5091419
11
17.1653345
21
14.5622
0
LINE
8
DEFAULT_255_1_234
10
17.1653345
20
14.5622
11
17.0472679
21
14.5622
0
LINE
8
DEFAULT_255_1_234
10
17.0472679
20
14.5622
11
16.664154
21
15.5067324
0
LINE
8
DEFAULT_255_1_234
10
16.664154
20
15.5067324
11
16.6794143
21
15.0175996
0
LINE
8
DEFAULT_255_1_234
10
16.6794143
20
15.0175996
11
16.6794143
21
14.5622
0
LINE
8
DEFAULT_255_1_234
10
16.6794143
20
14.5622
11
16.5252049
21
14.5622
0
LINE
8
DEFAULT_255_1_234
10
16.5252049
20
14.5622
11
16.5252049
21
15.7316211
0
LINE
8
DEFAULT_255_1_234
10
18.1162923
20
15.7316211
11
18.1162923
21
14.6882983
0
LINE
8
DEFAULT_255_1_234
10
18.1162923
20
14.6882983
11
18.6704822
21
14.6882983
0
LINE
8
DEFAULT_255_1_234
10
18.6704822
20
14.6882983
11
18.6704822
21
14.5622
0
LINE
8
DEFAULT_255_1_234
10
18.6704822
20
14.5622
11
17.9612797
21
14.5622
0
LINE
8
DEFAULT_255_1_234
10
17.9612797
20
14.5622
11
17.9612797
21
15.7316211
0
LINE
8
DEFAULT_255_1_234
10
17.9612797
20
15.7316211
11
18.1162923
21
15.7316211
0
LINE
8
DEFAULT_255_1_234
10
19.5740528
20
14.6834792
11
19.5740528
21
14.5622
0
LINE
8
DEFAULT_255_1_234
10
19.5740528
20
14.5622
11
18.807825
21
14.5622
0
LINE
8
DEFAULT_255_1_234
10
18.807825
20
14.5622
11
18.807825
21
14.6690221
0
LINE
8
DEFAULT_255_1_234
10
18.807825
20
14.6690221
11
19.2126246
21
15.1187995
0
LINE
8
DEFAULT_255_1_234
10
18.9339232
20
15.3870595
11
18.7853361
21
15.3870595
0
LINE
8
DEFAULT_255_1_234
10
19.3001705
20
15.0232218
11
18.9869327
21
14.6834792
0
LINE
8
DEFAULT_255_1_234
10
18.9869327
20
14.6834792
11
19.5740528
21
14.6834792
0
ARC
8
DEFAULT_255_1_234
10
17.8636079
20
16.3117527
40
1.8008286
50
318.5132453
51
320.7828378
0
ARC
8
DEFAULT_255_1_234
10
18.3923053
20
15.8814426
40
1.1191493
50
320.7372736
51
323.9737074
0
ARC
8
DEFAULT_255_1_234
10
18.784291
20
15.5974361
40
0.6350923
50
323.8961724
51
328.6421089
0
ARC
8
DEFAULT_255_1_234
10
18.9889505
20
15.4712031
40
0.3946393
50
328.8299013
51
331.789948
0
ARC
8
DEFAULT_255_1_234
10
19.0886684
20
15.4197509
40
0.2824501
50
331.4255242
51
352.9364833
0
ARC
8
DEFAULT_255_1_234
10
19.1023184
20
15.4166976
40
0.2685315
50
353.2248685
51
0.0169286
0
ARC
8
DEFAULT_255_1_234
10
19.1233061
20
15.418995
40
0.2475536
50
359.4866256
51
15.9339782
0
ARC
8
DEFAULT_255_1_234
10
19.1740046
20
15.4326286
40
0.1950618
50
16.1714718
51
43.5284424
0
ARC
8
DEFAULT_255_1_234
10
19.1817355
20
15.4403573
40
0.184134
50
43.4415429
51
83.1661404
0
ARC
8
DEFAULT_255_1_234
10
19.1683273
20
15.3666771
40
0.258926
50
82.160215
51
90.1505798
0
ARC
8
DEFAULT_255_1_234
10
19.1651701
20
15.3129865
40
0.3126255
50
89.5460705
51
102.5418777
0
ARC
8
DEFAULT_255_1_234
10
19.1408787
20
15.4160665
40
0.2067346
50
102.1739365
51
129.2061916
0
ARC
8
DEFAULT_255_1_234
10
19.1329858
20
15.4285094
40
0.1921118
50
129.7279328
51
135.7542026
0
ARC
8
DEFAULT_255_1_234
10
19.1451386
20
15.4188045
40
0.2075944
50
136.175737
51
166.3674722
0
ARC
8
DEFAULT_255_1_234
10
19.2458305
20
15.3918182
40
0.3118201
50
165.9092917
51
178.8683903
0
ARC
8
DEFAULT_255_1_234
10
19.3323167
20
15.3871179
40
0.3983935
50
178.438168
51
180.0083905
0
ARC
8
DEFAULT_255_1_234
10
19.1921769
20
15.3910231
40
0.4068601
50
163.2878735
51
180.5581814
0
ARC
8
DEFAULT_255_1_234
10
19.112003
20
15.413084
40
0.3237344
50
133.454115
51
162.9470031
0
ARC
8
DEFAULT_255_1_234
10
19.1298572
20
15.3941
40
0.349795
50
100.7869394
51
133.4384016
0
ARC
8
DEFAULT_255_1_234
10
19.1646343
20
15.2392319
40
0.5084616
50
89.6605301
51
101.3704185
0
ARC
8
DEFAULT_255_1_234
10
19.1712682
20
15.2453496
40
0.502348
50
78.2171172
51
90.4130393
0
ARC
8
DEFAULT_255_1_234
10
19.206776
20
15.4077637
40
0.3361092
50
55.9268222
51
78.4888551
0
ARC
8
DEFAULT_255_1_234
10
19.22642
20
15.4416324
40
0.2970617
50
47.9292255
51
55.4054003
0
ARC
8
DEFAULT_255_1_234
10
19.2365761
20
15.4519502
40
0.2825983
50
4.3347696
51
48.0560701
0
ARC
8
DEFAULT_255_1_234
10
19.1270155
20
15.4349601
40
0.393225
50
359.925209
51
5.5967654
0
ARC
8
DEFAULT_255_1_234
10
19.1699046
20
15.4405816
40
0.3503892
50
337.8914096
51
358.9967724
0
ARC
8
DEFAULT_255_1_234
10
18.8985458
20
15.5452706
40
0.6412172
50
326.9135351
51
338.3505194
0
ARC
8
DEFAULT_255_1_234
10
18.4999762
20
15.8007284
40
1.1146189
50
319.6472867
51
327.095818
0
ARC
8
DEFAULT_255_1_234
10
18.1166765
20
16.1169
40
1.6114559
50
317.2586784
51
319.9046139
0
LINE
8
DEFAULT_255_1_234
10
20.4647726
20
15.2537327
11
20.4647726
21
15.0609709
0
LINE
8
DEFAULT_255_1_234
10
19.7266558
20
15.0408916
11
19.7266558
21
15.2392755
0
LINE
8
DEFAULT_255_1_234
10
20.3161854
20
15.0208123
11
20.3161854
21
15.2641739
0
LINE
8
DEFAULT_255_1_234
10
19.875243
20
15.2754184
11
19.875243
21
15.0376789
0
ARC
8
DEFAULT_255_1_234
10
19.2400615
20
15.0560805
40
1.2247208
50
353.8441951
51
0.2287902
0
ARC
8
DEFAULT_255_1_234
10
19.7040119
20
15.0042806
40
0.7578929
50
344.4934747
51
353.9765454
0
ARC
8
DEFAULT_255_1_234
10
20.0032709
20
14.9191981
40
0.4467846
50
329.2803592
51
344.7472793
0
ARC
8
DEFAULT_255_1_234
10
20.1025534
20
14.8647018
40
0.3336173
50
324.9352394
51
328.6160465
0
ARC
8
DEFAULT_255_1_234
10
20.1402643
20
14.8383427
40
0.2876076
50
280.580143
51
324.9173126
0
ARC
8
DEFAULT_255_1_234
10
20.1001435
20
15.0054099
40
0.4592847
50
269.5977311
51
281.6734359
0
ARC
8
DEFAULT_255_1_234
10
20.0929341
20
14.9934173
40
0.4472986
50
256.6228859
51
270.51044
0
ARC
8
DEFAULT_255_1_234
10
20.0527319
20
14.8385877
40
0.2873874
50
215.8618325
51
257.2788573
0
ARC
8
DEFAULT_255_1_234
10
20.154835
20
14.9070977
40
0.4102928
50
197.9693508
51
215.2623606
0
ARC
8
DEFAULT_255_1_234
10
20.4033466
20
14.9909709
40
0.6725652
50
187.8816417
51
198.2346507
0
ARC
8
DEFAULT_255_1_234
10
20.7991674
20
15.0481079
40
1.0724845
50
180.8976217
51
188.0055519
0
ARC
8
DEFAULT_255_1_234
10
21.0791862
20
15.0584777
40
1.3526448
50
180.7449369
51
181.1510016
0
ARC
8
DEFAULT_255_1_234
10
20.9214591
20
15.2441042
40
1.1948131
50
173.7675579
51
180.231553
0
ARC
8
DEFAULT_255_1_234
10
20.4696738
20
15.2951666
40
0.7401564
50
164.3058563
51
173.9002247
0
ARC
8
DEFAULT_255_1_234
10
20.1784807
20
15.3790656
40
0.4371288
50
148.7922025
51
164.568378
0
ARC
8
DEFAULT_255_1_234
10
20.0833259
20
15.4321929
40
0.3282386
50
144.5883898
51
148.1176286
0
ARC
8
DEFAULT_255_1_234
10
20.0490157
20
15.4561315
40
0.2864044
50
101.6440918
51
144.514236
0
ARC
8
DEFAULT_255_1_234
10
20.0915224
20
15.2872069
40
0.4604934
50
89.5284041
51
102.5819763
0
ARC
8
DEFAULT_255_1_234
10
20.0994311
20
15.2833018
40
0.464401
50
77.0437873
51
90.5081339
0
ARC
8
DEFAULT_255_1_234
10
20.1396313
20
15.4475615
40
0.2953195
50
48.2778575
51
77.4994676
0
ARC
8
DEFAULT_255_1_234
10
20.1468944
20
15.4604746
40
0.2808655
50
36.3142134
51
47.6305865
0
ARC
8
DEFAULT_255_1_234
10
20.0600251
20
15.4019515
40
0.3855453
50
18.2931786
51
35.6769206
0
ARC
8
DEFAULT_255_1_234
10
19.805701
20
15.3146593
40
0.654423
50
8.024666
51
18.5605216
0
ARC
8
DEFAULT_255_1_234
10
19.389393
20
15.2531792
40
1.0752407
50
1.1274072
51
8.1718305
0
ARC
8
DEFAULT_255_1_234
10
19.0658121
20
15.2404885
40
1.3990231
50
0.5424119
51
1.3863029
0
ARC
8
DEFAULT_255_1_234
10
19.2479499
20
15.2677342
40
1.0682415
50
359.8090433
51
4.9407866
0
ARC
8
DEFAULT_255_1_234
10
19.6689513
20
15.3053113
40
0.6455691
50
4.8362157
51
12.2904523
0
ARC
8
DEFAULT_255_1_234
10
19.9444628
20
15.3666965
40
0.3633074
50
12.0805627
51
23.8173984
0
ARC
8
DEFAULT_255_1_234
10
20.0618333
20
15.4163919
40
0.2358723
50
24.2871213
51
31.3935614
0
ARC
8
DEFAULT_255_1_234
10
20.114303
20
15.4507233
40
0.1732111
50
30.7407893
51
82.4657128
0
ARC
8
DEFAULT_255_1_234
10
20.0963164
20
15.3623691
40
0.263235
50
81.1060089
51
90.2184952
0
ARC
8
DEFAULT_255_1_234
10
20.0927463
20
15.3881924
40
0.2374236
50
89.3806855
51
105.6762551
0
ARC
8
DEFAULT_255_1_234
10
20.0744094
20
15.4548567
40
0.1682847
50
105.7981136
51
149.7388061
0
ARC
8
DEFAULT_255_1_234
10
20.1808172
20
15.390895
40
0.2924306
50
149.4208916
51
163.6286378
0
ARC
8
DEFAULT_255_1_234
10
20.389906
20
15.327125
40
0.5110213
50
163.3763315
51
172.1410975
0
ARC
8
DEFAULT_255_1_234
10
20.7199779
20
15.2798518
40
0.8444586
50
172.0259487
51
178.0703232
0
ARC
8
DEFAULT_255_1_234
10
21.0229869
20
15.2654906
40
1.1477868
50
177.8631668
51
179.5044149
0
ARC
8
DEFAULT_255_1_234
10
20.9157273
20
15.0340389
40
1.0404907
50
179.7995573
51
185.2460446
0
ARC
8
DEFAULT_255_1_234
10
20.5114312
20
14.9957513
40
0.6343885
50
185.1411642
51
193.0079639
0
ARC
8
DEFAULT_255_1_234
10
20.2470785
20
14.9332641
40
0.3627568
50
192.7897626
51
205.2507664
0
ARC
8
DEFAULT_255_1_234
10
20.1424332
20
14.8865415
40
0.2481908
50
205.8005384
51
211.2537509
0
ARC
8
DEFAULT_255_1_234
10
20.0900772
20
14.851458
40
0.1852521
50
210.3789793
51
238.4008143
0
ARC
8
DEFAULT_255_1_234
10
20.0881294
20
14.8561376
40
0.1882621
50
239.6520629
51
265.9793761
0
ARC
8
DEFAULT_255_1_234
10
20.0966495
20
14.9233427
40
0.2559272
50
265.1315437
51
270.060332
0
ARC
8
DEFAULT_255_1_234
10
20.0995273
20
14.8909534
40
0.2235528
50
269.3314664
51
287.2178029
0
ARC
8
DEFAULT_255_1_234
10
20.1133125
20
14.8406279
40
0.1714108
50
287.7958004
51
329.080874
0
ARC
8
DEFAULT_255_1_234
10
20.0175582
20
14.900393
40
0.2842745
50
328.6634704
51
343.3325132
0
ARC
8
DEFAULT_255_1_234
10
19.8002602
20
14.9680863
40
0.5118644
50
343.0499468
51
351.9393422
0
ARC
8
DEFAULT_255_1_234
10
19.4535902
20
15.0191949
40
0.8622784
50
351.8069023
51
357.7959224
0
ARC
8
DEFAULT_255_1_234
10
19.1300458
20
15.0359721
40
1.1862365
50
357.5871873
51
359.2677531
0
LINE
8
DEFAULT_255_1_234
10
21.3884225
20
15.2537327
11
21.3884225
21
15.0609709
0
LINE
8
DEFAULT_255_1_234
10
20.6503057
20
15.0408916
11
20.6503057
21
15.2392755
0
LINE
8
DEFAULT_255_1_234
10
21.2398353
20
15.0208123
11
21.2398353
21
15.2641739
0
LINE
8
DEFAULT_255_1_234
10
20.7988929
20
15.2754184
11
20.7988929
21
15.0376789
0
ARC
8
DEFAULT_255_1_234
10
20.1637114
20
15.0560805
40
1.2247208
50
353.8441951
51
0.2287902
0
ARC
8
DEFAULT_255_1_234
10
20.6276618
20
15.0042806
40
0.7578929
50
344.4934747
51
353.9765454
0
ARC
8
DEFAULT_255_1_234
10
20.9269208
20
14.9191981
40
0.4467846
50
329.2803592
51
344.7472793
0
ARC
8
DEFAULT_255_1_234
10
21.0262033
20
14.8647018
40
0.3336173
50
324.9352394
51
328.6160465
0
ARC
8
DEFAULT_255_1_234
10
21.0639142
20
14.8383427
40
0.2876076
50
280.580143
51
324.9173126
0
ARC
8
DEFAULT_255_1_234
10
21.0237934
20
15.0054099
40
0.4592847
50
269.5977311
51
281.6734359
0
ARC
8
DEFAULT_255_1_234
10
21.016584
20
14.9934173
40
0.4472986
50
256.6228859
51
270.51044
0
ARC
8
DEFAULT_255_1_234
10
20.9763818
20
14.8385877
40
0.2873874
50
215.8618325
51
257.2788573
0
ARC
8
DEFAULT_255_1_234
10
21.0784849
20
14.9070977
40
0.4102928
50
197.9693508
51
215.2623606
0
ARC
8
DEFAULT_255_1_234
10
21.3269965
20
14.9909709
40
0.6725652
50
187.8816417
51
198.2346507
0
ARC
8
DEFAULT_255_1_234
10
21.7228173
20
15.0481079
40
1.0724845
50
180.8976217
51
188.0055519
0
ARC
8
DEFAULT_255_1_234
10
22.0028361
20
15.0584777
40
1.3526448
50
180.7449369
51
181.1510016
0
ARC
8
DEFAULT_255_1_234
10
21.845109
20
15.2441042
40
1.1948131
50
173.7675579
51
180.231553
0
ARC
8
DEFAULT_255_1_234
10
21.3933237
20
15.2951666
40
0.7401564
50
164.3058563
51
173.9002247
0
ARC
8
DEFAULT_255_1_234
10
21.1021306
20
15.3790656
40
0.4371288
50
148.7922025
51
164.568378
0
ARC
8
DEFAULT_255_1_234
10
21.0069758
20
15.4321929
40
0.3282386
50
144.5883898
51
148.1176286
0
ARC
8
DEFAULT_255_1_234
10
20.9726656
20
15.4561315
40
0.2864044
50
101.6440918
51
144.514236
0
ARC
8
DEFAULT_255_1_234
10
21.0151723
20
15.2872069
40
0.4604934
50
89.5284041
51
102.5819763
0
ARC
8
DEFAULT_255_1_234
10
21.023081
20
15.2833018
40
0.464401
50
77.0437873
51
90.5081339
0
ARC
8
DEFAULT_255_1_234
10
21.0632812
20
15.4475615
40
0.2953195
50
48.2778575
51
77.4994676
0
ARC
8
DEFAULT_255_1_234
10
21.0705443
20
15.4604746
40
0.2808655
50
36.3142134
51
47.6305865
0
ARC
8
DEFAULT_255_1_234
10
20.983675
20
15.4019515
40
0.3855453
50
18.2931786
51
35.6769206
0
ARC
8
DEFAULT_255_1_234
10
20.7293509
20
15.3146593
40
0.654423
50
8.024666
51
18.5605216
0
ARC
8
DEFAULT_255_1_234
10
20.3130429
20
15.2531792
40
1.0752407
50
1.1274072
51
8.1718305
0
ARC
8
DEFAULT_255_1_234
10
19.989462
20
15.2404885
40
1.3990231
50
0.5424119
51
1.3863029
0
ARC
8
DEFAULT_255_1_234
10
20.1715998
20
15.2677342
40
1.0682415
50
359.8090433
51
4.9407866
0
ARC
8
DEFAULT_255_1_234
10
20.5926012
20
15.3053113
40
0.6455691
50
4.8362157
51
12.2904523
0
ARC
8
DEFAULT_255_1_234
10
20.8681127
20
15.3666965
40
0.3633074
50
12.0805627
51
23.8173984
0
ARC
8
DEFAULT_255_1_234
10
20.9854832
20
15.4163919
40
0.2358723
50
24.2871213
51
31.3935614
0
ARC
8
DEFAULT_255_1_234
10
21.0379529
20
15.4507233
40
0.1732111
50
30.7407893
51
82.4657128
0
ARC
8
DEFAULT_255_1_234
10
21.0199663
20
15.3623691
40
0.263235
50
81.1060089
51
90.2184952
0
ARC
8
DEFAULT_255_1_234
10
21.0163962
20
15.3881924
40
0.2374236
50
89.3806855
51
105.6762551
0
ARC
8
DEFAULT_255_1_234
10
20.9980593
20
15.4548567
40
0.1682847
50
105.7981136
51
149.7388061
0
ARC
8
DEFAULT_255_1_234
10
21.1044671
20
15.390895
40
0.2924306
50
149.4208916
51
163.6286378
0
ARC
8
DEFAULT_255_1_234
10
21.3135559
20
15.327125
40
0.5110213
50
163.3763315
51
172.1410975
0
ARC
8
DEFAULT_255_1_234
10
21.6436278
20
15.2798518
40
0.8444586
50
172.0259487
51
178.0703232
0
ARC
8
DEFAULT_255_1_234
10
21.9466368
20
15.2654906
40
1.1477868
50
177.8631668
51
179.5044149
0
ARC
8
DEFAULT_255_1_234
10
21.8393772
20
15.0340389
40
1.0404907
50
179.7995573
51
185.2460446
0
ARC
8
DEFAULT_255_1_234
10
21.4350812
20
14.9957513
40
0.6343885
50
185.1411642
51
193.0079639
0
ARC
8
DEFAULT_255_1_234
10
21.1707284
20
14.9332641
40
0.3627568
50
192.7897626
51
205.2507664
0
ARC
8
DEFAULT_255_1_234
10
21.0660831
20
14.8865415
40
0.2481908
50
205.8005384
51
211.2537509
0
ARC
8
DEFAULT_255_1_234
10
21.0137272
20
14.851458
40
0.1852521
50
210.3789793
51
238.4008143
0
ARC
8
DEFAULT_255_1_234
10
21.0117793
20
14.8561376
40
0.1882621
50
239.6520629
51
265.9793761
0
ARC
8
DEFAULT_255_1_234
10
21.0202994
20
14.9233427
40
0.2559272
50
265.1315437
51
270.060332
0
ARC
8
DEFAULT_255_1_234
10
21.0231772
20
14.8909534
40
0.2235528
50
269.3314664
51
287.2178029
0
ARC
8
DEFAULT_255_1_234
10
21.0369624
20
14.8406279
40
0.1714108
50
287.7958004
51
329.080874
0
ARC
8
DEFAULT_255_1_234
10
20.9412081
20
14.900393
40
0.2842745
50
328.6634704
51
343.3325132
0
ARC
8
DEFAULT_255_1_234
10
20.7239101
20
14.9680863
40
0.5118644
50
343.0499468
51
351.9393422
0
ARC
8
DEFAULT_255_1_234
10
20.3772401
20
15.0191949
40
0.8622784
50
351.8069023
51
357.7959224
0
ARC
8
DEFAULT_255_1_234
10
20.0536957
20
15.0359721
40
1.1862365
50
357.5871873
51
359.2677531
0
LINE
8
DEFAULT_255_1_234
10
4.2407489
20
13.7473211
11
4.2407489
21
12.7039983
0
LINE
8
DEFAULT_255_1_234
10
4.2407489
20
12.7039983
11
4.7949389
21
12.7039983
0
LINE
8
DEFAULT_255_1_234
10
4.7949389
20
12.7039983
11
4.7949389
21
12.5779
0
LINE
8
DEFAULT_255_1_234
10
4.7949389
20
12.5779
11
4.0857364
21
12.5779
0
LINE
8
DEFAULT_255_1_234
10
4.0857364
20
12.5779
11
4.0857364
21
13.7473211
0
LINE
8
DEFAULT_255_1_234
10
4.0857364
20
13.7473211
11
4.2407489
21
13.7473211
0
LINE
8
DEFAULT_255_1_234
10
5.4206113
20
13.7529433
11
5.4206113
21
12.5779
0
LINE
8
DEFAULT_255_1_234
10
5.4206113
20
12.5779
11
5.2712209
21
12.5779
0
LINE
8
DEFAULT_255_1_234
10
5.2712209
20
12.5779
11
5.2712209
21
13.5682133
0
LINE
8
DEFAULT_255_1_234
10
5.2712209
20
13.5682133
11
4.9716371
21
13.4581785
0
LINE
8
DEFAULT_255_1_234
10
4.9716371
20
13.4581785
11
4.9716371
21
13.5931117
0
LINE
8
DEFAULT_255_1_234
10
4.9716371
20
13.5931117
11
5.3973192
21
13.7529433
0
LINE
8
DEFAULT_255_1_234
10
5.3973192
20
13.7529433
11
5.4206113
21
13.7529433
0
LINE
8
DEFAULT_255_1_234
10
5.0754482
20
5.222701
11
5.0754482
21
4.7938062
0
LINE
8
DEFAULT_255_1_234
10
4.1742872
20
5.1688884
11
4.1742872
21
5.2708915
0
LINE
8
DEFAULT_255_1_234
10
5.0754482
20
5.4668659
11
4.9212389
21
5.4668659
0
LINE
8
DEFAULT_255_1_234
10
4.3292998
20
5.2749073
11
4.3292998
21
5.1793296
0
LINE
8
DEFAULT_255_1_234
10
4.922042
20
4.8347681
11
4.922042
21
5.0974059
0
LINE
8
DEFAULT_255_1_234
10
4.922042
20
5.0974059
11
4.6513725
21
5.0974059
0
LINE
8
DEFAULT_255_1_234
10
4.6513725
20
5.0974059
11
4.6513725
21
5.222701
0
LINE
8
DEFAULT_255_1_234
10
4.6513725
20
5.222701
11
5.0754482
21
5.222701
0
ARC
8
DEFAULT_255_1_234
10
4.7922989
20
4.9931396
40
0.3462765
50
295.8437914
51
324.8549609
0
ARC
8
DEFAULT_255_1_234
10
4.7506956
20
5.0684567
40
0.4322211
50
291.5695085
51
296.4549398
0
ARC
8
DEFAULT_255_1_234
10
4.6996207
20
5.2049275
40
0.5779178
50
278.6622409
51
291.3045483
0
ARC
8
DEFAULT_255_1_234
10
4.6656699
20
5.4197408
40
0.7953952
50
270.020006
51
278.7494541
0
ARC
8
DEFAULT_255_1_234
10
4.6618623
20
5.5514036
40
0.927067
50
269.9969998
51
270.2524872
0
ARC
8
DEFAULT_255_1_234
10
4.6580336
20
5.1430589
40
0.5187361
50
253.5786322
51
270.4175299
0
ARC
8
DEFAULT_255_1_234
10
4.6406992
20
5.0759236
40
0.4494451
50
238.8203306
51
253.2788235
0
ARC
8
DEFAULT_255_1_234
10
4.6387365
20
5.0708231
40
0.4440665
50
206.7883783
51
238.6962764
0
ARC
8
DEFAULT_255_1_234
10
4.7161275
20
5.1172405
40
0.5341121
50
206.1129412
51
207.4916643
0
ARC
8
DEFAULT_255_1_234
10
4.775819
20
5.1426488
40
0.5989041
50
188.6921119
51
205.7821245
0
ARC
8
DEFAULT_255_1_234
10
4.9614552
20
5.174223
40
0.7871862
50
180.3882829
51
188.9219216
0
ARC
8
DEFAULT_255_1_234
10
5.0842366
20
5.2765464
40
0.909967
50
170.2024264
51
180.3560651
0
ARC
8
DEFAULT_255_1_234
10
4.7678884
20
5.3331237
40
0.5886083
50
154.2857445
51
170.3893044
0
ARC
8
DEFAULT_255_1_234
10
4.6397087
20
5.391795
40
0.4476743
50
139.8401567
51
153.9332699
0
ARC
8
DEFAULT_255_1_234
10
4.6037823
20
5.4205577
40
0.4016697
50
98.4190291
51
139.6707122
0
ARC
8
DEFAULT_255_1_234
10
4.6417341
20
5.2360328
40
0.5898566
50
89.7659205
51
99.4415478
0
ARC
8
DEFAULT_255_1_234
10
4.648259
20
5.2425844
40
0.5833147
50
78.0551672
51
90.4042112
0
ARC
8
DEFAULT_255_1_234
10
4.68871
20
5.4244644
40
0.3970055
50
54.6380464
51
78.3339173
0
ARC
8
DEFAULT_255_1_234
10
4.7077156
20
5.4564795
40
0.3599102
50
50.031736
51
54.1558201
0
ARC
8
DEFAULT_255_1_234
10
4.6969944
20
5.4468766
40
0.3741624
50
18.1092409
51
49.7180913
0
ARC
8
DEFAULT_255_1_234
10
4.5513144
20
5.3935089
40
0.5292424
50
7.9672797
51
18.6984571
0
ARC
8
DEFAULT_255_1_234
10
4.5663622
20
5.4058504
40
0.3600838
50
9.7557294
51
27.3215714
0
ARC
8
DEFAULT_255_1_234
10
4.6791094
20
5.4621912
40
0.2340608
50
27.7361077
51
84.5257964
0
ARC
8
DEFAULT_255_1_234
10
4.6463481
20
5.297864
40
0.4011215
50
82.106034
51
90.2001166
0
ARC
8
DEFAULT_255_1_234
10
4.6413698
20
5.3486215
40
0.3503799
50
89.4150119
51
105.5823402
0
ARC
8
DEFAULT_255_1_234
10
4.6156696
20
5.4421867
40
0.2533503
50
105.6678618
51
144.2648758
0
ARC
8
DEFAULT_255_1_234
10
4.7049951
20
5.3786289
40
0.3629787
50
144.3561283
51
162.8564086
0
ARC
8
DEFAULT_255_1_234
10
4.913386
20
5.3117017
40
0.5818441
50
162.6076014
51
173.6780284
0
ARC
8
DEFAULT_255_1_234
10
5.2195004
20
5.274489
40
0.8902007
50
173.4670142
51
179.9730753
0
ARC
8
DEFAULT_255_1_234
10
5.0286675
20
5.175126
40
0.6993804
50
179.6556203
51
190.0080463
0
ARC
8
DEFAULT_255_1_234
10
4.7970504
20
5.1326375
40
0.4639066
50
189.8116607
51
206.6796816
0
ARC
8
DEFAULT_255_1_234
10
4.7125656
20
5.0932503
40
0.3707421
50
207.1031645
51
217.7074368
0
ARC
8
DEFAULT_255_1_234
10
4.6491345
20
5.0380559
40
0.2868417
50
216.7345547
51
265.6812148
0
ARC
8
DEFAULT_255_1_234
10
4.6622136
20
5.1284855
40
0.3780509
50
264.7366618
51
270.0611241
0
ARC
8
DEFAULT_255_1_234
10
4.6645399
20
5.4125111
40
0.662079
50
269.8335834
51
276.0539546
0
ARC
8
DEFAULT_255_1_234
10
4.6852404
20
5.222356
40
0.4708016
50
275.9894168
51
284.4615085
0
ARC
8
DEFAULT_255_1_234
10
4.7050411
20
5.1390663
40
0.3852094
50
284.7034461
51
286.4953897
0
ARC
8
DEFAULT_255_1_234
10
4.7457424
20
5.0079965
40
0.2479842
50
286.0770838
51
304.2625829
0
ARC
8
DEFAULT_255_1_234
10
4.7590838
20
4.9861594
40
0.2224291
50
304.5891602
51
317.1073298
0
LINE
8
DEFAULT_255_1_234
10
6.2312154
20
5.8098211
11
6.2312154
21
4.6404
0
LINE
8
DEFAULT_255_1_234
10
6.2312154
20
4.6404
11
6.0762028
21
4.6404
0
LINE
8
DEFAULT_255_1_234
10
6.0762028
20
4.6404
11
5.4874764
21
5.541561
0
LINE
8
DEFAULT_255_1_234
10
5.4874764
20
5.541561
11
5.4874764
21
4.6404
0
LINE
8
DEFAULT_255_1_234
10
5.4874764
20
4.6404
11
5.3324639
21
4.6404
0
LINE
8
DEFAULT_255_1_234
10
5.3324639
20
4.6404
11
5.3324639
21
5.8098211
0
LINE
8
DEFAULT_255_1_234
10
5.3324639
20
5.8098211
11
5.4874764
21
5.8098211
0
LINE
8
DEFAULT_255_1_234
10
5.4874764
20
5.8098211
11
6.0778092
21
4.9046442
0
LINE
8
DEFAULT_255_1_234
10
6.0778092
20
4.9046442
11
6.0778092
21
5.8098211
0
LINE
8
DEFAULT_255_1_234
10
6.0778092
20
5.8098211
11
6.2312154
21
5.8098211
0
LINE
8
DEFAULT_255_1_234
10
6.8287767
20
4.6404
11
6.5050977
21
4.6404
0
LINE
8
DEFAULT_255_1_234
10
6.5050977
20
4.6404
11
6.5050977
21
5.8098211
0
LINE
8
DEFAULT_255_1_234
10
6.5050977
20
5.8098211
11
6.8352021
21
5.8098211
0
LINE
8
DEFAULT_255_1_234
10
7.3508397
20
5.2644661
11
7.3508397
21
5.1897709
0
LINE
8
DEFAULT_255_1_234
10
6.839218
20
5.6829196
11
6.659307
21
5.6829196
0
LINE
8
DEFAULT_255_1_234
10
6.659307
20
5.6829196
11
6.659307
21
4.7664983
0
LINE
8
DEFAULT_255_1_234
10
6.659307
20
4.7664983
11
6.8215481
21
4.7664983
0
LINE
8
DEFAULT_255_1_234
10
7.1982367
20
5.1929836
11
7.1982367
21
5.2612534
0
ARC
8
DEFAULT_255_1_234
10
6.8390963
20
5.2232894
40
0.5865446
50
75.4101064
51
90.3804066
0
ARC
8
DEFAULT_255_1_234
10
6.8620477
20
5.3189492
40
0.4881916
50
60.145586
51
75.1888407
0
ARC
8
DEFAULT_255_1_234
10
6.8779252
20
5.3466199
40
0.4562893
50
26.5253612
51
60.1450928
0
ARC
8
DEFAULT_255_1_234
10
6.7659002
20
5.2872158
40
0.5830602
50
7.4030428
51
26.8320788
0
ARC
8
DEFAULT_255_1_234
10
6.6064758
20
5.2623804
40
0.7443669
50
0.1605367
51
7.7176192
0
ARC
8
DEFAULT_255_1_234
10
6.6228663
20
5.1859434
40
0.7279835
50
348.7289388
51
0.3012466
0
ARC
8
DEFAULT_255_1_234
10
6.7885093
20
5.1530386
40
0.559104
50
333.0706509
51
348.7181832
0
ARC
8
DEFAULT_255_1_234
10
6.8851851
20
5.1005319
40
0.4491417
50
299.2531685
51
333.4571258
0
ARC
8
DEFAULT_255_1_234
10
6.8490991
20
5.1690828
40
0.5265881
50
278.107187
51
299.0339503
0
ARC
8
DEFAULT_255_1_234
10
6.823507
20
5.3198216
40
0.679442
50
270.4443897
51
278.4511052
0
ARC
8
DEFAULT_255_1_234
10
6.82559
20
5.2269213
40
0.4604407
50
269.4970433
51
284.0205042
0
ARC
8
DEFAULT_255_1_234
10
6.8611201
20
5.0903978
40
0.3193797
50
283.7700273
51
318.1555492
0
ARC
8
DEFAULT_255_1_234
10
6.8273959
20
5.1156367
40
0.3613588
50
318.7415601
51
343.6873628
0
ARC
8
DEFAULT_255_1_234
10
6.6469982
20
5.1719832
40
0.5503313
50
343.3325091
51
355.8548958
0
ARC
8
DEFAULT_255_1_234
10
6.4371666
20
5.1919319
40
0.7610708
50
355.4988528
51
0.0791727
0
ARC
8
DEFAULT_255_1_234
10
6.5154289
20
5.265478
40
0.6828208
50
359.6455037
51
9.8607896
0
ARC
8
DEFAULT_255_1_234
10
6.7514987
20
5.3081099
40
0.4429406
50
9.6571907
51
26.1932807
0
ARC
8
DEFAULT_255_1_234
10
6.8442975
20
5.3512118
40
0.3406537
50
26.5777228
51
40.1532208
0
ARC
8
DEFAULT_255_1_234
10
6.8698702
20
5.3711619
40
0.308246
50
40.3840491
51
80.1431104
0
ARC
8
DEFAULT_255_1_234
10
6.837182
20
5.2262333
40
0.4566909
50
79.2152159
51
89.7445637
0
LINE
8
DEFAULT_255_1_234
10
20.8763489
20
13.7473211
11
20.8763489
21
12.7039983
0
LINE
8
DEFAULT_255_1_234
10
20.8763489
20
12.7039983
11
21.4305389
21
12.7039983
0
LINE
8
DEFAULT_255_1_234
10
21.4305389
20
12.7039983
11
21.4305389
21
12.5779
0
LINE
8
DEFAULT_255_1_234
10
21.4305389
20
12.5779
11
20.7213364
21
12.5779
0
LINE
8
DEFAULT_255_1_234
10
20.7213364
20
12.5779
11
20.7213364
21
13.7473211
0
LINE
8
DEFAULT_255_1_234
10
20.7213364
20
13.7473211
11
20.8763489
21
13.7473211
0
LINE
8
DEFAULT_255_1_234
10
22.3341094
20
12.6991792
11
22.3341094
21
12.5779
0
LINE
8
DEFAULT_255_1_234
10
22.3341094
20
12.5779
11
21.5678816
21
12.5779
0
LINE
8
DEFAULT_255_1_234
10
21.5678816
20
12.5779
11
21.5678816
21
12.6847221
0
LINE
8
DEFAULT_255_1_234
10
21.5678816
20
12.6847221
11
21.9726812
21
13.1344995
0
LINE
8
DEFAULT_255_1_234
10
21.6939799
20
13.4027595
11
21.5453927
21
13.4027595
0
LINE
8
DEFAULT_255_1_234
10
22.0602271
20
13.0389218
11
21.7469894
21
12.6991792
0
LINE
8
DEFAULT_255_1_234
10
21.7469894
20
12.6991792
11
22.3341094
21
12.6991792
0
ARC
8
DEFAULT_255_1_234
10
20.6236645
20
14.3274527
40
1.8008286
50
318.5132453
51
320.7828378
0
ARC
8
DEFAULT_255_1_234
10
21.152362
20
13.8971426
40
1.1191493
50
320.7372736
51
323.9737074
0
ARC
8
DEFAULT_255_1_234
10
21.5443476
20
13.6131361
40
0.6350923
50
323.8961724
51
328.6421089
0
ARC
8
DEFAULT_255_1_234
10
21.7490072
20
13.4869031
40
0.3946393
50
328.8299013
51
331.789948
0
ARC
8
DEFAULT_255_1_234
10
21.848725
20
13.4354509
40
0.2824501
50
331.4255242
51
352.9364833
0
ARC
8
DEFAULT_255_1_234
10
21.8623751
20
13.4323976
40
0.2685315
50
353.2248685
51
0.0169286
0
ARC
8
DEFAULT_255_1_234
10
21.8833627
20
13.434695
40
0.2475536
50
359.4866256
51
15.9339782
0
ARC
8
DEFAULT_255_1_234
10
21.9340613
20
13.4483286
40
0.1950618
50
16.1714718
51
43.5284424
0
ARC
8
DEFAULT_255_1_234
10
21.9417921
20
13.4560573
40
0.184134
50
43.4415429
51
83.1661404
0
ARC
8
DEFAULT_255_1_234
10
21.928384
20
13.3823771
40
0.258926
50
82.160215
51
90.1505798
0
ARC
8
DEFAULT_255_1_234
10
21.9252267
20
13.3286865
40
0.3126255
50
89.5460705
51
102.5418777
0
ARC
8
DEFAULT_255_1_234
10
21.9009353
20
13.4317665
40
0.2067346
50
102.1739365
51
129.2061916
0
ARC
8
DEFAULT_255_1_234
10
21.8930425
20
13.4442094
40
0.1921118
50
129.7279328
51
135.7542026
0
ARC
8
DEFAULT_255_1_234
10
21.9051952
20
13.4345045
40
0.2075944
50
136.175737
51
166.3674722
0
ARC
8
DEFAULT_255_1_234
10
22.0058872
20
13.4075182
40
0.3118201
50
165.9092917
51
178.8683903
0
ARC
8
DEFAULT_255_1_234
10
22.0923733
20
13.4028179
40
0.3983935
50
178.438168
51
180.0083905
0
ARC
8
DEFAULT_255_1_234
10
21.9522335
20
13.4067231
40
0.4068601
50
163.2878735
51
180.5581814
0
ARC
8
DEFAULT_255_1_234
10
21.8720596
20
13.428784
40
0.3237344
50
133.454115
51
162.9470031
0
ARC
8
DEFAULT_255_1_234
10
21.8899138
20
13.4098
40
0.349795
50
100.7869394
51
133.4384016
0
ARC
8
DEFAULT_255_1_234
10
21.9246909
20
13.2549319
40
0.5084616
50
89.6605301
51
101.3704185
0
ARC
8
DEFAULT_255_1_234
10
21.9313248
20
13.2610496
40
0.502348
50
78.2171172
51
90.4130393
0
ARC
8
DEFAULT_255_1_234
10
21.9668326
20
13.4234637
40
0.3361092
50
55.9268222
51
78.4888551
0
ARC
8
DEFAULT_255_1_234
10
21.9864767
20
13.4573324
40
0.2970617
50
47.9292255
51
55.4054003
0
ARC
8
DEFAULT_255_1_234
10
21.9966327
20
13.4676502
40
0.2825983
50
4.3347696
51
48.0560701
0
ARC
8
DEFAULT_255_1_234
10
21.8870721
20
13.4506601
40
0.393225
50
359.925209
51
5.5967654
0
ARC
8
DEFAULT_255_1_234
10
21.9299613
20
13.4562816
40
0.3503892
50
337.8914096
51
358.9967724
0
ARC
8
DEFAULT_255_1_234
10
21.6586025
20
13.5609706
40
0.6412172
50
326.9135351
51
338.3505194
0
ARC
8
DEFAULT_255_1_234
10
21.2600328
20
13.8164284
40
1.1146189
50
319.6472867
51
327.095818
0
ARC
8
DEFAULT_255_1_234
10
20.8767332
20
14.1326
40
1.6114559
50
317.2586784
51
319.9046139
0
LINE
8
DEFAULT_255_1_234
10
23.0240357
20
13.7473211
11
22.5365092
21
12.4775033
0
LINE
8
DEFAULT_255_1_234
10
22.5365092
20
12.4775033
11
22.4088046
21
12.4775033
0
LINE
8
DEFAULT_255_1_234
10
22.4088046
20
12.4775033
11
22.8971343
21
13.7473211
0
LINE
8
DEFAULT_255_1_234
10
22.8971343
20
13.7473211
11
23.0240357
21
13.7473211
0
LINE
8
DEFAULT_255_1_234
10
24.1067141
20
13.7473211
11
24.1067141
21
12.5779
0
LINE
8
DEFAULT_255_1_234
10
24.1067141
20
12.5779
11
23.9517015
21
12.5779
0
LINE
8
DEFAULT_255_1_234
10
23.9517015
20
12.5779
11
23.3629751
21
13.479061
0
LINE
8
DEFAULT_255_1_234
10
23.3629751
20
13.479061
11
23.3629751
21
12.5779
0
LINE
8
DEFAULT_255_1_234
10
23.3629751
20
12.5779
11
23.2079625
21
12.5779
0
LINE
8
DEFAULT_255_1_234
10
23.2079625
20
12.5779
11
23.2079625
21
13.7473211
0
LINE
8
DEFAULT_255_1_234
10
23.2079625
20
13.7473211
11
23.3629751
21
13.7473211
0
LINE
8
DEFAULT_255_1_234
10
23.3629751
20
13.7473211
11
23.9533079
21
12.8421442
0
LINE
8
DEFAULT_255_1_234
10
23.9533079
20
12.8421442
11
23.9533079
21
13.7473211
0
LINE
8
DEFAULT_255_1_234
10
23.9533079
20
13.7473211
11
24.1067141
21
13.7473211
0
ENDSEC
0
EOF