0
SECTION
2
HEADER
9
$MEASUREMENT
70
1
0
ENDSEC
0
SECTION
2
TABLES
0
TABLE
2
LTYPE
0
LTYPE
72
65
70
64
2
CONTINUOUS
3
______
73
0
40
0
0
ENDTAB
0
TABLE
2
LAYER
0
LAYER
2
DEFAULT_255_2_778
70
0
62
255
6
CONTINUOUS
0
ENDTAB
0
ENDSEC
0
SECTION
2
ENTITIES
0
ARC
8
DEFAULT_255_2_778
10
14.3460124
20
93.7462563
40
4.0247641
50
164.9589956
51
180.0541876
0
ARC
8
DEFAULT_255_2_778
10
14.2970289
20
93.7561086
40
3.9749033
50
139.8201989
51
164.912913
0
ARC
8
DEFAULT_255_2_778
10
14.3060321
20
93.752589
40
3.9840539
50
107.9350148
51
139.865065
0
ARC
8
DEFAULT_255_2_778
10
14.3085195
20
93.7313494
40
4.0050295
50
91.921068
51
107.8753027
0
ARC
8
DEFAULT_255_2_778
10
14.3152416
20
93.6318357
40
4.1047141
50
89.9984851
51
91.9682805
0
ARC
8
DEFAULT_255_2_778
10
14.31916
20
93.7114984
40
4.0250533
50
74.9595394
51
90.0542325
0
ARC
8
DEFAULT_255_2_778
10
14.3290677
20
93.7606726
40
3.974994
50
49.820851
51
74.9135232
0
ARC
8
DEFAULT_255_2_778
10
14.3256317
20
93.7517737
40
3.9840111
50
17.9351264
51
49.8656654
0
ARC
8
DEFAULT_255_2_778
10
14.3043694
20
93.7492811
40
4.0050098
50
1.9210682
51
17.8753838
0
ARC
8
DEFAULT_255_2_778
10
14.204836
20
93.7425584
40
4.1047141
50
359.9984851
51
1.9682805
0
ARC
8
DEFAULT_255_2_778
10
14.2845212
20
93.7386385
40
4.0250308
50
344.959475
51
0.0542539
0
ARC
8
DEFAULT_255_2_778
10
14.3337204
20
93.7287239
40
3.9749454
50
319.8204197
51
344.9134608
0
ARC
8
DEFAULT_255_2_778
10
14.3247546
20
93.7322274
40
3.9840572
50
287.9344168
51
319.8651142
0
ARC
8
DEFAULT_255_2_778
10
14.3221885
20
93.7536934
40
4.0052724
50
271.92093
51
287.8747845
0
ARC
8
DEFAULT_255_2_778
10
14.3154586
20
93.8533332
40
4.1050833
50
269.9984851
51
271.9681908
0
ARC
8
DEFAULT_255_2_778
10
14.3115422
20
93.7729896
40
4.0247416
50
254.9589312
51
270.054209
0
ARC
8
DEFAULT_255_2_778
10
14.3016829
20
93.723981
40
3.9748547
50
229.8197676
51
254.9128506
0
ARC
8
DEFAULT_255_2_778
10
14.30527
20
93.7330512
40
3.9841
50
197.9343053
51
229.8645138
0
ARC
8
DEFAULT_255_2_778
10
14.3267134
20
93.7356122
40
4.0052921
50
181.9209298
51
197.8747035
0
ARC
8
DEFAULT_255_2_778
10
14.4263334
20
93.7423414
40
4.1050833
50
179.9984851
51
181.9681908
0
LINE
8
DEFAULT_255_2_778
10
10.3212501
20
93.7424499
11
10.3212501
21
93.7424499
0
ARC
8
DEFAULT_255_2_778
10
14.445469
20
83.7369885
40
2.5479988
50
269.930756
51
291.3899256
0
ARC
8
DEFAULT_255_2_778
10
14.3893136
20
83.8339528
40
2.6588187
50
291.7546139
51
338.2747508
0
ARC
8
DEFAULT_255_2_778
10
14.2741716
20
83.891337
40
2.7870437
50
338.0550349
51
357.3104417
0
ARC
8
DEFAULT_255_2_778
10
14.1838689
20
83.8992529
40
2.8776207
50
357.2373736
51
0.002762
0
ARC
8
DEFAULT_255_2_778
10
14.2528133
20
83.9034516
40
2.8086793
50
359.9171786
51
17.9804751
0
ARC
8
DEFAULT_255_2_778
10
14.3438907
20
83.9339847
40
2.7126249
50
17.9608943
51
46.8306734
0
ARC
8
DEFAULT_255_2_778
10
14.4389312
20
84.0407275
40
2.5697539
50
46.7479003
51
81.5536682
0
ARC
8
DEFAULT_255_2_778
10
14.4432375
20
84.0350057
40
2.5747861
50
81.6671568
51
90.0188657
0
ARC
8
DEFAULT_255_2_778
10
14.4393103
20
84.0617947
40
2.5479988
50
89.930756
51
111.3899256
0
ARC
8
DEFAULT_255_2_778
10
14.4954657
20
83.9648304
40
2.6588187
50
111.7546139
51
158.2747508
0
ARC
8
DEFAULT_255_2_778
10
14.6106077
20
83.9074462
40
2.7870437
50
158.0550349
51
177.3104417
0
ARC
8
DEFAULT_255_2_778
10
14.7009104
20
83.8995303
40
2.8776207
50
177.2373736
51
180.002762
0
ARC
8
DEFAULT_255_2_778
10
14.631966
20
83.8953316
40
2.8086793
50
179.9171786
51
197.9804751
0
ARC
8
DEFAULT_255_2_778
10
14.5408886
20
83.8647985
40
2.7126249
50
197.9608943
51
226.8306734
0
ARC
8
DEFAULT_255_2_778
10
14.4458481
20
83.7580557
40
2.5697539
50
226.7479003
51
261.5536682
0
ARC
8
DEFAULT_255_2_778
10
14.4415419
20
83.7637775
40
2.5747861
50
261.6671568
51
270.0188657
0
LINE
8
DEFAULT_255_2_778
10
14.4423897
20
81.1889916
11
14.4423897
21
81.1889916
0
LINE
8
DEFAULT_255_2_778
10
13.8780897
20
85.4569916
11
14.4423897
21
84.3827916
0
LINE
8
DEFAULT_255_2_778
10
14.4423897
20
84.3827916
11
15.0067897
21
85.4569916
0
LINE
8
DEFAULT_255_2_778
10
15.0067897
20
85.4569916
11
15.7200897
21
85.4569916
0
LINE
8
DEFAULT_255_2_778
10
15.7200897
20
85.4569916
11
14.8434897
21
83.9120916
0
LINE
8
DEFAULT_255_2_778
10
14.8434897
20
83.9120916
11
15.7427897
21
82.3414916
0
LINE
8
DEFAULT_255_2_778
10
15.7427897
20
82.3414916
11
15.0212897
21
82.3414916
0
LINE
8
DEFAULT_255_2_778
10
15.0212897
20
82.3414916
11
14.4423897
21
83.4326916
0
LINE
8
DEFAULT_255_2_778
10
14.4423897
20
83.4326916
11
13.8634897
21
82.3414916
0
LINE
8
DEFAULT_255_2_778
10
13.8634897
20
82.3414916
11
13.1419897
21
82.3414916
0
LINE
8
DEFAULT_255_2_778
10
13.1419897
20
82.3414916
11
14.0412897
21
83.9120916
0
LINE
8
DEFAULT_255_2_778
10
14.0412897
20
83.9120916
11
13.1646897
21
85.4569916
0
LINE
8
DEFAULT_255_2_778
10
13.1646897
20
85.4569916
11
13.8780897
21
85.4569916
0
LINE
8
DEFAULT_255_2_778
10
13.8780897
20
85.4569916
11
13.8780897
21
85.4569916
0
ARC
8
DEFAULT_255_2_778
10
14.859069
20
74.8926885
40
2.5479988
50
269.930756
51
291.3899256
0
ARC
8
DEFAULT_255_2_778
10
14.8029136
20
74.9896528
40
2.6588187
50
291.7546139
51
338.2747508
0
ARC
8
DEFAULT_255_2_778
10
14.6877716
20
75.047037
40
2.7870437
50
338.0550349
51
357.3104417
0
ARC
8
DEFAULT_255_2_778
10
14.5974689
20
75.0549529
40
2.8776207
50
357.2373736
51
0.002762
0
ARC
8
DEFAULT_255_2_778
10
14.6664133
20
75.0591516
40
2.8086793
50
359.9171786
51
17.9804751
0
ARC
8
DEFAULT_255_2_778
10
14.7574907
20
75.0896847
40
2.7126249
50
17.9608943
51
46.8306734
0
ARC
8
DEFAULT_255_2_778
10
14.8525312
20
75.1964275
40
2.5697539
50
46.7479003
51
81.5536682
0
ARC
8
DEFAULT_255_2_778
10
14.8568375
20
75.1907057
40
2.5747861
50
81.6671568
51
90.0188657
0
ARC
8
DEFAULT_255_2_778
10
14.8529103
20
75.2174947
40
2.5479988
50
89.930756
51
111.3899256
0
ARC
8
DEFAULT_255_2_778
10
14.9090657
20
75.1205304
40
2.6588187
50
111.7546139
51
158.2747508
0
ARC
8
DEFAULT_255_2_778
10
15.0242077
20
75.0631462
40
2.7870437
50
158.0550349
51
177.3104417
0
ARC
8
DEFAULT_255_2_778
10
15.1145104
20
75.0552303
40
2.8776207
50
177.2373736
51
180.002762
0
ARC
8
DEFAULT_255_2_778
10
15.045566
20
75.0510316
40
2.8086793
50
179.9171786
51
197.9804751
0
ARC
8
DEFAULT_255_2_778
10
14.9544886
20
75.0204985
40
2.7126249
50
197.9608943
51
226.8306734
0
ARC
8
DEFAULT_255_2_778
10
14.8594481
20
74.9137557
40
2.5697539
50
226.7479003
51
261.5536682
0
ARC
8
DEFAULT_255_2_778
10
14.8551419
20
74.9194775
40
2.5747861
50
261.6671568
51
270.0188657
0
LINE
8
DEFAULT_255_2_778
10
14.8559897
20
72.3446916
11
14.8559897
21
72.3446916
0
LINE
8
DEFAULT_255_2_778
10
14.2916897
20
76.6126916
11
14.8559897
21
75.5384916
0
LINE
8
DEFAULT_255_2_778
10
14.8559897
20
75.5384916
11
15.4203897
21
76.6126916
0
LINE
8
DEFAULT_255_2_778
10
15.4203897
20
76.6126916
11
16.1336897
21
76.6126916
0
LINE
8
DEFAULT_255_2_778
10
16.1336897
20
76.6126916
11
15.2570897
21
75.0677916
0
LINE
8
DEFAULT_255_2_778
10
15.2570897
20
75.0677916
11
16.1563897
21
73.4971916
0
LINE
8
DEFAULT_255_2_778
10
16.1563897
20
73.4971916
11
15.4348897
21
73.4971916
0
LINE
8
DEFAULT_255_2_778
10
15.4348897
20
73.4971916
11
14.8559897
21
74.5883916
0
LINE
8
DEFAULT_255_2_778
10
14.8559897
20
74.5883916
11
14.2770897
21
73.4971916
0
LINE
8
DEFAULT_255_2_778
10
14.2770897
20
73.4971916
11
13.5555897
21
73.4971916
0
LINE
8
DEFAULT_255_2_778
10
13.5555897
20
73.4971916
11
14.4548897
21
75.0677916
0
LINE
8
DEFAULT_255_2_778
10
14.4548897
20
75.0677916
11
13.5782897
21
76.6126916
0
LINE
8
DEFAULT_255_2_778
10
13.5782897
20
76.6126916
11
14.2916897
21
76.6126916
0
LINE
8
DEFAULT_255_2_778
10
14.2916897
20
76.6126916
11
14.2916897
21
76.6126916
0
ARC
8
DEFAULT_255_2_778
10
14.859069
20
56.9184885
40
2.5479988
50
269.930756
51
291.3899256
0
ARC
8
DEFAULT_255_2_778
10
14.8029136
20
57.0154528
40
2.6588187
50
291.7546139
51
338.2747508
0
ARC
8
DEFAULT_255_2_778
10
14.6877716
20
57.072837
40
2.7870437
50
338.0550349
51
357.3104417
0
ARC
8
DEFAULT_255_2_778
10
14.5974689
20
57.0807529
40
2.8776207
50
357.2373736
51
0.002762
0
ARC
8
DEFAULT_255_2_778
10
14.6664133
20
57.0849516
40
2.8086793
50
359.9171786
51
17.9804751
0
ARC
8
DEFAULT_255_2_778
10
14.7574907
20
57.1154847
40
2.7126249
50
17.9608943
51
46.8306734
0
ARC
8
DEFAULT_255_2_778
10
14.8525312
20
57.2222275
40
2.5697539
50
46.7479003
51
81.5536682
0
ARC
8
DEFAULT_255_2_778
10
14.8568375
20
57.2165057
40
2.5747861
50
81.6671568
51
90.0188657
0
ARC
8
DEFAULT_255_2_778
10
14.8529103
20
57.2432947
40
2.5479988
50
89.930756
51
111.3899256
0
ARC
8
DEFAULT_255_2_778
10
14.9090657
20
57.1463304
40
2.6588187
50
111.7546139
51
158.2747508
0
ARC
8
DEFAULT_255_2_778
10
15.0242077
20
57.0889462
40
2.7870437
50
158.0550349
51
177.3104417
0
ARC
8
DEFAULT_255_2_778
10
15.1145104
20
57.0810303
40
2.8776207
50
177.2373736
51
180.002762
0
ARC
8
DEFAULT_255_2_778
10
15.045566
20
57.0768316
40
2.8086793
50
179.9171786
51
197.9804751
0
ARC
8
DEFAULT_255_2_778
10
14.9544886
20
57.0462985
40
2.7126249
50
197.9608943
51
226.8306734
0
ARC
8
DEFAULT_255_2_778
10
14.8594481
20
56.9395557
40
2.5697539
50
226.7479003
51
261.5536682
0
ARC
8
DEFAULT_255_2_778
10
14.8551419
20
56.9452775
40
2.5747861
50
261.6671568
51
270.0188657
0
LINE
8
DEFAULT_255_2_778
10
14.8559897
20
54.3704916
11
14.8559897
21
54.3704916
0
LINE
8
DEFAULT_255_2_778
10
14.2916897
20
58.6384916
11
14.8559897
21
57.5642916
0
LINE
8
DEFAULT_255_2_778
10
14.8559897
20
57.5642916
11
15.4203897
21
58.6384916
0
LINE
8
DEFAULT_255_2_778
10
15.4203897
20
58.6384916
11
16.1336897
21
58.6384916
0
LINE
8
DEFAULT_255_2_778
10
16.1336897
20
58.6384916
11
15.2570897
21
57.0935916
0
LINE
8
DEFAULT_255_2_778
10
15.2570897
20
57.0935916
11
16.1563897
21
55.5229916
0
LINE
8
DEFAULT_255_2_778
10
16.1563897
20
55.5229916
11
15.4348897
21
55.5229916
0
LINE
8
DEFAULT_255_2_778
10
15.4348897
20
55.5229916
11
14.8559897
21
56.6141916
0
LINE
8
DEFAULT_255_2_778
10
14.8559897
20
56.6141916
11
14.2770897
21
55.5229916
0
LINE
8
DEFAULT_255_2_778
10
14.2770897
20
55.5229916
11
13.5555897
21
55.5229916
0
LINE
8
DEFAULT_255_2_778
10
13.5555897
20
55.5229916
11
14.4548897
21
57.0935916
0
LINE
8
DEFAULT_255_2_778
10
14.4548897
20
57.0935916
11
13.5782897
21
58.6384916
0
LINE
8
DEFAULT_255_2_778
10
13.5782897
20
58.6384916
11
14.2916897
21
58.6384916
0
LINE
8
DEFAULT_255_2_778
10
14.2916897
20
58.6384916
11
14.2916897
21
58.6384916
0
ARC
8
DEFAULT_255_2_778
10
14.859069
20
65.9055885
40
2.5479988
50
269.930756
51
291.3899256
0
ARC
8
DEFAULT_255_2_778
10
14.8029136
20
66.0025528
40
2.6588187
50
291.7546139
51
338.2747508
0
ARC
8
DEFAULT_255_2_778
10
14.6877716
20
66.059937
40
2.7870437
50
338.0550349
51
357.3104417
0
ARC
8
DEFAULT_255_2_778
10
14.5974689
20
66.0678529
40
2.8776207
50
357.2373736
51
0.002762
0
ARC
8
DEFAULT_255_2_778
10
14.6664133
20
66.0720516
40
2.8086793
50
359.9171786
51
17.9804751
0
ARC
8
DEFAULT_255_2_778
10
14.7574907
20
66.1025847
40
2.7126249
50
17.9608943
51
46.8306734
0
ARC
8
DEFAULT_255_2_778
10
14.8525312
20
66.2093275
40
2.5697539
50
46.7479003
51
81.5536682
0
ARC
8
DEFAULT_255_2_778
10
14.8568375
20
66.2036057
40
2.5747861
50
81.6671568
51
90.0188657
0
ARC
8
DEFAULT_255_2_778
10
14.8529103
20
66.2303947
40
2.5479988
50
89.930756
51
111.3899256
0
ARC
8
DEFAULT_255_2_778
10
14.9090657
20
66.1334304
40
2.6588187
50
111.7546139
51
158.2747508
0
ARC
8
DEFAULT_255_2_778
10
15.0242077
20
66.0760462
40
2.7870437
50
158.0550349
51
177.3104417
0
ARC
8
DEFAULT_255_2_778
10
15.1145104
20
66.0681303
40
2.8776207
50
177.2373736
51
180.002762
0
ARC
8
DEFAULT_255_2_778
10
15.045566
20
66.0639316
40
2.8086793
50
179.9171786
51
197.9804751
0
ARC
8
DEFAULT_255_2_778
10
14.9544886
20
66.0333985
40
2.7126249
50
197.9608943
51
226.8306734
0
ARC
8
DEFAULT_255_2_778
10
14.8594481
20
65.9266557
40
2.5697539
50
226.7479003
51
261.5536682
0
ARC
8
DEFAULT_255_2_778
10
14.8551419
20
65.9323775
40
2.5747861
50
261.6671568
51
270.0188657
0
LINE
8
DEFAULT_255_2_778
10
14.8559897
20
63.3575916
11
14.8559897
21
63.3575916
0
LINE
8
DEFAULT_255_2_778
10
14.2916897
20
67.6255916
11
14.8559897
21
66.5513916
0
LINE
8
DEFAULT_255_2_778
10
14.8559897
20
66.5513916
11
15.4203897
21
67.6255916
0
LINE
8
DEFAULT_255_2_778
10
15.4203897
20
67.6255916
11
16.1336897
21
67.6255916
0
LINE
8
DEFAULT_255_2_778
10
16.1336897
20
67.6255916
11
15.2570897
21
66.0806916
0
LINE
8
DEFAULT_255_2_778
10
15.2570897
20
66.0806916
11
16.1563897
21
64.5100916
0
LINE
8
DEFAULT_255_2_778
10
16.1563897
20
64.5100916
11
15.4348897
21
64.5100916
0
LINE
8
DEFAULT_255_2_778
10
15.4348897
20
64.5100916
11
14.8559897
21
65.6012916
0
LINE
8
DEFAULT_255_2_778
10
14.8559897
20
65.6012916
11
14.2770897
21
64.5100916
0
LINE
8
DEFAULT_255_2_778
10
14.2770897
20
64.5100916
11
13.5555897
21
64.5100916
0
LINE
8
DEFAULT_255_2_778
10
13.5555897
20
64.5100916
11
14.4548897
21
66.0806916
0
LINE
8
DEFAULT_255_2_778
10
14.4548897
20
66.0806916
11
13.5782897
21
67.6255916
0
LINE
8
DEFAULT_255_2_778
10
13.5782897
20
67.6255916
11
14.2916897
21
67.6255916
0
LINE
8
DEFAULT_255_2_778
10
14.2916897
20
67.6255916
11
14.2916897
21
67.6255916
0
ARC
8
DEFAULT_255_2_778
10
14.445469
20
39.0871885
40
2.5479988
50
269.930756
51
291.3899256
0
ARC
8
DEFAULT_255_2_778
10
14.3893136
20
39.1841528
40
2.6588187
50
291.7546139
51
338.2747508
0
ARC
8
DEFAULT_255_2_778
10
14.2741716
20
39.241537
40
2.7870437
50
338.0550349
51
357.3104417
0
ARC
8
DEFAULT_255_2_778
10
14.1838689
20
39.2494529
40
2.8776207
50
357.2373736
51
0.002762
0
ARC
8
DEFAULT_255_2_778
10
14.2528133
20
39.2536516
40
2.8086793
50
359.9171786
51
17.9804751
0
ARC
8
DEFAULT_255_2_778
10
14.3438907
20
39.2841847
40
2.7126249
50
17.9608943
51
46.8306734
0
ARC
8
DEFAULT_255_2_778
10
14.4389312
20
39.3909275
40
2.5697539
50
46.7479003
51
81.5536682
0
ARC
8
DEFAULT_255_2_778
10
14.4432375
20
39.3852057
40
2.5747861
50
81.6671568
51
90.0188657
0
ARC
8
DEFAULT_255_2_778
10
14.4393103
20
39.4119947
40
2.5479988
50
89.930756
51
111.3899256
0
ARC
8
DEFAULT_255_2_778
10
14.4954657
20
39.3150304
40
2.6588187
50
111.7546139
51
158.2747508
0
ARC
8
DEFAULT_255_2_778
10
14.6106077
20
39.2576462
40
2.7870437
50
158.0550349
51
177.3104417
0
ARC
8
DEFAULT_255_2_778
10
14.7009104
20
39.2497303
40
2.8776207
50
177.2373736
51
180.002762
0
ARC
8
DEFAULT_255_2_778
10
14.631966
20
39.2455316
40
2.8086793
50
179.9171786
51
197.9804751
0
ARC
8
DEFAULT_255_2_778
10
14.5408886
20
39.2149985
40
2.7126249
50
197.9608943
51
226.8306734
0
ARC
8
DEFAULT_255_2_778
10
14.4458481
20
39.1082557
40
2.5697539
50
226.7479003
51
261.5536682
0
ARC
8
DEFAULT_255_2_778
10
14.4415419
20
39.1139775
40
2.5747861
50
261.6671568
51
270.0188657
0
LINE
8
DEFAULT_255_2_778
10
14.4423897
20
36.5391916
11
14.4423897
21
36.5391916
0
LINE
8
DEFAULT_255_2_778
10
13.8780897
20
40.8071916
11
14.4423897
21
39.7329916
0
LINE
8
DEFAULT_255_2_778
10
14.4423897
20
39.7329916
11
15.0067897
21
40.8071916
0
LINE
8
DEFAULT_255_2_778
10
15.0067897
20
40.8071916
11
15.7200897
21
40.8071916
0
LINE
8
DEFAULT_255_2_778
10
15.7200897
20
40.8071916
11
14.8434897
21
39.2622916
0
LINE
8
DEFAULT_255_2_778
10
14.8434897
20
39.2622916
11
15.7427897
21
37.6916916
0
LINE
8
DEFAULT_255_2_778
10
15.7427897
20
37.6916916
11
15.0212897
21
37.6916916
0
LINE
8
DEFAULT_255_2_778
10
15.0212897
20
37.6916916
11
14.4423897
21
38.7828916
0
LINE
8
DEFAULT_255_2_778
10
14.4423897
20
38.7828916
11
13.8634897
21
37.6916916
0
LINE
8
DEFAULT_255_2_778
10
13.8634897
20
37.6916916
11
13.1419897
21
37.6916916
0
LINE
8
DEFAULT_255_2_778
10
13.1419897
20
37.6916916
11
14.0412897
21
39.2622916
0
LINE
8
DEFAULT_255_2_778
10
14.0412897
20
39.2622916
11
13.1646897
21
40.8071916
0
LINE
8
DEFAULT_255_2_778
10
13.1646897
20
40.8071916
11
13.8780897
21
40.8071916
0
LINE
8
DEFAULT_255_2_778
10
13.8780897
20
40.8071916
11
13.8780897
21
40.8071916
0
ARC
8
DEFAULT_255_2_778
10
14.445469
20
48.2168885
40
2.5479988
50
269.930756
51
291.3899256
0
ARC
8
DEFAULT_255_2_778
10
14.3893136
20
48.3138528
40
2.6588187
50
291.7546139
51
338.2747508
0
ARC
8
DEFAULT_255_2_778
10
14.2741716
20
48.371237
40
2.7870437
50
338.0550349
51
357.3104417
0
ARC
8
DEFAULT_255_2_778
10
14.1838689
20
48.3791529
40
2.8776207
50
357.2373736
51
0.002762
0
ARC
8
DEFAULT_255_2_778
10
14.2528133
20
48.3833516
40
2.8086793
50
359.9171786
51
17.9804751
0
ARC
8
DEFAULT_255_2_778
10
14.3438907
20
48.4138847
40
2.7126249
50
17.9608943
51
46.8306734
0
ARC
8
DEFAULT_255_2_778
10
14.4389312
20
48.5206275
40
2.5697539
50
46.7479003
51
81.5536682
0
ARC
8
DEFAULT_255_2_778
10
14.4432375
20
48.5149057
40
2.5747861
50
81.6671568
51
90.0188657
0
ARC
8
DEFAULT_255_2_778
10
14.4393103
20
48.5416947
40
2.5479988
50
89.930756
51
111.3899256
0
ARC
8
DEFAULT_255_2_778
10
14.4954657
20
48.4447304
40
2.6588187
50
111.7546139
51
158.2747508
0
ARC
8
DEFAULT_255_2_778
10
14.6106077
20
48.3873462
40
2.7870437
50
158.0550349
51
177.3104417
0
ARC
8
DEFAULT_255_2_778
10
14.7009104
20
48.3794303
40
2.8776207
50
177.2373736
51
180.002762
0
ARC
8
DEFAULT_255_2_778
10
14.631966
20
48.3752316
40
2.8086793
50
179.9171786
51
197.9804751
0
ARC
8
DEFAULT_255_2_778
10
14.5408886
20
48.3446985
40
2.7126249
50
197.9608943
51
226.8306734
0
ARC
8
DEFAULT_255_2_778
10
14.4458481
20
48.2379557
40
2.5697539
50
226.7479003
51
261.5536682
0
ARC
8
DEFAULT_255_2_778
10
14.4415419
20
48.2436775
40
2.5747861
50
261.6671568
51
270.0188657
0
LINE
8
DEFAULT_255_2_778
10
14.4423897
20
45.6688916
11
14.4423897
21
45.6688916
0
LINE
8
DEFAULT_255_2_778
10
13.8780897
20
49.9368916
11
14.4423897
21
48.8626916
0
LINE
8
DEFAULT_255_2_778
10
14.4423897
20
48.8626916
11
15.0067897
21
49.9368916
0
LINE
8
DEFAULT_255_2_778
10
15.0067897
20
49.9368916
11
15.7200897
21
49.9368916
0
LINE
8
DEFAULT_255_2_778
10
15.7200897
20
49.9368916
11
14.8434897
21
48.3919916
0
LINE
8
DEFAULT_255_2_778
10
14.8434897
20
48.3919916
11
15.7427897
21
46.8213916
0
LINE
8
DEFAULT_255_2_778
10
15.7427897
20
46.8213916
11
15.0212897
21
46.8213916
0
LINE
8
DEFAULT_255_2_778
10
15.0212897
20
46.8213916
11
14.4423897
21
47.9125916
0
LINE
8
DEFAULT_255_2_778
10
14.4423897
20
47.9125916
11
13.8634897
21
46.8213916
0
LINE
8
DEFAULT_255_2_778
10
13.8634897
20
46.8213916
11
13.1419897
21
46.8213916
0
LINE
8
DEFAULT_255_2_778
10
13.1419897
20
46.8213916
11
14.0412897
21
48.3919916
0
LINE
8
DEFAULT_255_2_778
10
14.0412897
20
48.3919916
11
13.1646897
21
49.9368916
0
LINE
8
DEFAULT_255_2_778
10
13.1646897
20
49.9368916
11
13.8780897
21
49.9368916
0
LINE
8
DEFAULT_255_2_778
10
13.8780897
20
49.9368916
11
13.8780897
21
49.9368916
0
ARC
8
DEFAULT_255_2_778
10
15.134769
20
21.5410885
40
2.5479988
50
269.930756
51
291.3899256
0
ARC
8
DEFAULT_255_2_778
10
15.0786136
20
21.6380528
40
2.6588187
50
291.7546139
51
338.2747508
0
ARC
8
DEFAULT_255_2_778
10
14.9634716
20
21.695437
40
2.7870437
50
338.0550349
51
357.3104417
0
ARC
8
DEFAULT_255_2_778
10
14.8731689
20
21.7033529
40
2.8776207
50
357.2373736
51
0.002762
0
ARC
8
DEFAULT_255_2_778
10
14.9421133
20
21.7075516
40
2.8086793
50
359.9171786
51
17.9804751
0
ARC
8
DEFAULT_255_2_778
10
15.0331907
20
21.7380847
40
2.7126249
50
17.9608943
51
46.8306734
0
ARC
8
DEFAULT_255_2_778
10
15.1282312
20
21.8448275
40
2.5697539
50
46.7479003
51
81.5536682
0
ARC
8
DEFAULT_255_2_778
10
15.1325375
20
21.8391057
40
2.5747861
50
81.6671568
51
90.0188657
0
ARC
8
DEFAULT_255_2_778
10
15.1286103
20
21.8658947
40
2.5479988
50
89.930756
51
111.3899256
0
ARC
8
DEFAULT_255_2_778
10
15.1847657
20
21.7689304
40
2.6588187
50
111.7546139
51
158.2747508
0
ARC
8
DEFAULT_255_2_778
10
15.2999077
20
21.7115462
40
2.7870437
50
158.0550349
51
177.3104417
0
ARC
8
DEFAULT_255_2_778
10
15.3902104
20
21.7036303
40
2.8776207
50
177.2373736
51
180.002762
0
ARC
8
DEFAULT_255_2_778
10
15.321266
20
21.6994316
40
2.8086793
50
179.9171786
51
197.9804751
0
ARC
8
DEFAULT_255_2_778
10
15.2301886
20
21.6688985
40
2.7126249
50
197.9608943
51
226.8306734
0
ARC
8
DEFAULT_255_2_778
10
15.1351481
20
21.5621557
40
2.5697539
50
226.7479003
51
261.5536682
0
ARC
8
DEFAULT_255_2_778
10
15.1308419
20
21.5678775
40
2.5747861
50
261.6671568
51
270.0188657
0
LINE
8
DEFAULT_255_2_778
10
15.1316897
20
18.9930916
11
15.1316897
21
18.9930916
0
LINE
8
DEFAULT_255_2_778
10
14.5673897
20
23.2610916
11
15.1316897
21
22.1868916
0
LINE
8
DEFAULT_255_2_778
10
15.1316897
20
22.1868916
11
15.6960897
21
23.2610916
0
LINE
8
DEFAULT_255_2_778
10
15.6960897
20
23.2610916
11
16.4093897
21
23.2610916
0
LINE
8
DEFAULT_255_2_778
10
16.4093897
20
23.2610916
11
15.5327897
21
21.7161916
0
LINE
8
DEFAULT_255_2_778
10
15.5327897
20
21.7161916
11
16.4320897
21
20.1455916
0
LINE
8
DEFAULT_255_2_778
10
16.4320897
20
20.1455916
11
15.7105897
21
20.1455916
0
LINE
8
DEFAULT_255_2_778
10
15.7105897
20
20.1455916
11
15.1316897
21
21.2367916
0
LINE
8
DEFAULT_255_2_778
10
15.1316897
20
21.2367916
11
14.5527897
21
20.1455916
0
LINE
8
DEFAULT_255_2_778
10
14.5527897
20
20.1455916
11
13.8312897
21
20.1455916
0
LINE
8
DEFAULT_255_2_778
10
13.8312897
20
20.1455916
11
14.7305897
21
21.7161916
0
LINE
8
DEFAULT_255_2_778
10
14.7305897
20
21.7161916
11
13.8539897
21
23.2610916
0
LINE
8
DEFAULT_255_2_778
10
13.8539897
20
23.2610916
11
14.5673897
21
23.2610916
0
LINE
8
DEFAULT_255_2_778
10
14.5673897
20
23.2610916
11
14.5673897
21
23.2610916
0
ARC
8
DEFAULT_255_2_778
10
15.134769
20
30.2429885
40
2.5479988
50
269.930756
51
291.3899256
0
ARC
8
DEFAULT_255_2_778
10
15.0786136
20
30.3399528
40
2.6588187
50
291.7546139
51
338.2747508
0
ARC
8
DEFAULT_255_2_778
10
14.9634716
20
30.397337
40
2.7870437
50
338.0550349
51
357.3104417
0
ARC
8
DEFAULT_255_2_778
10
14.8731689
20
30.4052529
40
2.8776207
50
357.2373736
51
0.002762
0
ARC
8
DEFAULT_255_2_778
10
14.9421133
20
30.4094516
40
2.8086793
50
359.9171786
51
17.9804751
0
ARC
8
DEFAULT_255_2_778
10
15.0331907
20
30.4399847
40
2.7126249
50
17.9608943
51
46.8306734
0
ARC
8
DEFAULT_255_2_778
10
15.1282312
20
30.5467275
40
2.5697539
50
46.7479003
51
81.5536682
0
ARC
8
DEFAULT_255_2_778
10
15.1325375
20
30.5410057
40
2.5747861
50
81.6671568
51
90.0188657
0
ARC
8
DEFAULT_255_2_778
10
15.1286103
20
30.5677947
40
2.5479988
50
89.930756
51
111.3899256
0
ARC
8
DEFAULT_255_2_778
10
15.1847657
20
30.4708304
40
2.6588187
50
111.7546139
51
158.2747508
0
ARC
8
DEFAULT_255_2_778
10
15.2999077
20
30.4134462
40
2.7870437
50
158.0550349
51
177.3104417
0
ARC
8
DEFAULT_255_2_778
10
15.3902104
20
30.4055303
40
2.8776207
50
177.2373736
51
180.002762
0
ARC
8
DEFAULT_255_2_778
10
15.321266
20
30.4013316
40
2.8086793
50
179.9171786
51
197.9804751
0
ARC
8
DEFAULT_255_2_778
10
15.2301886
20
30.3707985
40
2.7126249
50
197.9608943
51
226.8306734
0
ARC
8
DEFAULT_255_2_778
10
15.1351481
20
30.2640557
40
2.5697539
50
226.7479003
51
261.5536682
0
ARC
8
DEFAULT_255_2_778
10
15.1308419
20
30.2697775
40
2.5747861
50
261.6671568
51
270.0188657
0
LINE
8
DEFAULT_255_2_778
10
15.1316897
20
27.6949916
11
15.1316897
21
27.6949916
0
LINE
8
DEFAULT_255_2_778
10
14.5673897
20
31.9629916
11
15.1316897
21
30.8887916
0
LINE
8
DEFAULT_255_2_778
10
15.1316897
20
30.8887916
11
15.6960897
21
31.9629916
0
LINE
8
DEFAULT_255_2_778
10
15.6960897
20
31.9629916
11
16.4093897
21
31.9629916
0
LINE
8
DEFAULT_255_2_778
10
16.4093897
20
31.9629916
11
15.5327897
21
30.4180916
0
LINE
8
DEFAULT_255_2_778
10
15.5327897
20
30.4180916
11
16.4320897
21
28.8474916
0
LINE
8
DEFAULT_255_2_778
10
16.4320897
20
28.8474916
11
15.7105897
21
28.8474916
0
LINE
8
DEFAULT_255_2_778
10
15.7105897
20
28.8474916
11
15.1316897
21
29.9386916
0
LINE
8
DEFAULT_255_2_778
10
15.1316897
20
29.9386916
11
14.5527897
21
28.8474916
0
LINE
8
DEFAULT_255_2_778
10
14.5527897
20
28.8474916
11
13.8312897
21
28.8474916
0
LINE
8
DEFAULT_255_2_778
10
13.8312897
20
28.8474916
11
14.7305897
21
30.4180916
0
LINE
8
DEFAULT_255_2_778
10
14.7305897
20
30.4180916
11
13.8539897
21
31.9629916
0
LINE
8
DEFAULT_255_2_778
10
13.8539897
20
31.9629916
11
14.5673897
21
31.9629916
0
LINE
8
DEFAULT_255_2_778
10
14.5673897
20
31.9629916
11
14.5673897
21
31.9629916
0
ARC
8
DEFAULT_255_2_778
10
15.272569
20
12.1261885
40
2.5479988
50
269.930756
51
291.3899256
0
ARC
8
DEFAULT_255_2_778
10
15.2164136
20
12.2231528
40
2.6588187
50
291.7546139
51
338.2747508
0
ARC
8
DEFAULT_255_2_778
10
15.1012716
20
12.280537
40
2.7870437
50
338.0550349
51
357.3104417
0
ARC
8
DEFAULT_255_2_778
10
15.0109689
20
12.2884529
40
2.8776207
50
357.2373736
51
0.002762
0
ARC
8
DEFAULT_255_2_778
10
15.0799133
20
12.2926516
40
2.8086793
50
359.9171786
51
17.9804751
0
ARC
8
DEFAULT_255_2_778
10
15.1709907
20
12.3231847
40
2.7126249
50
17.9608943
51
46.8306734
0
ARC
8
DEFAULT_255_2_778
10
15.2660312
20
12.4299275
40
2.5697539
50
46.7479003
51
81.5536682
0
ARC
8
DEFAULT_255_2_778
10
15.2703375
20
12.4242057
40
2.5747861
50
81.6671568
51
90.0188657
0
ARC
8
DEFAULT_255_2_778
10
15.2664103
20
12.4509947
40
2.5479988
50
89.930756
51
111.3899256
0
ARC
8
DEFAULT_255_2_778
10
15.3225657
20
12.3540304
40
2.6588187
50
111.7546139
51
158.2747508
0
ARC
8
DEFAULT_255_2_778
10
15.4377077
20
12.2966462
40
2.7870437
50
158.0550349
51
177.3104417
0
ARC
8
DEFAULT_255_2_778
10
15.5280104
20
12.2887303
40
2.8776207
50
177.2373736
51
180.002762
0
ARC
8
DEFAULT_255_2_778
10
15.459066
20
12.2845316
40
2.8086793
50
179.9171786
51
197.9804751
0
ARC
8
DEFAULT_255_2_778
10
15.3679886
20
12.2539985
40
2.7126249
50
197.9608943
51
226.8306734
0
ARC
8
DEFAULT_255_2_778
10
15.2729481
20
12.1472557
40
2.5697539
50
226.7479003
51
261.5536682
0
ARC
8
DEFAULT_255_2_778
10
15.2686419
20
12.1529775
40
2.5747861
50
261.6671568
51
270.0188657
0
LINE
8
DEFAULT_255_2_778
10
15.2694897
20
9.5781916
11
15.2694897
21
9.5781916
0
LINE
8
DEFAULT_255_2_778
10
14.7051897
20
13.8461916
11
15.2694897
21
12.7719916
0
LINE
8
DEFAULT_255_2_778
10
15.2694897
20
12.7719916
11
15.8338897
21
13.8461916
0
LINE
8
DEFAULT_255_2_778
10
15.8338897
20
13.8461916
11
16.5471897
21
13.8461916
0
LINE
8
DEFAULT_255_2_778
10
16.5471897
20
13.8461916
11
15.6705897
21
12.3012916
0
LINE
8
DEFAULT_255_2_778
10
15.6705897
20
12.3012916
11
16.5698897
21
10.7306916
0
LINE
8
DEFAULT_255_2_778
10
16.5698897
20
10.7306916
11
15.8483897
21
10.7306916
0
LINE
8
DEFAULT_255_2_778
10
15.8483897
20
10.7306916
11
15.2694897
21
11.8218916
0
LINE
8
DEFAULT_255_2_778
10
15.2694897
20
11.8218916
11
14.6905897
21
10.7306916
0
LINE
8
DEFAULT_255_2_778
10
14.6905897
20
10.7306916
11
13.9690897
21
10.7306916
0
LINE
8
DEFAULT_255_2_778
10
13.9690897
20
10.7306916
11
14.8683897
21
12.3012916
0
LINE
8
DEFAULT_255_2_778
10
14.8683897
20
12.3012916
11
13.9917897
21
13.8461916
0
LINE
8
DEFAULT_255_2_778
10
13.9917897
20
13.8461916
11
14.7051897
21
13.8461916
0
LINE
8
DEFAULT_255_2_778
10
14.7051897
20
13.8461916
11
14.7051897
21
13.8461916
0
ARC
8
DEFAULT_255_2_778
10
26.805819
20
1.5034111
40
2.562828
50
350.9099173
51
0.2769387
0
ARC
8
DEFAULT_255_2_778
10
27.5746373
20
1.3761908
40
1.7835708
50
336.6827074
51
351.0435267
0
ARC
8
DEFAULT_255_2_778
10
27.9388645
20
1.2247235
40
1.3891461
50
293.9033282
51
336.4734756
0
ARC
8
DEFAULT_255_2_778
10
27.6336891
20
1.8404838
40
2.0759579
50
282.8903135
51
294.7174849
0
ARC
8
DEFAULT_255_2_778
10
27.4239275
20
2.7323783
40
2.9921755
50
274.8660255
51
282.9957612
0
ARC
8
DEFAULT_255_2_778
10
27.3190741
20
3.8670255
40
4.1316357
50
269.8827215
51
274.9801253
0
ARC
8
DEFAULT_255_2_778
10
27.2977522
20
7216.1964257
40
7216.4610273
50
269.984786
51
270.0001021
0
ARC
8
DEFAULT_255_2_778
10
27.1469191
20
6650.3893836
40
6650.653965
50
269.9685532
51
269.9847911
0
ARC
8
DEFAULT_255_2_778
10
26.8640572
20
6131.0656077
40
6131.3301121
50
269.9524654
51
269.968533
0
ARC
8
DEFAULT_255_2_778
10
26.4792378
20
5663.9369332
40
5664.201279
50
269.9365554
51
269.9524378
0
ARC
8
DEFAULT_255_2_778
10
26.0230085
20
5250.5506328
40
5250.814727
50
269.9208781
51
269.9365388
0
ARC
8
DEFAULT_255_2_778
10
25.5034396
20
4873.6518297
40
4873.9155658
50
269.90543
51
269.9208674
0
ARC
8
DEFAULT_255_2_778
10
24.9514378
20
4539.825809
40
4540.0890889
50
269.8902643
51
269.9054426
0
ARC
8
DEFAULT_255_2_778
10
24.3896757
20
4247.3759408
40
4247.6386811
50
269.8754139
51
269.8902866
0
ARC
8
DEFAULT_255_2_778
10
23.6757597
20
3922.071715
40
3922.3336719
50
269.8534576
51
269.8755098
0
ARC
8
DEFAULT_255_2_778
10
22.8026713
20
3580.5173522
40
3580.7781933
50
269.8322191
51
269.8534498
0
ARC
8
DEFAULT_255_2_778
10
21.8381285
20
3252.0657377
40
3252.3251623
50
269.8066228
51
269.8322671
0
ARC
8
DEFAULT_255_2_778
10
20.7587729
20
2932.2782335
40
2932.5358367
50
269.7807414
51
269.8066238
0
ARC
8
DEFAULT_255_2_778
10
19.7439121
20
2666.7089195
40
2666.9645836
50
269.7565955
51
269.7807109
0
ARC
8
DEFAULT_255_2_778
10
18.8036866
20
2444.8978518
40
2445.1515231
50
269.7341887
51
269.7565468
0
ARC
8
DEFAULT_255_2_778
10
17.7433714
20
2217.4226428
40
2217.673843
50
269.7029886
51
269.7343175
0
ARC
8
DEFAULT_255_2_778
10
16.4642337
20
1971.2217876
40
1971.469665
50
269.6663723
51
269.7030719
0
ARC
8
DEFAULT_255_2_778
10
15.2514617
20
1762.130976
40
1762.3753364
50
269.6365562
51
269.6662176
0
ARC
8
DEFAULT_255_2_778
10
14.0279266
20
1570.1023918
40
1570.3428542
50
269.5947106
51
269.6367541
0
ARC
8
DEFAULT_255_2_778
10
12.624563
20
1371.7648937
40
1372.0003912
50
269.550351
51
269.5947262
0
ARC
8
DEFAULT_255_2_778
10
11.6879554
20
1251.272692
40
1251.5045498
50
269.5342074
51
269.5499382
0
ARC
8
DEFAULT_255_2_778
10
1.5012733
20
1.5503568
40
1.7409035
50
259.2008422
51
270.4128382
0
ARC
8
DEFAULT_255_2_778
10
1.3765272
20
0.9238039
40
1.1020857
50
240.1923298
51
259.4681478
0
ARC
8
DEFAULT_255_2_778
10
1.2901869
20
0.7448961
40
0.9040373
50
200.2939755
51
239.3039956
0
ARC
8
DEFAULT_255_2_778
10
1.7911225
20
0.9505178
40
1.4453212
50
187.4405153
51
201.0517511
0
ARC
8
DEFAULT_255_2_778
10
2.5622232
20
1.060777
40
2.2242274
50
179.7495755
51
187.6846085
0
LINE
8
DEFAULT_255_2_778
10
0.3380171
20
1.0704985
11
0.3334889
21
6.4669018
0
LINE
8
DEFAULT_255_2_778
10
0.3334889
20
6.4669018
11
0.3292394
21
11.5693571
0
LINE
8
DEFAULT_255_2_778
10
0.3292394
20
11.5693571
11
0.3252513
21
16.3947599
0
LINE
8
DEFAULT_255_2_778
10
0.3252513
20
16.3947599
11
0.3215086
21
20.9590032
0
LINE
8
DEFAULT_255_2_778
10
0.3215086
20
20.9590032
11
0.3179961
21
25.2770383
0
LINE
8
DEFAULT_255_2_778
10
0.3179961
20
25.2770383
11
0.3146997
21
29.3629316
0
LINE
8
DEFAULT_255_2_778
10
0.3146997
20
29.3629316
11
0.3116062
21
33.2299177
0
LINE
8
DEFAULT_255_2_778
10
0.3116062
20
33.2299177
11
0.3087029
21
36.89045
0
LINE
8
DEFAULT_255_2_778
10
0.3087029
20
36.89045
11
0.3059783
21
40.356247
0
LINE
8
DEFAULT_255_2_778
10
0.3059783
20
40.356247
11
0.3034213
21
43.6383373
0
LINE
8
DEFAULT_255_2_778
10
0.3034213
20
43.6383373
11
0.3010217
21
46.7471007
0
LINE
8
DEFAULT_255_2_778
10
0.3010217
20
46.7471007
11
0.2987696
21
49.6923071
0
LINE
8
DEFAULT_255_2_778
10
0.2987696
20
49.6923071
11
0.2966561
21
52.4831533
0
LINE
8
DEFAULT_255_2_778
10
0.2966561
20
52.4831533
11
0.2946727
21
55.1282973
0
LINE
8
DEFAULT_255_2_778
10
0.2946727
20
55.1282973
11
0.2928112
21
57.6358908
0
LINE
8
DEFAULT_255_2_778
10
0.2928112
20
57.6358908
11
0.2910643
21
60.0136093
0
LINE
8
DEFAULT_255_2_778
10
0.2910643
20
60.0136093
11
0.2894249
21
62.2686804
0
LINE
8
DEFAULT_255_2_778
10
0.2894249
20
62.2686804
11
0.2878863
21
64.4079114
0
LINE
8
DEFAULT_255_2_778
10
0.2878863
20
64.4079114
11
0.2864424
21
66.4377133
0
LINE
8
DEFAULT_255_2_778
10
0.2864424
20
66.4377133
11
0.2850874
21
68.3641255
0
LINE
8
DEFAULT_255_2_778
10
0.2850874
20
68.3641255
11
0.2838156
21
70.1928372
0
LINE
8
DEFAULT_255_2_778
10
0.2838156
20
70.1928372
11
0.2826222
21
71.9292087
0
LINE
8
DEFAULT_255_2_778
10
0.2826222
20
71.9292087
11
0.2815021
21
73.5782909
0
LINE
8
DEFAULT_255_2_778
10
0.2815021
20
73.5782909
11
0.280451
21
75.1448434
0
LINE
8
DEFAULT_255_2_778
10
0.280451
20
75.1448434
11
0.2794645
21
76.6333524
0
LINE
8
DEFAULT_255_2_778
10
0.2794645
20
76.6333524
11
0.2785388
21
78.0480463
0
LINE
8
DEFAULT_255_2_778
10
0.2785388
20
78.0480463
11
0.27767
21
79.3929114
0
LINE
8
DEFAULT_255_2_778
10
0.27767
20
79.3929114
11
0.2768546
21
80.6717061
0
LINE
8
DEFAULT_255_2_778
10
0.2768546
20
80.6717061
11
0.2760894
21
81.8879742
0
LINE
8
DEFAULT_255_2_778
10
0.2760894
20
81.8879742
11
0.2753713
21
83.045058
0
LINE
8
DEFAULT_255_2_778
10
0.2753713
20
83.045058
11
0.2746973
21
84.1461098
0
LINE
8
DEFAULT_255_2_778
10
0.2746973
20
84.1461098
11
0.2740649
21
85.1941032
0
LINE
8
DEFAULT_255_2_778
10
0.2740649
20
85.1941032
11
0.2734713
21
86.1918438
0
LINE
8
DEFAULT_255_2_778
10
0.2734713
20
86.1918438
11
0.2729142
21
87.1419788
0
LINE
8
DEFAULT_255_2_778
10
0.2729142
20
87.1419788
11
0.2723915
21
88.0470065
0
LINE
8
DEFAULT_255_2_778
10
0.2723915
20
88.0470065
11
0.2719009
21
88.909285
0
LINE
8
DEFAULT_255_2_778
10
0.2719009
20
88.909285
11
0.2714404
21
89.7310401
0
ARC
8
DEFAULT_255_2_778
10
87039.4750749
20
138.1461205
40
87039.2170997
50
180.0308474
51
180.0318705
0
ARC
8
DEFAULT_255_2_778
10
80813.5433817
20
134.7953835
40
80813.2845048
50
180.0298476
51
180.0308483
0
ARC
8
DEFAULT_255_2_778
10
72975.926232
20
130.7021788
40
72975.6662862
50
180.028832
51
180.0298395
0
ARC
8
DEFAULT_255_2_778
10
65680.9018334
20
127.0384438
40
65680.6409675
50
180.0278196
51
180.0288383
0
ARC
8
DEFAULT_255_2_778
10
61094.9342272
20
124.817515
40
61094.6728236
50
180.0268273
51
180.027825
0
ARC
8
DEFAULT_255_2_778
10
56338.1055913
20
122.5948093
40
56337.8436685
50
180.0258452
51
180.0268319
0
ARC
8
DEFAULT_255_2_778
10
51238.2495118
20
120.3035012
40
51237.9870743
50
180.0243796
51
180.0258555
0
ARC
8
DEFAULT_255_2_778
10
46068.5736914
20
118.0938624
40
46068.3107817
50
180.0229355
51
180.0243672
0
ARC
8
DEFAULT_255_2_778
10
39862.9030039
20
115.6155968
40
39862.6395993
50
180.0212613
51
180.0229439
0
ARC
8
DEFAULT_255_2_778
10
35451.6450243
20
113.9924243
40
35451.3813211
50
180.019437
51
180.0212835
0
ARC
8
DEFAULT_255_2_778
10
31367.9030294
20
112.6100771
40
31367.6390921
50
180.0176906
51
180.0194425
0
ARC
8
DEFAULT_255_2_778
10
27839.5268436
20
111.5277386
40
27839.2627403
50
180.0160419
51
180.0177052
0
ARC
8
DEFAULT_255_2_778
10
24481.3493142
20
110.6032916
40
24481.0850838
50
180.0136994
51
180.0160789
0
ARC
8
DEFAULT_255_2_778
10
21474.4467012
20
109.8880117
40
21474.1823856
50
180.0110907
51
180.0137092
0
ARC
8
DEFAULT_255_2_778
10
18396.3095002
20
109.2895277
40
18396.0451265
50
180.0087052
51
180.0110824
0
ARC
8
DEFAULT_255_2_778
10
15722.4559407
20
108.8878766
40
15722.1915366
50
180.0057424
51
180.0087219
0
ARC
8
DEFAULT_255_2_778
10
13422.8051126
20
108.663439
40
13422.5406974
50
180.0030018
51
180.0057682
0
ARC
8
DEFAULT_255_2_778
10
11933.2401958
20
108.5897526
40
11932.9757788
50
180.000056
51
180.0030227
0
ARC
8
DEFAULT_255_2_778
10
3.7090348
20
108.5904801
40
3.44464
50
172.3329902
51
180.2059477
0
ARC
8
DEFAULT_255_2_778
10
2.7682159
20
108.7207178
40
2.4948586
50
161.2319219
51
172.4145992
0
ARC
8
DEFAULT_255_2_778
10
2.1523948
20
108.9359094
40
1.8425547
50
141.1149122
51
161.4065689
0
ARC
8
DEFAULT_255_2_778
10
2.0994607
20
108.9532663
40
1.7905633
50
116.69822
51
140.4839107
0
ARC
8
DEFAULT_255_2_778
10
2.3894164
20
108.3988172
40
2.4161949
50
105.4247296
51
116.9337648
0
ARC
8
DEFAULT_255_2_778
10
2.6387779
20
107.5100422
40
3.3392826
50
97.1953948
51
105.4931945
0
ARC
8
DEFAULT_255_2_778
10
2.8026832
20
106.2486173
40
4.6113055
50
91.0924729
51
97.2527568
0
ARC
8
DEFAULT_255_2_778
10
2.8359795
20
105.2680358
40
5.5923627
50
89.9924435
51
91.2419979
0
ARC
8
DEFAULT_255_2_778
10
26.7401298
20
106.2808285
40
4.5879148
50
80.4277486
51
86.5437678
0
ARC
8
DEFAULT_255_2_778
10
26.9512849
20
107.5140329
40
3.3367689
50
72.3014675
51
80.481735
0
ARC
8
DEFAULT_255_2_778
10
27.2375964
20
108.3980148
40
2.4075887
50
60.461139
51
72.3971854
0
ARC
8
DEFAULT_255_2_778
10
27.5720268
20
108.9618028
40
1.7522504
50
19.9862457
51
60.8864286
0
ARC
8
DEFAULT_255_2_778
10
27.0496468
20
108.7645721
40
2.3105923
50
7.6019904
51
20.1550101
0
ARC
8
DEFAULT_255_2_778
10
26.2137475
20
108.6456363
40
3.1548874
50
359.8068056
51
7.7347217
0
LINE
8
DEFAULT_255_2_778
10
29.3686171
20
108.6349985
11
29.3686171
21
1.5154985
0
LINE
8
DEFAULT_255_2_778
10
2.8367171
20
110.8603985
11
27.0167171
21
110.8603985
0
LINE
8
DEFAULT_255_2_778
10
29.3686171
20
1.5154985
11
29.3686171
21
1.5157985
0
LINE
8
DEFAULT_255_2_778
10
18.7852171
20
98.4249246
11
18.7852171
21
6.3499246
0
LINE
8
DEFAULT_255_2_778
10
18.7852171
20
-0.2645754
11
18.7852171
21
6.8685246
0
LINE
8
DEFAULT_255_2_778
10
10.4580171
20
17.0674246
11
10.4580171
21
3.2302246
0
ARC
8
DEFAULT_255_2_778
10
11.2899775
20
3.2173055
40
0.8320607
50
179.1103559
51
196.8411996
0
ARC
8
DEFAULT_255_2_778
10
10.9867638
20
3.1288381
40
0.5162305
50
197.1934675
51
257.240045
0
ARC
8
DEFAULT_255_2_778
10
11.1488162
20
3.6540414
40
1.0650859
50
254.9773811
51
268.8912122
0
ARC
8
DEFAULT_255_2_778
10
11.175418
20
4.1145428
40
1.5261183
50
268.2272135
51
270.0149838
0
LINE
8
DEFAULT_255_2_778
10
11.1758171
20
2.5884246
11
15.4107171
21
2.5884246
0
ARC
8
DEFAULT_255_2_778
10
15.4232951
20
5.5050077
40
2.9166102
50
269.7529079
51
276.1908194
0
ARC
8
DEFAULT_255_2_778
10
15.5520995
20
4.3506282
40
1.755076
50
276.0744411
51
285.3604419
0
ARC
8
DEFAULT_255_2_778
10
15.7564987
20
3.6259683
40
1.0021717
50
285.066451
51
300.6131202
0
ARC
8
DEFAULT_255_2_778
10
15.9768868
20
3.2673781
40
0.5813727
50
299.9169571
51
359.0206768
0
ARC
8
DEFAULT_255_2_778
10
15.7136343
20
3.3013849
40
0.8456828
50
357.0214514
51
0.0230158
0
LINE
8
DEFAULT_255_2_778
10
16.5593171
20
3.3017246
11
16.5593171
21
8.1517246
0
ARC
8
DEFAULT_255_2_778
10
16.5719212
20
1.2463872
40
6.9053489
50
86.2842037
51
90.10458
0
ARC
8
DEFAULT_255_2_778
10
16.709033
20
3.3127655
40
4.8344296
50
81.3861587
51
86.3186551
0
ARC
8
DEFAULT_255_2_778
10
16.946399
20
4.8575053
40
3.2715646
50
74.7939369
51
81.4444156
0
ARC
8
DEFAULT_255_2_778
10
17.2479802
20
5.9524084
40
2.1358969
50
65.3879951
51
74.896917
0
ARC
8
DEFAULT_255_2_778
10
17.5730152
20
6.6518645
40
1.364626
50
50.7977005
51
65.5644128
0
ARC
8
DEFAULT_255_2_778
10
17.8404699
20
6.9775474
40
0.9432015
50
0.3808814
51
50.8830205
0
ARC
8
DEFAULT_255_2_778
10
17.4991711
20
6.9394328
40
1.2852461
50
359.9907196
51
1.9790418
0
LINE
8
DEFAULT_255_2_778
10
0.2644171
20
92.3395246
11
8.2019171
21
92.3395246
0
ARC
8
DEFAULT_255_2_778
10
7.120824
20
-0.2438171
40
1.0812923
50
358.8999881
51
359.8774414
0
ARC
8
DEFAULT_255_2_778
10
-7.8195343
20
-0.1542474
40
16.0219118
50
359.6714176
51
359.8239096
0
ARC
8
DEFAULT_255_2_778
10
-53.877544
20
-0.000306
40
62.0801782
50
359.8124762
51
359.8725869
0
ARC
8
DEFAULT_255_2_778
10
-145.553219
20
0.2096404
40
153.7560936
50
359.8703214
51
359.9023697
0
ARC
8
DEFAULT_255_2_778
10
-293.7880891
20
0.4675694
40
301.9911882
50
359.9013564
51
359.921344
0
ARC
8
DEFAULT_255_2_778
10
-507.9791735
20
0.7654359
40
516.1824796
50
359.9209196
51
359.9346005
0
ARC
8
DEFAULT_255_2_778
10
-837.8960716
20
1.1429983
40
846.0995937
50
359.934534
51
359.9457045
0
ARC
8
DEFAULT_255_2_778
10
-1286.7447888
20
1.5731393
40
1294.948517
50
359.9454923
51
359.9537006
0
ARC
8
DEFAULT_255_2_778
10
-1843.8486639
20
2.0294511
40
1852.0525789
50
359.953511
51
359.9598269
0
ARC
8
DEFAULT_255_2_778
10
-2614.7808587
20
2.5759303
40
2622.9849674
50
359.9596972
51
359.9648884
0
ARC
8
DEFAULT_255_2_778
10
-3593.7729448
20
3.1751067
40
3601.9772367
50
359.9649005
51
359.9691692
0
ARC
8
DEFAULT_255_2_778
10
-4709.4566642
20
3.7829125
40
4717.6611218
50
359.9690786
51
359.9726008
0
ARC
8
DEFAULT_255_2_778
10
-5934.9678336
20
4.3733599
40
5943.1724332
50
359.9725584
51
359.9755021
0
ARC
8
DEFAULT_255_2_778
10
-7697.6055872
20
5.1300404
40
7705.8103492
50
359.9754796
51
359.9778492
0
ARC
8
DEFAULT_255_2_778
10
-9231.7119203
20
5.7241141
40
9239.9167975
50
359.9778431
51
359.9798908
0
ARC
8
DEFAULT_255_2_778
10
-11699.6020771
20
6.5897471
40
11707.8071061
50
359.9798934
51
359.9815576
0
ARC
8
DEFAULT_255_2_778
10
-13577.9861111
20
7.1762166
40
13586.1912315
50
359.9816341
51
359.9831033
0
ARC
8
DEFAULT_255_2_778
10
-15455.9364377
20
7.7352387
40
15464.1416415
50
359.983084
51
359.9844001
0
ARC
8
DEFAULT_255_2_778
10
-17366.7345463
20
8.2512079
40
17374.9398196
50
359.9844143
51
359.985604
0
ARC
8
DEFAULT_255_2_778
10
-19195.2588753
20
8.7380389
40
19203.4642135
50
359.9855223
51
359.9866118
0
ARC
8
DEFAULT_255_2_778
10
-20995.9823535
20
9.1781871
40
21004.1877452
50
359.986559
51
359.987564
0
ARC
8
DEFAULT_255_2_778
10
-26115.0444136
20
10.3153928
40
26123.2499316
50
359.9875067
51
359.9883197
0
ARC
8
DEFAULT_255_2_778
10
-28179.0973579
20
10.7370341
40
28187.302919
50
359.988318
51
359.9890742
0
ARC
8
DEFAULT_255_2_778
10
-36463.9635801
20
12.2837325
40
36472.1692854
50
359.9891263
51
359.9897116
0
ARC
8
DEFAULT_255_2_778
10
-34767.221107
20
11.9493808
40
34775.4267797
50
359.9897604
51
359.9906874
0
LINE
8
DEFAULT_255_2_778
10
8.2052134
20
6.2971627
11
8.2052721
21
6.667773
0
LINE
8
DEFAULT_255_2_778
10
8.2052721
20
6.667773
11
8.2053272
21
7.0365093
0
LINE
8
DEFAULT_255_2_778
10
8.2053272
20
7.0365093
11
8.2053788
21
7.4028327
0
LINE
8
DEFAULT_255_2_778
10
8.2053788
20
7.4028327
11
8.2054273
21
7.7662583
0
LINE
8
DEFAULT_255_2_778
10
8.2054273
20
7.7662583
11
8.2054728
21
8.1263505
0
LINE
8
DEFAULT_255_2_778
10
8.2054728
20
8.1263505
11
8.2055156
21
8.4827199
0
LINE
8
DEFAULT_255_2_778
10
8.2055156
20
8.4827199
11
8.2055556
21
8.8350195
0
ARC
8
DEFAULT_255_2_778
10
-65322.9455124
20
16.0693231
40
65331.1514685
50
359.9936555
51
359.9942715
0
LINE
8
DEFAULT_255_2_778
10
8.2056297
20
9.5373909
11
8.2056948
21
10.2195744
0
LINE
8
DEFAULT_255_2_778
10
8.2056948
20
10.2195744
11
8.2057519
21
10.8799608
0
LINE
8
DEFAULT_255_2_778
10
8.2057519
20
10.8799608
11
8.2058022
21
11.5173888
0
LINE
8
DEFAULT_255_2_778
10
8.2058022
20
11.5173888
11
8.2058464
21
12.1310754
0
LINE
8
DEFAULT_255_2_778
10
8.2058464
20
12.1310754
11
8.2058852
21
12.720555
0
LINE
8
DEFAULT_255_2_778
10
8.2058852
20
12.720555
11
8.2059194
21
13.2856274
0
LINE
8
DEFAULT_255_2_778
10
8.2059194
20
13.2856274
11
8.2059774
21
14.3775736
0
LINE
8
DEFAULT_255_2_778
10
8.2059774
20
14.3775736
11
8.2060219
21
15.3677317
0
LINE
8
DEFAULT_255_2_778
10
8.2060219
20
15.3677317
11
8.2060559
21
16.2606911
0
LINE
8
DEFAULT_255_2_778
10
8.2060559
20
16.2606911
11
8.2061045
21
17.8830445
0
LINE
8
DEFAULT_255_2_778
10
8.2061045
20
17.8830445
11
8.2061319
21
19.1496512
0
LINE
8
DEFAULT_255_2_778
10
8.2061319
20
19.1496512
11
8.2061583
21
21.1296638
0
LINE
8
DEFAULT_255_2_778
10
8.2061583
20
21.1296638
11
8.2061671
21
23.2057996
0
LINE
8
DEFAULT_255_2_778
10
8.2061671
20
23.2057996
11
8.2061629
21
24.6878002
0
LINE
8
DEFAULT_255_2_778
10
8.2061629
20
24.6878002
11
8.2061313
21
27.6882766
0
LINE
8
DEFAULT_255_2_778
10
8.2061313
20
27.6882766
11
8.2060733
21
30.6558925
0
LINE
8
DEFAULT_255_2_778
10
8.2060733
20
30.6558925
11
8.205994
21
33.5739721
0
LINE
8
DEFAULT_255_2_778
10
8.205994
20
33.5739721
11
8.2058979
21
36.4291502
0
LINE
8
DEFAULT_255_2_778
10
8.2058979
20
36.4291502
11
8.2057886
21
39.2108899
0
LINE
8
DEFAULT_255_2_778
10
8.2057886
20
39.2108899
11
8.2055334
21
44.7005571
0
LINE
8
DEFAULT_255_2_778
10
8.2055334
20
44.7005571
11
8.2052565
21
49.7970871
0
LINE
8
DEFAULT_255_2_778
10
8.2052565
20
49.7970871
11
8.2049732
21
54.4809334
0
LINE
8
DEFAULT_255_2_778
10
8.2049732
20
54.4809334
11
8.2043852
21
63.1815906
0
LINE
8
DEFAULT_255_2_778
10
8.2043852
20
63.1815906
11
8.2038672
21
70.1279763
0
LINE
8
DEFAULT_255_2_778
10
8.2038672
20
70.1279763
11
8.2029664
21
81.2239896
0
LINE
8
DEFAULT_255_2_778
10
8.2029664
20
81.2239896
11
8.2019171
21
93.1317246
0
LINE
8
DEFAULT_255_2_778
10
29.3686171
20
102.4040246
11
20.7061171
21
102.4040246
0
ARC
8
DEFAULT_255_2_778
10
20.6935249
20
100.1818188
40
2.2222415
50
89.6753365
51
98.4525047
0
ARC
8
DEFAULT_255_2_778
10
20.5645749
20
101.0186878
40
1.3755158
50
98.2634596
51
111.9320194
0
ARC
8
DEFAULT_255_2_778
10
20.3623045
20
101.5008144
40
0.8527659
50
111.4244504
51
141.5158268
0
ARC
8
DEFAULT_255_2_778
10
20.406558
20
101.4922823
40
0.8929599
50
142.8544208
51
168.6399775
0
ARC
8
DEFAULT_255_2_778
10
20.9214937
20
101.3767149
40
1.4206208
50
168.1610445
51
180.4513243
0
LINE
8
DEFAULT_255_2_778
10
19.5009171
20
101.3655246
11
19.5009171
21
99.1401246
0
ARC
8
DEFAULT_255_2_778
10
18.7261917
20
99.1223933
40
0.7749283
50
309.4560735
51
1.3111123
0
ARC
8
DEFAULT_255_2_778
10
18.446191
20
99.4439073
40
1.2011684
50
295.9512756
51
310.0224791
0
ARC
8
DEFAULT_255_2_778
10
18.1331247
20
100.074332
40
1.9050335
50
286.9306704
51
296.1203219
0
ARC
8
DEFAULT_255_2_778
10
17.8236688
20
101.073727
40
2.9512349
50
280.5314109
51
287.0278439
0
ARC
8
DEFAULT_255_2_778
10
17.5532289
20
102.5036709
40
4.4065228
50
275.7826762
51
280.5902727
0
ARC
8
DEFAULT_255_2_778
10
17.3569095
20
104.3968764
40
6.3098762
50
272.2171844
51
275.8241692
0
ARC
8
DEFAULT_255_2_778
10
17.2676299
20
106.5157201
40
8.4305908
50
269.9541604
51
272.2663886
0
ARC
8
DEFAULT_255_2_778
10
17.2619808
20
108.0506964
40
9.9655645
50
269.1759601
51
269.9936997
0
ARC
8
DEFAULT_255_2_778
10
17.2768722
20
109.0693144
40
10.984291
50
268.3125915
51
269.1747065
0
ARC
8
DEFAULT_255_2_778
10
17.3074514
20
110.1247896
40
12.040209
50
267.639215
51
268.3150383
0
ARC
8
DEFAULT_255_2_778
10
17.349588
20
111.1482859
40
13.0645722
50
266.9994551
51
267.6394728
0
LINE
8
DEFAULT_255_2_778
10
16.6657171
20
98.1016246
11
9.2084171
21
98.1016246
0
ARC
8
DEFAULT_255_2_778
10
9.1958132
20
96.3343722
40
1.7672973
50
89.5913788
51
99.6786044
0
ARC
8
DEFAULT_255_2_778
10
9.0700314
20
97.043199
40
1.0474245
50
99.4147982
51
116.0314386
0
ARC
8
DEFAULT_255_2_778
10
8.9232974
20
97.3511027
40
0.7063677
50
116.2974618
51
170.1016653
0
ARC
8
DEFAULT_255_2_778
10
9.4483198
20
97.2213748
40
1.2464407
50
168.3755427
51
180.4481958
0
LINE
8
DEFAULT_255_2_778
10
8.2019171
20
97.2116246
11
8.2019171
21
93.2060246
0
ARC
8
DEFAULT_255_2_778
10
9.370837
20
10.4115439
40
6.7417748
50
82.5060705
51
86.2486801
0
ARC
8
DEFAULT_255_2_778
10
9.628241
20
12.3484538
40
4.7878385
50
77.7507917
51
82.5370818
0
ARC
8
DEFAULT_255_2_778
10
9.9559769
20
13.8379718
40
3.2626997
50
71.06366
51
77.825466
0
ARC
8
DEFAULT_255_2_778
10
10.3283026
20
14.9112281
40
2.1267057
50
61.4887321
51
71.1683255
0
ARC
8
DEFAULT_255_2_778
10
10.6990059
20
15.5844921
40
1.3581515
50
46.4942575
51
61.6733163
0
ARC
8
DEFAULT_255_2_778
10
10.9776007
20
15.8778382
40
0.9535938
50
358.6381028
51
46.5013981
0
LINE
8
DEFAULT_255_2_778
10
11.9309251
20
15.8551738
11
18.7844251
21
15.8551738
0
LINE
8
DEFAULT_255_2_778
10
10.4580251
20
18.4226738
11
10.4580251
21
25.9116738
0
LINE
8
DEFAULT_255_2_778
10
18.7501251
20
18.4226738
11
9.8119251
21
18.4226738
0
LINE
8
DEFAULT_255_2_778
10
9.8119251
20
18.4226738
11
9.8119251
21
17.1388738
0
ARC
8
DEFAULT_255_2_778
10
9.6806243
20
19.2237629
40
6.759301
50
86.3565382
51
90.1025511
0
ARC
8
DEFAULT_255_2_778
10
9.8124332
20
21.2495227
40
4.7292605
50
81.552114
51
86.3905864
0
ARC
8
DEFAULT_255_2_778
10
10.0442897
20
22.7840856
40
3.1772882
50
74.8943302
51
81.6224153
0
ARC
8
DEFAULT_255_2_778
10
10.3395474
20
23.8655562
40
2.056244
50
65.5996184
51
74.9841747
0
ARC
8
DEFAULT_255_2_778
10
10.6576046
20
24.5549082
40
1.2970808
50
50.6826676
51
65.8147453
0
ARC
8
DEFAULT_255_2_778
10
10.9200672
20
24.8738264
40
0.8840504
50
359.2799291
51
50.7463389
0
ARC
8
DEFAULT_255_2_778
10
10.6013206
20
24.842
40
1.2029056
50
359.9977671
51
0.9867922
0
LINE
8
DEFAULT_255_2_778
10
11.8042262
20
24.8419531
11
18.7845262
21
24.8419531
0
LINE
8
DEFAULT_255_2_778
10
18.7852262
20
27.2668531
11
9.6685262
21
27.2668531
0
LINE
8
DEFAULT_255_2_778
10
9.6685262
20
27.2668531
11
9.6685262
21
25.9830531
0
LINE
8
DEFAULT_255_2_778
10
10.4579908
20
27.2669591
11
10.4579908
21
34.7559591
0
LINE
8
DEFAULT_255_2_778
10
18.7394908
20
33.4698591
11
11.9033908
21
33.4698591
0
ARC
8
DEFAULT_255_2_778
10
10.725471
20
33.4836858
40
1.1780009
50
359.3274805
51
18.6513649
0
ARC
8
DEFAULT_255_2_778
10
10.9112456
20
33.5306338
40
0.9870813
50
19.5180159
51
56.572278
0
ARC
8
DEFAULT_255_2_778
10
10.59363
20
33.081668
40
1.5368518
50
55.9106065
51
69.3264876
0
ARC
8
DEFAULT_255_2_778
10
10.2918836
20
32.3018253
40
2.3730179
50
69.1575074
51
77.8278275
0
ARC
8
DEFAULT_255_2_778
10
10.0332885
20
31.1249563
40
3.5779569
50
77.7535469
51
84.0985325
0
ARC
8
DEFAULT_255_2_778
10
9.8575948
20
29.4726051
40
5.2396177
50
84.0452673
51
88.7890068
0
ARC
8
DEFAULT_255_2_778
10
9.8133898
20
28.068469
40
6.6443901
50
88.6638003
51
90.0129269
0
LINE
8
DEFAULT_255_2_778
10
10.4579908
20
36.1111591
11
10.4579908
21
43.6001591
0
ARC
8
DEFAULT_255_2_778
10
9.6804919
20
37.0176826
40
6.6541873
50
86.3278638
51
90.1033357
0
ARC
8
DEFAULT_255_2_778
10
9.8111894
20
39.0107458
40
4.6568464
50
81.4863248
51
86.3620611
0
ARC
8
DEFAULT_255_2_778
10
10.0424696
20
40.5275561
40
3.1225133
50
74.6870196
51
81.5629281
0
ARC
8
DEFAULT_255_2_778
10
10.3422967
20
41.6077939
40
2.0014485
50
64.8934617
51
74.7986888
0
ARC
8
DEFAULT_255_2_778
10
10.664417
20
42.2841534
40
1.2523237
50
49.1857385
51
65.1087385
0
ARC
8
DEFAULT_255_2_778
10
10.8997059
20
42.5624809
40
0.887898
50
358.8226908
51
48.9377415
0
ARC
8
DEFAULT_255_2_778
10
10.5701587
20
42.5307791
40
1.2173321
50
359.9990607
51
0.6334666
0
LINE
8
DEFAULT_255_2_778
10
11.7874908
20
42.5307591
11
18.7846908
21
42.5307591
0
LINE
8
DEFAULT_255_2_778
10
9.8118908
20
34.7128591
11
9.8118908
21
36.1114591
0
LINE
8
DEFAULT_255_2_778
10
9.8118908
20
36.1114591
11
18.6349908
21
36.1114591
0
LINE
8
DEFAULT_255_2_778
10
18.7502908
20
44.9556591
11
9.6684908
21
44.9556591
0
LINE
8
DEFAULT_255_2_778
10
9.6684908
20
44.9556591
11
9.6684908
21
43.6718591
0
LINE
8
DEFAULT_255_2_778
10
10.4580251
20
44.9559134
11
10.4580251
21
52.4449134
0
ARC
8
DEFAULT_255_2_778
10
9.8239263
20
45.8621369
40
6.6541873
50
86.3278638
51
90.1033357
0
ARC
8
DEFAULT_255_2_778
10
9.9546238
20
47.8552001
40
4.6568464
50
81.4863248
51
86.3620611
0
ARC
8
DEFAULT_255_2_778
10
10.185904
20
49.3720103
40
3.1225133
50
74.6870196
51
81.5629281
0
ARC
8
DEFAULT_255_2_778
10
10.4857311
20
50.4522482
40
2.0014485
50
64.8934617
51
74.7986888
0
ARC
8
DEFAULT_255_2_778
10
10.8078514
20
51.1286077
40
1.2523237
50
49.1857385
51
65.1087385
0
ARC
8
DEFAULT_255_2_778
10
11.0431402
20
51.4069352
40
0.887898
50
358.8226908
51
48.9377415
0
ARC
8
DEFAULT_255_2_778
10
10.713593
20
51.3752334
40
1.2173321
50
359.9990607
51
0.6334666
0
LINE
8
DEFAULT_255_2_778
10
11.9309251
20
51.3752134
11
18.7844251
21
51.3752134
0
LINE
8
DEFAULT_255_2_778
10
18.7501251
20
53.8001134
11
9.8119251
21
53.8001134
0
LINE
8
DEFAULT_255_2_778
10
9.8119251
20
53.8001134
11
9.8119251
21
52.5163134
0
LINE
8
DEFAULT_255_2_778
10
10.4581
20
53.7999155
11
10.4581
21
61.2889155
0
ARC
8
DEFAULT_255_2_778
10
9.6806243
20
54.6012629
40
6.759301
50
86.3565382
51
90.1025511
0
ARC
8
DEFAULT_255_2_778
10
9.8124332
20
56.6270227
40
4.7292605
50
81.552114
51
86.3905864
0
ARC
8
DEFAULT_255_2_778
10
10.0442897
20
58.1615856
40
3.1772882
50
74.8943302
51
81.6224153
0
ARC
8
DEFAULT_255_2_778
10
10.3395474
20
59.2430562
40
2.056244
50
65.5996184
51
74.9841747
0
ARC
8
DEFAULT_255_2_778
10
10.6576046
20
59.9324082
40
1.2970808
50
50.6826676
51
65.8147453
0
ARC
8
DEFAULT_255_2_778
10
10.9200672
20
60.2513264
40
0.8840504
50
359.2799291
51
50.7463389
0
ARC
8
DEFAULT_255_2_778
10
10.6013206
20
60.2195
40
1.2029056
50
359.9977671
51
0.9867922
0
LINE
8
DEFAULT_255_2_778
10
11.8042262
20
60.2194531
11
18.7845262
21
60.2194531
0
LINE
8
DEFAULT_255_2_778
10
18.7852262
20
62.6443531
11
9.6685262
21
62.6443531
0
LINE
8
DEFAULT_255_2_778
10
9.6685262
20
62.6443531
11
9.6685262
21
61.3605531
0
LINE
8
DEFAULT_255_2_778
10
10.458093
20
62.6472572
11
10.458093
21
70.3503572
0
ARC
8
DEFAULT_255_2_778
10
9.8238833
20
64.1904162
40
6.2371524
50
86.1131193
51
90.1092268
0
ARC
8
DEFAULT_255_2_778
10
9.9529201
20
66.0499122
40
4.3731874
50
80.9941277
51
86.1483714
0
ARC
8
DEFAULT_255_2_778
10
10.1813134
20
67.4634714
40
2.9413055
50
73.7321781
51
81.0779914
0
ARC
8
DEFAULT_255_2_778
10
10.478174
20
68.4664882
40
1.8952921
50
63.1518835
51
73.8531753
0
ARC
8
DEFAULT_255_2_778
10
10.7932614
20
69.0787141
40
1.2067669
50
45.8574835
51
63.3714908
0
ARC
8
DEFAULT_255_2_778
10
10.9700424
20
69.2761555
40
0.9420229
50
2.4548241
51
45.209875
0
ARC
8
DEFAULT_255_2_778
10
10.6202411
20
69.2300377
40
1.2938522
50
359.9654354
51
3.8318443
0
LINE
8
DEFAULT_255_2_778
10
11.914093
20
69.2292572
11
18.784493
21
69.2292572
0
LINE
8
DEFAULT_255_2_778
10
10.458093
20
71.8097572
11
10.458093
21
79.2633572
0
ARC
8
DEFAULT_255_2_778
10
9.5371862
20
72.361487
40
6.9732811
50
86.4128912
51
90.1010067
0
ARC
8
DEFAULT_255_2_778
10
9.6712302
20
74.4538095
40
4.8766722
50
81.6814633
51
86.4466487
0
ARC
8
DEFAULT_255_2_778
10
9.9041402
20
76.0237331
40
3.2895708
50
75.300778
51
81.7394425
0
ARC
8
DEFAULT_255_2_778
10
10.2018083
20
77.1429882
40
2.1314192
50
66.1533976
51
75.4061698
0
ARC
8
DEFAULT_255_2_778
10
10.5263627
20
77.8660922
40
1.3388396
50
51.8134132
51
66.3461592
0
ARC
8
DEFAULT_255_2_778
10
10.8170387
20
78.225755
40
0.8764625
50
0.6451734
51
52.2134592
0
ARC
8
DEFAULT_255_2_778
10
10.5265803
20
78.193853
40
1.1676127
50
359.9903925
51
2.0501802
0
LINE
8
DEFAULT_255_2_778
10
11.694193
20
78.1936572
11
18.784493
21
78.1936572
0
LINE
8
DEFAULT_255_2_778
10
29.288493
20
75.8031572
11
29.368593
21
75.8031572
0
LINE
8
DEFAULT_255_2_778
10
18.751193
20
71.7740572
11
9.811993
21
71.7740572
0
LINE
8
DEFAULT_255_2_778
10
9.811993
20
71.7740572
11
9.811993
21
70.4275572
0
LINE
8
DEFAULT_255_2_778
10
18.774693
20
80.6185572
11
9.524893
21
80.6185572
0
LINE
8
DEFAULT_255_2_778
10
9.524893
20
80.6185572
11
9.524893
21
79.3347572
0
LINE
8
DEFAULT_255_2_778
10
29.368593
20
10.9802572
11
18.865493
21
10.9802572
0
LINE
8
DEFAULT_255_2_778
10
29.368593
20
5.6885572
11
18.865493
21
5.6885572
0
LINE
8
DEFAULT_255_2_778
10
29.368593
20
22.8864572
11
18.865493
21
22.8864572
0
LINE
8
DEFAULT_255_2_778
10
29.368593
20
16.9333572
11
18.865493
21
16.9333572
0
LINE
8
DEFAULT_255_2_778
10
29.368593
20
28.1781572
11
18.865493
21
28.1781572
0
LINE
8
DEFAULT_255_2_778
10
29.368593
20
44.0531572
11
18.865493
21
44.0531572
0
LINE
8
DEFAULT_255_2_778
10
29.368593
20
38.7614572
11
18.865493
21
38.7614572
0
LINE
8
DEFAULT_255_2_778
10
29.368593
20
54.6364572
11
18.865493
21
54.6364572
0
LINE
8
DEFAULT_255_2_778
10
29.368593
20
49.3447572
11
18.865493
21
49.3447572
0
LINE
8
DEFAULT_255_2_778
10
29.368593
20
65.8812572
11
18.785293
21
65.8812572
0
LINE
8
DEFAULT_255_2_778
10
29.368593
20
59.9281572
11
18.865493
21
59.9281572
0
LINE
8
DEFAULT_255_2_778
10
29.368593
20
75.8031572
11
18.785293
21
75.8031572
0
LINE
8
DEFAULT_255_2_778
10
29.368893
20
70.5114572
11
18.825493
21
70.5114572
0
LINE
8
DEFAULT_255_2_778
10
29.368593
20
86.3864572
11
18.865493
21
86.3864572
0
LINE
8
DEFAULT_255_2_778
10
29.3686679
20
81.0947991
11
18.8654679
21
81.0947991
0
LINE
8
DEFAULT_255_2_778
10
29.3686679
20
91.6780991
11
18.8654679
21
91.6780991
0
LINE
8
DEFAULT_255_2_778
10
29.3559679
20
96.9697991
11
18.8527679
21
96.9697991
0
LINE
8
DEFAULT_255_2_778
10
29.3686679
20
33.4697991
11
18.8654679
21
33.4697991
0
ARC
8
DEFAULT_255_2_778
10
0.5980668
20
109.1624304
40
2.8677103
50
318.3619406
51
322.5333886
0
ARC
8
DEFAULT_255_2_778
10
1.9105305
20
108.1629871
40
1.2180478
50
322.2932896
51
329.6219015
0
ARC
8
DEFAULT_255_2_778
10
2.3773454
20
107.8805467
40
0.672535
50
330.2688062
51
331.8211249
0
ARC
8
DEFAULT_255_2_778
10
2.5223948
20
107.8084983
40
0.5106784
50
331.2615888
51
359.7935566
0
ARC
8
DEFAULT_255_2_778
10
2.6459887
20
107.8212999
40
0.387358
50
357.8337881
51
42.6331836
0
ARC
8
DEFAULT_255_2_778
10
2.6746048
20
107.8352503
40
0.3569728
50
44.0968809
51
92.5906069
0
ARC
8
DEFAULT_255_2_778
10
2.6450313
20
107.7032114
40
0.4888317
50
88.4246631
51
115.5864217
0
ARC
8
DEFAULT_255_2_778
10
2.5939373
20
107.8290851
40
0.3533329
50
116.9288714
51
135.7905325
0
ARC
8
DEFAULT_255_2_778
10
2.6432399
20
107.7939842
40
0.4132509
50
137.0686557
51
176.3374735
0
ARC
8
DEFAULT_255_2_778
10
2.9076675
20
107.7528138
40
0.6801988
50
174.2990207
51
180.105757
0
ARC
8
DEFAULT_255_2_778
10
2.6443375
20
107.7661053
40
0.6914206
50
153.2233752
51
181.2055546
0
ARC
8
DEFAULT_255_2_778
10
2.5590144
20
107.7971163
40
0.601372
50
133.5246154
51
152.1987814
0
ARC
8
DEFAULT_255_2_778
10
2.5986796
20
107.7483582
40
0.664059
50
95.7837627
51
133.1089329
0
ARC
8
DEFAULT_255_2_778
10
2.6556967
20
107.4186517
40
0.9981096
50
89.8580263
51
97.1329395
0
ARC
8
DEFAULT_255_2_778
10
2.6713396
20
107.5691894
40
0.8476712
50
71.9509067
51
90.8902036
0
ARC
8
DEFAULT_255_2_778
10
2.7527284
20
107.8329141
40
0.5717235
50
48.190688
51
71.5173099
0
ARC
8
DEFAULT_255_2_778
10
2.7736146
20
107.8631644
40
0.5352717
50
358.5016807
51
47.6984489
0
ARC
8
DEFAULT_255_2_778
10
2.5314758
20
107.8389932
40
0.777294
50
359.9974247
51
0.7500485
0
ARC
8
DEFAULT_255_2_778
10
2.6519607
20
107.8516989
40
0.6569328
50
336.9309073
51
358.8887334
0
ARC
8
DEFAULT_255_2_778
10
2.0996418
20
108.0750639
40
1.2526557
50
325.6237781
51
337.430293
0
ARC
8
DEFAULT_255_2_778
10
1.3076386
20
108.6044657
40
2.2052708
50
318.9039567
51
325.8899253
0
ARC
8
DEFAULT_255_2_778
10
0.6509616
20
109.1591101
40
3.0647594
50
317.2909543
51
319.1594089
0
LINE
8
DEFAULT_255_2_778
10
3.4079699
20
106.4540583
11
3.4079699
21
106.2302583
0
LINE
8
DEFAULT_255_2_778
10
3.4079699
20
106.2302583
11
1.9945699
21
106.2302583
0
LINE
8
DEFAULT_255_2_778
10
1.9945699
20
106.2302583
11
1.9945699
21
106.4273583
0
LINE
8
DEFAULT_255_2_778
10
1.9945699
20
106.4273583
11
2.7412699
21
107.2570583
0
LINE
8
DEFAULT_255_2_778
10
2.2274699
20
107.7515583
11
1.9530699
21
107.7515583
0
LINE
8
DEFAULT_255_2_778
10
2.9029699
20
107.0803583
11
2.3250699
21
106.4535583
0
LINE
8
DEFAULT_255_2_778
10
2.3250699
20
106.4535583
11
3.4082699
21
106.4535583
0
LINE
8
DEFAULT_255_2_778
10
3.4082699
20
106.4535583
11
3.4079699
21
106.4540583
0
LINE
8
DEFAULT_255_2_778
10
3.7696699
20
108.3876583
11
4.1371699
21
108.3876583
0
LINE
8
DEFAULT_255_2_778
10
4.1371699
20
108.3876583
11
4.8425699
21
106.6273583
0
LINE
8
DEFAULT_255_2_778
10
4.8425699
20
106.6273583
11
5.5479699
21
108.3876583
0
LINE
8
DEFAULT_255_2_778
10
5.5479699
20
108.3876583
11
5.9167699
21
108.3876583
0
LINE
8
DEFAULT_255_2_778
10
5.9167699
20
108.3876583
11
5.9167699
21
106.2302583
0
LINE
8
DEFAULT_255_2_778
10
5.9167699
20
106.2302583
11
5.6323699
21
106.2302583
0
LINE
8
DEFAULT_255_2_778
10
5.6323699
20
106.2302583
11
5.6323699
21
107.0702583
0
LINE
8
DEFAULT_255_2_778
10
5.6323699
20
107.0702583
11
5.6590699
21
107.9770583
0
LINE
8
DEFAULT_255_2_778
10
5.6590699
20
107.9770583
11
4.9507699
21
106.2302583
0
LINE
8
DEFAULT_255_2_778
10
4.9507699
20
106.2302583
11
4.7330699
21
106.2302583
0
LINE
8
DEFAULT_255_2_778
10
4.7330699
20
106.2302583
11
4.0263699
21
107.9727583
0
LINE
8
DEFAULT_255_2_778
10
4.0263699
20
107.9727583
11
4.0543699
21
107.0705583
0
LINE
8
DEFAULT_255_2_778
10
4.0543699
20
107.0705583
11
4.0543699
21
106.2302583
0
LINE
8
DEFAULT_255_2_778
10
4.0543699
20
106.2302583
11
3.7699699
21
106.2302583
0
LINE
8
DEFAULT_255_2_778
10
3.7699699
20
106.2302583
11
3.7699699
21
108.3876583
0
LINE
8
DEFAULT_255_2_778
10
3.7699699
20
108.3876583
11
3.7696699
21
108.3876583
0
LINE
8
DEFAULT_255_2_778
10
6.7047699
20
108.3876583
11
6.7047699
21
106.4630583
0
LINE
8
DEFAULT_255_2_778
10
6.7047699
20
106.4630583
11
7.7270699
21
106.4630583
0
LINE
8
DEFAULT_255_2_778
10
7.7270699
20
106.4630583
11
7.7270699
21
106.2304583
0
LINE
8
DEFAULT_255_2_778
10
7.7270699
20
106.2304583
11
6.4186699
21
106.2304583
0
LINE
8
DEFAULT_255_2_778
10
6.4186699
20
106.2304583
11
6.4186699
21
108.3876583
0
LINE
8
DEFAULT_255_2_778
10
6.4186699
20
108.3876583
11
6.7047699
21
108.3876583
0
LINE
8
DEFAULT_255_2_778
10
6.7047699
20
108.3876583
11
6.7047699
21
108.3876583
0
LINE
8
DEFAULT_255_2_778
10
8.3567699
20
108.3876583
11
8.3567699
21
106.2302583
0
LINE
8
DEFAULT_255_2_778
10
8.3567699
20
106.2302583
11
8.0723699
21
106.2302583
0
LINE
8
DEFAULT_255_2_778
10
8.0723699
20
106.2302583
11
8.0723699
21
108.3876583
0
LINE
8
DEFAULT_255_2_778
10
8.0723699
20
108.3876583
11
8.3567699
21
108.3876583
0
LINE
8
DEFAULT_255_2_778
10
8.3567699
20
108.3876583
11
8.3567699
21
108.3876583
0
LINE
8
DEFAULT_255_2_778
10
9.4045699
20
107.2586583
11
9.4045699
21
107.0348583
0
LINE
8
DEFAULT_255_2_778
10
9.4045699
20
107.0348583
11
8.6814699
21
107.0348583
0
LINE
8
DEFAULT_255_2_778
10
8.6814699
20
107.0348583
11
8.6814699
21
107.2586583
0
LINE
8
DEFAULT_255_2_778
10
8.6814699
20
107.2586583
11
9.4045699
21
107.2586583
0
LINE
8
DEFAULT_255_2_778
10
9.4045699
20
107.2586583
11
9.4045699
21
107.2586583
0
LINE
8
DEFAULT_255_2_778
10
11.1110396
20
106.2302062
11
10.9052396
21
106.7932062
0
LINE
8
DEFAULT_255_2_778
10
10.9052396
20
106.7932062
11
10.0014396
21
106.7932062
0
LINE
8
DEFAULT_255_2_778
10
10.0014396
20
106.7932062
11
9.7984396
21
106.2302062
0
LINE
8
DEFAULT_255_2_778
10
9.7984396
20
106.2302062
11
9.5050396
21
106.2302062
0
LINE
8
DEFAULT_255_2_778
10
9.5050396
20
106.2302062
11
10.3289396
21
108.3876062
0
LINE
8
DEFAULT_255_2_778
10
10.3289396
20
108.3876062
11
10.5779396
21
108.3876062
0
LINE
8
DEFAULT_255_2_778
10
10.5779396
20
108.3876062
11
11.4031396
21
106.2302062
0
LINE
8
DEFAULT_255_2_778
10
11.4031396
20
106.2302062
11
11.1113396
21
106.2302062
0
LINE
8
DEFAULT_255_2_778
10
11.1113396
20
106.2302062
11
11.1110396
21
106.2302062
0
LINE
8
DEFAULT_255_2_778
10
10.4533396
20
108.0362062
11
10.0873396
21
107.0271062
0
LINE
8
DEFAULT_255_2_778
10
10.0873396
20
107.0271062
11
10.8208396
21
107.0271062
0
LINE
8
DEFAULT_255_2_778
10
10.8208396
20
107.0271062
11
10.4533396
21
108.0362062
0
LINE
8
DEFAULT_255_2_778
10
10.4533396
20
108.0362062
11
10.4533396
21
108.0362062
0
ARC
8
DEFAULT_255_2_778
10
10.2258803
20
109.1624304
40
2.8677103
50
318.3619406
51
322.5333886
0
ARC
8
DEFAULT_255_2_778
10
11.5383439
20
108.1629871
40
1.2180478
50
322.2932896
51
329.6219015
0
ARC
8
DEFAULT_255_2_778
10
12.0051588
20
107.8805467
40
0.672535
50
330.2688062
51
331.8211249
0
ARC
8
DEFAULT_255_2_778
10
12.1509464
20
107.8085171
40
0.5100403
50
331.2198714
51
359.7911937
0
ARC
8
DEFAULT_255_2_778
10
12.2741194
20
107.8212772
40
0.38714
50
357.8359287
51
42.6674594
0
ARC
8
DEFAULT_255_2_778
10
12.3024183
20
107.8352503
40
0.3569728
50
44.0968809
51
92.5906069
0
ARC
8
DEFAULT_255_2_778
10
12.2728447
20
107.7032114
40
0.4888317
50
88.4246631
51
115.5864217
0
ARC
8
DEFAULT_255_2_778
10
12.2217507
20
107.8290851
40
0.3533329
50
116.9288714
51
135.7905325
0
ARC
8
DEFAULT_255_2_778
10
12.2710534
20
107.7939842
40
0.4132509
50
137.0686557
51
176.3374735
0
ARC
8
DEFAULT_255_2_778
10
12.5354809
20
107.7528138
40
0.6801988
50
174.2990207
51
180.105757
0
ARC
8
DEFAULT_255_2_778
10
12.272451
20
107.7661053
40
0.6914206
50
153.2233752
51
181.2055546
0
ARC
8
DEFAULT_255_2_778
10
12.1871279
20
107.7971163
40
0.601372
50
133.5246154
51
152.1987814
0
ARC
8
DEFAULT_255_2_778
10
12.226793
20
107.7483582
40
0.664059
50
95.7837627
51
133.1089329
0
ARC
8
DEFAULT_255_2_778
10
12.2838101
20
107.4186517
40
0.9981096
50
89.8580263
51
97.1329395
0
ARC
8
DEFAULT_255_2_778
10
12.2994531
20
107.5691894
40
0.8476712
50
71.9509067
51
90.8902036
0
ARC
8
DEFAULT_255_2_778
10
12.3808418
20
107.8329141
40
0.5717235
50
48.190688
51
71.5173099
0
ARC
8
DEFAULT_255_2_778
10
12.4017281
20
107.8631644
40
0.5352717
50
358.5016807
51
47.6984489
0
ARC
8
DEFAULT_255_2_778
10
12.1595893
20
107.8389932
40
0.777294
50
359.9974247
51
0.7500485
0
ARC
8
DEFAULT_255_2_778
10
12.2800741
20
107.8516989
40
0.6569328
50
336.9309073
51
358.8887334
0
ARC
8
DEFAULT_255_2_778
10
11.7277553
20
108.0750639
40
1.2526557
50
325.6237781
51
337.430293
0
ARC
8
DEFAULT_255_2_778
10
10.9357521
20
108.6044657
40
2.2052708
50
318.9039567
51
325.8899253
0
ARC
8
DEFAULT_255_2_778
10
10.2790751
20
109.1591101
40
3.0647594
50
317.2909543
51
319.1594089
0
LINE
8
DEFAULT_255_2_778
10
13.0358834
20
106.4540583
11
13.0358834
21
106.2302583
0
LINE
8
DEFAULT_255_2_778
10
13.0358834
20
106.2302583
11
11.6224834
21
106.2302583
0
LINE
8
DEFAULT_255_2_778
10
11.6224834
20
106.2302583
11
11.6224834
21
106.4273583
0
LINE
8
DEFAULT_255_2_778
10
11.6224834
20
106.4273583
11
12.3690834
21
107.2570583
0
LINE
8
DEFAULT_255_2_778
10
11.8552834
20
107.7515583
11
11.5811834
21
107.7515583
0
LINE
8
DEFAULT_255_2_778
10
12.5310834
20
107.0803583
11
11.9531834
21
106.4535583
0
LINE
8
DEFAULT_255_2_778
10
11.9531834
20
106.4535583
11
13.0363834
21
106.4535583
0
LINE
8
DEFAULT_255_2_778
10
13.0363834
20
106.4535583
11
13.0358834
21
106.4540583
0
LINE
8
DEFAULT_255_2_778
10
14.2269834
20
108.3979583
11
14.2269834
21
106.2302583
0
LINE
8
DEFAULT_255_2_778
10
14.2269834
20
106.2302583
11
13.9512834
21
106.2302583
0
LINE
8
DEFAULT_255_2_778
10
13.9512834
20
106.2302583
11
13.9512834
21
108.0571583
0
LINE
8
DEFAULT_255_2_778
10
13.9512834
20
108.0571583
11
13.3985834
21
107.8542583
0
LINE
8
DEFAULT_255_2_778
10
13.3985834
20
107.8542583
11
13.3985834
21
108.1032583
0
LINE
8
DEFAULT_255_2_778
10
13.3985834
20
108.1032583
11
14.1838834
21
108.3979583
0
LINE
8
DEFAULT_255_2_778
10
14.1838834
20
108.3979583
11
14.2267834
21
108.3979583
0
LINE
8
DEFAULT_255_2_778
10
14.2267834
20
108.3979583
11
14.2269834
21
108.3979583
0
LINE
8
DEFAULT_255_2_778
10
16.4984396
20
106.2302062
11
16.2926396
21
106.7932062
0
LINE
8
DEFAULT_255_2_778
10
16.2926396
20
106.7932062
11
15.3888396
21
106.7932062
0
LINE
8
DEFAULT_255_2_778
10
15.3888396
20
106.7932062
11
15.1858396
21
106.2302062
0
LINE
8
DEFAULT_255_2_778
10
15.1858396
20
106.2302062
11
14.8924396
21
106.2302062
0
LINE
8
DEFAULT_255_2_778
10
14.8924396
20
106.2302062
11
15.7163396
21
108.3876062
0
LINE
8
DEFAULT_255_2_778
10
15.7163396
20
108.3876062
11
15.9653396
21
108.3876062
0
LINE
8
DEFAULT_255_2_778
10
15.9653396
20
108.3876062
11
16.7905396
21
106.2302062
0
LINE
8
DEFAULT_255_2_778
10
16.7905396
20
106.2302062
11
16.4987396
21
106.2302062
0
LINE
8
DEFAULT_255_2_778
10
16.4987396
20
106.2302062
11
16.4984396
21
106.2302062
0
LINE
8
DEFAULT_255_2_778
10
15.8407396
20
108.0362062
11
15.4747396
21
107.0271062
0
LINE
8
DEFAULT_255_2_778
10
15.4747396
20
107.0271062
11
16.2082396
21
107.0271062
0
LINE
8
DEFAULT_255_2_778
10
16.2082396
20
107.0271062
11
15.8407396
21
108.0362062
0
LINE
8
DEFAULT_255_2_778
10
15.8407396
20
108.0362062
11
15.8407396
21
108.0362062
0
ENDSEC
0
EOF