0
SECTION
2
HEADER
9
$MEASUREMENT
70
1
0
ENDSEC
0
SECTION
2
TABLES
0
TABLE
2
LTYPE
0
LTYPE
72
65
70
64
2
CONTINUOUS
3
______
73
0
40
0
0
ENDTAB
0
TABLE
2
LAYER
0
LAYER
2
DEFAULT_255_2_778
70
0
62
255
6
CONTINUOUS
0
LAYER
2
DEFAULT_255_1_234
70
0
62
255
6
CONTINUOUS
0
ENDTAB
0
ENDSEC
0
SECTION
2
ENTITIES
0
ARC
8
DEFAULT_255_2_778
10
3.5700693
20
139.3052021
40
0.7914215
50
129.1312896
51
180.1450914
0
ARC
8
DEFAULT_255_2_778
10
3.5703345
20
139.3056893
40
0.7912112
50
89.854026
51
129.1684493
0
ARC
8
DEFAULT_255_2_778
10
25.7993937
20
139.3053758
40
0.7915249
50
39.4792447
51
90.147911
0
ARC
8
DEFAULT_255_2_778
10
25.7999935
20
139.3052224
40
0.7911595
50
359.8533901
51
39.5154338
0
ARC
8
DEFAULT_255_2_778
10
25.7996693
20
-1.9863501
40
0.7914836
50
309.4761667
51
0.1482649
0
ARC
8
DEFAULT_255_2_778
10
25.799398
20
-1.9867812
40
0.7913235
50
269.8517415
51
309.511178
0
ARC
8
DEFAULT_255_2_778
10
3.570342
20
-1.986723
40
0.7913815
50
219.1282118
51
270.1454017
0
ARC
8
DEFAULT_255_2_778
10
3.5700247
20
-1.9863406
40
0.7913769
50
179.8524075
51
219.1641908
0
LINE
8
DEFAULT_255_2_778
10
3.5723503
20
140.096898
11
25.7973503
21
140.096898
0
LINE
8
DEFAULT_255_2_778
10
26.5911503
20
139.303198
11
26.5911503
21
-1.984302
0
LINE
8
DEFAULT_255_2_778
10
25.7973503
20
-2.778102
11
3.5723503
21
-2.778102
0
LINE
8
DEFAULT_255_2_778
10
2.7786503
20
-1.984302
11
2.7786503
21
139.303198
0
LINE
8
DEFAULT_255_1_234
10
10.6618119
20
-0.5300208
11
10.6618119
21
-0.6513
0
LINE
8
DEFAULT_255_1_234
10
10.6618119
20
-0.6513
11
9.895584
21
-0.6513
0
LINE
8
DEFAULT_255_1_234
10
9.895584
20
-0.6513
11
9.895584
21
-0.5444779
0
LINE
8
DEFAULT_255_1_234
10
9.895584
20
-0.5444779
11
10.3003836
21
-0.0947005
0
LINE
8
DEFAULT_255_1_234
10
10.0216823
20
0.1735595
11
9.8730952
21
0.1735595
0
LINE
8
DEFAULT_255_1_234
10
10.3879296
20
-0.1902782
11
10.0746918
21
-0.5300208
0
LINE
8
DEFAULT_255_1_234
10
10.0746918
20
-0.5300208
11
10.6618119
21
-0.5300208
0
ARC
8
DEFAULT_255_1_234
10
8.951367
20
1.0982527
40
1.8008286
50
318.5132453
51
320.7828378
0
ARC
8
DEFAULT_255_1_234
10
9.4800644
20
0.6679426
40
1.1191493
50
320.7372736
51
323.9737074
0
ARC
8
DEFAULT_255_1_234
10
9.8720501
20
0.3839361
40
0.6350923
50
323.8961724
51
328.6421089
0
ARC
8
DEFAULT_255_1_234
10
10.0767096
20
0.2577031
40
0.3946393
50
328.8299013
51
331.789948
0
ARC
8
DEFAULT_255_1_234
10
10.1764274
20
0.2062509
40
0.2824501
50
331.4255242
51
352.9364833
0
ARC
8
DEFAULT_255_1_234
10
10.1900775
20
0.2031976
40
0.2685315
50
353.2248685
51
0.0169286
0
ARC
8
DEFAULT_255_1_234
10
10.2110652
20
0.205495
40
0.2475536
50
359.4866256
51
15.9339782
0
ARC
8
DEFAULT_255_1_234
10
10.2617637
20
0.2191286
40
0.1950618
50
16.1714718
51
43.5284424
0
ARC
8
DEFAULT_255_1_234
10
10.2694946
20
0.2268573
40
0.184134
50
43.4415429
51
83.1661404
0
ARC
8
DEFAULT_255_1_234
10
10.2560864
20
0.1531771
40
0.258926
50
82.160215
51
90.1505798
0
ARC
8
DEFAULT_255_1_234
10
10.2529291
20
0.0994865
40
0.3126255
50
89.5460705
51
102.5418777
0
ARC
8
DEFAULT_255_1_234
10
10.2286377
20
0.2025665
40
0.2067346
50
102.1739365
51
129.2061916
0
ARC
8
DEFAULT_255_1_234
10
10.2207449
20
0.2150094
40
0.1921118
50
129.7279328
51
135.7542026
0
ARC
8
DEFAULT_255_1_234
10
10.2328977
20
0.2053045
40
0.2075944
50
136.175737
51
166.3674722
0
ARC
8
DEFAULT_255_1_234
10
10.3335896
20
0.1783182
40
0.3118201
50
165.9092917
51
178.8683903
0
ARC
8
DEFAULT_255_1_234
10
10.4200757
20
0.1736179
40
0.3983935
50
178.438168
51
180.0083905
0
ARC
8
DEFAULT_255_1_234
10
10.2799359
20
0.1775231
40
0.4068601
50
163.2878735
51
180.5581814
0
ARC
8
DEFAULT_255_1_234
10
10.1997621
20
0.199584
40
0.3237344
50
133.454115
51
162.9470031
0
ARC
8
DEFAULT_255_1_234
10
10.2176162
20
0.1806
40
0.349795
50
100.7869394
51
133.4384016
0
ARC
8
DEFAULT_255_1_234
10
10.2523934
20
0.0257319
40
0.5084616
50
89.6605301
51
101.3704185
0
ARC
8
DEFAULT_255_1_234
10
10.2590273
20
0.0318496
40
0.502348
50
78.2171172
51
90.4130393
0
ARC
8
DEFAULT_255_1_234
10
10.2945351
20
0.1942637
40
0.3361092
50
55.9268222
51
78.4888551
0
ARC
8
DEFAULT_255_1_234
10
10.3141791
20
0.2281324
40
0.2970617
50
47.9292255
51
55.4054003
0
ARC
8
DEFAULT_255_1_234
10
10.3243352
20
0.2384502
40
0.2825983
50
4.3347696
51
48.0560701
0
ARC
8
DEFAULT_255_1_234
10
10.2147745
20
0.2214601
40
0.393225
50
359.925209
51
5.5967654
0
ARC
8
DEFAULT_255_1_234
10
10.2576637
20
0.2270816
40
0.3503892
50
337.8914096
51
358.9967724
0
ARC
8
DEFAULT_255_1_234
10
9.9863049
20
0.3317706
40
0.6412172
50
326.9135351
51
338.3505194
0
ARC
8
DEFAULT_255_1_234
10
9.5877353
20
0.5872284
40
1.1146189
50
319.6472867
51
327.095818
0
ARC
8
DEFAULT_255_1_234
10
9.2044356
20
0.9034
40
1.6114559
50
317.2586784
51
319.9046139
0
LINE
8
DEFAULT_255_1_234
10
10.8577863
20
0.5181211
11
11.0569734
21
0.5181211
0
LINE
8
DEFAULT_255_1_234
10
11.0569734
20
0.5181211
11
11.4392841
21
-0.4360494
0
LINE
8
DEFAULT_255_1_234
10
11.4392841
20
-0.4360494
11
11.8215949
21
0.5181211
0
LINE
8
DEFAULT_255_1_234
10
11.8215949
20
0.5181211
11
12.0215852
21
0.5181211
0
LINE
8
DEFAULT_255_1_234
10
12.0215852
20
0.5181211
11
12.0215852
21
-0.6513
0
LINE
8
DEFAULT_255_1_234
10
12.0215852
20
-0.6513
11
11.8673758
21
-0.6513
0
LINE
8
DEFAULT_255_1_234
10
11.8673758
20
-0.6513
11
11.8673758
21
-0.1959004
0
LINE
8
DEFAULT_255_1_234
10
11.8673758
20
-0.1959004
11
11.8818329
21
0.2956419
0
LINE
8
DEFAULT_255_1_234
10
11.8818329
20
0.2956419
11
11.4979158
21
-0.6513
0
LINE
8
DEFAULT_255_1_234
10
11.4979158
20
-0.6513
11
11.3798493
21
-0.6513
0
LINE
8
DEFAULT_255_1_234
10
11.3798493
20
-0.6513
11
10.9967354
21
0.2932324
0
LINE
8
DEFAULT_255_1_234
10
10.9967354
20
0.2932324
11
11.0119957
21
-0.1959004
0
LINE
8
DEFAULT_255_1_234
10
11.0119957
20
-0.1959004
11
11.0119957
21
-0.6513
0
LINE
8
DEFAULT_255_1_234
10
11.0119957
20
-0.6513
11
10.8577863
21
-0.6513
0
LINE
8
DEFAULT_255_1_234
10
10.8577863
20
-0.6513
11
10.8577863
21
0.5181211
0
LINE
8
DEFAULT_255_1_234
10
12.4488736
20
0.5181211
11
12.4488736
21
-0.5252017
0
LINE
8
DEFAULT_255_1_234
10
12.4488736
20
-0.5252017
11
13.0030636
21
-0.5252017
0
LINE
8
DEFAULT_255_1_234
10
13.0030636
20
-0.5252017
11
13.0030636
21
-0.6513
0
LINE
8
DEFAULT_255_1_234
10
13.0030636
20
-0.6513
11
12.2938611
21
-0.6513
0
LINE
8
DEFAULT_255_1_234
10
12.2938611
20
-0.6513
11
12.2938611
21
0.5181211
0
LINE
8
DEFAULT_255_1_234
10
12.2938611
20
0.5181211
11
12.4488736
21
0.5181211
0
LINE
8
DEFAULT_255_1_234
10
14.0198816
20
-0.0296435
11
14.0198816
21
-0.1043386
0
LINE
8
DEFAULT_255_1_234
10
13.8150723
20
-0.5878493
11
14.0238975
21
-0.7516967
0
LINE
8
DEFAULT_255_1_234
10
14.0238975
20
-0.7516967
11
13.9186817
21
-0.8488808
0
LINE
8
DEFAULT_255_1_234
10
13.9186817
20
-0.8488808
11
13.6721074
21
-0.6529063
0
LINE
8
DEFAULT_255_1_234
10
13.0785619
20
-0.1147799
11
13.0785619
21
-0.0304466
0
LINE
8
DEFAULT_255_1_234
10
13.8656723
20
-0.1155831
11
13.8656723
21
-0.0288403
0
LINE
8
DEFAULT_255_1_234
10
13.2327713
20
-0.018399
11
13.2327713
21
-0.1043386
0
ARC
8
DEFAULT_255_1_234
10
13.1245068
20
-0.1082293
40
0.8953833
50
351.453011
51
0.2489685
0
ARC
8
DEFAULT_255_1_234
10
13.3829868
20
-0.1482067
40
0.6338333
50
338.6861641
51
351.5540711
0
ARC
8
DEFAULT_255_1_234
10
13.4763753
20
-0.1812172
40
0.5348431
50
336.2887631
51
338.3442418
0
ARC
8
DEFAULT_255_1_234
10
13.5103374
20
-0.1998302
40
0.4962747
50
321.1170344
51
336.6795229
0
ARC
8
DEFAULT_255_1_234
10
13.5735204
20
-0.2484794
40
0.4165565
50
305.4419708
51
320.8705636
0
ARC
8
DEFAULT_255_1_234
10
13.5538674
20
-0.1737293
40
0.4935497
50
271.6373023
51
283.8611969
0
ARC
8
DEFAULT_255_1_234
10
13.5500927
20
-0.1081428
40
0.5592206
50
269.9930596
51
271.8318864
0
ARC
8
DEFAULT_255_1_234
10
13.546337
20
-0.1889319
40
0.4784458
50
252.5219675
51
270.4416499
0
ARC
8
DEFAULT_255_1_234
10
13.5319629
20
-0.2428408
40
0.422716
50
237.5352116
51
252.1857531
0
ARC
8
DEFAULT_255_1_234
10
13.5408825
20
-0.2314637
40
0.4371052
50
209.063312
51
237.3492538
0
ARC
8
DEFAULT_255_1_234
10
13.6278673
20
-0.1768315
40
0.5397041
50
205.1183774
51
209.6470015
0
ARC
8
DEFAULT_255_1_234
10
13.707571
20
-0.143017
40
0.6262326
50
188.7215458
51
204.8240747
0
ARC
8
DEFAULT_255_1_234
10
13.9073238
20
-0.1093933
40
0.8287794
50
180.3723947
51
188.9252049
0
ARC
8
DEFAULT_255_1_234
10
13.904599
20
-0.0264598
40
0.8260467
50
169.5253763
51
180.2765336
0
ARC
8
DEFAULT_255_1_234
10
13.7143438
20
0.0085309
40
0.6326007
50
155.8315255
51
169.5089989
0
ARC
8
DEFAULT_255_1_234
10
13.586294
20
0.0679348
40
0.4914567
50
139.6258461
51
156.0379525
0
ARC
8
DEFAULT_255_1_234
10
13.5273273
20
0.1153799
40
0.4158054
50
122.6416387
51
139.3430715
0
ARC
8
DEFAULT_255_1_234
10
13.5373893
20
0.0970451
40
0.4366739
50
93.0223692
51
122.455762
0
ARC
8
DEFAULT_255_1_234
10
13.548189
20
0.0005709
40
0.5336137
50
89.975342
51
93.6341897
0
ARC
8
DEFAULT_255_1_234
10
13.5520776
20
0.0385375
40
0.4956606
50
73.9665422
51
90.4229648
0
ARC
8
DEFAULT_255_1_234
10
13.5704423
20
0.1100451
40
0.4218674
50
57.5178019
51
73.6813337
0
ARC
8
DEFAULT_255_1_234
10
13.5660205
20
0.1064462
40
0.4272816
50
28.7261108
51
57.2767933
0
ARC
8
DEFAULT_255_1_234
10
13.4749538
20
0.0501688
40
0.534218
50
24.2448911
51
29.3248482
0
ARC
8
DEFAULT_255_1_234
10
13.3823638
20
0.0118819
40
0.6343711
50
9.064382
51
23.9639114
0
ARC
8
DEFAULT_255_1_234
10
13.1567967
20
-0.0260075
40
0.8630926
50
359.7586264
51
9.1891435
0
ARC
8
DEFAULT_255_1_234
10
13.0313447
20
-0.0246657
40
0.834338
50
359.7133237
51
7.96545
0
ARC
8
DEFAULT_255_1_234
10
13.3275664
20
0.0180681
40
0.5350538
50
7.8291991
51
20.0421623
0
ARC
8
DEFAULT_255_1_234
10
13.4900227
20
0.0771606
40
0.3621841
50
20.0677553
51
35.9161685
0
ARC
8
DEFAULT_255_1_234
10
13.5675265
20
0.134767
40
0.2656263
50
35.6594382
51
85.1578074
0
ARC
8
DEFAULT_255_1_234
10
13.549052
20
0.0232378
40
0.3784238
50
83.7959068
51
90.095906
0
ARC
8
DEFAULT_255_1_234
10
13.5447454
20
0.0965601
40
0.3051229
50
89.3102392
51
109.9889877
0
ARC
8
DEFAULT_255_1_234
10
13.5364937
20
0.1321433
40
0.2688988
50
110.9285147
51
143.9411762
0
ARC
8
DEFAULT_255_1_234
10
13.6295884
20
0.0609236
40
0.3860887
50
143.5289163
51
163.2980757
0
ARC
8
DEFAULT_255_1_234
10
13.8203705
20
0.0009433
40
0.5860659
50
163.0418846
51
174.3140048
0
ARC
8
DEFAULT_255_1_234
10
14.0607817
20
-0.0268146
40
0.8280531
50
174.0509143
51
179.4176892
0
ARC
8
DEFAULT_255_1_234
10
14.0094152
20
-0.1086366
40
0.7766558
50
179.6829237
51
188.9631324
0
ARC
8
DEFAULT_255_1_234
10
13.7423713
20
-0.1521248
40
0.5060992
50
188.8100743
51
202.9300012
0
ARC
8
DEFAULT_255_1_234
10
13.6207342
20
-0.2016145
40
0.3747967
50
203.2069261
51
215.7876482
0
ARC
8
DEFAULT_255_1_234
10
13.5358739
20
-0.2687329
40
0.2667526
50
214.7521006
51
264.2834488
0
ARC
8
DEFAULT_255_1_234
10
13.5494394
20
-0.183222
40
0.3532247
50
263.4755397
51
270.0949833
0
ARC
8
DEFAULT_255_1_234
10
13.5536505
20
-0.2093626
40
0.3271036
50
269.3649385
51
287.5152008
0
ARC
8
DEFAULT_255_1_234
10
13.5714663
20
-0.2740762
40
0.2600406
50
288.0630309
51
323.8113348
0
ARC
8
DEFAULT_255_1_234
10
13.4843504
20
-0.2090951
40
0.3687189
50
323.6547608
51
342.6590488
0
ARC
8
DEFAULT_255_1_234
10
13.2812119
20
-0.1430048
40
0.5823286
50
342.4091907
51
353.6451149
0
ARC
8
DEFAULT_255_1_234
10
12.998063
20
-0.107781
40
0.8676442
50
353.4029884
51
359.4847795
0
LINE
8
DEFAULT_255_1_234
10
14.543551
20
-0.0938974
11
14.543551
21
-0.2151766
0
LINE
8
DEFAULT_255_1_234
10
14.543551
20
-0.2151766
11
14.1516021
21
-0.2151766
0
LINE
8
DEFAULT_255_1_234
10
14.1516021
20
-0.2151766
11
14.1516021
21
-0.0938974
0
LINE
8
DEFAULT_255_1_234
10
14.1516021
20
-0.0938974
11
14.543551
21
-0.0938974
0
LINE
8
DEFAULT_255_1_234
10
15.5194072
20
0.5181211
11
15.5194072
21
0.3912196
0
LINE
8
DEFAULT_255_1_234
10
15.5194072
20
0.3912196
11
15.1435218
21
0.3912196
0
LINE
8
DEFAULT_255_1_234
10
15.1435218
20
0.3912196
11
15.1435218
21
-0.6513
0
LINE
8
DEFAULT_255_1_234
10
15.1435218
20
-0.6513
11
14.9901156
21
-0.6513
0
LINE
8
DEFAULT_255_1_234
10
14.9901156
20
-0.6513
11
14.9901156
21
0.3912196
0
LINE
8
DEFAULT_255_1_234
10
14.9901156
20
0.3912196
11
14.6150334
21
0.3912196
0
LINE
8
DEFAULT_255_1_234
10
14.6150334
20
0.3912196
11
14.6150334
21
0.5181211
0
LINE
8
DEFAULT_255_1_234
10
14.6150334
20
0.5181211
11
15.5194072
21
0.5181211
0
LINE
8
DEFAULT_255_1_234
10
16.3755905
20
-0.6513
11
16.1217875
21
-0.1782306
0
LINE
8
DEFAULT_255_1_234
10
16.1217875
20
-0.1782306
11
15.8471021
21
-0.1782306
0
LINE
8
DEFAULT_255_1_234
10
15.8471021
20
-0.1782306
11
15.8471021
21
-0.6513
0
LINE
8
DEFAULT_255_1_234
10
15.8471021
20
-0.6513
11
15.6920896
21
-0.6513
0
LINE
8
DEFAULT_255_1_234
10
15.6920896
20
-0.6513
11
15.6920896
21
0.5181211
0
LINE
8
DEFAULT_255_1_234
10
15.6920896
20
0.5181211
11
16.0792193
21
0.5181211
0
LINE
8
DEFAULT_255_1_234
10
16.2663588
20
-0.1453005
11
16.5410443
21
-0.6416619
0
LINE
8
DEFAULT_255_1_234
10
16.5410443
20
-0.6416619
11
16.5410443
21
-0.6513
0
LINE
8
DEFAULT_255_1_234
10
16.5410443
20
-0.6513
11
16.3755905
21
-0.6513
0
LINE
8
DEFAULT_255_1_234
10
15.8471021
20
0.3912196
11
15.8471021
21
-0.0521323
0
LINE
8
DEFAULT_255_1_234
10
15.8471021
20
-0.0521323
11
16.0840384
21
-0.0521323
0
LINE
8
DEFAULT_255_1_234
10
16.0832352
20
0.3912196
11
15.8471021
21
0.3912196
0
ARC
8
DEFAULT_255_1_234
10
16.0833833
20
-0.1780239
40
0.6961575
50
80.653586
51
90.3427061
0
ARC
8
DEFAULT_255_1_234
10
16.1253308
20
0.0682348
40
0.4463577
50
65.6987447
51
80.8329603
0
ARC
8
DEFAULT_255_1_234
10
16.1730948
20
0.1777322
40
0.3269094
50
50.0017161
51
65.4305835
0
ARC
8
DEFAULT_255_1_234
10
16.1949413
20
0.2072482
40
0.2902647
50
11.628416
51
49.5603263
0
ARC
8
DEFAULT_255_1_234
10
16.0413749
20
0.1697299
40
0.4482792
50
359.5655735
51
12.3691
0
ARC
8
DEFAULT_255_1_234
10
16.1490608
20
0.1634644
40
0.3405924
50
341.9983148
51
0.4822259
0
ARC
8
DEFAULT_255_1_234
10
16.1885448
20
0.1527471
40
0.2997359
50
323.8609373
51
341.61416
0
ARC
8
DEFAULT_255_1_234
10
16.1583692
20
0.1760484
40
0.3378487
50
296.7018614
51
323.6876402
0
ARC
8
DEFAULT_255_1_234
10
16.1142588
20
0.2549235
40
0.4281516
50
290.8086567
51
297.2323311
0
ARC
8
DEFAULT_255_1_234
10
16.0866117
20
0.3072351
40
0.3593766
50
269.589728
51
281.8058135
0
ARC
8
DEFAULT_255_1_234
10
16.1117016
20
0.1924743
40
0.2419125
50
281.5501019
51
303.9357432
0
ARC
8
DEFAULT_255_1_234
10
16.1254204
20
0.1686936
40
0.2145323
50
304.4415616
51
311.2106213
0
ARC
8
DEFAULT_255_1_234
10
16.138631
20
0.1547632
40
0.1953505
50
310.9875673
51
356.2715578
0
ARC
8
DEFAULT_255_1_234
10
16.0629958
20
0.1660422
40
0.2716331
50
354.9348262
51
0.0609027
0
ARC
8
DEFAULT_255_1_234
10
16.0442832
20
0.1687435
40
0.2903554
50
359.5239371
51
12.8808918
0
ARC
8
DEFAULT_255_1_234
10
16.1420388
20
0.1926728
40
0.1897315
50
12.4173452
51
43.1022135
0
ARC
8
DEFAULT_255_1_234
10
16.1481992
20
0.1963724
40
0.1827118
50
43.5751728
51
48.203944
0
ARC
8
DEFAULT_255_1_234
10
16.1312484
20
0.1742302
40
0.2105272
50
48.7809703
51
72.6969569
0
ARC
8
DEFAULT_255_1_234
10
16.0958109
20
0.066682
40
0.3237537
50
72.3702241
51
84.8791103
0
ARC
8
DEFAULT_255_1_234
10
16.0810585
20
-0.0675231
40
0.4587478
50
84.5400526
51
89.7281406
0
LINE
8
DEFAULT_255_1_234
10
17.4333704
20
-0.5300208
11
17.4333704
21
-0.6513
0
LINE
8
DEFAULT_255_1_234
10
17.4333704
20
-0.6513
11
16.6671426
21
-0.6513
0
LINE
8
DEFAULT_255_1_234
10
16.6671426
20
-0.6513
11
16.6671426
21
-0.5444779
0
LINE
8
DEFAULT_255_1_234
10
16.6671426
20
-0.5444779
11
17.0719422
21
-0.0947005
0
LINE
8
DEFAULT_255_1_234
10
16.7932409
20
0.1735595
11
16.6446537
21
0.1735595
0
LINE
8
DEFAULT_255_1_234
10
17.1594881
20
-0.1902782
11
16.8462503
21
-0.5300208
0
LINE
8
DEFAULT_255_1_234
10
16.8462503
20
-0.5300208
11
17.4333704
21
-0.5300208
0
ARC
8
DEFAULT_255_1_234
10
15.7229255
20
1.0982527
40
1.8008286
50
318.5132453
51
320.7828378
0
ARC
8
DEFAULT_255_1_234
10
16.251623
20
0.6679426
40
1.1191493
50
320.7372736
51
323.9737074
0
ARC
8
DEFAULT_255_1_234
10
16.6436086
20
0.3839361
40
0.6350923
50
323.8961724
51
328.6421089
0
ARC
8
DEFAULT_255_1_234
10
16.8482681
20
0.2577031
40
0.3946393
50
328.8299013
51
331.789948
0
ARC
8
DEFAULT_255_1_234
10
16.947986
20
0.2062509
40
0.2824501
50
331.4255242
51
352.9364833
0
ARC
8
DEFAULT_255_1_234
10
16.9616361
20
0.2031976
40
0.2685315
50
353.2248685
51
0.0169286
0
ARC
8
DEFAULT_255_1_234
10
16.9826237
20
0.205495
40
0.2475536
50
359.4866256
51
15.9339782
0
ARC
8
DEFAULT_255_1_234
10
17.0333223
20
0.2191286
40
0.1950618
50
16.1714718
51
43.5284424
0
ARC
8
DEFAULT_255_1_234
10
17.0410531
20
0.2268573
40
0.184134
50
43.4415429
51
83.1661404
0
ARC
8
DEFAULT_255_1_234
10
17.0276449
20
0.1531771
40
0.258926
50
82.160215
51
90.1505798
0
ARC
8
DEFAULT_255_1_234
10
17.0244877
20
0.0994865
40
0.3126255
50
89.5460705
51
102.5418777
0
ARC
8
DEFAULT_255_1_234
10
17.0001963
20
0.2025665
40
0.2067346
50
102.1739365
51
129.2061916
0
ARC
8
DEFAULT_255_1_234
10
16.9923035
20
0.2150094
40
0.1921118
50
129.7279328
51
135.7542026
0
ARC
8
DEFAULT_255_1_234
10
17.0044562
20
0.2053045
40
0.2075944
50
136.175737
51
166.3674722
0
ARC
8
DEFAULT_255_1_234
10
17.1051482
20
0.1783182
40
0.3118201
50
165.9092917
51
178.8683903
0
ARC
8
DEFAULT_255_1_234
10
17.1916343
20
0.1736179
40
0.3983935
50
178.438168
51
180.0083905
0
ARC
8
DEFAULT_255_1_234
10
17.0514945
20
0.1775231
40
0.4068601
50
163.2878735
51
180.5581814
0
ARC
8
DEFAULT_255_1_234
10
16.9713206
20
0.199584
40
0.3237344
50
133.454115
51
162.9470031
0
ARC
8
DEFAULT_255_1_234
10
16.9891748
20
0.1806
40
0.349795
50
100.7869394
51
133.4384016
0
ARC
8
DEFAULT_255_1_234
10
17.0239519
20
0.0257319
40
0.5084616
50
89.6605301
51
101.3704185
0
ARC
8
DEFAULT_255_1_234
10
17.0305858
20
0.0318496
40
0.502348
50
78.2171172
51
90.4130393
0
ARC
8
DEFAULT_255_1_234
10
17.0660936
20
0.1942637
40
0.3361092
50
55.9268222
51
78.4888551
0
ARC
8
DEFAULT_255_1_234
10
17.0857376
20
0.2281324
40
0.2970617
50
47.9292255
51
55.4054003
0
ARC
8
DEFAULT_255_1_234
10
17.0958937
20
0.2384502
40
0.2825983
50
4.3347696
51
48.0560701
0
ARC
8
DEFAULT_255_1_234
10
16.9863331
20
0.2214601
40
0.393225
50
359.925209
51
5.5967654
0
ARC
8
DEFAULT_255_1_234
10
17.0292222
20
0.2270816
40
0.3503892
50
337.8914096
51
358.9967724
0
ARC
8
DEFAULT_255_1_234
10
16.7578635
20
0.3317706
40
0.6412172
50
326.9135351
51
338.3505194
0
ARC
8
DEFAULT_255_1_234
10
16.3592938
20
0.5872284
40
1.1146189
50
319.6472867
51
327.095818
0
ARC
8
DEFAULT_255_1_234
10
15.9759941
20
0.9034
40
1.6114559
50
317.2586784
51
319.9046139
0
LINE
8
DEFAULT_255_1_234
10
18.0349476
20
-0.6513
11
17.6293448
21
-0.6513
0
LINE
8
DEFAULT_255_1_234
10
17.6293448
20
-0.6513
11
17.6293448
21
0.5181211
0
LINE
8
DEFAULT_255_1_234
10
17.6293448
20
0.5181211
11
18.0116556
21
0.5181211
0
LINE
8
DEFAULT_255_1_234
10
18.0405698
20
-0.1043386
11
17.7835542
21
-0.1043386
0
LINE
8
DEFAULT_255_1_234
10
17.7835542
20
-0.1043386
11
17.7835542
21
-0.5252017
0
LINE
8
DEFAULT_255_1_234
10
17.7835542
20
-0.5252017
11
18.0381603
21
-0.5252017
0
LINE
8
DEFAULT_255_1_234
10
17.7835542
20
0.3912196
11
17.7835542
21
0.0193501
0
LINE
8
DEFAULT_255_1_234
10
17.7835542
20
0.0193501
11
18.0164746
21
0.0193501
0
LINE
8
DEFAULT_255_1_234
10
18.0116556
20
0.3912196
11
17.7835542
21
0.3912196
0
ARC
8
DEFAULT_255_1_234
10
18.0154264
20
-0.2186099
40
0.7367406
50
82.1257326
51
90.2932599
0
ARC
8
DEFAULT_255_1_234
10
18.0543219
20
0.0532013
40
0.4621653
50
69.9044149
51
82.2857423
0
ARC
8
DEFAULT_255_1_234
10
18.1113897
20
0.2074637
40
0.2976871
50
51.1838526
51
70.0181538
0
ARC
8
DEFAULT_255_1_234
10
18.1368863
20
0.244524
40
0.2528517
50
12.1017251
51
50.4214761
0
ARC
8
DEFAULT_255_1_234
10
17.9984737
20
0.2097676
40
0.3955061
50
359.5251267
51
12.8211707
0
ARC
8
DEFAULT_255_1_234
10
18.1564664
20
0.2028344
40
0.2375281
50
323.4908128
51
0.8817314
0
ARC
8
DEFAULT_255_1_234
10
18.114635
20
0.235155
40
0.2903817
50
298.6825083
51
323.2756573
0
ARC
8
DEFAULT_255_1_234
10
18.0784713
20
0.2952649
40
0.3604842
50
293.1999386
51
299.1396394
0
ARC
8
DEFAULT_255_1_234
10
18.1457686
20
-0.3132874
40
0.2871098
50
54.0011765
51
74.9167975
0
ARC
8
DEFAULT_255_1_234
10
18.1574045
20
-0.2935668
40
0.2643248
50
36.3580696
51
53.5291921
0
ARC
8
DEFAULT_255_1_234
10
18.1447288
20
-0.3026002
40
0.2798884
50
4.8189881
51
36.3089977
0
ARC
8
DEFAULT_255_1_234
10
18.0668123
20
-0.313573
40
0.358478
50
359.9370252
51
5.5204067
0
ARC
8
DEFAULT_255_1_234
10
18.0343644
20
-0.3176333
40
0.3909429
50
344.7478609
51
0.5373281
0
ARC
8
DEFAULT_255_1_234
10
18.1334616
20
-0.3443456
40
0.2883093
50
311.1786488
51
344.6886812
0
ARC
8
DEFAULT_255_1_234
10
18.1042663
20
-0.3080013
40
0.3348923
50
286.0418249
51
310.8441291
0
ARC
8
DEFAULT_255_1_234
10
18.0535495
20
-0.1433193
40
0.5071869
50
274.1042341
51
286.4071509
0
ARC
8
DEFAULT_255_1_234
10
18.035875
20
0.0450229
40
0.6963234
50
269.9236873
51
274.445647
0
ARC
8
DEFAULT_255_1_234
10
18.0404751
20
-0.1889463
40
0.3362634
50
269.6055768
51
281.3740047
0
ARC
8
DEFAULT_255_1_234
10
18.0635389
20
-0.2982647
40
0.224546
50
281.1055983
51
302.5132223
0
ARC
8
DEFAULT_255_1_234
10
18.0782289
20
-0.3246177
40
0.1944357
50
303.0368945
51
311.8811219
0
ARC
8
DEFAULT_255_1_234
10
18.0853695
20
-0.333111
40
0.1833454
50
311.9916004
51
351.7143462
0
ARC
8
DEFAULT_255_1_234
10
18.0036925
20
-0.316607
40
0.2665871
50
350.7339597
51
0.2221581
0
ARC
8
DEFAULT_255_1_234
10
17.9929371
20
-0.3109533
40
0.2773789
50
359.0456241
51
17.2296242
0
ARC
8
DEFAULT_255_1_234
10
18.0968488
20
-0.2800837
40
0.1689915
50
17.6685481
51
78.9940892
0
ARC
8
DEFAULT_255_1_234
10
18.0451652
20
-0.4655776
40
0.3612658
50
76.5635957
51
90.6980921
0
LINE
8
DEFAULT_255_1_234
10
18.0407637
20
-0.1043387
11
18.0405698
21
-0.1043386
0
ARC
8
DEFAULT_255_1_234
10
18.0187313
20
0.3479036
40
0.3285612
50
269.6064736
51
281.4533503
0
ARC
8
DEFAULT_255_1_234
10
18.0410132
20
0.2427688
40
0.2210975
50
281.2041486
51
302.5148063
0
ARC
8
DEFAULT_255_1_234
10
18.0546982
20
0.2181241
40
0.1929674
50
303.021671
51
309.8369575
0
ARC
8
DEFAULT_255_1_234
10
18.0730444
20
0.1975488
40
0.1654181
50
309.5228395
51
356.9509836
0
ARC
8
DEFAULT_255_1_234
10
18.0067026
20
0.2070932
40
0.2322512
50
355.4701227
51
0.0492546
0
ARC
8
DEFAULT_255_1_234
10
17.9788117
20
0.2093094
40
0.2601498
50
359.5558597
51
11.2096359
0
ARC
8
DEFAULT_255_1_234
10
18.0745407
20
0.229123
40
0.1623975
50
10.9182341
51
31.3230275
0
ARC
8
DEFAULT_255_1_234
10
18.1031141
20
0.2450214
40
0.1297302
50
31.8852677
51
52.1412565
0
ARC
8
DEFAULT_255_1_234
10
18.0756873
20
0.206275
40
0.1771663
50
52.8285564
51
71.9850297
0
ARC
8
DEFAULT_255_1_234
10
18.038105
20
0.0956664
40
0.2939794
50
71.6863486
51
82.8455995
0
ARC
8
DEFAULT_255_1_234
10
18.0141586
20
-0.0852851
40
0.476506
50
82.6984714
51
90.1729175
0
ARC
8
DEFAULT_255_1_234
10
18.0119221
20
0.0370623
40
0.3541573
50
89.8708275
51
90.0431131
0
ARC
8
DEFAULT_255_2_778
10
12.6050348
20
137.6038041
40
0.3813723
50
156.9728279
51
180.9672924
0
ARC
8
DEFAULT_255_2_778
10
12.4650905
20
137.6664556
40
0.2280903
50
120.6143155
51
157.7057572
0
ARC
8
DEFAULT_255_2_778
10
12.423185
20
137.7283889
40
0.1535155
50
105.6024085
51
118.9253865
0
ARC
8
DEFAULT_255_2_778
10
12.4163051
20
137.753158
40
0.1278087
50
90.2188612
51
105.6183161
0
ARC
8
DEFAULT_255_2_778
10
12.4186564
20
137.5860412
40
0.2949385
50
82.1187511
51
90.5516271
0
ARC
8
DEFAULT_255_2_778
10
12.4470429
20
137.7507036
40
0.128059
50
23.164146
51
84.5981403
0
ARC
8
DEFAULT_255_2_778
10
12.3195078
20
137.6989267
40
0.2656921
50
1.2065942
51
22.6109196
0
ARC
8
DEFAULT_255_2_778
10
12.1068205
20
137.6810377
40
0.4788966
50
359.9555286
51
2.8107684
0
ARC
8
DEFAULT_255_2_778
10
12.4802764
20
137.6696207
40
0.6523641
50
359.5121336
51
18.1513483
0
ARC
8
DEFAULT_255_2_778
10
12.6313291
20
137.7206245
40
0.4929411
50
17.987628
51
47.7515239
0
ARC
8
DEFAULT_255_2_778
10
12.6654537
20
137.7523389
40
0.4465388
50
48.2567149
51
90.320171
0
ARC
8
DEFAULT_255_2_778
10
12.6638541
20
137.7042874
40
0.4945841
50
90.103751
51
104.0317339
0
ARC
8
DEFAULT_255_2_778
10
12.6706581
20
137.6729342
40
0.5266526
50
103.9228462
51
106.737064
0
ARC
8
DEFAULT_255_2_778
10
12.6850928
20
137.6302316
40
0.5717052
50
106.8899656
51
120.2615348
0
ARC
8
DEFAULT_255_2_778
10
12.7341581
20
137.5457122
40
0.6694339
50
120.2432243
51
131.2854864
0
ARC
8
DEFAULT_255_2_778
10
12.785036
20
137.484952
40
0.7486631
50
131.143212
51
134.0802792
0
ARC
8
DEFAULT_255_2_778
10
15.2709404
20
136.5119131
40
0.1197666
50
309.5218924
51
339.9060311
0
ARC
8
DEFAULT_255_2_778
10
15.3039085
20
136.4744254
40
0.0698871
50
287.710739
51
308.230668
0
ARC
8
DEFAULT_255_2_778
10
15.3092212
20
136.4587982
40
0.0533853
50
270.2503717
51
287.3813074
0
ARC
8
DEFAULT_255_2_778
10
15.3118783
20
136.4596536
40
0.0542942
50
194.7346052
51
267.4414086
0
ARC
8
DEFAULT_255_2_778
10
15.3603123
20
136.482672
40
0.107451
50
190.9475811
51
200.0439116
0
ARC
8
DEFAULT_255_2_778
10
14.9941035
20
136.4697621
40
0.2608211
50
358.353068
51
64.1268931
0
ARC
8
DEFAULT_255_2_778
10
15.0249058
20
136.5154249
40
0.206441
50
66.2890109
51
89.9969258
0
ARC
8
DEFAULT_255_2_778
10
15.0382115
20
136.4801645
40
0.2420668
50
93.1483498
51
177.0819403
0
ARC
8
DEFAULT_255_2_778
10
15.0906424
20
136.4623292
40
0.2957256
50
174.1467469
51
180.0122521
0
ARC
8
DEFAULT_255_2_778
10
15.0902349
20
136.465793
40
0.2953391
50
180.6842551
51
197.2976119
0
ARC
8
DEFAULT_255_2_778
10
15.1427344
20
136.4819135
40
0.3502574
50
197.2618666
51
237.3003567
0
ARC
8
DEFAULT_255_2_778
10
15.1574152
20
136.510555
40
0.3823034
50
237.7678185
51
267.0989043
0
ARC
8
DEFAULT_255_2_778
10
15.1676437
20
136.595885
40
0.468079
50
266.3770992
51
270.0209723
0
ARC
8
DEFAULT_255_2_778
10
15.1676985
20
136.6261308
40
0.4983248
50
270.0133909
51
272.716577
0
ARC
8
DEFAULT_255_2_778
10
15.1758148
20
136.5115424
40
0.3834899
50
272.3167324
51
299.1303886
0
ARC
8
DEFAULT_255_2_778
10
15.1234049
20
136.5850329
40
0.4733038
50
300.3417229
51
327.7658215
0
ARC
8
DEFAULT_255_2_778
10
14.9406676
20
136.7135134
40
0.6964958
50
326.843622
51
335.4998036
0
ARC
8
DEFAULT_255_2_778
10
14.8514976
20
136.7557766
40
0.7951648
50
335.3932154
51
340.0324022
0
ARC
8
DEFAULT_255_2_778
10
14.8370312
20
136.7613094
40
0.8106509
50
340.0140149
51
340.5492811
0
ARC
8
DEFAULT_255_2_778
10
10.7612214
20
137.4594581
40
0.768197
50
90.8730151
51
175.0627552
0
ARC
8
DEFAULT_255_2_778
10
10.8136126
20
137.4430058
40
0.8218958
50
174.2343992
51
180.0097514
0
ARC
8
DEFAULT_255_2_778
10
10.7889867
20
137.4397729
40
0.7972759
50
179.7777162
51
222.1414196
0
ARC
8
DEFAULT_255_2_778
10
10.7511509
20
137.401835
40
0.7437709
50
221.9300285
51
269.8741254
0
ARC
8
DEFAULT_255_2_778
10
10.7376549
20
137.4262244
40
0.7682501
50
270.8846918
51
355.0667038
0
ARC
8
DEFAULT_255_2_778
10
10.6852873
20
137.4427267
40
0.8219296
50
354.2345114
51
0.0097094
0
ARC
8
DEFAULT_255_2_778
10
10.7100678
20
137.4459703
40
0.7971551
50
359.7768758
51
42.1436072
0
ARC
8
DEFAULT_255_2_778
10
10.7478782
20
137.4838788
40
0.7436889
50
41.9327014
51
89.8737509
0
ARC
8
DEFAULT_255_2_778
10
10.7319112
20
137.0666045
40
0.2064136
50
282.3154686
51
2.5716381
0
ARC
8
DEFAULT_255_2_778
10
10.749558
20
137.0315913
40
0.1687253
50
269.98603
51
278.995025
0
ARC
8
DEFAULT_255_2_778
10
10.7617107
20
137.0630042
40
0.2005094
50
178.6786273
51
266.5134562
0
ARC
8
DEFAULT_255_2_778
10
10.8074017
20
137.0758655
40
0.2462849
50
179.9999044
51
181.9167359
0
ARC
8
DEFAULT_255_2_778
10
10.7673954
20
137.8191548
40
0.2064787
50
103.0315545
51
182.5228891
0
ARC
8
DEFAULT_255_2_778
10
10.7494718
20
137.8542048
40
0.1685611
50
89.9846994
51
99.7807169
0
ARC
8
DEFAULT_255_2_778
10
10.7371616
20
137.8222176
40
0.2009286
50
358.490526
51
86.4746259
0
ARC
8
DEFAULT_255_2_778
10
10.6939639
20
137.8100644
40
0.244153
50
0.0003602
51
1.6101146
0
ARC
8
DEFAULT_255_2_778
10
13.7769085
20
137.4423122
40
1.0339085
50
353.7729731
51
0.0306848
0
ARC
8
DEFAULT_255_2_778
10
14.0136678
20
137.4459703
40
0.7971551
50
359.7768758
51
42.1436072
0
ARC
8
DEFAULT_255_2_778
10
14.0514782
20
137.4838788
40
0.7436889
50
41.9327014
51
89.8737509
0
ARC
8
DEFAULT_255_2_778
10
14.0648214
20
137.4594581
40
0.768197
50
90.8730151
51
175.0627552
0
ARC
8
DEFAULT_255_2_778
10
14.1172126
20
137.4430058
40
0.8218958
50
174.2343992
51
180.0097514
0
ARC
8
DEFAULT_255_2_778
10
14.0925867
20
137.4397729
40
0.7972759
50
179.7777162
51
222.1414196
0
ARC
8
DEFAULT_255_2_778
10
14.0547509
20
137.401835
40
0.7437709
50
221.9300285
51
269.8741254
0
ARC
8
DEFAULT_255_2_778
10
14.0479775
20
137.4118375
40
0.753789
50
270.3906469
51
332.9011285
0
ARC
8
DEFAULT_255_2_778
10
14.0503073
20
137.4233988
40
0.5766383
50
270.2493497
51
330.3649047
0
ARC
8
DEFAULT_255_2_778
10
14.0738266
20
137.0517117
40
0.2060198
50
188.4673322
51
264.146848
0
ARC
8
DEFAULT_255_2_778
10
14.1170452
20
137.0758502
40
0.2529285
50
180.0643852
51
192.4374066
0
ARC
8
DEFAULT_255_2_778
10
14.070552
20
137.8193297
40
0.2060435
50
102.2220352
51
182.5768883
0
ARC
8
DEFAULT_255_2_778
10
14.0532765
20
137.8535306
40
0.1692354
50
89.9863487
51
98.9553742
0
ARC
8
DEFAULT_255_2_778
10
14.0410627
20
137.8224487
40
0.2006917
50
358.1298546
51
86.4993767
0
ARC
8
DEFAULT_255_2_778
10
13.9951604
20
137.8100582
40
0.2465564
50
0.0018041
51
1.3574921
0
ARC
8
DEFAULT_255_2_778
10
18.8395085
20
137.4423122
40
1.0339085
50
353.7729731
51
0.0306848
0
ARC
8
DEFAULT_255_2_778
10
19.0763127
20
137.4459756
40
0.7971102
50
359.7764759
51
42.1460177
0
ARC
8
DEFAULT_255_2_778
10
19.1140101
20
137.4837511
40
0.7438166
50
41.9370909
51
89.8762358
0
ARC
8
DEFAULT_255_2_778
10
19.1273214
20
137.4594581
40
0.768197
50
90.8730151
51
175.0627552
0
ARC
8
DEFAULT_255_2_778
10
19.1797126
20
137.4430058
40
0.8218958
50
174.2343992
51
180.0097514
0
ARC
8
DEFAULT_255_2_778
10
19.1550867
20
137.4397729
40
0.7972759
50
179.7777162
51
222.1414196
0
ARC
8
DEFAULT_255_2_778
10
19.1172509
20
137.401835
40
0.7437709
50
221.9300285
51
269.8741254
0
ARC
8
DEFAULT_255_2_778
10
19.1104966
20
137.4122973
40
0.7542487
50
270.3889576
51
332.8797533
0
ARC
8
DEFAULT_255_2_778
10
19.1131073
20
137.4233988
40
0.5766383
50
270.2493497
51
330.3649047
0
ARC
8
DEFAULT_255_2_778
10
19.1366787
20
137.051307
40
0.2056225
50
188.7424888
51
264.120891
0
ARC
8
DEFAULT_255_2_778
10
19.180402
20
137.0758673
40
0.2531853
50
180.0682018
51
192.7352383
0
ARC
8
DEFAULT_255_2_778
10
19.1332623
20
137.819031
40
0.2062492
50
102.479692
51
182.5468765
0
ARC
8
DEFAULT_255_2_778
10
19.1155784
20
137.8540755
40
0.1684904
50
89.986931
51
99.1816697
0
ARC
8
DEFAULT_255_2_778
10
19.1031384
20
137.8218685
40
0.201085
50
358.3379179
51
86.4421934
0
ARC
8
DEFAULT_255_2_778
10
19.0609425
20
137.8098683
40
0.2432745
50
359.9994511
51
1.4527903
0
LINE
8
DEFAULT_255_2_778
10
20.0578169
20
136.7543659
11
20.5605169
21
136.7543659
0
LINE
8
DEFAULT_255_2_778
10
20.5605169
20
136.7543659
11
20.5605169
21
138.7739659
0
LINE
8
DEFAULT_255_2_778
10
20.5605169
20
138.7739659
11
20.0578169
21
138.7739659
0
LINE
8
DEFAULT_255_2_778
10
20.0578169
20
138.7739659
11
20.0578169
21
136.7543659
0
LINE
8
DEFAULT_255_2_778
10
20.0578169
20
136.7543659
11
20.0578169
21
136.7543659
0
LINE
8
DEFAULT_255_2_778
10
20.0578169
20
136.7543659
11
20.0578169
21
136.7543659
0
LINE
8
DEFAULT_255_2_778
10
21.2995169
20
138.7739659
11
21.2995169
21
136.7543659
0
LINE
8
DEFAULT_255_2_778
10
21.2995169
20
136.7543659
11
20.7970169
21
136.7543659
0
LINE
8
DEFAULT_255_2_778
10
20.7970169
20
136.7543659
11
20.7970169
21
138.7739659
0
LINE
8
DEFAULT_255_2_778
10
20.7970169
20
138.7739659
11
21.2995169
21
138.7739659
0
LINE
8
DEFAULT_255_2_778
10
21.2995169
20
138.7739659
11
21.2995169
21
138.7739659
0
LINE
8
DEFAULT_255_2_778
10
21.2995169
20
138.7739659
11
21.2995169
21
138.7739659
0
LINE
8
DEFAULT_255_2_778
10
9.1419169
20
137.9894659
11
8.7355169
21
137.9894659
0
LINE
8
DEFAULT_255_2_778
10
8.7355169
20
137.9894659
11
8.7355169
21
138.7739659
0
LINE
8
DEFAULT_255_2_778
10
8.7355169
20
138.7739659
11
8.0703169
21
138.7739659
0
LINE
8
DEFAULT_255_2_778
10
8.0703169
20
138.7739659
11
8.0703169
21
136.7543659
0
LINE
8
DEFAULT_255_2_778
10
8.0703169
20
136.7543659
11
8.7355169
21
136.7543659
0
LINE
8
DEFAULT_255_2_778
10
8.7355169
20
136.7543659
11
8.7355169
21
137.7558659
0
LINE
8
DEFAULT_255_2_778
10
8.7355169
20
137.7558659
11
9.1419169
21
137.7558659
0
LINE
8
DEFAULT_255_2_778
10
9.1419169
20
137.7558659
11
9.1419169
21
136.7543659
0
LINE
8
DEFAULT_255_2_778
10
9.1419169
20
136.7543659
11
9.8070169
21
136.7543659
0
LINE
8
DEFAULT_255_2_778
10
9.8070169
20
136.7543659
11
9.8070169
21
138.7739659
0
LINE
8
DEFAULT_255_2_778
10
9.8070169
20
138.7739659
11
9.1419169
21
138.7739659
0
LINE
8
DEFAULT_255_2_778
10
9.1419169
20
138.7739659
11
9.1419169
21
137.9894659
0
LINE
8
DEFAULT_255_2_778
10
9.1419169
20
137.9894659
11
9.1419169
21
137.9894659
0
LINE
8
DEFAULT_255_2_778
10
9.1419169
20
137.9894659
11
9.1419169
21
137.9894659
0
LINE
8
DEFAULT_255_2_778
10
12.2645169
20
138.0230659
11
12.2237169
21
138.1566659
0
LINE
8
DEFAULT_255_2_778
10
12.2237169
20
138.1566659
11
11.6768169
21
138.1566659
0
LINE
8
DEFAULT_255_2_778
10
11.6768169
20
138.1566659
11
11.6768169
21
136.7546659
0
LINE
8
DEFAULT_255_2_778
10
11.6768169
20
136.7546659
11
12.2237169
21
136.7546659
0
LINE
8
DEFAULT_255_2_778
10
12.2237169
20
136.7546659
11
12.2237169
21
137.5973659
0
LINE
8
DEFAULT_255_2_778
10
12.2237169
20
137.5973659
11
12.2237169
21
137.5973659
0
LINE
8
DEFAULT_255_2_778
10
12.5857169
20
137.6806659
11
12.5857169
21
137.6806659
0
LINE
8
DEFAULT_255_2_778
10
12.5857169
20
137.6806659
11
12.5857169
21
136.7543659
0
LINE
8
DEFAULT_255_2_778
10
12.5857169
20
136.7543659
11
13.1326169
21
136.7543659
0
LINE
8
DEFAULT_255_2_778
10
13.1326169
20
136.7543659
11
13.1326169
21
137.6640659
0
LINE
8
DEFAULT_255_2_778
10
13.1326169
20
137.6640659
11
13.1326169
21
137.6640659
0
LINE
8
DEFAULT_255_2_778
10
12.2642169
20
138.0227659
11
12.2642169
21
138.0227659
0
LINE
8
DEFAULT_255_2_778
10
12.2642169
20
138.0227659
11
12.2642169
21
138.0227659
0
LINE
8
DEFAULT_255_2_778
10
12.2642169
20
138.0227659
11
12.2642169
21
138.0227659
0
LINE
8
DEFAULT_255_2_778
10
12.2642169
20
138.0227659
11
12.2645169
21
138.0230659
0
LINE
8
DEFAULT_255_2_778
10
17.8816169
20
137.3428659
11
17.6265169
21
138.1564659
0
LINE
8
DEFAULT_255_2_778
10
17.6265169
20
138.1564659
11
17.2532169
21
138.1564659
0
LINE
8
DEFAULT_255_2_778
10
17.2532169
20
138.1564659
11
16.9981169
21
137.3094659
0
LINE
8
DEFAULT_255_2_778
10
16.9981169
20
137.3094659
11
16.7322169
21
138.1564659
0
LINE
8
DEFAULT_255_2_778
10
16.7322169
20
138.1564659
11
16.2113169
21
138.1564659
0
LINE
8
DEFAULT_255_2_778
10
16.2113169
20
138.1564659
11
16.2076169
21
138.1564659
0
LINE
8
DEFAULT_255_2_778
10
16.2076169
20
138.1564659
11
16.0007169
21
138.1564659
0
LINE
8
DEFAULT_255_2_778
10
16.0007169
20
138.1564659
11
15.7382169
21
137.4430659
0
LINE
8
DEFAULT_255_2_778
10
15.7382169
20
137.4430659
11
15.3688169
21
138.1564659
0
LINE
8
DEFAULT_255_2_778
10
15.3688169
20
138.1564659
11
14.7441169
21
138.1564659
0
LINE
8
DEFAULT_255_2_778
10
14.7441169
20
138.1564659
11
15.4794169
21
136.7377659
0
LINE
8
DEFAULT_255_2_778
10
15.4794169
20
136.7377659
11
15.3834169
21
136.4707659
0
LINE
8
DEFAULT_255_2_778
10
15.3834169
20
136.4707659
11
15.3834169
21
136.4707659
0
LINE
8
DEFAULT_255_2_778
10
15.6014169
20
136.4913659
11
15.6014169
21
136.4913659
0
LINE
8
DEFAULT_255_2_778
10
15.6014169
20
136.4913659
11
16.2091169
21
138.1505659
0
LINE
8
DEFAULT_255_2_778
10
16.2091169
20
138.1505659
11
16.6473169
21
136.7541659
0
LINE
8
DEFAULT_255_2_778
10
16.6473169
20
136.7541659
11
17.0463169
21
136.7541659
0
LINE
8
DEFAULT_255_2_778
10
17.0463169
20
136.7541659
11
17.2902169
21
137.5595659
0
LINE
8
DEFAULT_255_2_778
10
17.2902169
20
137.5595659
11
17.5416169
21
136.7541659
0
LINE
8
DEFAULT_255_2_778
10
17.5416169
20
136.7541659
11
17.9186169
21
136.7541659
0
LINE
8
DEFAULT_255_2_778
10
17.9186169
20
136.7541659
11
18.3435169
21
138.1561659
0
LINE
8
DEFAULT_255_2_778
10
18.3435169
20
138.1561659
11
18.1255169
21
138.1561659
0
LINE
8
DEFAULT_255_2_778
10
18.1255169
20
138.1561659
11
17.8816169
21
137.3425659
0
LINE
8
DEFAULT_255_2_778
10
17.8816169
20
137.3425659
11
17.8816169
21
137.3425659
0
LINE
8
DEFAULT_255_2_778
10
17.8816169
20
137.3425659
11
17.8816169
21
137.3425659
0
LINE
8
DEFAULT_255_2_778
10
17.8816169
20
137.3425659
11
17.8816169
21
137.3428659
0
LINE
8
DEFAULT_255_2_778
10
10.7495169
20
138.2275659
11
10.7495169
21
138.2275659
0
LINE
8
DEFAULT_255_2_778
10
10.7495169
20
138.2275659
11
10.7495169
21
138.2275659
0
LINE
8
DEFAULT_255_2_778
10
10.7495169
20
138.2275659
11
10.7495169
21
138.2275659
0
LINE
8
DEFAULT_255_2_778
10
10.7495169
20
138.2275659
11
10.7495169
21
138.2275659
0
LINE
8
DEFAULT_255_2_778
10
10.5611169
20
137.0758659
11
10.5611169
21
137.0758659
0
LINE
8
DEFAULT_255_2_778
10
10.5611169
20
137.0758659
11
10.5611169
21
137.8100659
0
LINE
8
DEFAULT_255_2_778
10
10.5611169
20
137.8100659
11
10.5611169
21
137.8100659
0
LINE
8
DEFAULT_255_2_778
10
10.9381169
20
137.8100659
11
10.9381169
21
137.8100659
0
LINE
8
DEFAULT_255_2_778
10
10.9381169
20
137.8100659
11
10.9381169
21
137.0758659
0
LINE
8
DEFAULT_255_2_778
10
10.9381169
20
137.0758659
11
10.9381169
21
137.0758659
0
LINE
8
DEFAULT_255_2_778
10
10.9381169
20
137.0758659
11
10.9381169
21
137.0758659
0
LINE
8
DEFAULT_255_2_778
10
10.9381169
20
137.0758659
11
10.9381169
21
137.0758659
0
LINE
8
DEFAULT_255_2_778
10
14.7190169
20
137.0684659
11
14.7190169
21
137.0684659
0
LINE
8
DEFAULT_255_2_778
10
14.7190169
20
137.0684659
11
14.5515169
21
137.1382659
0
LINE
8
DEFAULT_255_2_778
10
14.5515169
20
137.1382659
11
14.5515169
21
137.1382659
0
LINE
8
DEFAULT_255_2_778
10
13.8641169
20
137.0755659
11
13.8641169
21
137.0755659
0
LINE
8
DEFAULT_255_2_778
10
13.8641169
20
137.0755659
11
13.8641169
21
137.3301659
0
LINE
8
DEFAULT_255_2_778
10
13.8641169
20
137.3301659
11
14.8042169
21
137.3301659
0
LINE
8
DEFAULT_255_2_778
10
14.8042169
20
137.3301659
11
14.8042169
21
137.3301659
0
LINE
8
DEFAULT_255_2_778
10
14.8042169
20
137.3301659
11
14.8042169
21
137.3301659
0
LINE
8
DEFAULT_255_2_778
10
14.8042169
20
137.3301659
11
14.8047169
21
137.3301659
0
LINE
8
DEFAULT_255_2_778
10
14.2417169
20
137.8100659
11
14.2417169
21
137.8100659
0
LINE
8
DEFAULT_255_2_778
10
14.2417169
20
137.8100659
11
14.2417169
21
137.5304659
0
LINE
8
DEFAULT_255_2_778
10
14.2417169
20
137.5304659
11
13.8647169
21
137.5304659
0
LINE
8
DEFAULT_255_2_778
10
13.8647169
20
137.5304659
11
13.8647169
21
137.8100659
0
LINE
8
DEFAULT_255_2_778
10
13.8647169
20
137.8100659
11
13.8647169
21
137.8100659
0
LINE
8
DEFAULT_255_2_778
10
13.8647169
20
137.8100659
11
13.8647169
21
137.8100659
0
LINE
8
DEFAULT_255_2_778
10
13.8647169
20
137.8100659
11
13.8647169
21
137.8100659
0
LINE
8
DEFAULT_255_2_778
10
19.7818169
20
137.0684659
11
19.7818169
21
137.0684659
0
LINE
8
DEFAULT_255_2_778
10
19.7818169
20
137.0684659
11
19.6143169
21
137.1382659
0
LINE
8
DEFAULT_255_2_778
10
19.6143169
20
137.1382659
11
19.6143169
21
137.1382659
0
LINE
8
DEFAULT_255_2_778
10
18.9272169
20
137.0755659
11
18.9272169
21
137.0755659
0
LINE
8
DEFAULT_255_2_778
10
18.9272169
20
137.0755659
11
18.9272169
21
137.3301659
0
LINE
8
DEFAULT_255_2_778
10
18.9272169
20
137.3301659
11
19.8673169
21
137.3301659
0
LINE
8
DEFAULT_255_2_778
10
19.8673169
20
137.3301659
11
19.8673169
21
137.3301659
0
LINE
8
DEFAULT_255_2_778
10
19.8673169
20
137.3301659
11
19.8673169
21
137.3301659
0
LINE
8
DEFAULT_255_2_778
10
19.8673169
20
137.3301659
11
19.8673169
21
137.3301659
0
LINE
8
DEFAULT_255_2_778
10
19.3042169
20
137.8098659
11
19.3042169
21
137.8098659
0
LINE
8
DEFAULT_255_2_778
10
19.3042169
20
137.8098659
11
19.3042169
21
137.5304659
0
LINE
8
DEFAULT_255_2_778
10
19.3042169
20
137.5304659
11
18.9272169
21
137.5304659
0
LINE
8
DEFAULT_255_2_778
10
18.9272169
20
137.5304659
11
18.9272169
21
137.8100659
0
LINE
8
DEFAULT_255_2_778
10
18.9272169
20
137.8100659
11
18.9272169
21
137.8100659
0
LINE
8
DEFAULT_255_2_778
10
18.9272169
20
137.8100659
11
18.9272169
21
137.8100659
0
LINE
8
DEFAULT_255_2_778
10
18.9272169
20
137.8100659
11
18.9272169
21
137.8098659
0
LINE
8
DEFAULT_255_1_234
10
9.7164364
20
134.7941211
11
9.9156235
21
134.7941211
0
LINE
8
DEFAULT_255_1_234
10
9.9156235
20
134.7941211
11
10.2979342
21
133.8399506
0
LINE
8
DEFAULT_255_1_234
10
10.2979342
20
133.8399506
11
10.680245
21
134.7941211
0
LINE
8
DEFAULT_255_1_234
10
10.680245
20
134.7941211
11
10.8802353
21
134.7941211
0
LINE
8
DEFAULT_255_1_234
10
10.8802353
20
134.7941211
11
10.8802353
21
133.6247
0
LINE
8
DEFAULT_255_1_234
10
10.8802353
20
133.6247
11
10.7260259
21
133.6247
0
LINE
8
DEFAULT_255_1_234
10
10.7260259
20
133.6247
11
10.7260259
21
134.0800996
0
LINE
8
DEFAULT_255_1_234
10
10.7260259
20
134.0800996
11
10.740483
21
134.5716419
0
LINE
8
DEFAULT_255_1_234
10
10.740483
20
134.5716419
11
10.3565659
21
133.6247
0
LINE
8
DEFAULT_255_1_234
10
10.3565659
20
133.6247
11
10.2384994
21
133.6247
0
LINE
8
DEFAULT_255_1_234
10
10.2384994
20
133.6247
11
9.8553854
21
134.5692324
0
LINE
8
DEFAULT_255_1_234
10
9.8553854
20
134.5692324
11
9.8706458
21
134.0800996
0
LINE
8
DEFAULT_255_1_234
10
9.8706458
20
134.0800996
11
9.8706458
21
133.6247
0
LINE
8
DEFAULT_255_1_234
10
9.8706458
20
133.6247
11
9.7164364
21
133.6247
0
LINE
8
DEFAULT_255_1_234
10
9.7164364
20
133.6247
11
9.7164364
21
134.7941211
0
LINE
8
DEFAULT_255_1_234
10
11.821555
20
133.6247
11
11.6657393
21
133.6247
0
LINE
8
DEFAULT_255_1_234
10
11.4978759
20
134.151582
11
11.6424472
21
134.151582
0
LINE
8
DEFAULT_255_1_234
10
11.6424472
20
134.151582
11
11.6424472
21
134.2198518
0
LINE
8
DEFAULT_255_1_234
10
11.2713809
20
134.2527819
11
11.1219906
21
134.2527819
0
LINE
8
DEFAULT_255_1_234
10
11.7910344
20
134.2278835
11
11.7910344
21
133.827903
0
LINE
8
DEFAULT_255_1_234
10
11.821555
20
133.6375508
11
11.821555
21
133.6247
0
LINE
8
DEFAULT_255_1_234
10
11.6424472
20
133.8680617
11
11.6424472
21
134.0463663
0
LINE
8
DEFAULT_255_1_234
10
11.6424472
20
134.0463663
11
11.525987
21
134.0463663
0
ARC
8
DEFAULT_255_1_234
10
11.7696931
20
133.6751194
40
0.1155358
50
197.0791116
51
205.8741701
0
ARC
8
DEFAULT_255_1_234
10
11.893553
20
133.7143654
40
0.2454626
50
192.2918602
51
197.3448991
0
ARC
8
DEFAULT_255_1_234
10
12.0888979
20
133.7577663
40
0.4455697
50
189.1576348
51
192.3971359
0
ARC
8
DEFAULT_255_1_234
10
12.370326
20
133.8036549
40
0.7307142
50
186.8689952
51
189.1979448
0
ARC
8
DEFAULT_255_1_234
10
11.3874414
20
133.9583258
40
0.353352
50
294.0080019
51
316.7604136
0
ARC
8
DEFAULT_255_1_234
10
11.4003478
20
133.9401572
40
0.3315331
50
269.5042461
51
293.2479736
0
ARC
8
DEFAULT_255_1_234
10
11.3943963
20
133.9802491
40
0.3716254
50
255.403374
51
270.4753162
0
ARC
8
DEFAULT_255_1_234
10
11.3713935
20
133.8909825
40
0.2794431
50
228.6140946
51
255.354999
0
ARC
8
DEFAULT_255_1_234
10
11.3381459
20
133.8591491
40
0.2336109
50
181.8953303
51
229.5703879
0
ARC
8
DEFAULT_255_1_234
10
11.3972964
20
133.8655708
40
0.2929755
50
179.984097
51
182.7679515
0
ARC
8
DEFAULT_255_1_234
10
11.3889906
20
133.8690413
40
0.28469
50
161.0341165
51
180.6820968
0
ARC
8
DEFAULT_255_1_234
10
11.3450452
20
133.8804729
40
0.2394402
50
125.0523775
51
160.2033967
0
ARC
8
DEFAULT_255_1_234
10
11.4112461
20
133.7901431
40
0.3514152
50
106.2671988
51
125.4298572
0
ARC
8
DEFAULT_255_1_234
10
11.4684917
20
133.6030842
40
0.5470269
50
95.4857064
51
106.534858
0
ARC
8
DEFAULT_255_1_234
10
11.4958071
20
133.3531758
40
0.7984089
50
89.8515322
51
95.7224983
0
ARC
8
DEFAULT_255_1_234
10
11.4318666
20
134.2216759
40
0.2105886
50
359.503704
51
14.3184734
0
ARC
8
DEFAULT_255_1_234
10
11.489279
20
134.2366017
40
0.1512684
50
14.2187004
51
45.2025693
0
ARC
8
DEFAULT_255_1_234
10
11.4928986
20
134.2380251
40
0.1477163
50
45.8098026
51
73.0032427
0
ARC
8
DEFAULT_255_1_234
10
11.4679954
20
134.1618896
40
0.2278113
50
72.610967
51
85.7232876
0
ARC
8
DEFAULT_255_1_234
10
11.4589948
20
134.0705569
40
0.3195681
50
85.3352114
51
90.0850615
0
ARC
8
DEFAULT_255_1_234
10
11.4566351
20
134.1296391
40
0.2604924
50
89.5853149
51
103.4592217
0
ARC
8
DEFAULT_255_1_234
10
11.4413954
20
134.1931597
40
0.1951693
50
103.44851
51
126.5404292
0
ARC
8
DEFAULT_255_1_234
10
11.4174834
20
134.223743
40
0.1563639
50
126.1729825
51
141.5004088
0
ARC
8
DEFAULT_255_1_234
10
11.3796435
20
134.2534385
40
0.1082645
50
141.3333588
51
180.3474677
0
ARC
8
DEFAULT_255_1_234
10
11.3122145
20
134.2517174
40
0.1902269
50
151.6374668
51
179.6793754
0
ARC
8
DEFAULT_255_1_234
10
11.3724387
20
134.2217334
40
0.2574753
50
142.4988163
51
152.1325379
0
ARC
8
DEFAULT_255_1_234
10
11.4042347
20
134.1967735
40
0.2978957
50
120.8284787
51
142.4132259
0
ARC
8
DEFAULT_255_1_234
10
11.4458456
20
134.1316301
40
0.3751664
50
113.9638113
51
121.1869885
0
ARC
8
DEFAULT_255_1_234
10
11.4594608
20
134.0984544
40
0.4110136
50
93.3784663
51
113.8198047
0
ARC
8
DEFAULT_255_1_234
10
11.467139
20
134.0219446
40
0.487853
50
89.9745882
51
93.7491274
0
ARC
8
DEFAULT_255_1_234
10
11.4706276
20
134.0255605
40
0.4842481
50
79.1325877
51
90.3871757
0
ARC
8
DEFAULT_255_1_234
10
11.5031396
20
134.1880435
40
0.3185522
50
60.1435559
51
79.3654871
0
ARC
8
DEFAULT_255_1_234
10
11.5288085
20
134.237343
40
0.2630271
50
48.6192091
51
59.646742
0
ARC
8
DEFAULT_255_1_234
10
11.5335823
20
134.2436691
40
0.2551253
50
9.0349315
51
48.4844544
0
ARC
8
DEFAULT_255_1_234
10
11.4259667
20
134.2201793
40
0.3651489
50
1.2089744
51
10.0233366
0
ARC
8
DEFAULT_255_1_234
10
12.5546412
20
133.8254518
40
0.7636108
50
179.8160804
51
185.3206488
0
ARC
8
DEFAULT_255_1_234
10
12.2850894
20
133.7997155
40
0.4928344
50
185.2474014
51
192.7953707
0
ARC
8
DEFAULT_255_1_234
10
12.1089151
20
133.7592824
40
0.3120807
50
192.7197759
51
202.9585048
0
ARC
8
DEFAULT_255_1_234
10
11.4191334
20
133.9990928
40
0.2611453
50
270.0069004
51
300.5035019
0
ARC
8
DEFAULT_255_1_234
10
11.4313942
20
133.9862927
40
0.2439274
50
299.5482464
51
315.6095048
0
ARC
8
DEFAULT_255_1_234
10
11.4604039
20
133.9566155
40
0.2024389
50
315.868035
51
334.0596869
0
ARC
8
DEFAULT_255_1_234
10
11.5216399
20
133.3489943
40
0.6973855
50
89.6428514
51
97.2870891
0
ARC
8
DEFAULT_255_1_234
10
11.4775162
20
133.6793571
40
0.3640992
50
96.9938028
51
109.7781797
0
ARC
8
DEFAULT_255_1_234
10
11.4109787
20
133.8574891
40
0.1739759
50
109.0087453
51
135.326626
0
ARC
8
DEFAULT_255_1_234
10
11.3836392
20
133.8913473
40
0.1308198
50
137.4539381
51
182.1082805
0
ARC
8
DEFAULT_255_1_234
10
11.4210382
20
133.8848893
40
0.1681384
50
179.4392907
51
195.7200177
0
ARC
8
DEFAULT_255_1_234
10
11.379881
20
133.8736426
40
0.1254738
50
195.8684065
51
230.1572205
0
ARC
8
DEFAULT_255_1_234
10
11.4041237
20
133.9026769
40
0.1632985
50
230.1530708
51
259.7485588
0
ARC
8
DEFAULT_255_1_234
10
11.4179941
20
133.9680386
40
0.230094
50
259.2463819
51
270.291543
0
LINE
8
DEFAULT_255_1_234
10
12.6705097
20
134.2383248
11
12.5211194
21
134.2383248
0
LINE
8
DEFAULT_255_1_234
10
11.987812
20
133.8921569
11
12.1363991
21
133.8921569
0
ARC
8
DEFAULT_255_1_234
10
12.4023012
20
133.8566959
40
0.1276617
50
359.3334982
51
18.5871358
0
ARC
8
DEFAULT_255_1_234
10
12.423165
20
133.8622133
40
0.1061371
50
19.3540742
51
54.6485071
0
ARC
8
DEFAULT_255_1_234
10
12.3727552
20
133.7926919
40
0.1920087
50
54.3827097
51
65.0622807
0
ARC
8
DEFAULT_255_1_234
10
12.2958948
20
133.63099
40
0.3710447
50
64.8282493
51
71.4200025
0
ARC
8
DEFAULT_255_1_234
10
12.2056823
20
133.3663107
40
0.6506741
50
71.3164301
51
75.8006402
0
ARC
8
DEFAULT_255_1_234
10
12.1215643
20
133.0422561
40
0.9854641
50
75.6809531
51
78.0061883
0
ARC
8
DEFAULT_255_1_234
10
12.5664177
20
135.140177
40
1.1591028
50
254.6901892
51
258.0466452
0
ARC
8
DEFAULT_255_1_234
10
12.4626085
20
134.7642781
40
0.7691345
50
249.9010773
51
254.755261
0
ARC
8
DEFAULT_255_1_234
10
12.3622427
20
134.4916982
40
0.478665
50
243.3097214
51
249.9709442
0
ARC
8
DEFAULT_255_1_234
10
12.2993448
20
134.3662778
40
0.3383568
50
234.4047477
51
243.2862168
0
ARC
8
DEFAULT_255_1_234
10
12.2370972
20
134.2803232
40
0.2322322
50
220.8667099
51
234.5493881
0
ARC
8
DEFAULT_255_1_234
10
12.2028913
20
134.2491817
40
0.1859923
50
214.3062465
51
220.5065136
0
ARC
8
DEFAULT_255_1_234
10
12.2002992
20
134.246088
40
0.1821108
50
186.912965
51
213.9618616
0
ARC
8
DEFAULT_255_1_234
10
12.2535087
20
134.2547009
40
0.2359799
50
179.8808832
51
187.4339886
0
ARC
8
DEFAULT_255_1_234
10
12.238022
20
134.2567088
40
0.2204978
50
132.005434
51
180.3942919
0
ARC
8
DEFAULT_255_1_234
10
12.3036834
20
134.1961083
40
0.3095791
50
129.2319861
51
133.5302299
0
ARC
8
DEFAULT_255_1_234
10
12.3090342
20
134.1866928
40
0.3202615
50
100.4410011
51
128.9081242
0
ARC
8
DEFAULT_255_1_234
10
12.3364225
20
134.0581455
40
0.4516583
50
89.6985377
51
100.9026564
0
ARC
8
DEFAULT_255_1_234
10
12.3421267
20
134.0421166
40
0.4676928
50
77.6965325
51
90.4076836
0
ARC
8
DEFAULT_255_1_234
10
12.3752252
20
134.1848413
40
0.3211988
50
50.7276602
51
78.0399361
0
ARC
8
DEFAULT_255_1_234
10
12.419671
20
134.2366296
40
0.2529778
50
25.7545084
51
51.0957453
0
ARC
8
DEFAULT_255_1_234
10
12.4197935
20
134.2416206
40
0.250738
50
359.2468627
51
24.7394243
0
ARC
8
DEFAULT_255_1_234
10
12.3913387
20
134.2387664
40
0.1297815
50
359.8050318
51
45.1544908
0
ARC
8
DEFAULT_255_1_234
10
12.3506528
20
134.2039794
40
0.1831883
50
43.8047702
51
49.6271585
0
ARC
8
DEFAULT_255_1_234
10
12.351443
20
134.2040678
40
0.18261
50
49.7980766
51
82.1218353
0
ARC
8
DEFAULT_255_1_234
10
12.3395402
20
134.1393998
40
0.2483163
50
81.4465357
51
90.1710293
0
ARC
8
DEFAULT_255_1_234
10
12.3371005
20
134.086788
40
0.300932
50
89.6766211
51
99.1264602
0
ARC
8
DEFAULT_255_1_234
10
12.3199466
20
134.1901537
40
0.1961547
50
98.968313
51
113.4570237
0
ARC
8
DEFAULT_255_1_234
10
12.3003551
20
134.2369965
40
0.1453859
50
113.722589
51
127.4763106
0
ARC
8
DEFAULT_255_1_234
10
12.2835198
20
134.2570124
40
0.1192639
50
126.9083309
51
150.3165862
0
ARC
8
DEFAULT_255_1_234
10
12.278753
20
134.2620981
40
0.112623
50
151.3635175
51
180.0701457
0
ARC
8
DEFAULT_255_1_234
10
12.3096315
20
134.259999
40
0.1435149
50
179.2169974
51
179.9954013
0
ARC
8
DEFAULT_255_1_234
10
12.2735372
20
134.2587056
40
0.1074286
50
179.3040112
51
198.4225446
0
ARC
8
DEFAULT_255_1_234
10
12.2543506
20
134.2537127
40
0.0876573
50
199.2895851
51
238.6034594
0
ARC
8
DEFAULT_255_1_234
10
12.3146352
20
134.348345
40
0.1998512
50
237.9846301
51
246.8744712
0
ARC
8
DEFAULT_255_1_234
10
12.4004297
20
134.5446205
40
0.4140547
50
246.6234531
51
251.8168941
0
ARC
8
DEFAULT_255_1_234
10
12.5034841
20
134.8540905
40
0.7402308
50
251.713434
51
255.0778414
0
ARC
8
DEFAULT_255_1_234
10
12.6234104
20
135.3007563
40
1.2027155
50
255.0367487
51
257.4705983
0
ARC
8
DEFAULT_255_1_234
10
12.1126113
20
132.9993863
40
1.1546601
50
73.6837552
51
77.5016755
0
ARC
8
DEFAULT_255_1_234
10
12.2214888
20
133.3693581
40
0.7690009
50
68.7044154
51
73.7249639
0
ARC
8
DEFAULT_255_1_234
10
12.3117909
20
133.6020654
40
0.5193873
50
63.590599
51
68.6626804
0
ARC
8
DEFAULT_255_1_234
10
12.3888928
20
133.7558123
40
0.3473927
50
54.7106439
51
63.7013633
0
ARC
8
DEFAULT_255_1_234
10
12.4513382
20
133.84304
40
0.2401192
50
41.0622434
51
54.8487496
0
ARC
8
DEFAULT_255_1_234
10
12.4854769
20
133.8743592
40
0.1938094
50
34.4950568
51
40.7105546
0
ARC
8
DEFAULT_255_1_234
10
12.4901576
20
133.8792078
40
0.1872106
50
9.3763373
51
34.0833615
0
ARC
8
DEFAULT_255_1_234
10
12.4248447
20
133.8666728
40
0.2536988
50
359.7694872
51
9.7663171
0
ARC
8
DEFAULT_255_1_234
10
12.4445947
20
133.8623764
40
0.2339696
50
335.8654732
51
0.8022045
0
ARC
8
DEFAULT_255_1_234
10
12.4520992
20
133.8637197
40
0.2277108
50
307.7357725
51
334.7849066
0
ARC
8
DEFAULT_255_1_234
10
12.4120168
20
133.9087645
40
0.2878951
50
307.0241536
51
308.5578354
0
ARC
8
DEFAULT_255_1_234
10
12.3862499
20
133.9473801
40
0.3342515
50
282.9362969
51
306.5646424
0
ARC
8
DEFAULT_255_1_234
10
12.3500796
20
134.0941108
40
0.4853615
50
271.1026298
51
283.2200835
0
ARC
8
DEFAULT_255_1_234
10
12.343704
20
134.2182418
40
0.6096052
50
269.9919117
51
271.4772449
0
ARC
8
DEFAULT_255_1_234
10
12.3410795
20
134.1104436
40
0.5018135
50
259.0723564
51
270.289833
0
ARC
8
DEFAULT_255_1_234
10
12.3198528
20
133.9987271
40
0.388099
50
245.4963068
51
259.0227342
0
ARC
8
DEFAULT_255_1_234
10
12.2920484
20
133.9405615
40
0.3236422
50
228.9684658
51
245.7044727
0
ARC
8
DEFAULT_255_1_234
10
12.2654928
20
133.9078575
40
0.2815426
50
214.4011705
51
228.6759915
0
ARC
8
DEFAULT_255_1_234
10
12.2365668
20
133.892029
40
0.2487548
50
179.9705531
51
215.1572795
0
ARC
8
DEFAULT_255_1_234
10
12.3066268
20
133.8993806
40
0.1703809
50
182.4299387
51
203.0329699
0
ARC
8
DEFAULT_255_1_234
10
12.2881926
20
133.8937396
40
0.1512226
50
203.798802
51
232.548466
0
ARC
8
DEFAULT_255_1_234
10
12.3158447
20
133.9288826
40
0.1959374
50
232.3782728
51
256.3934612
0
ARC
8
DEFAULT_255_1_234
10
12.3388809
20
134.0178842
40
0.2878639
50
256.104506
51
268.4626716
0
ARC
8
DEFAULT_255_1_234
10
12.3435293
20
134.0975487
40
0.3676329
50
268.0715632
51
270.0138206
0
ARC
8
DEFAULT_255_1_234
10
12.3453818
20
134.0703083
40
0.3403971
50
269.7031147
51
278.8341955
0
ARC
8
DEFAULT_255_1_234
10
12.3635911
20
133.9572876
40
0.2259217
50
278.6728789
51
292.8232582
0
ARC
8
DEFAULT_255_1_234
10
12.3836449
20
133.9071449
40
0.171929
50
293.1452328
51
303.6655899
0
ARC
8
DEFAULT_255_1_234
10
12.4101328
20
133.8695204
40
0.1259367
50
303.1248165
51
321.742847
0
ARC
8
DEFAULT_255_1_234
10
12.4287208
20
133.8532156
40
0.1012531
50
322.4748573
51
1.1291126
0
LINE
8
DEFAULT_255_1_234
10
12.9251158
20
134.7041656
11
13.073703
21
134.7041656
0
LINE
8
DEFAULT_255_1_234
10
13.073703
20
134.7041656
11
13.073703
21
134.4937341
0
LINE
8
DEFAULT_255_1_234
10
13.073703
20
134.4937341
11
13.2359441
21
134.4937341
0
LINE
8
DEFAULT_255_1_234
10
13.2359441
20
134.4937341
11
13.2359441
21
134.3788802
0
LINE
8
DEFAULT_255_1_234
10
13.2359441
20
134.3788802
11
13.073703
21
134.3788802
0
LINE
8
DEFAULT_255_1_234
10
13.073703
20
134.3788802
11
13.073703
21
133.8399506
0
LINE
8
DEFAULT_255_1_234
10
13.23996
20
133.7451761
11
13.23996
21
133.6247
0
LINE
8
DEFAULT_255_1_234
10
12.9251158
20
133.8399506
11
12.9251158
21
134.3788802
0
LINE
8
DEFAULT_255_1_234
10
12.9251158
20
134.3788802
11
12.7668906
21
134.3788802
0
LINE
8
DEFAULT_255_1_234
10
12.7668906
20
134.3788802
11
12.7668906
21
134.4937341
0
LINE
8
DEFAULT_255_1_234
10
12.7668906
20
134.4937341
11
12.9251158
21
134.4937341
0
LINE
8
DEFAULT_255_1_234
10
12.9251158
20
134.4937341
11
12.9251158
21
134.7041656
0
ARC
8
DEFAULT_255_1_234
10
13.2744533
20
133.8389084
40
0.200753
50
179.7025659
51
187.917967
0
ARC
8
DEFAULT_255_1_234
10
13.1998559
20
133.8281724
40
0.1253883
50
187.7545981
51
200.2447476
0
ARC
8
DEFAULT_255_1_234
10
13.157788
20
133.8124859
40
0.0804913
50
200.130383
51
219.174133
0
ARC
8
DEFAULT_255_1_234
10
13.1442056
20
133.8032515
40
0.0641445
50
220.4434483
51
249.6172
0
ARC
8
DEFAULT_255_1_234
10
13.1596907
20
133.8421968
40
0.1060489
50
249.1032952
51
262.775154
0
ARC
8
DEFAULT_255_1_234
10
13.1685079
20
133.9050715
40
0.1695354
50
262.4913187
51
270.2611758
0
ARC
8
DEFAULT_255_1_234
10
13.1682496
20
133.9266103
40
0.191075
50
270.3091804
51
275.6625139
0
ARC
8
DEFAULT_255_1_234
10
13.153972
20
134.0767435
40
0.3418851
50
275.5610264
51
279.0879356
0
ARC
8
DEFAULT_255_1_234
10
13.1209598
20
134.2862699
40
0.5539959
50
279.0365489
51
281.5011378
0
ARC
8
DEFAULT_255_1_234
10
13.0852674
20
134.4666423
40
0.7378639
50
281.4243939
51
282.1017894
0
ARC
8
DEFAULT_255_1_234
10
13.1195921
20
134.0584858
40
0.4501761
50
275.2597045
51
285.5083879
0
ARC
8
DEFAULT_255_1_234
10
13.1257246
20
134.0028606
40
0.3942242
50
270.0268409
51
275.1132796
0
ARC
8
DEFAULT_255_1_234
10
13.1237211
20
133.8701614
40
0.261534
50
257.3573315
51
270.479383
0
ARC
8
DEFAULT_255_1_234
10
13.1024102
20
133.7803406
40
0.1692304
50
230.8037497
51
257.741658
0
ARC
8
DEFAULT_255_1_234
10
13.0956005
20
133.7693777
40
0.1564393
50
219.974146
51
230.1990686
0
ARC
8
DEFAULT_255_1_234
10
13.1287952
20
133.7947579
40
0.1981916
50
196.5084186
51
219.4318458
0
ARC
8
DEFAULT_255_1_234
10
13.2303397
20
133.8266194
40
0.3046086
50
184.6404872
51
196.8269686
0
ARC
8
DEFAULT_255_1_234
10
13.3548461
20
133.8391908
40
0.4297309
50
179.8986958
51
184.9681077
0
LINE
8
DEFAULT_255_1_234
10
13.3716805
20
134.0351218
11
13.3716805
21
134.0624297
0
LINE
8
DEFAULT_255_1_234
10
14.108994
20
134.0784932
11
14.108994
21
134.0166488
0
LINE
8
DEFAULT_255_1_234
10
14.108994
20
134.0166488
11
13.5202676
21
134.0166488
0
LINE
8
DEFAULT_255_1_234
10
14.006991
20
133.8471792
11
14.0977496
21
133.7764999
0
LINE
8
DEFAULT_255_1_234
10
13.5250867
20
134.1387313
11
13.9604069
21
134.1387313
0
LINE
8
DEFAULT_255_1_234
10
13.9604069
20
134.1387313
11
13.9604069
21
134.1499757
0
ARC
8
DEFAULT_255_1_234
10
13.765617
20
134.0462332
40
0.4376191
50
252.3266134
51
270.5810217
0
ARC
8
DEFAULT_255_1_234
10
13.7451259
20
133.9721644
40
0.3608374
50
223.3000567
51
251.8561855
0
ARC
8
DEFAULT_255_1_234
10
13.7662619
20
133.9926937
40
0.3902993
50
190.9374509
51
223.3654032
0
ARC
8
DEFAULT_255_1_234
10
13.9387592
20
134.0316885
40
0.5670891
50
179.6531105
51
191.4989439
0
ARC
8
DEFAULT_255_1_234
10
13.9509604
20
134.0656417
40
0.5792888
50
167.4007466
51
180.3176909
0
ARC
8
DEFAULT_255_1_234
10
13.8457666
20
134.0878885
40
0.471777
50
154.1835823
51
167.250763
0
ARC
8
DEFAULT_255_1_234
10
13.7826133
20
134.1211417
40
0.4004528
50
134.3149965
51
154.5315275
0
ARC
8
DEFAULT_255_1_234
10
13.7608628
20
134.1402228
40
0.371612
50
122.8616532
51
133.9707695
0
ARC
8
DEFAULT_255_1_234
10
13.7505202
20
134.1624703
40
0.3473289
50
89.8249009
51
123.4199222
0
ARC
8
DEFAULT_255_1_234
10
13.7555243
20
134.0977967
40
0.4120197
50
74.7876118
51
90.5482747
0
ARC
8
DEFAULT_255_1_234
10
13.7848987
20
134.206303
40
0.2996077
50
39.8178249
51
74.7633718
0
ARC
8
DEFAULT_255_1_234
10
13.7336307
20
134.1663351
40
0.3645855
50
16.8990863
51
39.4829761
0
ARC
8
DEFAULT_255_1_234
10
13.5441603
20
134.1056526
40
0.5635218
50
4.9636328
51
17.2026414
0
ARC
8
DEFAULT_255_1_234
10
13.3023673
20
134.080134
40
0.8066286
50
359.8834553
51
5.2834307
0
ARC
8
DEFAULT_255_1_234
10
13.9061198
20
134.0232803
40
0.3859091
50
180.9846213
51
194.9401313
0
ARC
8
DEFAULT_255_1_234
10
13.8011476
20
133.9945849
40
0.2770883
50
194.80314
51
222.0412631
0
ARC
8
DEFAULT_255_1_234
10
13.7707357
20
133.9644116
40
0.2343055
50
221.5417084
51
268.8614402
0
ARC
8
DEFAULT_255_1_234
10
13.7780352
20
134.0320686
40
0.3021528
50
267.732405
51
270.0097136
0
ARC
8
DEFAULT_255_1_234
10
13.7798162
20
134.0522105
40
0.3222994
50
269.6924892
51
280.4117579
0
ARC
8
DEFAULT_255_1_234
10
13.7974569
20
133.9603193
40
0.2287344
50
280.2255091
51
298.6338936
0
ARC
8
DEFAULT_255_1_234
10
13.8091361
20
133.9359223
40
0.2017294
50
299.0430333
51
300.4643464
0
ARC
8
DEFAULT_255_1_234
10
13.7411366
20
134.0493038
40
0.3339357
50
300.6577328
51
322.0378878
0
ARC
8
DEFAULT_255_1_234
10
13.7060905
20
134.0797021
40
0.3802736
50
321.6750233
51
322.3046845
0
ARC
8
DEFAULT_255_1_234
10
13.7991867
20
133.963037
40
0.3520454
50
276.9728461
51
328.0035423
0
ARC
8
DEFAULT_255_1_234
10
13.771492
20
134.1110841
40
0.5024498
50
269.8361028
51
278.0581756
0
ARC
8
DEFAULT_255_1_234
10
13.7487657
20
134.1855757
40
0.202159
50
89.2018686
51
117.2851756
0
ARC
8
DEFAULT_255_1_234
10
13.7540826
20
134.1813752
40
0.2083484
50
118.0551165
51
137.4540413
0
ARC
8
DEFAULT_255_1_234
10
13.7915566
20
134.1473304
40
0.2589774
50
137.5109581
51
158.8516286
0
ARC
8
DEFAULT_255_1_234
10
13.9053402
20
134.1014074
40
0.38167
50
158.5845963
51
170.1721436
0
ARC
8
DEFAULT_255_1_234
10
14.0222791
20
134.0781823
40
0.5008657
50
169.8376422
51
173.0566086
0
ARC
8
DEFAULT_255_1_234
10
13.5525865
20
134.1292509
40
0.4083467
50
2.9091802
51
12.8847116
0
ARC
8
DEFAULT_255_1_234
10
13.6896541
20
134.1615101
40
0.2675383
50
12.6957781
51
28.6404489
0
ARC
8
DEFAULT_255_1_234
10
13.7438212
20
134.1895458
40
0.2065654
50
29.0169854
51
41.1487595
0
ARC
8
DEFAULT_255_1_234
10
13.7640997
20
134.2072003
40
0.1796786
50
41.1646065
51
85.0013516
0
ARC
8
DEFAULT_255_1_234
10
13.7520094
20
134.1337431
40
0.2539726
50
83.7280015
51
90.0964893
0
LINE
8
DEFAULT_255_1_234
10
14.7009332
20
134.4985531
11
14.7009332
21
134.3604072
0
LINE
8
DEFAULT_255_1_234
10
14.4294604
20
134.2415375
11
14.4294604
21
133.6247
0
LINE
8
DEFAULT_255_1_234
10
14.4294604
20
133.6247
11
14.2808732
21
133.6247
0
LINE
8
DEFAULT_255_1_234
10
14.2808732
20
133.6247
11
14.2808732
21
134.4937341
0
LINE
8
DEFAULT_255_1_234
10
14.2808732
20
134.4937341
11
14.4254445
21
134.4937341
0
LINE
8
DEFAULT_255_1_234
10
14.4254445
20
134.4937341
11
14.4278541
21
134.3933374
0
ARC
8
DEFAULT_255_1_234
10
14.6342737
20
133.9544342
40
0.4114092
50
80.6754243
51
86.8932892
0
ARC
8
DEFAULT_255_1_234
10
14.6282271
20
133.85767
40
0.5083596
50
86.8038578
51
90.0431435
0
ARC
8
DEFAULT_255_1_234
10
14.6245252
20
134.1033866
40
0.2626638
50
89.2759698
51
106.6213787
0
ARC
8
DEFAULT_255_1_234
10
14.6040816
20
134.177683
40
0.1856317
50
107.1346045
51
157.6458115
0
ARC
8
DEFAULT_255_1_234
10
14.6732418
20
134.1393311
40
0.2643398
50
155.6586782
51
157.2539184
0
ARC
8
DEFAULT_255_1_234
10
14.652762
20
134.2562157
40
0.2634121
50
127.8165941
51
148.6302098
0
ARC
8
DEFAULT_255_1_234
10
14.6274089
20
134.2822218
40
0.2273596
50
91.3329982
51
126.7875809
0
ARC
8
DEFAULT_255_1_234
10
14.6350029
20
134.2107195
40
0.299078
50
89.986594
51
92.4688449
0
ARC
8
DEFAULT_255_1_234
10
14.6358424
20
134.2382078
40
0.2715908
50
85.3589899
51
90.1623399
0
ARC
8
DEFAULT_255_1_234
10
14.644294
20
134.3386164
40
0.1708278
50
78.401942
51
85.4594656
0
ARC
8
DEFAULT_255_1_234
10
14.6587824
20
134.4077236
40
0.1002194
50
67.7858312
51
78.5728455
0
ARC
8
DEFAULT_255_1_234
10
14.6695676
20
134.4356887
40
0.0702548
50
63.4835954
51
67.3062642
0
LINE
8
DEFAULT_255_1_234
10
15.0157773
20
134.7941211
11
15.0157773
21
133.7507983
0
LINE
8
DEFAULT_255_1_234
10
15.0157773
20
133.7507983
11
15.5699672
21
133.7507983
0
LINE
8
DEFAULT_255_1_234
10
15.5699672
20
133.7507983
11
15.5699672
21
133.6247
0
LINE
8
DEFAULT_255_1_234
10
15.5699672
20
133.6247
11
14.8607647
21
133.6247
0
LINE
8
DEFAULT_255_1_234
10
14.8607647
20
133.6247
11
14.8607647
21
134.7941211
0
LINE
8
DEFAULT_255_1_234
10
14.8607647
20
134.7941211
11
15.0157773
21
134.7941211
0
LINE
8
DEFAULT_255_1_234
10
15.6832147
20
134.0568075
11
15.6832147
21
134.0672488
0
LINE
8
DEFAULT_255_1_234
10
16.474341
20
134.0600202
11
16.474341
21
134.049579
0
ARC
8
DEFAULT_255_1_234
10
16.2418327
20
134.0704837
40
0.5586273
50
166.3003825
51
180.3317926
0
ARC
8
DEFAULT_255_1_234
10
16.1555486
20
134.0897964
40
0.4702272
50
153.8608245
51
166.0967125
0
ARC
8
DEFAULT_255_1_234
10
16.0889889
20
134.125475
40
0.3947658
50
135.1316692
51
154.253643
0
ARC
8
DEFAULT_255_1_234
10
16.0611448
20
134.1500666
40
0.3576898
50
121.7044358
51
134.776924
0
ARC
8
DEFAULT_255_1_234
10
16.0678442
20
134.1371867
40
0.3721701
50
93.4002104
51
121.5398234
0
ARC
8
DEFAULT_255_1_234
10
16.0773398
20
134.0546228
40
0.4551749
50
89.9706281
51
93.9769836
0
ARC
8
DEFAULT_255_1_234
10
16.082049
20
134.0936362
40
0.4161854
50
71.3323442
51
90.6161982
0
ARC
8
DEFAULT_255_1_234
10
16.0983186
20
134.1538578
40
0.3539455
50
41.1815071
51
70.707185
0
ARC
8
DEFAULT_255_1_234
10
16.0505586
20
134.1104919
40
0.4184468
50
12.1971897
51
41.3445735
0
ARC
8
DEFAULT_255_1_234
10
15.8579594
20
134.0646425
40
0.616399
50
359.5703439
51
12.5804035
0
ARC
8
DEFAULT_255_1_234
10
15.9052669
20
134.0464116
40
0.5690829
50
347.0197749
51
0.3188898
0
ARC
8
DEFAULT_255_1_234
10
16.0011171
20
134.0257808
40
0.4710501
50
334.3504053
51
346.846361
0
ARC
8
DEFAULT_255_1_234
10
16.0856594
20
133.9818805
40
0.3758475
50
310.422922
51
334.8045033
0
ARC
8
DEFAULT_255_1_234
10
16.093842
20
133.9754782
40
0.3656736
50
301.8486886
51
310.097356
0
ARC
8
DEFAULT_255_1_234
10
16.0906146
20
133.9830638
40
0.3738224
50
274.307774
51
301.655379
0
ARC
8
DEFAULT_255_1_234
10
16.0795453
20
134.0708361
40
0.4621997
50
269.9546461
51
274.8588071
0
ARC
8
DEFAULT_255_1_234
10
16.0746387
20
134.0207249
40
0.4121134
50
250.888809
51
270.631312
0
ARC
8
DEFAULT_255_1_234
10
16.0596307
20
133.9648277
40
0.3544073
50
221.1701932
51
250.2227191
0
ARC
8
DEFAULT_255_1_234
10
16.1080461
20
134.0089439
40
0.4198961
50
191.6263638
51
221.3526367
0
ARC
8
DEFAULT_255_1_234
10
16.2968457
20
134.0526329
40
0.6136451
50
179.610213
51
192.0693181
0
ARC
8
DEFAULT_255_1_234
10
16.3391685
20
134.0463633
40
0.5065736
50
179.636298
51
190.6162791
0
ARC
8
DEFAULT_255_1_234
10
16.1749353
20
134.014359
40
0.3392576
50
190.4136628
51
208.7170242
0
ARC
8
DEFAULT_255_1_234
10
16.1238977
20
133.9890366
40
0.2823401
50
209.1867941
51
217.4225593
0
ARC
8
DEFAULT_255_1_234
10
16.0709811
20
133.9424558
40
0.2120636
50
216.1156896
51
265.2575835
0
ARC
8
DEFAULT_255_1_234
10
16.078896
20
133.9998109
40
0.2698952
50
264.5897417
51
270.0601757
0
ARC
8
DEFAULT_255_1_234
10
16.082202
20
133.9618185
40
0.2319225
50
269.2532621
51
291.8792492
0
ARC
8
DEFAULT_255_1_234
10
16.0851242
20
133.9440238
40
0.2143562
50
292.9269754
51
323.1776747
0
ARC
8
DEFAULT_255_1_234
10
16.0458064
20
133.9788452
40
0.2667346
50
322.2518483
51
323.0930371
0
ARC
8
DEFAULT_255_1_234
10
16.0163723
20
133.996999
40
0.3011886
50
323.6941278
51
343.8493282
0
ARC
8
DEFAULT_255_1_234
10
15.8585266
20
134.045035
40
0.4661719
50
343.5748474
51
355.0079071
0
ARC
8
DEFAULT_255_1_234
10
15.6577511
20
134.0658424
40
0.6680042
50
354.7285225
51
0.1206288
0
ARC
8
DEFAULT_255_1_234
10
15.8345977
20
134.0704751
40
0.4911667
50
359.623636
51
11.2015604
0
ARC
8
DEFAULT_255_1_234
10
15.9880205
20
134.102064
40
0.3345323
50
10.9989411
51
30.8319188
0
ARC
8
DEFAULT_255_1_234
10
16.0276077
20
134.1229297
40
0.2898553
50
31.3008956
51
37.3959224
0
ARC
8
DEFAULT_255_1_234
10
16.0772656
20
134.1648653
40
0.2249582
50
36.5915954
51
62.2442953
0
ARC
8
DEFAULT_255_1_234
10
16.0819109
20
134.1645602
40
0.2231053
50
63.3365542
51
89.7195421
0
ARC
8
DEFAULT_255_1_234
10
16.0775963
20
134.1076884
40
0.2800267
50
88.8936788
51
90.0047485
0
ARC
8
DEFAULT_255_1_234
10
16.0744322
20
134.1649787
40
0.2227586
50
89.1921125
51
114.7099455
0
ARC
8
DEFAULT_255_1_234
10
16.0773086
20
134.1687628
40
0.2205633
50
115.7997161
51
142.2900762
0
ARC
8
DEFAULT_255_1_234
10
16.1211819
20
134.1297658
40
0.2791541
50
141.4658779
51
142.3795754
0
ARC
8
DEFAULT_255_1_234
10
16.1320723
20
134.1254557
40
0.2904292
50
143.0175714
51
163.234115
0
ARC
8
DEFAULT_255_1_234
10
16.2898896
20
134.0755054
40
0.4559523
50
162.9447461
51
174.3732162
0
ARC
8
DEFAULT_255_1_234
10
16.504471
20
134.0514143
40
0.6718682
50
174.1228657
51
180.1565175
0
LINE
8
DEFAULT_255_1_234
10
17.2164736
20
134.3973532
11
17.2237021
21
134.4937341
0
LINE
8
DEFAULT_255_1_234
10
17.2237021
20
134.4937341
11
17.3594385
21
134.4937341
0
LINE
8
DEFAULT_255_1_234
10
17.3594385
20
134.4937341
11
17.3594385
21
133.6455825
0
LINE
8
DEFAULT_255_1_234
10
16.6695122
20
133.4327415
11
16.7466169
21
133.5218938
0
LINE
8
DEFAULT_255_1_234
10
17.2100482
20
133.6367476
11
17.2100482
21
133.7114428
0
LINE
8
DEFAULT_255_1_234
10
17.2100482
20
133.8624395
11
17.2100482
21
134.2592073
0
ARC
8
DEFAULT_255_1_234
10
17.3399184
20
134.070767
40
0.7145938
50
169.8803029
51
180.346492
0
ARC
8
DEFAULT_255_1_234
10
17.1045956
20
134.1144732
40
0.4752555
50
152.8532592
51
170.0826994
0
ARC
8
DEFAULT_255_1_234
10
17.021273
20
134.1539298
40
0.3831198
50
142.0149503
51
152.4184154
0
ARC
8
DEFAULT_255_1_234
10
16.9575687
20
134.2119197
40
0.2972906
50
94.3317211
51
143.267544
0
ARC
8
DEFAULT_255_1_234
10
16.9679586
20
134.1336614
40
0.3761364
50
89.949086
51
95.0094918
0
ARC
8
DEFAULT_255_1_234
10
16.9721156
20
134.1495946
40
0.3602233
50
72.9495766
51
90.6080422
0
ARC
8
DEFAULT_255_1_234
10
16.9926262
20
134.2238804
40
0.2831969
50
37.7742493
51
72.5100279
0
ARC
8
DEFAULT_255_1_234
10
16.9006175
20
133.6417461
40
0.4588371
50
346.3654765
51
0.4790689
0
ARC
8
DEFAULT_255_1_234
10
17.0373999
20
133.6069784
40
0.3177173
50
314.3365179
51
346.6439967
0
ARC
8
DEFAULT_255_1_234
10
17.0271901
20
133.621312
40
0.3351156
50
280.7143003
51
313.8723582
0
ARC
8
DEFAULT_255_1_234
10
16.9936554
20
133.7707406
40
0.4882011
50
269.662739
51
281.3210136
0
ARC
8
DEFAULT_255_1_234
10
16.9920233
20
133.729507
40
0.4469607
50
245.5258041
51
269.8408437
0
ARC
8
DEFAULT_255_1_234
10
16.9538789
20
133.6579537
40
0.3660692
50
232.6665166
51
246.3199597
0
ARC
8
DEFAULT_255_1_234
10
16.9054583
20
133.5937155
40
0.2856276
50
214.3037329
51
232.5747698
0
ARC
8
DEFAULT_255_1_234
10
17.0172764
20
133.7362759
40
0.3452771
50
218.3818001
51
236.3658697
0
ARC
8
DEFAULT_255_1_234
10
16.9772588
20
133.6804637
40
0.2766535
50
236.8638847
51
270.6382346
0
ARC
8
DEFAULT_255_1_234
10
16.9827419
20
133.7135542
40
0.3097363
50
269.5557741
51
282.3971413
0
ARC
8
DEFAULT_255_1_234
10
17.0063494
20
133.6120559
40
0.2055403
50
282.04403
51
308.3081445
0
ARC
8
DEFAULT_255_1_234
10
17.0148892
20
133.5984365
40
0.1895677
50
308.8344832
51
315.2032883
0
ARC
8
DEFAULT_255_1_234
10
17.0070465
20
133.604177
40
0.199183
50
315.6210926
51
345.6795494
0
ARC
8
DEFAULT_255_1_234
10
16.9091352
20
133.6314308
40
0.3008009
50
345.2625808
51
358.6313382
0
ARC
8
DEFAULT_255_1_234
10
16.8202774
20
133.6366622
40
0.3897707
50
358.1745328
51
0.0125581
0
ARC
8
DEFAULT_255_1_234
10
16.9887432
20
133.9027802
40
0.2925507
50
275.695063
51
319.1537421
0
ARC
8
DEFAULT_255_1_234
10
16.9675576
20
134.0251945
40
0.4165589
50
269.8801937
51
276.923904
0
ARC
8
DEFAULT_255_1_234
10
16.9622482
20
133.914205
40
0.3056007
50
244.0749417
51
270.8321594
0
ARC
8
DEFAULT_255_1_234
10
16.9697595
20
133.9162057
40
0.3107397
50
217.7817538
51
242.9905588
0
ARC
8
DEFAULT_255_1_234
10
17.0308153
20
133.9704252
40
0.3922508
50
217.5213304
51
218.5773048
0
ARC
8
DEFAULT_255_1_234
10
17.0578685
20
133.9861333
40
0.4232938
50
195.3495212
51
216.9774018
0
ARC
8
DEFAULT_255_1_234
10
17.2601699
20
134.0449389
40
0.6339531
50
183.9386736
51
195.634887
0
ARC
8
DEFAULT_255_1_234
10
17.4877999
20
134.0653851
40
0.8624629
50
179.9295504
51
184.2550478
0
ARC
8
DEFAULT_255_1_234
10
17.3556412
20
134.0465275
40
0.5809212
50
179.6990322
51
188.5748787
0
ARC
8
DEFAULT_255_1_234
10
17.154323
20
134.0150858
40
0.377167
50
188.411837
51
202.0556851
0
ARC
8
DEFAULT_255_1_234
10
17.057446
20
133.977053
40
0.2731001
50
202.2924333
51
215.4475715
0
ARC
8
DEFAULT_255_1_234
10
16.9930087
20
133.9271537
40
0.191695
50
214.4673484
51
264.336154
0
ARC
8
DEFAULT_255_1_234
10
17.0032027
20
133.9908255
40
0.2560911
50
263.4724496
51
270.0961704
0
ARC
8
DEFAULT_255_1_234
10
17.0072229
20
133.975892
40
0.2411839
50
269.1470351
51
291.7977507
0
ARC
8
DEFAULT_255_1_234
10
17.0134663
20
133.9479994
40
0.2130159
50
293.0244875
51
327.6231489
0
ARC
8
DEFAULT_255_1_234
10
16.9426844
20
133.9997511
40
0.3005627
50
326.5166824
51
332.8160514
0
ARC
8
DEFAULT_255_1_234
10
16.9777878
20
134.1357491
40
0.2630339
50
27.9929136
51
47.6313992
0
ARC
8
DEFAULT_255_1_234
10
17.0139402
20
134.1701486
40
0.2132848
50
48.5793389
51
88.624502
0
ARC
8
DEFAULT_255_1_234
10
17.0053248
20
134.0952538
40
0.2884455
50
87.2706405
51
90.0170635
0
ARC
8
DEFAULT_255_1_234
10
17.0024572
20
134.161145
40
0.2225717
50
89.2839171
51
110.1848324
0
ARC
8
DEFAULT_255_1_234
10
16.9963059
20
134.187727
40
0.1955293
50
111.1807684
51
145.0424799
0
ARC
8
DEFAULT_255_1_234
10
17.0069839
20
134.175455
40
0.2113491
50
143.9743769
51
144.1060945
0
ARC
8
DEFAULT_255_1_234
10
17.0612806
20
134.140275
40
0.2759807
50
144.7982748
51
162.8715388
0
ARC
8
DEFAULT_255_1_234
10
17.2307456
20
134.0857842
40
0.453983
50
162.5984223
51
173.3418672
0
ARC
8
DEFAULT_255_1_234
10
17.4975234
20
134.0526851
40
0.7228019
50
173.1877442
51
180.2462216
0
LINE
8
DEFAULT_255_1_234
10
17.744962
20
134.4937341
11
17.744962
21
133.6247
0
LINE
8
DEFAULT_255_1_234
10
17.744962
20
133.6247
11
17.5963748
21
133.6247
0
LINE
8
DEFAULT_255_1_234
10
17.5963748
20
133.6247
11
17.5963748
21
134.4937341
0
LINE
8
DEFAULT_255_1_234
10
17.5963748
20
134.4937341
11
17.744962
21
134.4937341
0
ARC
8
DEFAULT_255_1_234
10
17.6821897
20
134.7251889
40
0.097867
50
161.415052
51
180.5526306
0
ARC
8
DEFAULT_255_1_234
10
17.6697675
20
134.7286077
40
0.0850062
50
138.1827368
51
160.9307106
0
ARC
8
DEFAULT_255_1_234
10
17.658762
20
134.7381588
40
0.0704362
50
104.6368899
51
138.0039868
0
ARC
8
DEFAULT_255_1_234
10
17.6694775
20
134.7014963
40
0.1086221
50
92.0600725
51
105.2189128
0
ARC
8
DEFAULT_255_1_234
10
17.6718124
20
134.6672117
40
0.1429728
50
89.9756393
51
92.5012496
0
ARC
8
DEFAULT_255_1_234
10
17.6728143
20
134.6897731
40
0.1204151
50
78.0235316
51
90.4478182
0
ARC
8
DEFAULT_255_1_234
10
17.6820235
20
134.7311295
40
0.0780493
50
55.051506
51
78.3369085
0
ARC
8
DEFAULT_255_1_234
10
17.6870509
20
134.7395711
40
0.0682538
50
42.0501187
51
54.4513741
0
ARC
8
DEFAULT_255_1_234
10
17.6735376
20
134.7271798
40
0.0865878
50
1.7497075
51
42.1496013
0
ARC
8
DEFAULT_255_1_234
10
17.6480709
20
134.7242738
40
0.1121515
50
359.9852656
51
2.8364544
0
ARC
8
DEFAULT_255_1_234
10
17.6646701
20
134.7233229
40
0.0955566
50
342.1070653
51
0.552888
0
ARC
8
DEFAULT_255_1_234
10
17.6789399
20
134.7193904
40
0.0807713
50
316.7107116
51
341.6516965
0
ARC
8
DEFAULT_255_1_234
10
17.6856436
20
134.7133823
40
0.0717724
50
285.4397031
51
316.5324284
0
ARC
8
DEFAULT_255_1_234
10
17.6746353
20
134.7499554
40
0.1099597
50
272.3547054
51
285.8953117
0
ARC
8
DEFAULT_255_1_234
10
17.6719511
20
134.7865048
40
0.1465932
50
269.9695369
51
272.8160237
0
ARC
8
DEFAULT_255_1_234
10
17.6709692
20
134.7645863
40
0.1246779
50
258.8431134
51
270.4153935
0
ARC
8
DEFAULT_255_1_234
10
17.6619735
20
134.7210414
40
0.0802162
50
238.5431189
51
259.1288175
0
ARC
8
DEFAULT_255_1_234
10
17.6551619
20
134.7086856
40
0.0661247
50
222.5062634
51
237.9906969
0
ARC
8
DEFAULT_255_1_234
10
17.6679207
20
134.7202889
40
0.0833707
50
184.1069131
51
222.460413
0
ARC
8
DEFAULT_255_1_234
10
17.6948448
20
134.7241349
40
0.1105176
50
179.9429482
51
185.0960898
0
LINE
8
DEFAULT_255_1_234
10
18.5360882
20
133.8985823
11
18.6766436
21
133.8985823
0
LINE
8
DEFAULT_255_1_234
10
17.9441491
20
134.0511853
11
17.9441491
21
134.0760837
0
LINE
8
DEFAULT_255_1_234
10
18.6766436
20
134.1949534
11
18.5360882
21
134.1949534
0
LINE
8
DEFAULT_255_1_234
10
18.0927362
20
134.0704615
11
18.0927362
21
134.0423504
0
ARC
8
DEFAULT_255_1_234
10
18.3348917
20
133.9439121
40
0.2140268
50
269.0327816
51
309.2224514
0
ARC
8
DEFAULT_255_1_234
10
18.3558672
20
133.9224108
40
0.1841255
50
308.396669
51
329.6984113
0
ARC
8
DEFAULT_255_1_234
10
18.3696527
20
133.911982
40
0.166974
50
330.401383
51
355.3970571
0
ARC
8
DEFAULT_255_1_234
10
18.4153393
20
133.9137082
40
0.2617417
50
329.2357853
51
356.6870514
0
ARC
8
DEFAULT_255_1_234
10
18.3603415
20
133.9427971
40
0.3238945
50
324.8706984
51
329.7905871
0
ARC
8
DEFAULT_255_1_234
10
18.3525133
20
133.9495106
40
0.3341614
50
298.8769168
51
324.7016144
0
ARC
8
DEFAULT_255_1_234
10
18.3193325
20
134.0023917
40
0.3965068
50
296.9023738
51
299.385174
0
ARC
8
DEFAULT_255_1_234
10
18.3322938
20
133.9736422
40
0.365007
50
269.8406811
51
297.1299281
0
ARC
8
DEFAULT_255_1_234
10
18.3269595
20
134.0374407
40
0.4288259
50
253.315473
51
270.5771285
0
ARC
8
DEFAULT_255_1_234
10
18.302263
20
133.9480739
40
0.3361372
50
221.1002312
51
252.9744583
0
ARC
8
DEFAULT_255_1_234
10
18.3482627
20
133.987559
40
0.3967576
50
194.5394537
51
221.0302238
0
ARC
8
DEFAULT_255_1_234
10
18.5331448
20
134.0390952
40
0.5886672
50
182.0499201
51
194.8773585
0
ARC
8
DEFAULT_255_1_234
10
18.7101646
20
134.050906
40
0.7660157
50
179.9791086
51
182.4591564
0
ARC
8
DEFAULT_255_1_234
10
18.536369
20
134.0790498
40
0.5922274
50
168.614861
51
180.2869651
0
ARC
8
DEFAULT_255_1_234
10
18.4161835
20
134.1026269
40
0.4697532
50
154.9162259
51
168.5402336
0
ARC
8
DEFAULT_255_1_234
10
18.3240343
20
134.148163
40
0.3669966
50
133.5746694
51
155.2558665
0
ARC
8
DEFAULT_255_1_234
10
18.3077502
20
134.1620467
40
0.3457206
50
122.0165146
51
133.2055214
0
ARC
8
DEFAULT_255_1_234
10
18.311334
20
134.1532361
40
0.355095
50
97.8731644
51
121.7531281
0
ARC
8
DEFAULT_255_1_234
10
18.3292423
20
134.0475159
40
0.4622833
50
89.8471353
51
98.2769494
0
ARC
8
DEFAULT_255_1_234
10
18.3341176
20
134.1085091
40
0.401305
50
73.3760412
51
90.5199766
0
ARC
8
DEFAULT_255_1_234
10
18.3537539
20
134.1807516
40
0.3264695
50
47.7085968
51
73.0509704
0
ARC
8
DEFAULT_255_1_234
10
18.3667409
20
134.1920128
40
0.309407
50
3.7443473
51
48.0843753
0
ARC
8
DEFAULT_255_1_234
10
18.2680359
20
134.1762614
40
0.4090351
50
2.6192045
51
5.0432185
0
ARC
8
DEFAULT_255_1_234
10
18.3137212
20
134.1802592
40
0.2228519
50
3.780656
51
23.9356886
0
ARC
8
DEFAULT_255_1_234
10
18.3365828
20
134.1883155
40
0.198697
50
24.4869552
51
46.9440088
0
ARC
8
DEFAULT_255_1_234
10
18.3366679
20
134.1906484
40
0.1969404
50
46.498716
51
89.3298174
0
ARC
8
DEFAULT_255_1_234
10
18.3305033
20
134.1311723
40
0.2565428
50
88.1083975
51
90.0061569
0
ARC
8
DEFAULT_255_1_234
10
18.3277463
20
134.1365759
40
0.251154
50
89.3773333
51
107.2071161
0
ARC
8
DEFAULT_255_1_234
10
18.3134586
20
134.188319
40
0.1975072
50
107.6883219
51
143.3583002
0
ARC
8
DEFAULT_255_1_234
10
18.3701969
20
134.1456873
40
0.2684762
50
143.2846717
51
162.935323
0
ARC
8
DEFAULT_255_1_234
10
18.5207571
20
134.0973652
40
0.4265927
50
162.6650068
51
174.0805419
0
ARC
8
DEFAULT_255_1_234
10
18.735041
20
134.0724636
40
0.6423078
50
173.8423985
51
180.1785963
0
ARC
8
DEFAULT_255_1_234
10
18.680251
20
134.0393039
40
0.5875227
50
179.7028978
51
188.2277152
0
ARC
8
DEFAULT_255_1_234
10
18.4700812
20
134.0078247
40
0.3750127
50
188.0629871
51
201.1160002
0
ARC
8
DEFAULT_255_1_234
10
18.360301
20
133.9659238
40
0.2575093
50
201.2187293
51
216.9761968
0
ARC
8
DEFAULT_255_1_234
10
18.3151573
20
133.9320993
40
0.2010998
50
217.0135981
51
265.2056839
0
ARC
8
DEFAULT_255_1_234
10
18.3307433
20
134.0242695
40
0.2943543
50
263.681807
51
270.104251
0
LINE
8
DEFAULT_255_2_778
10
19.9765417
20
124.2218483
11
18.6536417
21
124.2218483
0
LINE
8
DEFAULT_255_2_778
10
18.6536417
20
124.2218483
11
18.6536417
21
67.3364483
0
LINE
8
DEFAULT_255_2_778
10
18.6536417
20
62.0447483
11
18.6536417
21
5.1593483
0
LINE
8
DEFAULT_255_2_778
10
18.6536417
20
5.1593483
11
19.9765417
21
5.1593483
0
LINE
8
DEFAULT_255_2_778
10
17.3307834
20
67.3364333
11
19.9765834
21
67.3364333
0
LINE
8
DEFAULT_255_2_778
10
19.9765834
20
67.3364333
11
19.9765834
21
62.0447333
0
LINE
8
DEFAULT_255_2_778
10
19.9765834
20
62.0447333
11
17.3307834
21
62.0447333
0
LINE
8
DEFAULT_255_2_778
10
17.3307834
20
62.0447333
11
17.3307834
21
67.3364333
0
LINE
8
DEFAULT_255_2_778
10
18.1245
20
62.5739666
11
18.1245
21
66.8072666
0
LINE
8
DEFAULT_255_2_778
10
17.8599167
20
66.013575
11
18.1245167
21
66.807275
0
LINE
8
DEFAULT_255_2_778
10
18.1245167
20
66.807275
11
18.3891167
21
66.013575
0
LINE
8
DEFAULT_255_2_778
10
18.3891167
20
66.013575
11
17.8599167
21
66.013575
0
LINE
8
DEFAULT_255_2_778
10
19.1828
20
66.8072666
11
19.1828
21
62.5739666
0
LINE
8
DEFAULT_255_2_778
10
18.9182167
20
63.367675
11
19.1828167
21
62.573975
0
LINE
8
DEFAULT_255_2_778
10
19.1828167
20
62.573975
11
19.4474167
21
63.367675
0
LINE
8
DEFAULT_255_2_778
10
19.4474167
20
63.367675
11
18.9182167
21
63.367675
0
LINE
8
DEFAULT_255_1_234
10
4.9274119
20
131.7616792
11
4.9274119
21
131.6404
0
LINE
8
DEFAULT_255_1_234
10
4.9274119
20
131.6404
11
4.161184
21
131.6404
0
LINE
8
DEFAULT_255_1_234
10
4.161184
20
131.6404
11
4.161184
21
131.7472221
0
LINE
8
DEFAULT_255_1_234
10
4.161184
20
131.7472221
11
4.5659836
21
132.1969995
0
LINE
8
DEFAULT_255_1_234
10
4.2872823
20
132.4652595
11
4.1386952
21
132.4652595
0
LINE
8
DEFAULT_255_1_234
10
4.6535296
20
132.1014218
11
4.3402918
21
131.7616792
0
LINE
8
DEFAULT_255_1_234
10
4.3402918
20
131.7616792
11
4.9274119
21
131.7616792
0
ARC
8
DEFAULT_255_1_234
10
3.216967
20
133.3899527
40
1.8008286
50
318.5132453
51
320.7828378
0
ARC
8
DEFAULT_255_1_234
10
3.7456644
20
132.9596426
40
1.1191493
50
320.7372736
51
323.9737074
0
ARC
8
DEFAULT_255_1_234
10
4.1376501
20
132.6756361
40
0.6350923
50
323.8961724
51
328.6421089
0
ARC
8
DEFAULT_255_1_234
10
4.3423096
20
132.5494031
40
0.3946393
50
328.8299013
51
331.789948
0
ARC
8
DEFAULT_255_1_234
10
4.4420274
20
132.4979509
40
0.2824501
50
331.4255242
51
352.9364833
0
ARC
8
DEFAULT_255_1_234
10
4.4556775
20
132.4948976
40
0.2685315
50
353.2248685
51
0.0169286
0
ARC
8
DEFAULT_255_1_234
10
4.4766652
20
132.497195
40
0.2475536
50
359.4866256
51
15.9339782
0
ARC
8
DEFAULT_255_1_234
10
4.5273637
20
132.5108286
40
0.1950618
50
16.1714718
51
43.5284424
0
ARC
8
DEFAULT_255_1_234
10
4.5350946
20
132.5185573
40
0.184134
50
43.4415429
51
83.1661404
0
ARC
8
DEFAULT_255_1_234
10
4.5216864
20
132.4448771
40
0.258926
50
82.160215
51
90.1505798
0
ARC
8
DEFAULT_255_1_234
10
4.5185291
20
132.3911865
40
0.3126255
50
89.5460705
51
102.5418777
0
ARC
8
DEFAULT_255_1_234
10
4.4942377
20
132.4942665
40
0.2067346
50
102.1739365
51
129.2061916
0
ARC
8
DEFAULT_255_1_234
10
4.4863449
20
132.5067094
40
0.1921118
50
129.7279328
51
135.7542026
0
ARC
8
DEFAULT_255_1_234
10
4.4984977
20
132.4970045
40
0.2075944
50
136.175737
51
166.3674722
0
ARC
8
DEFAULT_255_1_234
10
4.5991896
20
132.4700182
40
0.3118201
50
165.9092917
51
178.8683903
0
ARC
8
DEFAULT_255_1_234
10
4.6856757
20
132.4653179
40
0.3983935
50
178.438168
51
180.0083905
0
ARC
8
DEFAULT_255_1_234
10
4.5455359
20
132.4692231
40
0.4068601
50
163.2878735
51
180.5581814
0
ARC
8
DEFAULT_255_1_234
10
4.4653621
20
132.491284
40
0.3237344
50
133.454115
51
162.9470031
0
ARC
8
DEFAULT_255_1_234
10
4.4832162
20
132.4723
40
0.349795
50
100.7869394
51
133.4384016
0
ARC
8
DEFAULT_255_1_234
10
4.5179934
20
132.3174319
40
0.5084616
50
89.6605301
51
101.3704185
0
ARC
8
DEFAULT_255_1_234
10
4.5246273
20
132.3235496
40
0.502348
50
78.2171172
51
90.4130393
0
ARC
8
DEFAULT_255_1_234
10
4.5601351
20
132.4859637
40
0.3361092
50
55.9268222
51
78.4888551
0
ARC
8
DEFAULT_255_1_234
10
4.5797791
20
132.5198324
40
0.2970617
50
47.9292255
51
55.4054003
0
ARC
8
DEFAULT_255_1_234
10
4.5899352
20
132.5301502
40
0.2825983
50
4.3347696
51
48.0560701
0
ARC
8
DEFAULT_255_1_234
10
4.4803745
20
132.5131601
40
0.393225
50
359.925209
51
5.5967654
0
ARC
8
DEFAULT_255_1_234
10
4.5232637
20
132.5187816
40
0.3503892
50
337.8914096
51
358.9967724
0
ARC
8
DEFAULT_255_1_234
10
4.2519049
20
132.6234706
40
0.6412172
50
326.9135351
51
338.3505194
0
ARC
8
DEFAULT_255_1_234
10
3.8533353
20
132.8789284
40
1.1146189
50
319.6472867
51
327.095818
0
ARC
8
DEFAULT_255_1_234
10
3.4700356
20
133.1951
40
1.6114559
50
317.2586784
51
319.9046139
0
LINE
8
DEFAULT_255_1_234
10
5.7121127
20
132.8098211
11
5.7121127
21
132.033152
0
LINE
8
DEFAULT_255_1_234
10
5.7121127
20
132.033152
11
5.8743538
21
132.033152
0
LINE
8
DEFAULT_255_1_234
10
5.8743538
20
132.033152
11
5.8743538
21
131.9118728
0
LINE
8
DEFAULT_255_1_234
10
5.8743538
20
131.9118728
11
5.7121127
21
131.9118728
0
LINE
8
DEFAULT_255_1_234
10
5.7121127
20
131.9118728
11
5.7121127
21
131.6404
0
LINE
8
DEFAULT_255_1_234
10
5.7121127
20
131.6404
11
5.5627224
21
131.6404
0
LINE
8
DEFAULT_255_1_234
10
5.5627224
20
131.6404
11
5.5627224
21
131.9118728
0
LINE
8
DEFAULT_255_1_234
10
5.5627224
20
131.9118728
11
5.0302181
21
131.9118728
0
LINE
8
DEFAULT_255_1_234
10
5.0302181
20
131.9118728
11
5.0302181
21
131.9994187
0
LINE
8
DEFAULT_255_1_234
10
5.0302181
20
131.9994187
11
5.5538875
21
132.8098211
0
LINE
8
DEFAULT_255_1_234
10
5.5538875
20
132.8098211
11
5.7121127
21
132.8098211
0
LINE
8
DEFAULT_255_1_234
10
5.5450525
20
132.5744912
11
5.1988846
21
132.033152
0
LINE
8
DEFAULT_255_1_234
10
5.1988846
20
132.033152
11
5.5627224
21
132.033152
0
LINE
8
DEFAULT_255_1_234
10
5.5627224
20
132.033152
11
5.5627224
21
132.6066181
0
LINE
8
DEFAULT_255_1_234
10
5.5627224
20
132.6066181
11
5.5450525
21
132.5744912
0
LINE
8
DEFAULT_255_1_234
10
6.101652
20
132.8098211
11
6.434166
21
131.8452093
0
LINE
8
DEFAULT_255_1_234
10
6.434166
20
131.8452093
11
6.7682863
21
132.8098211
0
LINE
8
DEFAULT_255_1_234
10
6.7682863
20
132.8098211
11
6.9369528
21
132.8098211
0
LINE
8
DEFAULT_255_1_234
10
6.9369528
20
132.8098211
11
6.5032389
21
131.6404
0
LINE
8
DEFAULT_255_1_234
10
6.5032389
20
131.6404
11
6.3666994
21
131.6404
0
LINE
8
DEFAULT_255_1_234
10
6.3666994
20
131.6404
11
5.9337887
21
132.8098211
0
LINE
8
DEFAULT_255_1_234
10
5.9337887
20
132.8098211
11
6.101652
21
132.8098211
0
LINE
8
DEFAULT_255_1_234
10
23.1643817
20
132.3319327
11
23.1643817
21
132.1391709
0
LINE
8
DEFAULT_255_1_234
10
22.426265
20
132.1190916
11
22.426265
21
132.3174755
0
LINE
8
DEFAULT_255_1_234
10
23.0157946
20
132.0990123
11
23.0157946
21
132.3423739
0
LINE
8
DEFAULT_255_1_234
10
22.5748521
20
132.3536184
11
22.5748521
21
132.1158789
0
ARC
8
DEFAULT_255_1_234
10
21.9396707
20
132.1342805
40
1.2247208
50
353.8441951
51
0.2287902
0
ARC
8
DEFAULT_255_1_234
10
22.4036211
20
132.0824806
40
0.7578929
50
344.4934747
51
353.9765454
0
ARC
8
DEFAULT_255_1_234
10
22.7028801
20
131.9973981
40
0.4467846
50
329.2803592
51
344.7472793
0
ARC
8
DEFAULT_255_1_234
10
22.8021626
20
131.9429018
40
0.3336173
50
324.9352394
51
328.6160465
0
ARC
8
DEFAULT_255_1_234
10
22.8398734
20
131.9165427
40
0.2876076
50
280.580143
51
324.9173126
0
ARC
8
DEFAULT_255_1_234
10
22.7997527
20
132.0836099
40
0.4592847
50
269.5977311
51
281.6734359
0
ARC
8
DEFAULT_255_1_234
10
22.7925433
20
132.0716173
40
0.4472986
50
256.6228859
51
270.51044
0
ARC
8
DEFAULT_255_1_234
10
22.752341
20
131.9167877
40
0.2873874
50
215.8618325
51
257.2788573
0
ARC
8
DEFAULT_255_1_234
10
22.8544442
20
131.9852977
40
0.4102928
50
197.9693508
51
215.2623606
0
ARC
8
DEFAULT_255_1_234
10
23.1029558
20
132.0691709
40
0.6725652
50
187.8816417
51
198.2346507
0
ARC
8
DEFAULT_255_1_234
10
23.4987766
20
132.1263079
40
1.0724845
50
180.8976217
51
188.0055519
0
ARC
8
DEFAULT_255_1_234
10
23.7787954
20
132.1366777
40
1.3526448
50
180.7449369
51
181.1510016
0
ARC
8
DEFAULT_255_1_234
10
23.6210683
20
132.3223042
40
1.1948131
50
173.7675579
51
180.231553
0
ARC
8
DEFAULT_255_1_234
10
23.169283
20
132.3733666
40
0.7401564
50
164.3058563
51
173.9002247
0
ARC
8
DEFAULT_255_1_234
10
22.8780899
20
132.4572656
40
0.4371288
50
148.7922025
51
164.568378
0
ARC
8
DEFAULT_255_1_234
10
22.7829351
20
132.5103929
40
0.3282386
50
144.5883898
51
148.1176286
0
ARC
8
DEFAULT_255_1_234
10
22.7486249
20
132.5343315
40
0.2864044
50
101.6440918
51
144.514236
0
ARC
8
DEFAULT_255_1_234
10
22.7911315
20
132.3654069
40
0.4604934
50
89.5284041
51
102.5819763
0
ARC
8
DEFAULT_255_1_234
10
22.7990403
20
132.3615018
40
0.464401
50
77.0437873
51
90.5081339
0
ARC
8
DEFAULT_255_1_234
10
22.8392405
20
132.5257615
40
0.2953195
50
48.2778575
51
77.4994676
0
ARC
8
DEFAULT_255_1_234
10
22.8465036
20
132.5386746
40
0.2808655
50
36.3142134
51
47.6305865
0
ARC
8
DEFAULT_255_1_234
10
22.7596343
20
132.4801515
40
0.3855453
50
18.2931786
51
35.6769206
0
ARC
8
DEFAULT_255_1_234
10
22.5053102
20
132.3928593
40
0.654423
50
8.024666
51
18.5605216
0
ARC
8
DEFAULT_255_1_234
10
22.0890022
20
132.3313792
40
1.0752407
50
1.1274072
51
8.1718305
0
ARC
8
DEFAULT_255_1_234
10
21.7654213
20
132.3186885
40
1.3990231
50
0.5424119
51
1.3863029
0
ARC
8
DEFAULT_255_1_234
10
21.947559
20
132.3459342
40
1.0682415
50
359.8090433
51
4.9407866
0
ARC
8
DEFAULT_255_1_234
10
22.3685604
20
132.3835113
40
0.6455691
50
4.8362157
51
12.2904523
0
ARC
8
DEFAULT_255_1_234
10
22.6440719
20
132.4448965
40
0.3633074
50
12.0805627
51
23.8173984
0
ARC
8
DEFAULT_255_1_234
10
22.7614425
20
132.4945919
40
0.2358723
50
24.2871213
51
31.3935614
0
ARC
8
DEFAULT_255_1_234
10
22.8139122
20
132.5289233
40
0.1732111
50
30.7407893
51
82.4657128
0
ARC
8
DEFAULT_255_1_234
10
22.7959256
20
132.4405691
40
0.263235
50
81.1060089
51
90.2184952
0
ARC
8
DEFAULT_255_1_234
10
22.7923555
20
132.4663924
40
0.2374236
50
89.3806855
51
105.6762551
0
ARC
8
DEFAULT_255_1_234
10
22.7740186
20
132.5330567
40
0.1682847
50
105.7981136
51
149.7388061
0
ARC
8
DEFAULT_255_1_234
10
22.8804264
20
132.469095
40
0.2924306
50
149.4208916
51
163.6286378
0
ARC
8
DEFAULT_255_1_234
10
23.0895152
20
132.405325
40
0.5110213
50
163.3763315
51
172.1410975
0
ARC
8
DEFAULT_255_1_234
10
23.4195871
20
132.3580518
40
0.8444586
50
172.0259487
51
178.0703232
0
ARC
8
DEFAULT_255_1_234
10
23.722596
20
132.3436906
40
1.1477868
50
177.8631668
51
179.5044149
0
ARC
8
DEFAULT_255_1_234
10
23.6153365
20
132.1122389
40
1.0404907
50
179.7995573
51
185.2460446
0
ARC
8
DEFAULT_255_1_234
10
23.2110404
20
132.0739513
40
0.6343885
50
185.1411642
51
193.0079639
0
ARC
8
DEFAULT_255_1_234
10
22.9466877
20
132.0114641
40
0.3627568
50
192.7897626
51
205.2507664
0
ARC
8
DEFAULT_255_1_234
10
22.8420424
20
131.9647415
40
0.2481908
50
205.8005384
51
211.2537509
0
ARC
8
DEFAULT_255_1_234
10
22.7896864
20
131.929658
40
0.1852521
50
210.3789793
51
238.4008143
0
ARC
8
DEFAULT_255_1_234
10
22.7877386
20
131.9343376
40
0.1882621
50
239.6520629
51
265.9793761
0
ARC
8
DEFAULT_255_1_234
10
22.7962586
20
132.0015427
40
0.2559272
50
265.1315437
51
270.060332
0
ARC
8
DEFAULT_255_1_234
10
22.7991365
20
131.9691534
40
0.2235528
50
269.3314664
51
287.2178029
0
ARC
8
DEFAULT_255_1_234
10
22.8129217
20
131.9188279
40
0.1714108
50
287.7958004
51
329.080874
0
ARC
8
DEFAULT_255_1_234
10
22.7171674
20
131.978593
40
0.2842745
50
328.6634704
51
343.3325132
0
ARC
8
DEFAULT_255_1_234
10
22.4998694
20
132.0462863
40
0.5118644
50
343.0499468
51
351.9393422
0
ARC
8
DEFAULT_255_1_234
10
22.1531994
20
132.0973949
40
0.8622784
50
351.8069023
51
357.7959224
0
ARC
8
DEFAULT_255_1_234
10
21.829655
20
132.1141721
40
1.1862365
50
357.5871873
51
359.2677531
0
LINE
8
DEFAULT_255_1_234
10
23.4479021
20
132.8098211
11
23.7804161
21
131.8452093
0
LINE
8
DEFAULT_255_1_234
10
23.7804161
20
131.8452093
11
24.1145364
21
132.8098211
0
LINE
8
DEFAULT_255_1_234
10
24.1145364
20
132.8098211
11
24.2832029
21
132.8098211
0
LINE
8
DEFAULT_255_1_234
10
24.2832029
20
132.8098211
11
23.849489
21
131.6404
0
LINE
8
DEFAULT_255_1_234
10
23.849489
20
131.6404
11
23.7129495
21
131.6404
0
LINE
8
DEFAULT_255_1_234
10
23.7129495
20
131.6404
11
23.2800388
21
132.8098211
0
LINE
8
DEFAULT_255_1_234
10
23.2800388
20
132.8098211
11
23.4479021
21
132.8098211
0
LINE
8
DEFAULT_255_1_234
10
20.1584911
20
5.2612534
11
20.1584911
21
5.1873614
0
LINE
8
DEFAULT_255_1_234
10
19.2179745
20
5.1769201
11
19.2179745
21
5.2612534
0
LINE
8
DEFAULT_255_1_234
10
20.0050849
20
5.1761169
11
20.0050849
21
5.2628597
0
LINE
8
DEFAULT_255_1_234
10
19.3713807
20
5.273301
11
19.3713807
21
5.1873614
0
ARC
8
DEFAULT_255_1_234
10
19.2942937
20
5.1834015
40
0.8642064
50
350.487711
51
0.2625388
0
ARC
8
DEFAULT_255_1_234
10
19.5236178
20
5.1439578
40
0.631518
50
336.0277639
51
350.5787438
0
ARC
8
DEFAULT_255_1_234
10
19.6581002
20
5.0831892
40
0.4839466
50
319.8877444
51
336.1328423
0
ARC
8
DEFAULT_255_1_234
10
19.7183643
20
5.034958
40
0.4067874
50
302.4806467
51
319.6143626
0
ARC
8
DEFAULT_255_1_234
10
19.7068653
20
5.0571202
40
0.4316636
50
275.8195682
51
302.1884709
0
ARC
8
DEFAULT_255_1_234
10
19.6902286
20
5.1713665
40
0.5470306
50
269.9171439
51
276.3397983
0
ARC
8
DEFAULT_255_1_234
10
19.6857496
20
5.1027681
40
0.4784458
50
252.5219675
51
270.4416499
0
ARC
8
DEFAULT_255_1_234
10
19.6713755
20
5.0488592
40
0.422716
50
237.5352116
51
252.1857531
0
ARC
8
DEFAULT_255_1_234
10
19.6802951
20
5.0602363
40
0.4371052
50
209.063312
51
237.3492538
0
ARC
8
DEFAULT_255_1_234
10
19.7672799
20
5.1148685
40
0.5397041
50
205.1183774
51
209.6470015
0
ARC
8
DEFAULT_255_1_234
10
19.8469836
20
5.148683
40
0.6262326
50
188.7215458
51
204.8240747
0
ARC
8
DEFAULT_255_1_234
10
20.0467364
20
5.1823067
40
0.8287794
50
180.3723947
51
188.9252049
0
ARC
8
DEFAULT_255_1_234
10
20.0440116
20
5.2652402
40
0.8260467
50
169.5253763
51
180.2765336
0
ARC
8
DEFAULT_255_1_234
10
19.8537564
20
5.3002309
40
0.6326007
50
155.8315255
51
169.5089989
0
ARC
8
DEFAULT_255_1_234
10
19.7257066
20
5.3596348
40
0.4914567
50
139.6258461
51
156.0379525
0
ARC
8
DEFAULT_255_1_234
10
19.6667399
20
5.4070799
40
0.4158054
50
122.6416387
51
139.3430715
0
ARC
8
DEFAULT_255_1_234
10
19.6768019
20
5.3887451
40
0.4366739
50
93.0223692
51
122.455762
0
ARC
8
DEFAULT_255_1_234
10
19.6876016
20
5.2922709
40
0.5336137
50
89.975342
51
93.6341897
0
ARC
8
DEFAULT_255_1_234
10
19.6914795
20
5.3321242
40
0.4937738
50
73.746375
51
90.4233405
0
ARC
8
DEFAULT_255_1_234
10
19.7090373
20
5.4001287
40
0.4235786
50
57.662753
51
73.4518111
0
ARC
8
DEFAULT_255_1_234
10
19.708238
20
5.4022832
40
0.4221899
50
29.1440151
51
57.414694
0
ARC
8
DEFAULT_255_1_234
10
19.6147574
20
5.3439005
40
0.5322966
50
24.0982783
51
29.7323517
0
ARC
8
DEFAULT_255_1_234
10
19.511385
20
5.3010399
40
0.6441673
50
8.6655297
51
23.8241346
0
ARC
8
DEFAULT_255_1_234
10
19.2879588
20
5.2645854
40
0.8705386
50
359.7806941
51
8.8218784
0
ARC
8
DEFAULT_255_1_234
10
19.1732586
20
5.2671345
40
0.8318373
50
359.7055579
51
8.036044
0
ARC
8
DEFAULT_255_1_234
10
19.4732592
20
5.3108239
40
0.5286768
50
7.8928306
51
20.2962107
0
ARC
8
DEFAULT_255_1_234
10
19.6360162
20
5.3708395
40
0.3552073
50
20.3231126
51
36.4992797
0
ARC
8
DEFAULT_255_1_234
10
19.7045708
20
5.4236402
40
0.2686974
50
36.1437156
51
85.6627023
0
ARC
8
DEFAULT_255_1_234
10
19.6883254
20
5.3196221
40
0.373739
50
84.3852322
51
90.0757696
0
ARC
8
DEFAULT_255_1_234
10
19.6840927
20
5.3856839
40
0.3076997
50
89.3038458
51
109.9045693
0
ARC
8
DEFAULT_255_1_234
10
19.6748318
20
5.4239062
40
0.2686424
50
110.8228367
51
143.9179474
0
ARC
8
DEFAULT_255_1_234
10
19.7681978
20
5.3526236
40
0.3860887
50
143.5289163
51
163.2980757
0
ARC
8
DEFAULT_255_1_234
10
19.9589799
20
5.2926433
40
0.5860659
50
163.0418846
51
174.3140048
0
ARC
8
DEFAULT_255_1_234
10
20.1993911
20
5.2648854
40
0.8280531
50
174.0509143
51
179.4176892
0
ARC
8
DEFAULT_255_1_234
10
20.148965
20
5.1831954
40
0.7775954
50
179.6930361
51
188.7906598
0
ARC
8
DEFAULT_255_1_234
10
19.8826129
20
5.1405935
40
0.5078633
50
188.6331305
51
202.5629587
0
ARC
8
DEFAULT_255_1_234
10
19.7571721
20
5.0901996
40
0.3726913
50
202.8081362
51
216.1193925
0
ARC
8
DEFAULT_255_1_234
10
19.6762291
20
5.0250676
40
0.2689577
50
215.0755913
51
264.6379694
0
ARC
8
DEFAULT_255_1_234
10
19.688924
20
5.1081513
40
0.3528978
50
263.846392
51
270.0833719
0
ARC
8
DEFAULT_255_1_234
10
19.6930631
20
5.0823374
40
0.3271036
50
269.3649385
51
287.5152008
0
ARC
8
DEFAULT_255_1_234
10
19.7108788
20
5.0176238
40
0.2600406
50
288.0630309
51
323.8113348
0
ARC
8
DEFAULT_255_1_234
10
19.623763
20
5.0826049
40
0.3687189
50
323.6547608
51
342.6590488
0
ARC
8
DEFAULT_255_1_234
10
19.4206245
20
5.1486952
40
0.5823286
50
342.4091907
51
353.6451149
0
ARC
8
DEFAULT_255_1_234
10
19.1374756
20
5.183919
40
0.8676442
50
353.4029884
51
359.4847795
0
LINE
8
DEFAULT_255_1_234
10
21.0580458
20
5.8098211
11
21.2130583
21
5.8098211
0
LINE
8
DEFAULT_255_1_234
10
21.2130583
20
5.8098211
11
21.2130583
21
5.014679
0
LINE
8
DEFAULT_255_1_234
10
20.8291412
20
4.6259429
11
20.7881793
21
4.6243365
0
LINE
8
DEFAULT_255_1_234
10
20.3665131
20
5.0130727
11
20.3665131
21
5.8098211
0
LINE
8
DEFAULT_255_1_234
10
20.3665131
20
5.8098211
11
20.5191161
21
5.8098211
0
LINE
8
DEFAULT_255_1_234
10
20.5191161
20
5.8098211
11
20.5191161
21
5.0178917
0
LINE
8
DEFAULT_255_1_234
10
21.0580458
20
5.0170885
11
21.0580458
21
5.8098211
0
ARC
8
DEFAULT_255_1_234
10
20.7777481
20
5.0126928
40
0.4353147
50
343.0898354
51
0.2614217
0
ARC
8
DEFAULT_255_1_234
10
20.8605883
20
4.9895837
40
0.3493402
50
315.3345598
51
342.7641223
0
ARC
8
DEFAULT_255_1_234
10
20.8382332
20
5.0127682
40
0.3815385
50
284.6606969
51
315.2182466
0
ARC
8
DEFAULT_255_1_234
10
20.7927044
20
5.1673755
40
0.5426573
50
273.8500273
51
285.1797701
0
ARC
8
DEFAULT_255_1_234
10
20.7839095
20
5.2015475
40
0.5772268
50
257.6317484
51
270.4238298
0
ARC
8
DEFAULT_255_1_234
10
20.7414293
20
5.0194198
40
0.3902347
50
230.6087562
51
257.9964012
0
ARC
8
DEFAULT_255_1_234
10
20.7282295
20
4.9987802
40
0.3659186
50
227.7440991
51
230.1551448
0
ARC
8
DEFAULT_255_1_234
10
20.7148127
20
4.9826471
40
0.3449568
50
189.2524587
51
227.5916061
0
ARC
8
DEFAULT_255_1_234
10
20.8669813
20
5.0154013
40
0.5004737
50
180.2665968
51
190.1525252
0
ARC
8
DEFAULT_255_1_234
10
20.8891833
20
5.0150918
40
0.3700778
50
179.5665184
51
191.9952995
0
ARC
8
DEFAULT_255_1_234
10
20.7663939
20
4.9877043
40
0.2442808
50
191.6974072
51
215.1404042
0
ARC
8
DEFAULT_255_1_234
10
20.7425854
20
4.9735108
40
0.2166522
50
215.6950207
51
224.8513522
0
ARC
8
DEFAULT_255_1_234
10
20.7481598
20
4.9814697
40
0.2262237
50
225.2846858
51
255.0111758
0
ARC
8
DEFAULT_255_1_234
10
20.7805558
20
5.0928455
40
0.3421979
50
254.5944985
51
267.9129803
0
ARC
8
DEFAULT_255_1_234
10
20.7880038
20
5.2012903
40
0.4508556
50
267.4689655
51
270.0223026
0
ARC
8
DEFAULT_255_1_234
10
20.7910184
20
5.1423849
40
0.3919604
50
269.5849941
51
281.1843768
0
ARC
8
DEFAULT_255_1_234
10
20.8188948
20
5.0071059
40
0.2538457
50
280.9344262
51
300.9743589
0
ARC
8
DEFAULT_255_1_234
10
20.8401554
20
4.9679688
40
0.2093566
50
301.4980046
51
315.1466847
0
ARC
8
DEFAULT_255_1_234
10
20.8257092
20
4.9798236
40
0.2279656
50
315.5952539
51
345.6678731
0
ARC
8
DEFAULT_255_1_234
10
20.7137609
20
5.0110009
40
0.3441564
50
345.2524969
51
358.6304371
0
ARC
8
DEFAULT_255_1_234
10
20.6119963
20
5.0169916
40
0.4460494
50
358.1735671
51
0.0124524
0
LINE
8
DEFAULT_255_1_234
10
22.2644128
20
5.8098211
11
22.2644128
21
5.6829196
0
LINE
8
DEFAULT_255_1_234
10
22.2644128
20
5.6829196
11
21.8885275
21
5.6829196
0
LINE
8
DEFAULT_255_1_234
10
21.8885275
20
5.6829196
11
21.8885275
21
4.6404
0
LINE
8
DEFAULT_255_1_234
10
21.8885275
20
4.6404
11
21.7351213
21
4.6404
0
LINE
8
DEFAULT_255_1_234
10
21.7351213
20
4.6404
11
21.7351213
21
5.6829196
0
LINE
8
DEFAULT_255_1_234
10
21.7351213
20
5.6829196
11
21.3600391
21
5.6829196
0
LINE
8
DEFAULT_255_1_234
10
21.3600391
20
5.6829196
11
21.3600391
21
5.8098211
0
LINE
8
DEFAULT_255_1_234
10
21.3600391
20
5.8098211
11
22.2644128
21
5.8098211
0
LINE
8
DEFAULT_255_1_234
10
22.8876757
20
5.8154433
11
22.8876757
21
4.6404
0
LINE
8
DEFAULT_255_1_234
10
22.8876757
20
4.6404
11
22.7382854
21
4.6404
0
LINE
8
DEFAULT_255_1_234
10
22.7382854
20
4.6404
11
22.7382854
21
5.6307133
0
LINE
8
DEFAULT_255_1_234
10
22.7382854
20
5.6307133
11
22.4387016
21
5.5206785
0
LINE
8
DEFAULT_255_1_234
10
22.4387016
20
5.5206785
11
22.4387016
21
5.6556117
0
LINE
8
DEFAULT_255_1_234
10
22.4387016
20
5.6556117
11
22.8643837
21
5.8154433
0
LINE
8
DEFAULT_255_1_234
10
22.8643837
20
5.8154433
11
22.8876757
21
5.8154433
0
LINE
8
DEFAULT_255_1_234
10
23.8795954
20
5.8106243
11
23.9061001
21
5.8106243
0
LINE
8
DEFAULT_255_1_234
10
23.9061001
20
5.8106243
11
23.9061001
21
5.684526
0
LINE
8
DEFAULT_255_1_234
10
23.9061001
20
5.684526
11
23.8787922
21
5.684526
0
LINE
8
DEFAULT_255_1_234
10
23.3318309
20
5.0853583
11
23.3318309
21
5.1423836
0
LINE
8
DEFAULT_255_1_234
10
23.4812212
20
5.1231075
11
23.4812212
21
5.0684917
0
ARC
8
DEFAULT_255_1_234
10
23.884027
20
5.1847455
40
0.4998079
50
90.6001036
51
104.514704
0
ARC
8
DEFAULT_255_1_234
10
23.8451786
20
5.3292131
40
0.3502176
50
104.2855254
51
133.862935
0
ARC
8
DEFAULT_255_1_234
10
23.8615543
20
5.318383
40
0.3693984
50
134.5302688
51
161.6210873
0
ARC
8
DEFAULT_255_1_234
10
24.0268732
20
5.2600895
40
0.5446739
50
161.2849839
51
174.2076652
0
ARC
8
DEFAULT_255_1_234
10
24.1675669
20
5.2406787
40
0.6866274
50
173.7810589
51
174.9254635
0
ARC
8
DEFAULT_255_1_234
10
23.7125501
20
5.1023839
40
0.3033419
50
95.8330959
51
138.9954921
0
ARC
8
DEFAULT_255_1_234
10
23.7348857
20
4.9745375
40
0.4328947
50
89.8753725
51
97.0544009
0
ARC
8
DEFAULT_255_1_234
10
23.7396323
20
5.0580748
40
0.3493769
50
71.6407809
51
90.6240094
0
ARC
8
DEFAULT_255_1_234
10
23.7546896
20
5.1135082
40
0.2920396
50
39.6367836
51
71.019018
0
ARC
8
DEFAULT_255_1_234
10
23.6910369
20
5.0584998
40
0.3761538
50
10.658731
51
39.9043955
0
ARC
8
DEFAULT_255_1_234
10
23.5362452
20
5.0248686
40
0.5345136
50
359.682601
51
11.132623
0
ARC
8
DEFAULT_255_1_234
10
23.5322583
20
5.017801
40
0.5385081
50
347.2486944
51
0.4369317
0
ARC
8
DEFAULT_255_1_234
10
23.699006
20
4.9776807
40
0.3670249
50
318.1409698
51
347.6118597
0
ARC
8
DEFAULT_255_1_234
10
23.7315053
20
4.9509702
40
0.3250007
50
275.6342139
51
317.8248465
0
ARC
8
DEFAULT_255_1_234
10
23.7094165
20
5.0809219
40
0.4565864
50
269.8874292
51
276.7917694
0
ARC
8
DEFAULT_255_1_234
10
23.7039235
20
4.9783743
40
0.3540676
50
246.9140195
51
270.7437342
0
ARC
8
DEFAULT_255_1_234
10
23.7045625
20
4.9641384
40
0.3412781
50
218.1665114
51
245.878116
0
ARC
8
DEFAULT_255_1_234
10
23.7925086
20
5.0377279
40
0.455911
50
191.4115814
51
218.6077802
0
ARC
8
DEFAULT_255_1_234
10
23.9863175
20
5.0811833
40
0.6545001
50
179.6345085
51
191.7836486
0
ARC
8
DEFAULT_255_1_234
10
24.5445512
20
5.1490697
40
1.2127388
50
171.4525249
51
180.3158839
0
ARC
8
DEFAULT_255_1_234
10
24.1050388
20
5.2174608
40
0.7679464
50
157.9802646
51
171.6246686
0
ARC
8
DEFAULT_255_1_234
10
23.8836409
20
5.3057421
40
0.5296008
50
141.4298019
51
157.854097
0
ARC
8
DEFAULT_255_1_234
10
23.819473
20
5.3511381
40
0.4511509
50
102.8715806
51
140.8564722
0
ARC
8
DEFAULT_255_1_234
10
23.8842345
20
5.1071552
40
0.7034845
50
90.3778349
51
103.5869322
0
ARC
8
DEFAULT_255_1_234
10
23.7104121
20
5.046673
40
0.2370698
50
89.8751008
51
126.2071704
0
ARC
8
DEFAULT_255_1_234
10
23.7149911
20
5.0312303
40
0.2522934
50
124.9745049
51
144.895901
0
ARC
8
DEFAULT_255_1_234
10
23.6974102
20
5.045556
40
0.2296779
50
145.2974905
51
160.2660252
0
ARC
8
DEFAULT_255_1_234
10
24.004664
20
5.0653071
40
0.5234525
50
179.6514266
51
190.2855912
0
ARC
8
DEFAULT_255_1_234
10
23.8352778
20
5.0333786
40
0.3510893
50
190.0945431
51
207.5098196
0
ARC
8
DEFAULT_255_1_234
10
23.7787047
20
5.0064623
40
0.288489
50
207.9583163
51
216.3251085
0
ARC
8
DEFAULT_255_1_234
10
23.7447155
20
4.9785105
40
0.2445587
50
215.7661442
51
232.5456785
0
ARC
8
DEFAULT_255_1_234
10
23.7064138
20
4.9298482
40
0.1826382
50
232.8005391
51
270.6605633
0
ARC
8
DEFAULT_255_1_234
10
23.7109839
20
4.9662612
40
0.2190529
50
269.35537
51
288.4744281
0
ARC
8
DEFAULT_255_1_234
10
23.7202736
20
4.9313118
40
0.1829749
50
289.1833337
51
322.9683818
0
ARC
8
DEFAULT_255_1_234
10
23.6591258
20
4.9795391
40
0.2608399
50
322.6007884
51
346.5182367
0
ARC
8
DEFAULT_255_1_234
10
23.5433854
20
5.0090616
40
0.3802777
50
346.2582162
51
358.7741648
0
ARC
8
DEFAULT_255_1_234
10
23.4415523
20
5.0145965
40
0.4822176
50
358.3755224
51
0.0098023
0
ARC
8
DEFAULT_255_1_234
10
23.517171
20
5.0173657
40
0.4066078
50
359.6214041
51
11.2839074
0
ARC
8
DEFAULT_255_1_234
10
23.6448857
20
5.0440066
40
0.2761514
50
11.0482309
51
31.8146458
0
ARC
8
DEFAULT_255_1_234
10
23.67579
20
5.0607584
40
0.2410679
50
32.3035391
51
38.082671
0
ARC
8
DEFAULT_255_1_234
10
23.717856
20
5.0988662
40
0.1844966
50
36.825067
51
85.7415724
0
ARC
8
DEFAULT_255_1_234
10
23.7111393
20
5.0488301
40
0.2349122
50
85.0140713
51
90.0513278
0
LINE
8
DEFAULT_255_1_234
10
20.1584911
20
13.1987534
11
20.1584911
21
13.1248614
0
LINE
8
DEFAULT_255_1_234
10
19.2179745
20
13.1144201
11
19.2179745
21
13.1987534
0
LINE
8
DEFAULT_255_1_234
10
20.0050849
20
13.1136169
11
20.0050849
21
13.2003597
0
LINE
8
DEFAULT_255_1_234
10
19.3713807
20
13.210801
11
19.3713807
21
13.1248614
0
ARC
8
DEFAULT_255_1_234
10
19.2942937
20
13.1209015
40
0.8642064
50
350.487711
51
0.2625388
0
ARC
8
DEFAULT_255_1_234
10
19.5236178
20
13.0814578
40
0.631518
50
336.0277639
51
350.5787438
0
ARC
8
DEFAULT_255_1_234
10
19.6581002
20
13.0206892
40
0.4839466
50
319.8877444
51
336.1328423
0
ARC
8
DEFAULT_255_1_234
10
19.7183643
20
12.972458
40
0.4067874
50
302.4806467
51
319.6143626
0
ARC
8
DEFAULT_255_1_234
10
19.7068653
20
12.9946202
40
0.4316636
50
275.8195682
51
302.1884709
0
ARC
8
DEFAULT_255_1_234
10
19.6902286
20
13.1088665
40
0.5470306
50
269.9171439
51
276.3397983
0
ARC
8
DEFAULT_255_1_234
10
19.6857496
20
13.0402681
40
0.4784458
50
252.5219675
51
270.4416499
0
ARC
8
DEFAULT_255_1_234
10
19.6713755
20
12.9863592
40
0.422716
50
237.5352116
51
252.1857531
0
ARC
8
DEFAULT_255_1_234
10
19.6802951
20
12.9977363
40
0.4371052
50
209.063312
51
237.3492538
0
ARC
8
DEFAULT_255_1_234
10
19.7672799
20
13.0523685
40
0.5397041
50
205.1183774
51
209.6470015
0
ARC
8
DEFAULT_255_1_234
10
19.8469836
20
13.086183
40
0.6262326
50
188.7215458
51
204.8240747
0
ARC
8
DEFAULT_255_1_234
10
20.0467364
20
13.1198067
40
0.8287794
50
180.3723947
51
188.9252049
0
ARC
8
DEFAULT_255_1_234
10
20.0440116
20
13.2027402
40
0.8260467
50
169.5253763
51
180.2765336
0
ARC
8
DEFAULT_255_1_234
10
19.8537564
20
13.2377309
40
0.6326007
50
155.8315255
51
169.5089989
0
ARC
8
DEFAULT_255_1_234
10
19.7257066
20
13.2971348
40
0.4914567
50
139.6258461
51
156.0379525
0
ARC
8
DEFAULT_255_1_234
10
19.6667399
20
13.3445799
40
0.4158054
50
122.6416387
51
139.3430715
0
ARC
8
DEFAULT_255_1_234
10
19.6768019
20
13.3262451
40
0.4366739
50
93.0223692
51
122.455762
0
ARC
8
DEFAULT_255_1_234
10
19.6876016
20
13.2297709
40
0.5336137
50
89.975342
51
93.6341897
0
ARC
8
DEFAULT_255_1_234
10
19.6914795
20
13.2696242
40
0.4937738
50
73.746375
51
90.4233405
0
ARC
8
DEFAULT_255_1_234
10
19.7090373
20
13.3376287
40
0.4235786
50
57.662753
51
73.4518111
0
ARC
8
DEFAULT_255_1_234
10
19.708238
20
13.3397832
40
0.4221899
50
29.1440151
51
57.414694
0
ARC
8
DEFAULT_255_1_234
10
19.6147574
20
13.2814005
40
0.5322966
50
24.0982783
51
29.7323517
0
ARC
8
DEFAULT_255_1_234
10
19.511385
20
13.2385399
40
0.6441673
50
8.6655297
51
23.8241346
0
ARC
8
DEFAULT_255_1_234
10
19.2879588
20
13.2020854
40
0.8705386
50
359.7806941
51
8.8218784
0
ARC
8
DEFAULT_255_1_234
10
19.1732586
20
13.2046345
40
0.8318373
50
359.7055579
51
8.036044
0
ARC
8
DEFAULT_255_1_234
10
19.4732592
20
13.2483239
40
0.5286768
50
7.8928306
51
20.2962107
0
ARC
8
DEFAULT_255_1_234
10
19.6360162
20
13.3083395
40
0.3552073
50
20.3231126
51
36.4992797
0
ARC
8
DEFAULT_255_1_234
10
19.7045708
20
13.3611402
40
0.2686974
50
36.1437156
51
85.6627023
0
ARC
8
DEFAULT_255_1_234
10
19.6883254
20
13.2571221
40
0.373739
50
84.3852322
51
90.0757696
0
ARC
8
DEFAULT_255_1_234
10
19.6840927
20
13.3231839
40
0.3076997
50
89.3038458
51
109.9045693
0
ARC
8
DEFAULT_255_1_234
10
19.6748318
20
13.3614062
40
0.2686424
50
110.8228367
51
143.9179474
0
ARC
8
DEFAULT_255_1_234
10
19.7681978
20
13.2901236
40
0.3860887
50
143.5289163
51
163.2980757
0
ARC
8
DEFAULT_255_1_234
10
19.9589799
20
13.2301433
40
0.5860659
50
163.0418846
51
174.3140048
0
ARC
8
DEFAULT_255_1_234
10
20.1993911
20
13.2023854
40
0.8280531
50
174.0509143
51
179.4176892
0
ARC
8
DEFAULT_255_1_234
10
20.148965
20
13.1206954
40
0.7775954
50
179.6930361
51
188.7906598
0
ARC
8
DEFAULT_255_1_234
10
19.8826129
20
13.0780935
40
0.5078633
50
188.6331305
51
202.5629587
0
ARC
8
DEFAULT_255_1_234
10
19.7571721
20
13.0276996
40
0.3726913
50
202.8081362
51
216.1193925
0
ARC
8
DEFAULT_255_1_234
10
19.6762291
20
12.9625676
40
0.2689577
50
215.0755913
51
264.6379694
0
ARC
8
DEFAULT_255_1_234
10
19.688924
20
13.0456513
40
0.3528978
50
263.846392
51
270.0833719
0
ARC
8
DEFAULT_255_1_234
10
19.6930631
20
13.0198374
40
0.3271036
50
269.3649385
51
287.5152008
0
ARC
8
DEFAULT_255_1_234
10
19.7108788
20
12.9551238
40
0.2600406
50
288.0630309
51
323.8113348
0
ARC
8
DEFAULT_255_1_234
10
19.623763
20
13.0201049
40
0.3687189
50
323.6547608
51
342.6590488
0
ARC
8
DEFAULT_255_1_234
10
19.4206245
20
13.0861952
40
0.5823286
50
342.4091907
51
353.6451149
0
ARC
8
DEFAULT_255_1_234
10
19.1374756
20
13.121419
40
0.8676442
50
353.4029884
51
359.4847795
0
LINE
8
DEFAULT_255_1_234
10
21.0580458
20
13.7473211
11
21.2130583
21
13.7473211
0
LINE
8
DEFAULT_255_1_234
10
21.2130583
20
13.7473211
11
21.2130583
21
12.952179
0
LINE
8
DEFAULT_255_1_234
10
20.8291412
20
12.5634429
11
20.7881793
21
12.5618365
0
LINE
8
DEFAULT_255_1_234
10
20.3665131
20
12.9505727
11
20.3665131
21
13.7473211
0
LINE
8
DEFAULT_255_1_234
10
20.3665131
20
13.7473211
11
20.5191161
21
13.7473211
0
LINE
8
DEFAULT_255_1_234
10
20.5191161
20
13.7473211
11
20.5191161
21
12.9553917
0
LINE
8
DEFAULT_255_1_234
10
21.0580458
20
12.9545885
11
21.0580458
21
13.7473211
0
ARC
8
DEFAULT_255_1_234
10
20.7777481
20
12.9501928
40
0.4353147
50
343.0898354
51
0.2614217
0
ARC
8
DEFAULT_255_1_234
10
20.8605883
20
12.9270837
40
0.3493402
50
315.3345598
51
342.7641223
0
ARC
8
DEFAULT_255_1_234
10
20.8382332
20
12.9502682
40
0.3815385
50
284.6606969
51
315.2182466
0
ARC
8
DEFAULT_255_1_234
10
20.7927044
20
13.1048755
40
0.5426573
50
273.8500273
51
285.1797701
0
ARC
8
DEFAULT_255_1_234
10
20.7839095
20
13.1390475
40
0.5772268
50
257.6317484
51
270.4238298
0
ARC
8
DEFAULT_255_1_234
10
20.7414293
20
12.9569198
40
0.3902347
50
230.6087562
51
257.9964012
0
ARC
8
DEFAULT_255_1_234
10
20.7282295
20
12.9362802
40
0.3659186
50
227.7440991
51
230.1551448
0
ARC
8
DEFAULT_255_1_234
10
20.7148127
20
12.9201471
40
0.3449568
50
189.2524587
51
227.5916061
0
ARC
8
DEFAULT_255_1_234
10
20.8669813
20
12.9529013
40
0.5004737
50
180.2665968
51
190.1525252
0
ARC
8
DEFAULT_255_1_234
10
20.8891833
20
12.9525918
40
0.3700778
50
179.5665184
51
191.9952995
0
ARC
8
DEFAULT_255_1_234
10
20.7663939
20
12.9252043
40
0.2442808
50
191.6974072
51
215.1404042
0
ARC
8
DEFAULT_255_1_234
10
20.7425854
20
12.9110108
40
0.2166522
50
215.6950207
51
224.8513522
0
ARC
8
DEFAULT_255_1_234
10
20.7481598
20
12.9189697
40
0.2262237
50
225.2846858
51
255.0111758
0
ARC
8
DEFAULT_255_1_234
10
20.7805558
20
13.0303455
40
0.3421979
50
254.5944985
51
267.9129803
0
ARC
8
DEFAULT_255_1_234
10
20.7880038
20
13.1387903
40
0.4508556
50
267.4689655
51
270.0223026
0
ARC
8
DEFAULT_255_1_234
10
20.7910184
20
13.0798849
40
0.3919604
50
269.5849941
51
281.1843768
0
ARC
8
DEFAULT_255_1_234
10
20.8188948
20
12.9446059
40
0.2538457
50
280.9344262
51
300.9743589
0
ARC
8
DEFAULT_255_1_234
10
20.8401554
20
12.9054688
40
0.2093566
50
301.4980046
51
315.1466847
0
ARC
8
DEFAULT_255_1_234
10
20.8257092
20
12.9173236
40
0.2279656
50
315.5952539
51
345.6678731
0
ARC
8
DEFAULT_255_1_234
10
20.7137609
20
12.9485009
40
0.3441564
50
345.2524969
51
358.6304371
0
ARC
8
DEFAULT_255_1_234
10
20.6119963
20
12.9544916
40
0.4460494
50
358.1735671
51
0.0124524
0
LINE
8
DEFAULT_255_1_234
10
22.2644128
20
13.7473211
11
22.2644128
21
13.6204196
0
LINE
8
DEFAULT_255_1_234
10
22.2644128
20
13.6204196
11
21.8885275
21
13.6204196
0
LINE
8
DEFAULT_255_1_234
10
21.8885275
20
13.6204196
11
21.8885275
21
12.5779
0
LINE
8
DEFAULT_255_1_234
10
21.8885275
20
12.5779
11
21.7351213
21
12.5779
0
LINE
8
DEFAULT_255_1_234
10
21.7351213
20
12.5779
11
21.7351213
21
13.6204196
0
LINE
8
DEFAULT_255_1_234
10
21.7351213
20
13.6204196
11
21.3600391
21
13.6204196
0
LINE
8
DEFAULT_255_1_234
10
21.3600391
20
13.6204196
11
21.3600391
21
13.7473211
0
LINE
8
DEFAULT_255_1_234
10
21.3600391
20
13.7473211
11
22.2644128
21
13.7473211
0
LINE
8
DEFAULT_255_1_234
10
22.8876757
20
13.7529433
11
22.8876757
21
12.5779
0
LINE
8
DEFAULT_255_1_234
10
22.8876757
20
12.5779
11
22.7382854
21
12.5779
0
LINE
8
DEFAULT_255_1_234
10
22.7382854
20
12.5779
11
22.7382854
21
13.5682133
0
LINE
8
DEFAULT_255_1_234
10
22.7382854
20
13.5682133
11
22.4387016
21
13.4581785
0
LINE
8
DEFAULT_255_1_234
10
22.4387016
20
13.4581785
11
22.4387016
21
13.5931117
0
LINE
8
DEFAULT_255_1_234
10
22.4387016
20
13.5931117
11
22.8643837
21
13.7529433
0
LINE
8
DEFAULT_255_1_234
10
22.8643837
20
13.7529433
11
22.8876757
21
13.7529433
0
LINE
8
DEFAULT_255_1_234
10
23.5101354
20
13.1336963
11
23.3912657
21
13.1642169
0
LINE
8
DEFAULT_255_1_234
10
23.3912657
20
13.1642169
11
23.4507006
21
13.7473211
0
LINE
8
DEFAULT_255_1_234
10
23.4507006
20
13.7473211
11
24.0498683
21
13.7473211
0
LINE
8
DEFAULT_255_1_234
10
24.0498683
20
13.7473211
11
24.0498683
21
13.6099784
0
LINE
8
DEFAULT_255_1_234
10
24.0498683
20
13.6099784
11
23.5767989
21
13.6099784
0
LINE
8
DEFAULT_255_1_234
10
23.5767989
20
13.6099784
11
23.5414592
21
13.2911184
0
LINE
8
DEFAULT_255_1_234
10
23.3495007
20
12.8855156
11
23.4900561
21
12.8855156
0
LINE
8
DEFAULT_255_1_234
10
23.549491
20
13.1658232
11
23.5101354
21
13.1336963
0
ARC
8
DEFAULT_255_1_234
10
23.7269376
20
12.973123
40
0.3681349
50
93.7182161
51
120.2538958
0
ARC
8
DEFAULT_255_1_234
10
23.7363639
20
12.8923394
40
0.449379
50
89.9660152
51
94.2496022
0
ARC
8
DEFAULT_255_1_234
10
23.7404373
20
12.9512549
40
0.390482
50
73.8043271
51
90.5585896
0
ARC
8
DEFAULT_255_1_234
10
23.763927
20
13.0370602
40
0.3015334
50
41.3071453
51
73.5430202
0
ARC
8
DEFAULT_255_1_234
10
23.7223097
20
13.0012324
40
0.3564457
50
13.5075983
51
41.2174222
0
ARC
8
DEFAULT_255_1_234
10
23.5581301
20
12.9582486
40
0.5261351
50
1.1331335
51
13.8829381
0
ARC
8
DEFAULT_255_1_234
10
23.416967
20
12.9506665
40
0.6674378
50
359.9919444
51
1.544251
0
ARC
8
DEFAULT_255_1_234
10
23.5446496
20
12.946528
40
0.5397702
50
347.8572367
51
0.4293338
0
ARC
8
DEFAULT_255_1_234
10
23.7196814
20
12.9068736
40
0.3603188
50
323.673004
51
348.1672506
0
ARC
8
DEFAULT_255_1_234
10
23.7491322
20
12.8889168
40
0.3259678
50
316.8171152
51
323.1492751
0
ARC
8
DEFAULT_255_1_234
10
23.7552511
20
12.885246
40
0.3189975
50
281.8396411
51
316.5457803
0
ARC
8
DEFAULT_255_1_234
10
23.7176775
20
13.0407762
40
0.4789527
50
269.5770101
51
282.4214771
0
ARC
8
DEFAULT_255_1_234
10
23.7105587
20
13.0194125
40
0.45759
50
256.2427136
51
270.4486331
0
ARC
8
DEFAULT_255_1_234
10
23.6806489
20
12.8994229
40
0.3339303
50
228.9023911
51
256.3314342
0
ARC
8
DEFAULT_255_1_234
10
23.6732721
20
12.8877746
40
0.32031
50
193.753695
51
228.5271154
0
ARC
8
DEFAULT_255_1_234
10
23.7970675
20
12.92408
40
0.4492253
50
184.924711
51
194.497588
0
ARC
8
DEFAULT_255_1_234
10
23.8163242
20
12.9276591
40
0.3289787
50
187.3600538
51
198.6732863
0
ARC
8
DEFAULT_255_1_234
10
23.7113536
20
12.8912674
40
0.217884
50
198.4451669
51
217.794479
0
ARC
8
DEFAULT_255_1_234
10
23.6817711
20
12.8703085
40
0.1816698
50
218.2887171
51
228.5612368
0
ARC
8
DEFAULT_255_1_234
10
23.6915498
20
12.8834963
40
0.1980329
50
228.9654866
51
258.1234728
0
ARC
8
DEFAULT_255_1_234
10
23.7121208
20
12.9715833
40
0.2884748
50
257.7258293
51
270.401361
0
ARC
8
DEFAULT_255_1_234
10
23.7166095
20
12.9270821
40
0.2439788
50
269.4204404
51
286.4209037
0
ARC
8
DEFAULT_255_1_234
10
23.7314582
20
12.8731657
40
0.1880666
50
286.7251356
51
320.600362
0
ARC
8
DEFAULT_255_1_234
10
23.6931407
20
12.9042595
40
0.2374121
50
320.6712579
51
344.5441685
0
ARC
8
DEFAULT_255_1_234
10
23.5774733
20
12.9382045
40
0.3579479
50
344.2412205
51
356.7357071
0
ARC
8
DEFAULT_255_1_234
10
23.4525882
20
12.9485444
40
0.4832297
50
356.3548756
51
0.0500261
0
ARC
8
DEFAULT_255_1_234
10
23.5862391
20
12.951665
40
0.3495889
50
359.5576869
51
12.953486
0
ARC
8
DEFAULT_255_1_234
10
23.6917288
20
12.9772434
40
0.2410532
50
12.6490276
51
41.6081334
0
ARC
8
DEFAULT_255_1_234
10
23.7147659
20
12.9968321
40
0.2108218
50
41.7850273
51
85.9892764
0
ARC
8
DEFAULT_255_1_234
10
23.7024396
20
12.9155462
40
0.2928454
50
84.6957577
51
90.0676183
0
ARC
8
DEFAULT_255_1_234
10
23.700088
20
12.8486716
40
0.3597255
50
89.6804936
51
99.1614436
0
ARC
8
DEFAULT_255_1_234
10
23.6795511
20
12.9714131
40
0.235281
50
98.9830931
51
113.8908934
0
ARC
8
DEFAULT_255_1_234
10
23.6565921
20
13.0255587
40
0.176479
50
114.1950727
51
127.3641004
0
LINE
8
DEFAULT_255_1_234
10
20.0525911
20
21.1362534
11
20.0525911
21
21.0623614
0
LINE
8
DEFAULT_255_1_234
10
19.1120745
20
21.0519201
11
19.1120745
21
21.1362534
0
LINE
8
DEFAULT_255_1_234
10
19.8991849
20
21.0511169
11
19.8991849
21
21.1378597
0
LINE
8
DEFAULT_255_1_234
10
19.2654807
20
21.148301
11
19.2654807
21
21.0623614
0
ARC
8
DEFAULT_255_1_234
10
19.1883937
20
21.0584015
40
0.8642064
50
350.487711
51
0.2625388
0
ARC
8
DEFAULT_255_1_234
10
19.4177178
20
21.0189578
40
0.631518
50
336.0277639
51
350.5787438
0
ARC
8
DEFAULT_255_1_234
10
19.5522002
20
20.9581892
40
0.4839466
50
319.8877444
51
336.1328423
0
ARC
8
DEFAULT_255_1_234
10
19.6124643
20
20.909958
40
0.4067874
50
302.4806467
51
319.6143626
0
ARC
8
DEFAULT_255_1_234
10
19.6009653
20
20.9321202
40
0.4316636
50
275.8195682
51
302.1884709
0
ARC
8
DEFAULT_255_1_234
10
19.5843286
20
21.0463665
40
0.5470306
50
269.9171439
51
276.3397983
0
ARC
8
DEFAULT_255_1_234
10
19.5798496
20
20.9777681
40
0.4784458
50
252.5219675
51
270.4416499
0
ARC
8
DEFAULT_255_1_234
10
19.5654755
20
20.9238592
40
0.422716
50
237.5352116
51
252.1857531
0
ARC
8
DEFAULT_255_1_234
10
19.5743951
20
20.9352363
40
0.4371052
50
209.063312
51
237.3492538
0
ARC
8
DEFAULT_255_1_234
10
19.6613799
20
20.9898685
40
0.5397041
50
205.1183774
51
209.6470015
0
ARC
8
DEFAULT_255_1_234
10
19.7410836
20
21.023683
40
0.6262326
50
188.7215458
51
204.8240747
0
ARC
8
DEFAULT_255_1_234
10
19.9408364
20
21.0573067
40
0.8287794
50
180.3723947
51
188.9252049
0
ARC
8
DEFAULT_255_1_234
10
19.9381116
20
21.1402402
40
0.8260467
50
169.5253763
51
180.2765336
0
ARC
8
DEFAULT_255_1_234
10
19.7478564
20
21.1752309
40
0.6326007
50
155.8315255
51
169.5089989
0
ARC
8
DEFAULT_255_1_234
10
19.6198066
20
21.2346348
40
0.4914567
50
139.6258461
51
156.0379525
0
ARC
8
DEFAULT_255_1_234
10
19.5608399
20
21.2820799
40
0.4158054
50
122.6416387
51
139.3430715
0
ARC
8
DEFAULT_255_1_234
10
19.5709019
20
21.2637451
40
0.4366739
50
93.0223692
51
122.455762
0
ARC
8
DEFAULT_255_1_234
10
19.5817016
20
21.1672709
40
0.5336137
50
89.975342
51
93.6341897
0
ARC
8
DEFAULT_255_1_234
10
19.5855795
20
21.2071242
40
0.4937738
50
73.746375
51
90.4233405
0
ARC
8
DEFAULT_255_1_234
10
19.6031373
20
21.2751287
40
0.4235786
50
57.662753
51
73.4518111
0
ARC
8
DEFAULT_255_1_234
10
19.602338
20
21.2772832
40
0.4221899
50
29.1440151
51
57.414694
0
ARC
8
DEFAULT_255_1_234
10
19.5088574
20
21.2189005
40
0.5322966
50
24.0982783
51
29.7323517
0
ARC
8
DEFAULT_255_1_234
10
19.405485
20
21.1760399
40
0.6441673
50
8.6655297
51
23.8241346
0
ARC
8
DEFAULT_255_1_234
10
19.1820588
20
21.1395854
40
0.8705386
50
359.7806941
51
8.8218784
0
ARC
8
DEFAULT_255_1_234
10
19.0673586
20
21.1421345
40
0.8318373
50
359.7055579
51
8.036044
0
ARC
8
DEFAULT_255_1_234
10
19.3673592
20
21.1858239
40
0.5286768
50
7.8928306
51
20.2962107
0
ARC
8
DEFAULT_255_1_234
10
19.5301162
20
21.2458395
40
0.3552073
50
20.3231126
51
36.4992797
0
ARC
8
DEFAULT_255_1_234
10
19.5986708
20
21.2986402
40
0.2686974
50
36.1437156
51
85.6627023
0
ARC
8
DEFAULT_255_1_234
10
19.5824254
20
21.1946221
40
0.373739
50
84.3852322
51
90.0757696
0
ARC
8
DEFAULT_255_1_234
10
19.5781927
20
21.2606839
40
0.3076997
50
89.3038458
51
109.9045693
0
ARC
8
DEFAULT_255_1_234
10
19.5689318
20
21.2989062
40
0.2686424
50
110.8228367
51
143.9179474
0
ARC
8
DEFAULT_255_1_234
10
19.6622978
20
21.2276236
40
0.3860887
50
143.5289163
51
163.2980757
0
ARC
8
DEFAULT_255_1_234
10
19.8530799
20
21.1676433
40
0.5860659
50
163.0418846
51
174.3140048
0
ARC
8
DEFAULT_255_1_234
10
20.0934911
20
21.1398854
40
0.8280531
50
174.0509143
51
179.4176892
0
ARC
8
DEFAULT_255_1_234
10
20.043065
20
21.0581954
40
0.7775954
50
179.6930361
51
188.7906598
0
ARC
8
DEFAULT_255_1_234
10
19.7767129
20
21.0155935
40
0.5078633
50
188.6331305
51
202.5629587
0
ARC
8
DEFAULT_255_1_234
10
19.6512721
20
20.9651996
40
0.3726913
50
202.8081362
51
216.1193925
0
ARC
8
DEFAULT_255_1_234
10
19.5703291
20
20.9000676
40
0.2689577
50
215.0755913
51
264.6379694
0
ARC
8
DEFAULT_255_1_234
10
19.583024
20
20.9831513
40
0.3528978
50
263.846392
51
270.0833719
0
ARC
8
DEFAULT_255_1_234
10
19.5871631
20
20.9573374
40
0.3271036
50
269.3649385
51
287.5152008
0
ARC
8
DEFAULT_255_1_234
10
19.6049788
20
20.8926238
40
0.2600406
50
288.0630309
51
323.8113348
0
ARC
8
DEFAULT_255_1_234
10
19.517863
20
20.9576049
40
0.3687189
50
323.6547608
51
342.6590488
0
ARC
8
DEFAULT_255_1_234
10
19.3147245
20
21.0236952
40
0.5823286
50
342.4091907
51
353.6451149
0
ARC
8
DEFAULT_255_1_234
10
19.0315756
20
21.058919
40
0.8676442
50
353.4029884
51
359.4847795
0
LINE
8
DEFAULT_255_1_234
10
20.9521458
20
21.6848211
11
21.1071583
21
21.6848211
0
LINE
8
DEFAULT_255_1_234
10
21.1071583
20
21.6848211
11
21.1071583
21
20.889679
0
LINE
8
DEFAULT_255_1_234
10
20.7232412
20
20.5009429
11
20.6822793
21
20.4993365
0
LINE
8
DEFAULT_255_1_234
10
20.2606131
20
20.8880727
11
20.2606131
21
21.6848211
0
LINE
8
DEFAULT_255_1_234
10
20.2606131
20
21.6848211
11
20.4132161
21
21.6848211
0
LINE
8
DEFAULT_255_1_234
10
20.4132161
20
21.6848211
11
20.4132161
21
20.8928917
0
LINE
8
DEFAULT_255_1_234
10
20.9521458
20
20.8920885
11
20.9521458
21
21.6848211
0
ARC
8
DEFAULT_255_1_234
10
20.6718481
20
20.8876928
40
0.4353147
50
343.0898354
51
0.2614217
0
ARC
8
DEFAULT_255_1_234
10
20.7546883
20
20.8645837
40
0.3493402
50
315.3345598
51
342.7641223
0
ARC
8
DEFAULT_255_1_234
10
20.7323332
20
20.8877682
40
0.3815385
50
284.6606969
51
315.2182466
0
ARC
8
DEFAULT_255_1_234
10
20.6868044
20
21.0423755
40
0.5426573
50
273.8500273
51
285.1797701
0
ARC
8
DEFAULT_255_1_234
10
20.6780095
20
21.0765475
40
0.5772268
50
257.6317484
51
270.4238298
0
ARC
8
DEFAULT_255_1_234
10
20.6355293
20
20.8944198
40
0.3902347
50
230.6087562
51
257.9964012
0
ARC
8
DEFAULT_255_1_234
10
20.6223295
20
20.8737802
40
0.3659186
50
227.7440991
51
230.1551448
0
ARC
8
DEFAULT_255_1_234
10
20.6089127
20
20.8576471
40
0.3449568
50
189.2524587
51
227.5916061
0
ARC
8
DEFAULT_255_1_234
10
20.7610813
20
20.8904013
40
0.5004737
50
180.2665968
51
190.1525252
0
ARC
8
DEFAULT_255_1_234
10
20.7832833
20
20.8900918
40
0.3700778
50
179.5665184
51
191.9952995
0
ARC
8
DEFAULT_255_1_234
10
20.6604939
20
20.8627043
40
0.2442808
50
191.6974072
51
215.1404042
0
ARC
8
DEFAULT_255_1_234
10
20.6366854
20
20.8485108
40
0.2166522
50
215.6950207
51
224.8513522
0
ARC
8
DEFAULT_255_1_234
10
20.6422598
20
20.8564697
40
0.2262237
50
225.2846858
51
255.0111758
0
ARC
8
DEFAULT_255_1_234
10
20.6746558
20
20.9678455
40
0.3421979
50
254.5944985
51
267.9129803
0
ARC
8
DEFAULT_255_1_234
10
20.6821038
20
21.0762903
40
0.4508556
50
267.4689655
51
270.0223026
0
ARC
8
DEFAULT_255_1_234
10
20.6851184
20
21.0173849
40
0.3919604
50
269.5849941
51
281.1843768
0
ARC
8
DEFAULT_255_1_234
10
20.7129948
20
20.8821059
40
0.2538457
50
280.9344262
51
300.9743589
0
ARC
8
DEFAULT_255_1_234
10
20.7342554
20
20.8429688
40
0.2093566
50
301.4980046
51
315.1466847
0
ARC
8
DEFAULT_255_1_234
10
20.7198092
20
20.8548236
40
0.2279656
50
315.5952539
51
345.6678731
0
ARC
8
DEFAULT_255_1_234
10
20.6078609
20
20.8860009
40
0.3441564
50
345.2524969
51
358.6304371
0
ARC
8
DEFAULT_255_1_234
10
20.5060963
20
20.8919916
40
0.4460494
50
358.1735671
51
0.0124524
0
LINE
8
DEFAULT_255_1_234
10
22.1585128
20
21.6848211
11
22.1585128
21
21.5579196
0
LINE
8
DEFAULT_255_1_234
10
22.1585128
20
21.5579196
11
21.7826275
21
21.5579196
0
LINE
8
DEFAULT_255_1_234
10
21.7826275
20
21.5579196
11
21.7826275
21
20.5154
0
LINE
8
DEFAULT_255_1_234
10
21.7826275
20
20.5154
11
21.6292213
21
20.5154
0
LINE
8
DEFAULT_255_1_234
10
21.6292213
20
20.5154
11
21.6292213
21
21.5579196
0
LINE
8
DEFAULT_255_1_234
10
21.6292213
20
21.5579196
11
21.2541391
21
21.5579196
0
LINE
8
DEFAULT_255_1_234
10
21.2541391
20
21.5579196
11
21.2541391
21
21.6848211
0
LINE
8
DEFAULT_255_1_234
10
21.2541391
20
21.6848211
11
22.1585128
21
21.6848211
0
LINE
8
DEFAULT_255_1_234
10
22.7817757
20
21.6904433
11
22.7817757
21
20.5154
0
LINE
8
DEFAULT_255_1_234
10
22.7817757
20
20.5154
11
22.6323854
21
20.5154
0
LINE
8
DEFAULT_255_1_234
10
22.6323854
20
20.5154
11
22.6323854
21
21.5057133
0
LINE
8
DEFAULT_255_1_234
10
22.6323854
20
21.5057133
11
22.3328016
21
21.3956785
0
LINE
8
DEFAULT_255_1_234
10
22.3328016
20
21.3956785
11
22.3328016
21
21.5306117
0
LINE
8
DEFAULT_255_1_234
10
22.3328016
20
21.5306117
11
22.7584837
21
21.6904433
0
LINE
8
DEFAULT_255_1_234
10
22.7584837
20
21.6904433
11
22.7817757
21
21.6904433
0
LINE
8
DEFAULT_255_1_234
10
23.8443747
20
21.6848211
11
23.8443747
21
20.908152
0
LINE
8
DEFAULT_255_1_234
10
23.8443747
20
20.908152
11
24.0066158
21
20.908152
0
LINE
8
DEFAULT_255_1_234
10
24.0066158
20
20.908152
11
24.0066158
21
20.7868728
0
LINE
8
DEFAULT_255_1_234
10
24.0066158
20
20.7868728
11
23.8443747
21
20.7868728
0
LINE
8
DEFAULT_255_1_234
10
23.8443747
20
20.7868728
11
23.8443747
21
20.5154
0
LINE
8
DEFAULT_255_1_234
10
23.8443747
20
20.5154
11
23.6949844
21
20.5154
0
LINE
8
DEFAULT_255_1_234
10
23.6949844
20
20.5154
11
23.6949844
21
20.7868728
0
LINE
8
DEFAULT_255_1_234
10
23.6949844
20
20.7868728
11
23.1624801
21
20.7868728
0
LINE
8
DEFAULT_255_1_234
10
23.1624801
20
20.7868728
11
23.1624801
21
20.8744187
0
LINE
8
DEFAULT_255_1_234
10
23.1624801
20
20.8744187
11
23.6861495
21
21.6848211
0
LINE
8
DEFAULT_255_1_234
10
23.6861495
20
21.6848211
11
23.8443747
21
21.6848211
0
LINE
8
DEFAULT_255_1_234
10
23.6773146
20
21.4494912
11
23.3311466
21
20.908152
0
LINE
8
DEFAULT_255_1_234
10
23.3311466
20
20.908152
11
23.6949844
21
20.908152
0
LINE
8
DEFAULT_255_1_234
10
23.6949844
20
20.908152
11
23.6949844
21
21.4816181
0
LINE
8
DEFAULT_255_1_234
10
23.6949844
20
21.4816181
11
23.6773146
21
21.4494912
0
LINE
8
DEFAULT_255_1_234
10
20.1584911
20
29.0737534
11
20.1584911
21
28.9998614
0
LINE
8
DEFAULT_255_1_234
10
19.2179745
20
28.9894201
11
19.2179745
21
29.0737534
0
LINE
8
DEFAULT_255_1_234
10
20.0050849
20
28.9886169
11
20.0050849
21
29.0753597
0
LINE
8
DEFAULT_255_1_234
10
19.3713807
20
29.085801
11
19.3713807
21
28.9998614
0
ARC
8
DEFAULT_255_1_234
10
19.2942937
20
28.9959015
40
0.8642064
50
350.487711
51
0.2625388
0
ARC
8
DEFAULT_255_1_234
10
19.5236178
20
28.9564578
40
0.631518
50
336.0277639
51
350.5787438
0
ARC
8
DEFAULT_255_1_234
10
19.6581002
20
28.8956892
40
0.4839466
50
319.8877444
51
336.1328423
0
ARC
8
DEFAULT_255_1_234
10
19.7183643
20
28.847458
40
0.4067874
50
302.4806467
51
319.6143626
0
ARC
8
DEFAULT_255_1_234
10
19.7068653
20
28.8696202
40
0.4316636
50
275.8195682
51
302.1884709
0
ARC
8
DEFAULT_255_1_234
10
19.6902286
20
28.9838665
40
0.5470306
50
269.9171439
51
276.3397983
0
ARC
8
DEFAULT_255_1_234
10
19.6857496
20
28.9152681
40
0.4784458
50
252.5219675
51
270.4416499
0
ARC
8
DEFAULT_255_1_234
10
19.6713755
20
28.8613592
40
0.422716
50
237.5352116
51
252.1857531
0
ARC
8
DEFAULT_255_1_234
10
19.6802951
20
28.8727363
40
0.4371052
50
209.063312
51
237.3492538
0
ARC
8
DEFAULT_255_1_234
10
19.7672799
20
28.9273685
40
0.5397041
50
205.1183774
51
209.6470015
0
ARC
8
DEFAULT_255_1_234
10
19.8469836
20
28.961183
40
0.6262326
50
188.7215458
51
204.8240747
0
ARC
8
DEFAULT_255_1_234
10
20.0467364
20
28.9948067
40
0.8287794
50
180.3723947
51
188.9252049
0
ARC
8
DEFAULT_255_1_234
10
20.0440116
20
29.0777402
40
0.8260467
50
169.5253763
51
180.2765336
0
ARC
8
DEFAULT_255_1_234
10
19.8537564
20
29.1127309
40
0.6326007
50
155.8315255
51
169.5089989
0
ARC
8
DEFAULT_255_1_234
10
19.7257066
20
29.1721348
40
0.4914567
50
139.6258461
51
156.0379525
0
ARC
8
DEFAULT_255_1_234
10
19.6667399
20
29.2195799
40
0.4158054
50
122.6416387
51
139.3430715
0
ARC
8
DEFAULT_255_1_234
10
19.6768019
20
29.2012451
40
0.4366739
50
93.0223692
51
122.455762
0
ARC
8
DEFAULT_255_1_234
10
19.6876016
20
29.1047709
40
0.5336137
50
89.975342
51
93.6341897
0
ARC
8
DEFAULT_255_1_234
10
19.6914795
20
29.1446242
40
0.4937738
50
73.746375
51
90.4233405
0
ARC
8
DEFAULT_255_1_234
10
19.7090373
20
29.2126287
40
0.4235786
50
57.662753
51
73.4518111
0
ARC
8
DEFAULT_255_1_234
10
19.708238
20
29.2147832
40
0.4221899
50
29.1440151
51
57.414694
0
ARC
8
DEFAULT_255_1_234
10
19.6147574
20
29.1564005
40
0.5322966
50
24.0982783
51
29.7323517
0
ARC
8
DEFAULT_255_1_234
10
19.511385
20
29.1135399
40
0.6441673
50
8.6655297
51
23.8241346
0
ARC
8
DEFAULT_255_1_234
10
19.2879588
20
29.0770854
40
0.8705386
50
359.7806941
51
8.8218784
0
ARC
8
DEFAULT_255_1_234
10
19.1732586
20
29.0796345
40
0.8318373
50
359.7055579
51
8.036044
0
ARC
8
DEFAULT_255_1_234
10
19.4732592
20
29.1233239
40
0.5286768
50
7.8928306
51
20.2962107
0
ARC
8
DEFAULT_255_1_234
10
19.6360162
20
29.1833395
40
0.3552073
50
20.3231126
51
36.4992797
0
ARC
8
DEFAULT_255_1_234
10
19.7045708
20
29.2361402
40
0.2686974
50
36.1437156
51
85.6627023
0
ARC
8
DEFAULT_255_1_234
10
19.6883254
20
29.1321221
40
0.373739
50
84.3852322
51
90.0757696
0
ARC
8
DEFAULT_255_1_234
10
19.6840927
20
29.1981839
40
0.3076997
50
89.3038458
51
109.9045693
0
ARC
8
DEFAULT_255_1_234
10
19.6748318
20
29.2364062
40
0.2686424
50
110.8228367
51
143.9179474
0
ARC
8
DEFAULT_255_1_234
10
19.7681978
20
29.1651236
40
0.3860887
50
143.5289163
51
163.2980757
0
ARC
8
DEFAULT_255_1_234
10
19.9589799
20
29.1051433
40
0.5860659
50
163.0418846
51
174.3140048
0
ARC
8
DEFAULT_255_1_234
10
20.1993911
20
29.0773854
40
0.8280531
50
174.0509143
51
179.4176892
0
ARC
8
DEFAULT_255_1_234
10
20.148965
20
28.9956954
40
0.7775954
50
179.6930361
51
188.7906598
0
ARC
8
DEFAULT_255_1_234
10
19.8826129
20
28.9530935
40
0.5078633
50
188.6331305
51
202.5629587
0
ARC
8
DEFAULT_255_1_234
10
19.7571721
20
28.9026996
40
0.3726913
50
202.8081362
51
216.1193925
0
ARC
8
DEFAULT_255_1_234
10
19.6762291
20
28.8375676
40
0.2689577
50
215.0755913
51
264.6379694
0
ARC
8
DEFAULT_255_1_234
10
19.688924
20
28.9206513
40
0.3528978
50
263.846392
51
270.0833719
0
ARC
8
DEFAULT_255_1_234
10
19.6930631
20
28.8948374
40
0.3271036
50
269.3649385
51
287.5152008
0
ARC
8
DEFAULT_255_1_234
10
19.7108788
20
28.8301238
40
0.2600406
50
288.0630309
51
323.8113348
0
ARC
8
DEFAULT_255_1_234
10
19.623763
20
28.8951049
40
0.3687189
50
323.6547608
51
342.6590488
0
ARC
8
DEFAULT_255_1_234
10
19.4206245
20
28.9611952
40
0.5823286
50
342.4091907
51
353.6451149
0
ARC
8
DEFAULT_255_1_234
10
19.1374756
20
28.996419
40
0.8676442
50
353.4029884
51
359.4847795
0
LINE
8
DEFAULT_255_1_234
10
21.0580458
20
29.6223211
11
21.2130583
21
29.6223211
0
LINE
8
DEFAULT_255_1_234
10
21.2130583
20
29.6223211
11
21.2130583
21
28.827179
0
LINE
8
DEFAULT_255_1_234
10
20.8291412
20
28.4384429
11
20.7881793
21
28.4368365
0
LINE
8
DEFAULT_255_1_234
10
20.3665131
20
28.8255727
11
20.3665131
21
29.6223211
0
LINE
8
DEFAULT_255_1_234
10
20.3665131
20
29.6223211
11
20.5191161
21
29.6223211
0
LINE
8
DEFAULT_255_1_234
10
20.5191161
20
29.6223211
11
20.5191161
21
28.8303917
0
LINE
8
DEFAULT_255_1_234
10
21.0580458
20
28.8295885
11
21.0580458
21
29.6223211
0
ARC
8
DEFAULT_255_1_234
10
20.7777481
20
28.8251928
40
0.4353147
50
343.0898354
51
0.2614217
0
ARC
8
DEFAULT_255_1_234
10
20.8605883
20
28.8020837
40
0.3493402
50
315.3345598
51
342.7641223
0
ARC
8
DEFAULT_255_1_234
10
20.8382332
20
28.8252682
40
0.3815385
50
284.6606969
51
315.2182466
0
ARC
8
DEFAULT_255_1_234
10
20.7927044
20
28.9798755
40
0.5426573
50
273.8500273
51
285.1797701
0
ARC
8
DEFAULT_255_1_234
10
20.7839095
20
29.0140475
40
0.5772268
50
257.6317484
51
270.4238298
0
ARC
8
DEFAULT_255_1_234
10
20.7414293
20
28.8319198
40
0.3902347
50
230.6087562
51
257.9964012
0
ARC
8
DEFAULT_255_1_234
10
20.7282295
20
28.8112802
40
0.3659186
50
227.7440991
51
230.1551448
0
ARC
8
DEFAULT_255_1_234
10
20.7148127
20
28.7951471
40
0.3449568
50
189.2524587
51
227.5916061
0
ARC
8
DEFAULT_255_1_234
10
20.8669813
20
28.8279013
40
0.5004737
50
180.2665968
51
190.1525252
0
ARC
8
DEFAULT_255_1_234
10
20.8891833
20
28.8275918
40
0.3700778
50
179.5665184
51
191.9952995
0
ARC
8
DEFAULT_255_1_234
10
20.7663939
20
28.8002043
40
0.2442808
50
191.6974072
51
215.1404042
0
ARC
8
DEFAULT_255_1_234
10
20.7425854
20
28.7860108
40
0.2166522
50
215.6950207
51
224.8513522
0
ARC
8
DEFAULT_255_1_234
10
20.7481598
20
28.7939697
40
0.2262237
50
225.2846858
51
255.0111758
0
ARC
8
DEFAULT_255_1_234
10
20.7805558
20
28.9053455
40
0.3421979
50
254.5944985
51
267.9129803
0
ARC
8
DEFAULT_255_1_234
10
20.7880038
20
29.0137903
40
0.4508556
50
267.4689655
51
270.0223026
0
ARC
8
DEFAULT_255_1_234
10
20.7910184
20
28.9548849
40
0.3919604
50
269.5849941
51
281.1843768
0
ARC
8
DEFAULT_255_1_234
10
20.8188948
20
28.8196059
40
0.2538457
50
280.9344262
51
300.9743589
0
ARC
8
DEFAULT_255_1_234
10
20.8401554
20
28.7804688
40
0.2093566
50
301.4980046
51
315.1466847
0
ARC
8
DEFAULT_255_1_234
10
20.8257092
20
28.7923236
40
0.2279656
50
315.5952539
51
345.6678731
0
ARC
8
DEFAULT_255_1_234
10
20.7137609
20
28.8235009
40
0.3441564
50
345.2524969
51
358.6304371
0
ARC
8
DEFAULT_255_1_234
10
20.6119963
20
28.8294916
40
0.4460494
50
358.1735671
51
0.0124524
0
LINE
8
DEFAULT_255_1_234
10
22.2644128
20
29.6223211
11
22.2644128
21
29.4954196
0
LINE
8
DEFAULT_255_1_234
10
22.2644128
20
29.4954196
11
21.8885275
21
29.4954196
0
LINE
8
DEFAULT_255_1_234
10
21.8885275
20
29.4954196
11
21.8885275
21
28.4529
0
LINE
8
DEFAULT_255_1_234
10
21.8885275
20
28.4529
11
21.7351213
21
28.4529
0
LINE
8
DEFAULT_255_1_234
10
21.7351213
20
28.4529
11
21.7351213
21
29.4954196
0
LINE
8
DEFAULT_255_1_234
10
21.7351213
20
29.4954196
11
21.3600391
21
29.4954196
0
LINE
8
DEFAULT_255_1_234
10
21.3600391
20
29.4954196
11
21.3600391
21
29.6223211
0
LINE
8
DEFAULT_255_1_234
10
21.3600391
20
29.6223211
11
22.2644128
21
29.6223211
0
LINE
8
DEFAULT_255_1_234
10
22.8876757
20
29.6279433
11
22.8876757
21
28.4529
0
LINE
8
DEFAULT_255_1_234
10
22.8876757
20
28.4529
11
22.7382854
21
28.4529
0
LINE
8
DEFAULT_255_1_234
10
22.7382854
20
28.4529
11
22.7382854
21
29.4432133
0
LINE
8
DEFAULT_255_1_234
10
22.7382854
20
29.4432133
11
22.4387016
21
29.3331785
0
LINE
8
DEFAULT_255_1_234
10
22.4387016
20
29.3331785
11
22.4387016
21
29.4681117
0
LINE
8
DEFAULT_255_1_234
10
22.4387016
20
29.4681117
11
22.8643837
21
29.6279433
0
LINE
8
DEFAULT_255_1_234
10
22.8643837
20
29.6279433
11
22.8876757
21
29.6279433
0
LINE
8
DEFAULT_255_1_234
10
23.5390497
20
28.9886169
11
23.5390497
21
29.1098962
0
LINE
8
DEFAULT_255_1_234
10
23.5390497
20
29.1098962
11
23.6506909
21
29.1098962
0
LINE
8
DEFAULT_255_1_234
10
23.4603387
20
29.3155087
11
23.3117515
21
29.3155087
0
LINE
8
DEFAULT_255_1_234
10
23.3013103
20
28.7613188
11
23.4507006
21
28.7613188
0
LINE
8
DEFAULT_255_1_234
10
23.6506909
20
28.9886169
11
23.5390497
21
28.9886169
0
ARC
8
DEFAULT_255_1_234
10
23.6477775
20
29.4491713
40
0.3392876
50
270.4919872
51
281.8951556
0
ARC
8
DEFAULT_255_1_234
10
23.6719037
20
29.3389702
40
0.2264817
50
281.6691735
51
301.2943132
0
ARC
8
DEFAULT_255_1_234
10
23.6889247
20
29.3078304
40
0.1910381
50
301.7833094
51
311.7545298
0
ARC
8
DEFAULT_255_1_234
10
23.6980823
20
29.2976748
40
0.1773635
50
311.7323931
51
354.2802411
0
ARC
8
DEFAULT_255_1_234
10
23.6254448
20
29.3101722
40
0.2509385
50
353.0937916
51
0.1181479
0
ARC
8
DEFAULT_255_1_234
10
23.5793233
20
29.3149386
40
0.2970898
50
359.1805295
51
15.0453146
0
ARC
8
DEFAULT_255_1_234
10
23.713907
20
29.3541992
40
0.1569564
50
13.9577229
51
77.6713066
0
ARC
8
DEFAULT_255_1_234
10
23.6752599
20
29.2156949
40
0.3006298
50
76.1116566
51
90.7026153
0
ARC
8
DEFAULT_255_1_234
10
23.6693437
20
29.2430545
40
0.2732568
50
89.5324876
51
103.531937
0
ARC
8
DEFAULT_255_1_234
10
23.6492882
20
29.3229884
40
0.1908508
50
103.2931773
51
133.5619022
0
ARC
8
DEFAULT_255_1_234
10
23.644837
20
29.3289375
40
0.1834746
50
133.8349307
51
173.5344437
0
ARC
8
DEFAULT_255_1_234
10
23.7171413
20
29.3161213
40
0.2568033
50
172.5096846
51
180.1366907
0
ARC
8
DEFAULT_255_1_234
10
23.6220307
20
29.3195622
40
0.3103056
50
155.3484492
51
180.7484736
0
ARC
8
DEFAULT_255_1_234
10
23.6171396
20
29.3166846
40
0.3070957
50
131.5744599
51
154.4798489
0
ARC
8
DEFAULT_255_1_234
10
23.6484543
20
29.285031
40
0.3515643
50
96.9875458
51
131.9690667
0
ARC
8
DEFAULT_255_1_234
10
23.6704023
20
29.1604636
40
0.4779224
50
89.8596053
51
97.7825159
0
ARC
8
DEFAULT_255_1_234
10
23.6752086
20
29.1342616
40
0.5041361
50
78.3655447
51
90.4131539
0
ARC
8
DEFAULT_255_1_234
10
23.7110004
20
29.3001887
40
0.3344039
50
56.6229102
51
78.638727
0
ARC
8
DEFAULT_255_1_234
10
23.7324948
20
29.3377805
40
0.2912001
50
47.0253525
51
56.0854072
0
ARC
8
DEFAULT_255_1_234
10
23.7344728
20
29.3417223
40
0.2869704
50
10.9208013
51
46.7778124
0
ARC
8
DEFAULT_255_1_234
10
23.5980795
20
29.3101857
40
0.426899
50
359.6364486
51
11.6087304
0
ARC
8
DEFAULT_255_1_234
10
23.7815639
20
29.3086752
40
0.243409
50
332.3549906
51
359.7179418
0
ARC
8
DEFAULT_255_1_234
10
23.716524
20
29.3395142
40
0.3153459
50
325.2333722
51
332.8745602
0
ARC
8
DEFAULT_255_1_234
10
23.7317864
20
29.3288828
40
0.2967456
50
292.9802137
51
325.2392345
0
ARC
8
DEFAULT_255_1_234
10
23.7043238
20
29.3822863
40
0.3566604
50
292.5402179
51
293.6924929
0
ARC
8
DEFAULT_255_1_234
10
23.7435833
20
28.7368091
40
0.3307468
50
57.6435486
51
72.8625112
0
ARC
8
DEFAULT_255_1_234
10
23.7790333
20
28.7942549
40
0.2632492
50
36.7248896
51
57.4697979
0
ARC
8
DEFAULT_255_1_234
10
23.7778966
20
28.795522
40
0.2634081
50
8.0545065
51
36.356114
0
ARC
8
DEFAULT_255_1_234
10
23.6916151
20
28.7800174
40
0.3510261
50
359.8320645
51
8.5869982
0
ARC
8
DEFAULT_255_1_234
10
23.6540927
20
28.7752101
40
0.3885653
50
343.9829931
51
0.5571613
0
ARC
8
DEFAULT_255_1_234
10
23.7427125
20
28.7509438
40
0.2966924
50
311.6359546
51
343.7651759
0
ARC
8
DEFAULT_255_1_234
10
23.7048694
20
28.7936102
40
0.3537231
50
279.7829875
51
311.6255694
0
ARC
8
DEFAULT_255_1_234
10
23.674747
20
28.937328
40
0.5004971
50
269.7286406
51
280.3856417
0
ARC
8
DEFAULT_255_1_234
10
23.6685543
20
28.9331996
40
0.4963778
50
256.6828919
51
270.4412052
0
ARC
8
DEFAULT_255_1_234
10
23.6346838
20
28.7947394
40
0.3538406
50
229.4223008
51
256.8556159
0
ARC
8
DEFAULT_255_1_234
10
23.5932231
20
28.7480736
40
0.2914296
50
181.818294
51
229.6455059
0
ARC
8
DEFAULT_255_1_234
10
23.6972187
20
28.7611496
40
0.3959084
50
179.9755256
51
183.2323064
0
ARC
8
DEFAULT_255_1_234
10
23.6799933
20
28.7591037
40
0.2293034
50
179.4465117
51
196.2869258
0
ARC
8
DEFAULT_255_1_234
10
23.6312341
20
28.7457651
40
0.1787621
50
196.5661473
51
227.705904
0
ARC
8
DEFAULT_255_1_234
10
23.6476436
20
28.7641155
40
0.2033784
50
227.7652068
51
257.8762805
0
ARC
8
DEFAULT_255_1_234
10
23.6701406
20
28.8584156
40
0.3003081
50
257.4584385
51
270.426602
0
ARC
8
DEFAULT_255_1_234
10
23.6746972
20
28.8873996
40
0.329292
50
269.5962073
51
280.8789248
0
ARC
8
DEFAULT_255_1_234
10
23.6976501
20
28.7727685
40
0.2123908
50
280.6346389
51
299.8595945
0
ARC
8
DEFAULT_255_1_234
10
23.7167408
20
28.7365212
40
0.171457
50
300.3576302
51
314.5517981
0
ARC
8
DEFAULT_255_1_234
10
23.7084468
20
28.7425919
40
0.1816095
50
315.0728369
51
345.0431014
0
ARC
8
DEFAULT_255_1_234
10
23.6161282
20
28.7694841
40
0.2777492
50
344.5986631
51
357.9269593
0
ARC
8
DEFAULT_255_1_234
10
23.5265609
20
28.7756276
40
0.3674917
50
357.4748886
51
0.0231117
0
ARC
8
DEFAULT_255_1_234
10
23.6288718
20
28.7780679
40
0.2651907
50
359.5047933
51
13.4239635
0
ARC
8
DEFAULT_255_1_234
10
23.7155362
20
28.8002478
40
0.1757509
50
12.9498199
51
48.7551375
0
ARC
8
DEFAULT_255_1_234
10
23.6973096
20
28.77534
40
0.2065134
50
49.5088623
51
72.1836453
0
ARC
8
DEFAULT_255_1_234
10
23.6615248
20
28.6691291
40
0.3185836
50
71.9010081
51
84.3554254
0
ARC
8
DEFAULT_255_1_234
10
23.645388
20
28.5330326
40
0.4556151
50
84.0193428
51
89.333121
0
LINE
8
DEFAULT_255_1_234
10
20.1584911
20
37.0112534
11
20.1584911
21
36.9373614
0
LINE
8
DEFAULT_255_1_234
10
19.2179745
20
36.9269201
11
19.2179745
21
37.0112534
0
LINE
8
DEFAULT_255_1_234
10
20.0050849
20
36.9261169
11
20.0050849
21
37.0128597
0
LINE
8
DEFAULT_255_1_234
10
19.3713807
20
37.023301
11
19.3713807
21
36.9373614
0
ARC
8
DEFAULT_255_1_234
10
19.2942937
20
36.9334015
40
0.8642064
50
350.487711
51
0.2625388
0
ARC
8
DEFAULT_255_1_234
10
19.5236178
20
36.8939578
40
0.631518
50
336.0277639
51
350.5787438
0
ARC
8
DEFAULT_255_1_234
10
19.6581002
20
36.8331892
40
0.4839466
50
319.8877444
51
336.1328423
0
ARC
8
DEFAULT_255_1_234
10
19.7183643
20
36.784958
40
0.4067874
50
302.4806467
51
319.6143626
0
ARC
8
DEFAULT_255_1_234
10
19.7068653
20
36.8071202
40
0.4316636
50
275.8195682
51
302.1884709
0
ARC
8
DEFAULT_255_1_234
10
19.6902286
20
36.9213665
40
0.5470306
50
269.9171439
51
276.3397983
0
ARC
8
DEFAULT_255_1_234
10
19.6857496
20
36.8527681
40
0.4784458
50
252.5219675
51
270.4416499
0
ARC
8
DEFAULT_255_1_234
10
19.6713755
20
36.7988592
40
0.422716
50
237.5352116
51
252.1857531
0
ARC
8
DEFAULT_255_1_234
10
19.6802951
20
36.8102363
40
0.4371052
50
209.063312
51
237.3492538
0
ARC
8
DEFAULT_255_1_234
10
19.7672799
20
36.8648685
40
0.5397041
50
205.1183774
51
209.6470015
0
ARC
8
DEFAULT_255_1_234
10
19.8469836
20
36.898683
40
0.6262326
50
188.7215458
51
204.8240747
0
ARC
8
DEFAULT_255_1_234
10
20.0467364
20
36.9323067
40
0.8287794
50
180.3723947
51
188.9252049
0
ARC
8
DEFAULT_255_1_234
10
20.0440116
20
37.0152402
40
0.8260467
50
169.5253763
51
180.2765336
0
ARC
8
DEFAULT_255_1_234
10
19.8537564
20
37.0502309
40
0.6326007
50
155.8315255
51
169.5089989
0
ARC
8
DEFAULT_255_1_234
10
19.7257066
20
37.1096348
40
0.4914567
50
139.6258461
51
156.0379525
0
ARC
8
DEFAULT_255_1_234
10
19.6667399
20
37.1570799
40
0.4158054
50
122.6416387
51
139.3430715
0
ARC
8
DEFAULT_255_1_234
10
19.6768019
20
37.1387451
40
0.4366739
50
93.0223692
51
122.455762
0
ARC
8
DEFAULT_255_1_234
10
19.6876016
20
37.0422709
40
0.5336137
50
89.975342
51
93.6341897
0
ARC
8
DEFAULT_255_1_234
10
19.6914795
20
37.0821242
40
0.4937738
50
73.746375
51
90.4233405
0
ARC
8
DEFAULT_255_1_234
10
19.7090373
20
37.1501287
40
0.4235786
50
57.662753
51
73.4518111
0
ARC
8
DEFAULT_255_1_234
10
19.708238
20
37.1522832
40
0.4221899
50
29.1440151
51
57.414694
0
ARC
8
DEFAULT_255_1_234
10
19.6147574
20
37.0939005
40
0.5322966
50
24.0982783
51
29.7323517
0
ARC
8
DEFAULT_255_1_234
10
19.511385
20
37.0510399
40
0.6441673
50
8.6655297
51
23.8241346
0
ARC
8
DEFAULT_255_1_234
10
19.2879588
20
37.0145854
40
0.8705386
50
359.7806941
51
8.8218784
0
ARC
8
DEFAULT_255_1_234
10
19.1732586
20
37.0171345
40
0.8318373
50
359.7055579
51
8.036044
0
ARC
8
DEFAULT_255_1_234
10
19.4732592
20
37.0608239
40
0.5286768
50
7.8928306
51
20.2962107
0
ARC
8
DEFAULT_255_1_234
10
19.6360162
20
37.1208395
40
0.3552073
50
20.3231126
51
36.4992797
0
ARC
8
DEFAULT_255_1_234
10
19.7045708
20
37.1736402
40
0.2686974
50
36.1437156
51
85.6627023
0
ARC
8
DEFAULT_255_1_234
10
19.6883254
20
37.0696221
40
0.373739
50
84.3852322
51
90.0757696
0
ARC
8
DEFAULT_255_1_234
10
19.6840927
20
37.1356839
40
0.3076997
50
89.3038458
51
109.9045693
0
ARC
8
DEFAULT_255_1_234
10
19.6748318
20
37.1739062
40
0.2686424
50
110.8228367
51
143.9179474
0
ARC
8
DEFAULT_255_1_234
10
19.7681978
20
37.1026236
40
0.3860887
50
143.5289163
51
163.2980757
0
ARC
8
DEFAULT_255_1_234
10
19.9589799
20
37.0426433
40
0.5860659
50
163.0418846
51
174.3140048
0
ARC
8
DEFAULT_255_1_234
10
20.1993911
20
37.0148854
40
0.8280531
50
174.0509143
51
179.4176892
0
ARC
8
DEFAULT_255_1_234
10
20.148965
20
36.9331954
40
0.7775954
50
179.6930361
51
188.7906598
0
ARC
8
DEFAULT_255_1_234
10
19.8826129
20
36.8905935
40
0.5078633
50
188.6331305
51
202.5629587
0
ARC
8
DEFAULT_255_1_234
10
19.7571721
20
36.8401996
40
0.3726913
50
202.8081362
51
216.1193925
0
ARC
8
DEFAULT_255_1_234
10
19.6762291
20
36.7750676
40
0.2689577
50
215.0755913
51
264.6379694
0
ARC
8
DEFAULT_255_1_234
10
19.688924
20
36.8581513
40
0.3528978
50
263.846392
51
270.0833719
0
ARC
8
DEFAULT_255_1_234
10
19.6930631
20
36.8323374
40
0.3271036
50
269.3649385
51
287.5152008
0
ARC
8
DEFAULT_255_1_234
10
19.7108788
20
36.7676238
40
0.2600406
50
288.0630309
51
323.8113348
0
ARC
8
DEFAULT_255_1_234
10
19.623763
20
36.8326049
40
0.3687189
50
323.6547608
51
342.6590488
0
ARC
8
DEFAULT_255_1_234
10
19.4206245
20
36.8986952
40
0.5823286
50
342.4091907
51
353.6451149
0
ARC
8
DEFAULT_255_1_234
10
19.1374756
20
36.933919
40
0.8676442
50
353.4029884
51
359.4847795
0
LINE
8
DEFAULT_255_1_234
10
21.0580458
20
37.5598211
11
21.2130583
21
37.5598211
0
LINE
8
DEFAULT_255_1_234
10
21.2130583
20
37.5598211
11
21.2130583
21
36.764679
0
LINE
8
DEFAULT_255_1_234
10
20.8291412
20
36.3759429
11
20.7881793
21
36.3743365
0
LINE
8
DEFAULT_255_1_234
10
20.3665131
20
36.7630727
11
20.3665131
21
37.5598211
0
LINE
8
DEFAULT_255_1_234
10
20.3665131
20
37.5598211
11
20.5191161
21
37.5598211
0
LINE
8
DEFAULT_255_1_234
10
20.5191161
20
37.5598211
11
20.5191161
21
36.7678917
0
LINE
8
DEFAULT_255_1_234
10
21.0580458
20
36.7670885
11
21.0580458
21
37.5598211
0
ARC
8
DEFAULT_255_1_234
10
20.7777481
20
36.7626928
40
0.4353147
50
343.0898354
51
0.2614217
0
ARC
8
DEFAULT_255_1_234
10
20.8605883
20
36.7395837
40
0.3493402
50
315.3345598
51
342.7641223
0
ARC
8
DEFAULT_255_1_234
10
20.8382332
20
36.7627682
40
0.3815385
50
284.6606969
51
315.2182466
0
ARC
8
DEFAULT_255_1_234
10
20.7927044
20
36.9173755
40
0.5426573
50
273.8500273
51
285.1797701
0
ARC
8
DEFAULT_255_1_234
10
20.7839095
20
36.9515475
40
0.5772268
50
257.6317484
51
270.4238298
0
ARC
8
DEFAULT_255_1_234
10
20.7414293
20
36.7694198
40
0.3902347
50
230.6087562
51
257.9964012
0
ARC
8
DEFAULT_255_1_234
10
20.7282295
20
36.7487802
40
0.3659186
50
227.7440991
51
230.1551448
0
ARC
8
DEFAULT_255_1_234
10
20.7148127
20
36.7326471
40
0.3449568
50
189.2524587
51
227.5916061
0
ARC
8
DEFAULT_255_1_234
10
20.8669813
20
36.7654013
40
0.5004737
50
180.2665968
51
190.1525252
0
ARC
8
DEFAULT_255_1_234
10
20.8891833
20
36.7650918
40
0.3700778
50
179.5665184
51
191.9952995
0
ARC
8
DEFAULT_255_1_234
10
20.7663939
20
36.7377043
40
0.2442808
50
191.6974072
51
215.1404042
0
ARC
8
DEFAULT_255_1_234
10
20.7425854
20
36.7235108
40
0.2166522
50
215.6950207
51
224.8513522
0
ARC
8
DEFAULT_255_1_234
10
20.7481598
20
36.7314697
40
0.2262237
50
225.2846858
51
255.0111758
0
ARC
8
DEFAULT_255_1_234
10
20.7805558
20
36.8428455
40
0.3421979
50
254.5944985
51
267.9129803
0
ARC
8
DEFAULT_255_1_234
10
20.7880038
20
36.9512903
40
0.4508556
50
267.4689655
51
270.0223026
0
ARC
8
DEFAULT_255_1_234
10
20.7910184
20
36.8923849
40
0.3919604
50
269.5849941
51
281.1843768
0
ARC
8
DEFAULT_255_1_234
10
20.8188948
20
36.7571059
40
0.2538457
50
280.9344262
51
300.9743589
0
ARC
8
DEFAULT_255_1_234
10
20.8401554
20
36.7179688
40
0.2093566
50
301.4980046
51
315.1466847
0
ARC
8
DEFAULT_255_1_234
10
20.8257092
20
36.7298236
40
0.2279656
50
315.5952539
51
345.6678731
0
ARC
8
DEFAULT_255_1_234
10
20.7137609
20
36.7610009
40
0.3441564
50
345.2524969
51
358.6304371
0
ARC
8
DEFAULT_255_1_234
10
20.6119963
20
36.7669916
40
0.4460494
50
358.1735671
51
0.0124524
0
LINE
8
DEFAULT_255_1_234
10
22.2644128
20
37.5598211
11
22.2644128
21
37.4329196
0
LINE
8
DEFAULT_255_1_234
10
22.2644128
20
37.4329196
11
21.8885275
21
37.4329196
0
LINE
8
DEFAULT_255_1_234
10
21.8885275
20
37.4329196
11
21.8885275
21
36.3904
0
LINE
8
DEFAULT_255_1_234
10
21.8885275
20
36.3904
11
21.7351213
21
36.3904
0
LINE
8
DEFAULT_255_1_234
10
21.7351213
20
36.3904
11
21.7351213
21
37.4329196
0
LINE
8
DEFAULT_255_1_234
10
21.7351213
20
37.4329196
11
21.3600391
21
37.4329196
0
LINE
8
DEFAULT_255_1_234
10
21.3600391
20
37.4329196
11
21.3600391
21
37.5598211
0
LINE
8
DEFAULT_255_1_234
10
21.3600391
20
37.5598211
11
22.2644128
21
37.5598211
0
LINE
8
DEFAULT_255_1_234
10
22.8876757
20
37.5654433
11
22.8876757
21
36.3904
0
LINE
8
DEFAULT_255_1_234
10
22.8876757
20
36.3904
11
22.7382854
21
36.3904
0
LINE
8
DEFAULT_255_1_234
10
22.7382854
20
36.3904
11
22.7382854
21
37.3807133
0
LINE
8
DEFAULT_255_1_234
10
22.7382854
20
37.3807133
11
22.4387016
21
37.2706785
0
LINE
8
DEFAULT_255_1_234
10
22.4387016
20
37.2706785
11
22.4387016
21
37.4056117
0
LINE
8
DEFAULT_255_1_234
10
22.4387016
20
37.4056117
11
22.8643837
21
37.5654433
0
LINE
8
DEFAULT_255_1_234
10
22.8643837
20
37.5654433
11
22.8876757
21
37.5654433
0
LINE
8
DEFAULT_255_1_234
10
24.0892238
20
36.5116792
11
24.0892238
21
36.3904
0
LINE
8
DEFAULT_255_1_234
10
24.0892238
20
36.3904
11
23.3229959
21
36.3904
0
LINE
8
DEFAULT_255_1_234
10
23.3229959
20
36.3904
11
23.3229959
21
36.4972221
0
LINE
8
DEFAULT_255_1_234
10
23.3229959
20
36.4972221
11
23.7277956
21
36.9469995
0
LINE
8
DEFAULT_255_1_234
10
23.4490942
20
37.2152595
11
23.3005071
21
37.2152595
0
LINE
8
DEFAULT_255_1_234
10
23.8153415
20
36.8514218
11
23.5021037
21
36.5116792
0
LINE
8
DEFAULT_255_1_234
10
23.5021037
20
36.5116792
11
24.0892238
21
36.5116792
0
ARC
8
DEFAULT_255_1_234
10
22.3787789
20
38.1399527
40
1.8008286
50
318.5132453
51
320.7828378
0
ARC
8
DEFAULT_255_1_234
10
22.9074763
20
37.7096426
40
1.1191493
50
320.7372736
51
323.9737074
0
ARC
8
DEFAULT_255_1_234
10
23.299462
20
37.4256361
40
0.6350923
50
323.8961724
51
328.6421089
0
ARC
8
DEFAULT_255_1_234
10
23.5041215
20
37.2994031
40
0.3946393
50
328.8299013
51
331.789948
0
ARC
8
DEFAULT_255_1_234
10
23.6038394
20
37.2479509
40
0.2824501
50
331.4255242
51
352.9364833
0
ARC
8
DEFAULT_255_1_234
10
23.6174894
20
37.2448976
40
0.2685315
50
353.2248685
51
0.0169286
0
ARC
8
DEFAULT_255_1_234
10
23.6384771
20
37.247195
40
0.2475536
50
359.4866256
51
15.9339782
0
ARC
8
DEFAULT_255_1_234
10
23.6891756
20
37.2608286
40
0.1950618
50
16.1714718
51
43.5284424
0
ARC
8
DEFAULT_255_1_234
10
23.6969065
20
37.2685573
40
0.184134
50
43.4415429
51
83.1661404
0
ARC
8
DEFAULT_255_1_234
10
23.6834983
20
37.1948771
40
0.258926
50
82.160215
51
90.1505798
0
ARC
8
DEFAULT_255_1_234
10
23.6803411
20
37.1411865
40
0.3126255
50
89.5460705
51
102.5418777
0
ARC
8
DEFAULT_255_1_234
10
23.6560497
20
37.2442665
40
0.2067346
50
102.1739365
51
129.2061916
0
ARC
8
DEFAULT_255_1_234
10
23.6481568
20
37.2567094
40
0.1921118
50
129.7279328
51
135.7542026
0
ARC
8
DEFAULT_255_1_234
10
23.6603096
20
37.2470045
40
0.2075944
50
136.175737
51
166.3674722
0
ARC
8
DEFAULT_255_1_234
10
23.7610015
20
37.2200182
40
0.3118201
50
165.9092917
51
178.8683903
0
ARC
8
DEFAULT_255_1_234
10
23.8474877
20
37.2153179
40
0.3983935
50
178.438168
51
180.0083905
0
ARC
8
DEFAULT_255_1_234
10
23.7073479
20
37.2192231
40
0.4068601
50
163.2878735
51
180.5581814
0
ARC
8
DEFAULT_255_1_234
10
23.627174
20
37.241284
40
0.3237344
50
133.454115
51
162.9470031
0
ARC
8
DEFAULT_255_1_234
10
23.6450281
20
37.2223
40
0.349795
50
100.7869394
51
133.4384016
0
ARC
8
DEFAULT_255_1_234
10
23.6798053
20
37.0674319
40
0.5084616
50
89.6605301
51
101.3704185
0
ARC
8
DEFAULT_255_1_234
10
23.6864392
20
37.0735496
40
0.502348
50
78.2171172
51
90.4130393
0
ARC
8
DEFAULT_255_1_234
10
23.721947
20
37.2359637
40
0.3361092
50
55.9268222
51
78.4888551
0
ARC
8
DEFAULT_255_1_234
10
23.741591
20
37.2698324
40
0.2970617
50
47.9292255
51
55.4054003
0
ARC
8
DEFAULT_255_1_234
10
23.7517471
20
37.2801502
40
0.2825983
50
4.3347696
51
48.0560701
0
ARC
8
DEFAULT_255_1_234
10
23.6421864
20
37.2631601
40
0.393225
50
359.925209
51
5.5967654
0
ARC
8
DEFAULT_255_1_234
10
23.6850756
20
37.2687816
40
0.3503892
50
337.8914096
51
358.9967724
0
ARC
8
DEFAULT_255_1_234
10
23.4137168
20
37.3734706
40
0.6412172
50
326.9135351
51
338.3505194
0
ARC
8
DEFAULT_255_1_234
10
23.0151472
20
37.6289284
40
1.1146189
50
319.6472867
51
327.095818
0
ARC
8
DEFAULT_255_1_234
10
22.6318475
20
37.9451
40
1.6114559
50
317.2586784
51
319.9046139
0
LINE
8
DEFAULT_255_1_234
10
20.1662911
20
44.9487534
11
20.1662911
21
44.8748614
0
LINE
8
DEFAULT_255_1_234
10
19.2257745
20
44.8644201
11
19.2257745
21
44.9487534
0
LINE
8
DEFAULT_255_1_234
10
20.0128849
20
44.8636169
11
20.0128849
21
44.9503597
0
LINE
8
DEFAULT_255_1_234
10
19.3791807
20
44.960801
11
19.3791807
21
44.8748614
0
ARC
8
DEFAULT_255_1_234
10
19.3020937
20
44.8709015
40
0.8642064
50
350.487711
51
0.2625388
0
ARC
8
DEFAULT_255_1_234
10
19.5314178
20
44.8314578
40
0.631518
50
336.0277639
51
350.5787438
0
ARC
8
DEFAULT_255_1_234
10
19.6659002
20
44.7706892
40
0.4839466
50
319.8877444
51
336.1328423
0
ARC
8
DEFAULT_255_1_234
10
19.7261643
20
44.722458
40
0.4067874
50
302.4806467
51
319.6143626
0
ARC
8
DEFAULT_255_1_234
10
19.7146653
20
44.7446202
40
0.4316636
50
275.8195682
51
302.1884709
0
ARC
8
DEFAULT_255_1_234
10
19.6980286
20
44.8588665
40
0.5470306
50
269.9171439
51
276.3397983
0
ARC
8
DEFAULT_255_1_234
10
19.6935496
20
44.7902681
40
0.4784458
50
252.5219675
51
270.4416499
0
ARC
8
DEFAULT_255_1_234
10
19.6791755
20
44.7363592
40
0.422716
50
237.5352116
51
252.1857531
0
ARC
8
DEFAULT_255_1_234
10
19.6880951
20
44.7477363
40
0.4371052
50
209.063312
51
237.3492538
0
ARC
8
DEFAULT_255_1_234
10
19.7750799
20
44.8023685
40
0.5397041
50
205.1183774
51
209.6470015
0
ARC
8
DEFAULT_255_1_234
10
19.8547836
20
44.836183
40
0.6262326
50
188.7215458
51
204.8240747
0
ARC
8
DEFAULT_255_1_234
10
20.0545364
20
44.8698067
40
0.8287794
50
180.3723947
51
188.9252049
0
ARC
8
DEFAULT_255_1_234
10
20.0518116
20
44.9527402
40
0.8260467
50
169.5253763
51
180.2765336
0
ARC
8
DEFAULT_255_1_234
10
19.8615564
20
44.9877309
40
0.6326007
50
155.8315255
51
169.5089989
0
ARC
8
DEFAULT_255_1_234
10
19.7335066
20
45.0471348
40
0.4914567
50
139.6258461
51
156.0379525
0
ARC
8
DEFAULT_255_1_234
10
19.6745399
20
45.0945799
40
0.4158054
50
122.6416387
51
139.3430715
0
ARC
8
DEFAULT_255_1_234
10
19.6846019
20
45.0762451
40
0.4366739
50
93.0223692
51
122.455762
0
ARC
8
DEFAULT_255_1_234
10
19.6954016
20
44.9797709
40
0.5336137
50
89.975342
51
93.6341897
0
ARC
8
DEFAULT_255_1_234
10
19.6992795
20
45.0196242
40
0.4937738
50
73.746375
51
90.4233405
0
ARC
8
DEFAULT_255_1_234
10
19.7168373
20
45.0876287
40
0.4235786
50
57.662753
51
73.4518111
0
ARC
8
DEFAULT_255_1_234
10
19.716038
20
45.0897832
40
0.4221899
50
29.1440151
51
57.414694
0
ARC
8
DEFAULT_255_1_234
10
19.6225574
20
45.0314005
40
0.5322966
50
24.0982783
51
29.7323517
0
ARC
8
DEFAULT_255_1_234
10
19.519185
20
44.9885399
40
0.6441673
50
8.6655297
51
23.8241346
0
ARC
8
DEFAULT_255_1_234
10
19.2957588
20
44.9520854
40
0.8705386
50
359.7806941
51
8.8218784
0
ARC
8
DEFAULT_255_1_234
10
19.1810586
20
44.9546345
40
0.8318373
50
359.7055579
51
8.036044
0
ARC
8
DEFAULT_255_1_234
10
19.4810592
20
44.9983239
40
0.5286768
50
7.8928306
51
20.2962107
0
ARC
8
DEFAULT_255_1_234
10
19.6438162
20
45.0583395
40
0.3552073
50
20.3231126
51
36.4992797
0
ARC
8
DEFAULT_255_1_234
10
19.7123708
20
45.1111402
40
0.2686974
50
36.1437156
51
85.6627023
0
ARC
8
DEFAULT_255_1_234
10
19.6961254
20
45.0071221
40
0.373739
50
84.3852322
51
90.0757696
0
ARC
8
DEFAULT_255_1_234
10
19.6918927
20
45.0731839
40
0.3076997
50
89.3038458
51
109.9045693
0
ARC
8
DEFAULT_255_1_234
10
19.6826318
20
45.1114062
40
0.2686424
50
110.8228367
51
143.9179474
0
ARC
8
DEFAULT_255_1_234
10
19.7759978
20
45.0401236
40
0.3860887
50
143.5289163
51
163.2980757
0
ARC
8
DEFAULT_255_1_234
10
19.9667799
20
44.9801433
40
0.5860659
50
163.0418846
51
174.3140048
0
ARC
8
DEFAULT_255_1_234
10
20.2071911
20
44.9523854
40
0.8280531
50
174.0509143
51
179.4176892
0
ARC
8
DEFAULT_255_1_234
10
20.156765
20
44.8706954
40
0.7775954
50
179.6930361
51
188.7906598
0
ARC
8
DEFAULT_255_1_234
10
19.8904129
20
44.8280935
40
0.5078633
50
188.6331305
51
202.5629587
0
ARC
8
DEFAULT_255_1_234
10
19.7649721
20
44.7776996
40
0.3726913
50
202.8081362
51
216.1193925
0
ARC
8
DEFAULT_255_1_234
10
19.6840291
20
44.7125676
40
0.2689577
50
215.0755913
51
264.6379694
0
ARC
8
DEFAULT_255_1_234
10
19.696724
20
44.7956513
40
0.3528978
50
263.846392
51
270.0833719
0
ARC
8
DEFAULT_255_1_234
10
19.7008631
20
44.7698374
40
0.3271036
50
269.3649385
51
287.5152008
0
ARC
8
DEFAULT_255_1_234
10
19.7186788
20
44.7051238
40
0.2600406
50
288.0630309
51
323.8113348
0
ARC
8
DEFAULT_255_1_234
10
19.631563
20
44.7701049
40
0.3687189
50
323.6547608
51
342.6590488
0
ARC
8
DEFAULT_255_1_234
10
19.4284245
20
44.8361952
40
0.5823286
50
342.4091907
51
353.6451149
0
ARC
8
DEFAULT_255_1_234
10
19.1452756
20
44.871419
40
0.8676442
50
353.4029884
51
359.4847795
0
LINE
8
DEFAULT_255_1_234
10
21.0658458
20
45.4973211
11
21.2208583
21
45.4973211
0
LINE
8
DEFAULT_255_1_234
10
21.2208583
20
45.4973211
11
21.2208583
21
44.702179
0
LINE
8
DEFAULT_255_1_234
10
20.8369412
20
44.3134429
11
20.7959793
21
44.3118365
0
LINE
8
DEFAULT_255_1_234
10
20.3743131
20
44.7005727
11
20.3743131
21
45.4973211
0
LINE
8
DEFAULT_255_1_234
10
20.3743131
20
45.4973211
11
20.5269161
21
45.4973211
0
LINE
8
DEFAULT_255_1_234
10
20.5269161
20
45.4973211
11
20.5269161
21
44.7053917
0
LINE
8
DEFAULT_255_1_234
10
21.0658458
20
44.7045885
11
21.0658458
21
45.4973211
0
ARC
8
DEFAULT_255_1_234
10
20.7855481
20
44.7001928
40
0.4353147
50
343.0898354
51
0.2614217
0
ARC
8
DEFAULT_255_1_234
10
20.8683883
20
44.6770837
40
0.3493402
50
315.3345598
51
342.7641223
0
ARC
8
DEFAULT_255_1_234
10
20.8460332
20
44.7002682
40
0.3815385
50
284.6606969
51
315.2182466
0
ARC
8
DEFAULT_255_1_234
10
20.8005044
20
44.8548755
40
0.5426573
50
273.8500273
51
285.1797701
0
ARC
8
DEFAULT_255_1_234
10
20.7917095
20
44.8890475
40
0.5772268
50
257.6317484
51
270.4238298
0
ARC
8
DEFAULT_255_1_234
10
20.7492293
20
44.7069198
40
0.3902347
50
230.6087562
51
257.9964012
0
ARC
8
DEFAULT_255_1_234
10
20.7360295
20
44.6862802
40
0.3659186
50
227.7440991
51
230.1551448
0
ARC
8
DEFAULT_255_1_234
10
20.7226127
20
44.6701471
40
0.3449568
50
189.2524587
51
227.5916061
0
ARC
8
DEFAULT_255_1_234
10
20.8747813
20
44.7029013
40
0.5004737
50
180.2665968
51
190.1525252
0
ARC
8
DEFAULT_255_1_234
10
20.8969833
20
44.7025918
40
0.3700778
50
179.5665184
51
191.9952995
0
ARC
8
DEFAULT_255_1_234
10
20.7741939
20
44.6752043
40
0.2442808
50
191.6974072
51
215.1404042
0
ARC
8
DEFAULT_255_1_234
10
20.7503854
20
44.6610108
40
0.2166522
50
215.6950207
51
224.8513522
0
ARC
8
DEFAULT_255_1_234
10
20.7559598
20
44.6689697
40
0.2262237
50
225.2846858
51
255.0111758
0
ARC
8
DEFAULT_255_1_234
10
20.7883558
20
44.7803455
40
0.3421979
50
254.5944985
51
267.9129803
0
ARC
8
DEFAULT_255_1_234
10
20.7958038
20
44.8887903
40
0.4508556
50
267.4689655
51
270.0223026
0
ARC
8
DEFAULT_255_1_234
10
20.7988184
20
44.8298849
40
0.3919604
50
269.5849941
51
281.1843768
0
ARC
8
DEFAULT_255_1_234
10
20.8266948
20
44.6946059
40
0.2538457
50
280.9344262
51
300.9743589
0
ARC
8
DEFAULT_255_1_234
10
20.8479554
20
44.6554688
40
0.2093566
50
301.4980046
51
315.1466847
0
ARC
8
DEFAULT_255_1_234
10
20.8335092
20
44.6673236
40
0.2279656
50
315.5952539
51
345.6678731
0
ARC
8
DEFAULT_255_1_234
10
20.7215609
20
44.6985009
40
0.3441564
50
345.2524969
51
358.6304371
0
ARC
8
DEFAULT_255_1_234
10
20.6197963
20
44.7044916
40
0.4460494
50
358.1735671
51
0.0124524
0
LINE
8
DEFAULT_255_1_234
10
22.2722128
20
45.4973211
11
22.2722128
21
45.3704196
0
LINE
8
DEFAULT_255_1_234
10
22.2722128
20
45.3704196
11
21.8963275
21
45.3704196
0
LINE
8
DEFAULT_255_1_234
10
21.8963275
20
45.3704196
11
21.8963275
21
44.3279
0
LINE
8
DEFAULT_255_1_234
10
21.8963275
20
44.3279
11
21.7429213
21
44.3279
0
LINE
8
DEFAULT_255_1_234
10
21.7429213
20
44.3279
11
21.7429213
21
45.3704196
0
LINE
8
DEFAULT_255_1_234
10
21.7429213
20
45.3704196
11
21.3678391
21
45.3704196
0
LINE
8
DEFAULT_255_1_234
10
21.3678391
20
45.3704196
11
21.3678391
21
45.4973211
0
LINE
8
DEFAULT_255_1_234
10
21.3678391
20
45.4973211
11
22.2722128
21
45.4973211
0
LINE
8
DEFAULT_255_1_234
10
22.8954757
20
45.5029433
11
22.8954757
21
44.3279
0
LINE
8
DEFAULT_255_1_234
10
22.8954757
20
44.3279
11
22.7460854
21
44.3279
0
LINE
8
DEFAULT_255_1_234
10
22.7460854
20
44.3279
11
22.7460854
21
45.3182133
0
LINE
8
DEFAULT_255_1_234
10
22.7460854
20
45.3182133
11
22.4465016
21
45.2081785
0
LINE
8
DEFAULT_255_1_234
10
22.4465016
20
45.2081785
11
22.4465016
21
45.3431117
0
LINE
8
DEFAULT_255_1_234
10
22.4465016
20
45.3431117
11
22.8721837
21
45.5029433
0
LINE
8
DEFAULT_255_1_234
10
22.8721837
20
45.5029433
11
22.8954757
21
45.5029433
0
LINE
8
DEFAULT_255_1_234
10
23.8191256
20
45.5029433
11
23.8191256
21
44.3279
0
LINE
8
DEFAULT_255_1_234
10
23.8191256
20
44.3279
11
23.6697353
21
44.3279
0
LINE
8
DEFAULT_255_1_234
10
23.6697353
20
44.3279
11
23.6697353
21
45.3182133
0
LINE
8
DEFAULT_255_1_234
10
23.6697353
20
45.3182133
11
23.3701515
21
45.2081785
0
LINE
8
DEFAULT_255_1_234
10
23.3701515
20
45.2081785
11
23.3701515
21
45.3431117
0
LINE
8
DEFAULT_255_1_234
10
23.3701515
20
45.3431117
11
23.7958336
21
45.5029433
0
LINE
8
DEFAULT_255_1_234
10
23.7958336
20
45.5029433
11
23.8191256
21
45.5029433
0
LINE
8
DEFAULT_255_1_234
10
20.1584911
20
52.8862534
11
20.1584911
21
52.8123614
0
LINE
8
DEFAULT_255_1_234
10
19.2179745
20
52.8019201
11
19.2179745
21
52.8862534
0
LINE
8
DEFAULT_255_1_234
10
20.0050849
20
52.8011169
11
20.0050849
21
52.8878597
0
LINE
8
DEFAULT_255_1_234
10
19.3713807
20
52.898301
11
19.3713807
21
52.8123614
0
ARC
8
DEFAULT_255_1_234
10
19.2942937
20
52.8084015
40
0.8642064
50
350.487711
51
0.2625388
0
ARC
8
DEFAULT_255_1_234
10
19.5236178
20
52.7689578
40
0.631518
50
336.0277639
51
350.5787438
0
ARC
8
DEFAULT_255_1_234
10
19.6581002
20
52.7081892
40
0.4839466
50
319.8877444
51
336.1328423
0
ARC
8
DEFAULT_255_1_234
10
19.7183643
20
52.659958
40
0.4067874
50
302.4806467
51
319.6143626
0
ARC
8
DEFAULT_255_1_234
10
19.7068653
20
52.6821202
40
0.4316636
50
275.8195682
51
302.1884709
0
ARC
8
DEFAULT_255_1_234
10
19.6902286
20
52.7963665
40
0.5470306
50
269.9171439
51
276.3397983
0
ARC
8
DEFAULT_255_1_234
10
19.6857496
20
52.7277681
40
0.4784458
50
252.5219675
51
270.4416499
0
ARC
8
DEFAULT_255_1_234
10
19.6713755
20
52.6738592
40
0.422716
50
237.5352116
51
252.1857531
0
ARC
8
DEFAULT_255_1_234
10
19.6802951
20
52.6852363
40
0.4371052
50
209.063312
51
237.3492538
0
ARC
8
DEFAULT_255_1_234
10
19.7672799
20
52.7398685
40
0.5397041
50
205.1183774
51
209.6470015
0
ARC
8
DEFAULT_255_1_234
10
19.8469836
20
52.773683
40
0.6262326
50
188.7215458
51
204.8240747
0
ARC
8
DEFAULT_255_1_234
10
20.0467364
20
52.8073067
40
0.8287794
50
180.3723947
51
188.9252049
0
ARC
8
DEFAULT_255_1_234
10
20.0440116
20
52.8902402
40
0.8260467
50
169.5253763
51
180.2765336
0
ARC
8
DEFAULT_255_1_234
10
19.8537564
20
52.9252309
40
0.6326007
50
155.8315255
51
169.5089989
0
ARC
8
DEFAULT_255_1_234
10
19.7257066
20
52.9846348
40
0.4914567
50
139.6258461
51
156.0379525
0
ARC
8
DEFAULT_255_1_234
10
19.6667399
20
53.0320799
40
0.4158054
50
122.6416387
51
139.3430715
0
ARC
8
DEFAULT_255_1_234
10
19.6768019
20
53.0137451
40
0.4366739
50
93.0223692
51
122.455762
0
ARC
8
DEFAULT_255_1_234
10
19.6876016
20
52.9172709
40
0.5336137
50
89.975342
51
93.6341897
0
ARC
8
DEFAULT_255_1_234
10
19.6914795
20
52.9571242
40
0.4937738
50
73.746375
51
90.4233405
0
ARC
8
DEFAULT_255_1_234
10
19.7090373
20
53.0251287
40
0.4235786
50
57.662753
51
73.4518111
0
ARC
8
DEFAULT_255_1_234
10
19.708238
20
53.0272832
40
0.4221899
50
29.1440151
51
57.414694
0
ARC
8
DEFAULT_255_1_234
10
19.6147574
20
52.9689005
40
0.5322966
50
24.0982783
51
29.7323517
0
ARC
8
DEFAULT_255_1_234
10
19.511385
20
52.9260399
40
0.6441673
50
8.6655297
51
23.8241346
0
ARC
8
DEFAULT_255_1_234
10
19.2879588
20
52.8895854
40
0.8705386
50
359.7806941
51
8.8218784
0
ARC
8
DEFAULT_255_1_234
10
19.1732586
20
52.8921345
40
0.8318373
50
359.7055579
51
8.036044
0
ARC
8
DEFAULT_255_1_234
10
19.4732592
20
52.9358239
40
0.5286768
50
7.8928306
51
20.2962107
0
ARC
8
DEFAULT_255_1_234
10
19.6360162
20
52.9958395
40
0.3552073
50
20.3231126
51
36.4992797
0
ARC
8
DEFAULT_255_1_234
10
19.7045708
20
53.0486402
40
0.2686974
50
36.1437156
51
85.6627023
0
ARC
8
DEFAULT_255_1_234
10
19.6883254
20
52.9446221
40
0.373739
50
84.3852322
51
90.0757696
0
ARC
8
DEFAULT_255_1_234
10
19.6840927
20
53.0106839
40
0.3076997
50
89.3038458
51
109.9045693
0
ARC
8
DEFAULT_255_1_234
10
19.6748318
20
53.0489062
40
0.2686424
50
110.8228367
51
143.9179474
0
ARC
8
DEFAULT_255_1_234
10
19.7681978
20
52.9776236
40
0.3860887
50
143.5289163
51
163.2980757
0
ARC
8
DEFAULT_255_1_234
10
19.9589799
20
52.9176433
40
0.5860659
50
163.0418846
51
174.3140048
0
ARC
8
DEFAULT_255_1_234
10
20.1993911
20
52.8898854
40
0.8280531
50
174.0509143
51
179.4176892
0
ARC
8
DEFAULT_255_1_234
10
20.148965
20
52.8081954
40
0.7775954
50
179.6930361
51
188.7906598
0
ARC
8
DEFAULT_255_1_234
10
19.8826129
20
52.7655935
40
0.5078633
50
188.6331305
51
202.5629587
0
ARC
8
DEFAULT_255_1_234
10
19.7571721
20
52.7151996
40
0.3726913
50
202.8081362
51
216.1193925
0
ARC
8
DEFAULT_255_1_234
10
19.6762291
20
52.6500676
40
0.2689577
50
215.0755913
51
264.6379694
0
ARC
8
DEFAULT_255_1_234
10
19.688924
20
52.7331513
40
0.3528978
50
263.846392
51
270.0833719
0
ARC
8
DEFAULT_255_1_234
10
19.6930631
20
52.7073374
40
0.3271036
50
269.3649385
51
287.5152008
0
ARC
8
DEFAULT_255_1_234
10
19.7108788
20
52.6426238
40
0.2600406
50
288.0630309
51
323.8113348
0
ARC
8
DEFAULT_255_1_234
10
19.623763
20
52.7076049
40
0.3687189
50
323.6547608
51
342.6590488
0
ARC
8
DEFAULT_255_1_234
10
19.4206245
20
52.7736952
40
0.5823286
50
342.4091907
51
353.6451149
0
ARC
8
DEFAULT_255_1_234
10
19.1374756
20
52.808919
40
0.8676442
50
353.4029884
51
359.4847795
0
LINE
8
DEFAULT_255_1_234
10
21.0580458
20
53.4348211
11
21.2130583
21
53.4348211
0
LINE
8
DEFAULT_255_1_234
10
21.2130583
20
53.4348211
11
21.2130583
21
52.639679
0
LINE
8
DEFAULT_255_1_234
10
20.8291412
20
52.2509429
11
20.7881793
21
52.2493365
0
LINE
8
DEFAULT_255_1_234
10
20.3665131
20
52.6380727
11
20.3665131
21
53.4348211
0
LINE
8
DEFAULT_255_1_234
10
20.3665131
20
53.4348211
11
20.5191161
21
53.4348211
0
LINE
8
DEFAULT_255_1_234
10
20.5191161
20
53.4348211
11
20.5191161
21
52.6428917
0
LINE
8
DEFAULT_255_1_234
10
21.0580458
20
52.6420885
11
21.0580458
21
53.4348211
0
ARC
8
DEFAULT_255_1_234
10
20.7777481
20
52.6376928
40
0.4353147
50
343.0898354
51
0.2614217
0
ARC
8
DEFAULT_255_1_234
10
20.8605883
20
52.6145837
40
0.3493402
50
315.3345598
51
342.7641223
0
ARC
8
DEFAULT_255_1_234
10
20.8382332
20
52.6377682
40
0.3815385
50
284.6606969
51
315.2182466
0
ARC
8
DEFAULT_255_1_234
10
20.7927044
20
52.7923755
40
0.5426573
50
273.8500273
51
285.1797701
0
ARC
8
DEFAULT_255_1_234
10
20.7839095
20
52.8265475
40
0.5772268
50
257.6317484
51
270.4238298
0
ARC
8
DEFAULT_255_1_234
10
20.7414293
20
52.6444198
40
0.3902347
50
230.6087562
51
257.9964012
0
ARC
8
DEFAULT_255_1_234
10
20.7282295
20
52.6237802
40
0.3659186
50
227.7440991
51
230.1551448
0
ARC
8
DEFAULT_255_1_234
10
20.7148127
20
52.6076471
40
0.3449568
50
189.2524587
51
227.5916061
0
ARC
8
DEFAULT_255_1_234
10
20.8669813
20
52.6404013
40
0.5004737
50
180.2665968
51
190.1525252
0
ARC
8
DEFAULT_255_1_234
10
20.8891833
20
52.6400918
40
0.3700778
50
179.5665184
51
191.9952995
0
ARC
8
DEFAULT_255_1_234
10
20.7663939
20
52.6127043
40
0.2442808
50
191.6974072
51
215.1404042
0
ARC
8
DEFAULT_255_1_234
10
20.7425854
20
52.5985108
40
0.2166522
50
215.6950207
51
224.8513522
0
ARC
8
DEFAULT_255_1_234
10
20.7481598
20
52.6064697
40
0.2262237
50
225.2846858
51
255.0111758
0
ARC
8
DEFAULT_255_1_234
10
20.7805558
20
52.7178455
40
0.3421979
50
254.5944985
51
267.9129803
0
ARC
8
DEFAULT_255_1_234
10
20.7880038
20
52.8262903
40
0.4508556
50
267.4689655
51
270.0223026
0
ARC
8
DEFAULT_255_1_234
10
20.7910184
20
52.7673849
40
0.3919604
50
269.5849941
51
281.1843768
0
ARC
8
DEFAULT_255_1_234
10
20.8188948
20
52.6321059
40
0.2538457
50
280.9344262
51
300.9743589
0
ARC
8
DEFAULT_255_1_234
10
20.8401554
20
52.5929688
40
0.2093566
50
301.4980046
51
315.1466847
0
ARC
8
DEFAULT_255_1_234
10
20.8257092
20
52.6048236
40
0.2279656
50
315.5952539
51
345.6678731
0
ARC
8
DEFAULT_255_1_234
10
20.7137609
20
52.6360009
40
0.3441564
50
345.2524969
51
358.6304371
0
ARC
8
DEFAULT_255_1_234
10
20.6119963
20
52.6419916
40
0.4460494
50
358.1735671
51
0.0124524
0
LINE
8
DEFAULT_255_1_234
10
22.2644128
20
53.4348211
11
22.2644128
21
53.3079196
0
LINE
8
DEFAULT_255_1_234
10
22.2644128
20
53.3079196
11
21.8885275
21
53.3079196
0
LINE
8
DEFAULT_255_1_234
10
21.8885275
20
53.3079196
11
21.8885275
21
52.2654
0
LINE
8
DEFAULT_255_1_234
10
21.8885275
20
52.2654
11
21.7351213
21
52.2654
0
LINE
8
DEFAULT_255_1_234
10
21.7351213
20
52.2654
11
21.7351213
21
53.3079196
0
LINE
8
DEFAULT_255_1_234
10
21.7351213
20
53.3079196
11
21.3600391
21
53.3079196
0
LINE
8
DEFAULT_255_1_234
10
21.3600391
20
53.3079196
11
21.3600391
21
53.4348211
0
LINE
8
DEFAULT_255_1_234
10
21.3600391
20
53.4348211
11
22.2644128
21
53.4348211
0
LINE
8
DEFAULT_255_1_234
10
22.8876757
20
53.4404433
11
22.8876757
21
52.2654
0
LINE
8
DEFAULT_255_1_234
10
22.8876757
20
52.2654
11
22.7382854
21
52.2654
0
LINE
8
DEFAULT_255_1_234
10
22.7382854
20
52.2654
11
22.7382854
21
53.2557133
0
LINE
8
DEFAULT_255_1_234
10
22.7382854
20
53.2557133
11
22.4387016
21
53.1456785
0
LINE
8
DEFAULT_255_1_234
10
22.4387016
20
53.1456785
11
22.4387016
21
53.2806117
0
LINE
8
DEFAULT_255_1_234
10
22.4387016
20
53.2806117
11
22.8643837
21
53.4404433
0
LINE
8
DEFAULT_255_1_234
10
22.8643837
20
53.4404433
11
22.8876757
21
53.4404433
0
LINE
8
DEFAULT_255_1_234
10
24.0562937
20
52.9569327
11
24.0562937
21
52.7641709
0
LINE
8
DEFAULT_255_1_234
10
23.3181769
20
52.7440916
11
23.3181769
21
52.9424755
0
LINE
8
DEFAULT_255_1_234
10
23.9077065
20
52.7240123
11
23.9077065
21
52.9673739
0
LINE
8
DEFAULT_255_1_234
10
23.4667641
20
52.9786184
11
23.4667641
21
52.7408789
0
ARC
8
DEFAULT_255_1_234
10
22.8315826
20
52.7592805
40
1.2247208
50
353.8441951
51
0.2287902
0
ARC
8
DEFAULT_255_1_234
10
23.295533
20
52.7074806
40
0.7578929
50
344.4934747
51
353.9765454
0
ARC
8
DEFAULT_255_1_234
10
23.594792
20
52.6223981
40
0.4467846
50
329.2803592
51
344.7472793
0
ARC
8
DEFAULT_255_1_234
10
23.6940745
20
52.5679018
40
0.3336173
50
324.9352394
51
328.6160465
0
ARC
8
DEFAULT_255_1_234
10
23.7317854
20
52.5415427
40
0.2876076
50
280.580143
51
324.9173126
0
ARC
8
DEFAULT_255_1_234
10
23.6916646
20
52.7086099
40
0.4592847
50
269.5977311
51
281.6734359
0
ARC
8
DEFAULT_255_1_234
10
23.6844552
20
52.6966173
40
0.4472986
50
256.6228859
51
270.51044
0
ARC
8
DEFAULT_255_1_234
10
23.644253
20
52.5417877
40
0.2873874
50
215.8618325
51
257.2788573
0
ARC
8
DEFAULT_255_1_234
10
23.7463561
20
52.6102977
40
0.4102928
50
197.9693508
51
215.2623606
0
ARC
8
DEFAULT_255_1_234
10
23.9948677
20
52.6941709
40
0.6725652
50
187.8816417
51
198.2346507
0
ARC
8
DEFAULT_255_1_234
10
24.3906885
20
52.7513079
40
1.0724845
50
180.8976217
51
188.0055519
0
ARC
8
DEFAULT_255_1_234
10
24.6707073
20
52.7616777
40
1.3526448
50
180.7449369
51
181.1510016
0
ARC
8
DEFAULT_255_1_234
10
24.5129802
20
52.9473042
40
1.1948131
50
173.7675579
51
180.231553
0
ARC
8
DEFAULT_255_1_234
10
24.0611949
20
52.9983666
40
0.7401564
50
164.3058563
51
173.9002247
0
ARC
8
DEFAULT_255_1_234
10
23.7700018
20
53.0822656
40
0.4371288
50
148.7922025
51
164.568378
0
ARC
8
DEFAULT_255_1_234
10
23.674847
20
53.1353929
40
0.3282386
50
144.5883898
51
148.1176286
0
ARC
8
DEFAULT_255_1_234
10
23.6405368
20
53.1593315
40
0.2864044
50
101.6440918
51
144.514236
0
ARC
8
DEFAULT_255_1_234
10
23.6830435
20
52.9904069
40
0.4604934
50
89.5284041
51
102.5819763
0
ARC
8
DEFAULT_255_1_234
10
23.6909522
20
52.9865018
40
0.464401
50
77.0437873
51
90.5081339
0
ARC
8
DEFAULT_255_1_234
10
23.7311524
20
53.1507615
40
0.2953195
50
48.2778575
51
77.4994676
0
ARC
8
DEFAULT_255_1_234
10
23.7384155
20
53.1636746
40
0.2808655
50
36.3142134
51
47.6305865
0
ARC
8
DEFAULT_255_1_234
10
23.6515462
20
53.1051515
40
0.3855453
50
18.2931786
51
35.6769206
0
ARC
8
DEFAULT_255_1_234
10
23.3972221
20
53.0178593
40
0.654423
50
8.024666
51
18.5605216
0
ARC
8
DEFAULT_255_1_234
10
22.9809141
20
52.9563792
40
1.0752407
50
1.1274072
51
8.1718305
0
ARC
8
DEFAULT_255_1_234
10
22.6573332
20
52.9436885
40
1.3990231
50
0.5424119
51
1.3863029
0
ARC
8
DEFAULT_255_1_234
10
22.839471
20
52.9709342
40
1.0682415
50
359.8090433
51
4.9407866
0
ARC
8
DEFAULT_255_1_234
10
23.2604724
20
53.0085113
40
0.6455691
50
4.8362157
51
12.2904523
0
ARC
8
DEFAULT_255_1_234
10
23.5359838
20
53.0698965
40
0.3633074
50
12.0805627
51
23.8173984
0
ARC
8
DEFAULT_255_1_234
10
23.6533544
20
53.1195919
40
0.2358723
50
24.2871213
51
31.3935614
0
ARC
8
DEFAULT_255_1_234
10
23.7058241
20
53.1539233
40
0.1732111
50
30.7407893
51
82.4657128
0
ARC
8
DEFAULT_255_1_234
10
23.6878375
20
53.0655691
40
0.263235
50
81.1060089
51
90.2184952
0
ARC
8
DEFAULT_255_1_234
10
23.6842674
20
53.0913924
40
0.2374236
50
89.3806855
51
105.6762551
0
ARC
8
DEFAULT_255_1_234
10
23.6659305
20
53.1580567
40
0.1682847
50
105.7981136
51
149.7388061
0
ARC
8
DEFAULT_255_1_234
10
23.7723383
20
53.094095
40
0.2924306
50
149.4208916
51
163.6286378
0
ARC
8
DEFAULT_255_1_234
10
23.9814271
20
53.030325
40
0.5110213
50
163.3763315
51
172.1410975
0
ARC
8
DEFAULT_255_1_234
10
24.311499
20
52.9830518
40
0.8444586
50
172.0259487
51
178.0703232
0
ARC
8
DEFAULT_255_1_234
10
24.614508
20
52.9686906
40
1.1477868
50
177.8631668
51
179.5044149
0
ARC
8
DEFAULT_255_1_234
10
24.5072484
20
52.7372389
40
1.0404907
50
179.7995573
51
185.2460446
0
ARC
8
DEFAULT_255_1_234
10
24.1029523
20
52.6989513
40
0.6343885
50
185.1411642
51
193.0079639
0
ARC
8
DEFAULT_255_1_234
10
23.8385996
20
52.6364641
40
0.3627568
50
192.7897626
51
205.2507664
0
ARC
8
DEFAULT_255_1_234
10
23.7339543
20
52.5897415
40
0.2481908
50
205.8005384
51
211.2537509
0
ARC
8
DEFAULT_255_1_234
10
23.6815983
20
52.554658
40
0.1852521
50
210.3789793
51
238.4008143
0
ARC
8
DEFAULT_255_1_234
10
23.6796505
20
52.5593376
40
0.1882621
50
239.6520629
51
265.9793761
0
ARC
8
DEFAULT_255_1_234
10
23.6881705
20
52.6265427
40
0.2559272
50
265.1315437
51
270.060332
0
ARC
8
DEFAULT_255_1_234
10
23.6910484
20
52.5941534
40
0.2235528
50
269.3314664
51
287.2178029
0
ARC
8
DEFAULT_255_1_234
10
23.7048336
20
52.5438279
40
0.1714108
50
287.7958004
51
329.080874
0
ARC
8
DEFAULT_255_1_234
10
23.6090793
20
52.603593
40
0.2842745
50
328.6634704
51
343.3325132
0
ARC
8
DEFAULT_255_1_234
10
23.3917813
20
52.6712863
40
0.5118644
50
343.0499468
51
351.9393422
0
ARC
8
DEFAULT_255_1_234
10
23.0451113
20
52.7223949
40
0.8622784
50
351.8069023
51
357.7959224
0
ARC
8
DEFAULT_255_1_234
10
22.7215669
20
52.7391721
40
1.1862365
50
357.5871873
51
359.2677531
0
LINE
8
DEFAULT_255_1_234
10
21.1414911
20
60.8237534
11
21.1414911
21
60.7498614
0
LINE
8
DEFAULT_255_1_234
10
20.2009745
20
60.7394201
11
20.2009745
21
60.8237534
0
LINE
8
DEFAULT_255_1_234
10
20.9880849
20
60.7386169
11
20.9880849
21
60.8253597
0
LINE
8
DEFAULT_255_1_234
10
20.3543807
20
60.835801
11
20.3543807
21
60.7498614
0
ARC
8
DEFAULT_255_1_234
10
20.2772937
20
60.7459015
40
0.8642064
50
350.487711
51
0.2625388
0
ARC
8
DEFAULT_255_1_234
10
20.5066178
20
60.7064578
40
0.631518
50
336.0277639
51
350.5787438
0
ARC
8
DEFAULT_255_1_234
10
20.6411002
20
60.6456892
40
0.4839466
50
319.8877444
51
336.1328423
0
ARC
8
DEFAULT_255_1_234
10
20.7013643
20
60.597458
40
0.4067874
50
302.4806467
51
319.6143626
0
ARC
8
DEFAULT_255_1_234
10
20.6898653
20
60.6196202
40
0.4316636
50
275.8195682
51
302.1884709
0
ARC
8
DEFAULT_255_1_234
10
20.6732286
20
60.7338665
40
0.5470306
50
269.9171439
51
276.3397983
0
ARC
8
DEFAULT_255_1_234
10
20.6687496
20
60.6652681
40
0.4784458
50
252.5219675
51
270.4416499
0
ARC
8
DEFAULT_255_1_234
10
20.6543755
20
60.6113592
40
0.422716
50
237.5352116
51
252.1857531
0
ARC
8
DEFAULT_255_1_234
10
20.6632951
20
60.6227363
40
0.4371052
50
209.063312
51
237.3492538
0
ARC
8
DEFAULT_255_1_234
10
20.7502799
20
60.6773685
40
0.5397041
50
205.1183774
51
209.6470015
0
ARC
8
DEFAULT_255_1_234
10
20.8299836
20
60.711183
40
0.6262326
50
188.7215458
51
204.8240747
0
ARC
8
DEFAULT_255_1_234
10
21.0297364
20
60.7448067
40
0.8287794
50
180.3723947
51
188.9252049
0
ARC
8
DEFAULT_255_1_234
10
21.0270116
20
60.8277402
40
0.8260467
50
169.5253763
51
180.2765336
0
ARC
8
DEFAULT_255_1_234
10
20.8367564
20
60.8627309
40
0.6326007
50
155.8315255
51
169.5089989
0
ARC
8
DEFAULT_255_1_234
10
20.7087066
20
60.9221348
40
0.4914567
50
139.6258461
51
156.0379525
0
ARC
8
DEFAULT_255_1_234
10
20.6497399
20
60.9695799
40
0.4158054
50
122.6416387
51
139.3430715
0
ARC
8
DEFAULT_255_1_234
10
20.6598019
20
60.9512451
40
0.4366739
50
93.0223692
51
122.455762
0
ARC
8
DEFAULT_255_1_234
10
20.6706016
20
60.8547709
40
0.5336137
50
89.975342
51
93.6341897
0
ARC
8
DEFAULT_255_1_234
10
20.6744795
20
60.8946242
40
0.4937738
50
73.746375
51
90.4233405
0
ARC
8
DEFAULT_255_1_234
10
20.6920373
20
60.9626287
40
0.4235786
50
57.662753
51
73.4518111
0
ARC
8
DEFAULT_255_1_234
10
20.691238
20
60.9647832
40
0.4221899
50
29.1440151
51
57.414694
0
ARC
8
DEFAULT_255_1_234
10
20.5977574
20
60.9064005
40
0.5322966
50
24.0982783
51
29.7323517
0
ARC
8
DEFAULT_255_1_234
10
20.494385
20
60.8635399
40
0.6441673
50
8.6655297
51
23.8241346
0
ARC
8
DEFAULT_255_1_234
10
20.2709588
20
60.8270854
40
0.8705386
50
359.7806941
51
8.8218784
0
ARC
8
DEFAULT_255_1_234
10
20.1562586
20
60.8296345
40
0.8318373
50
359.7055579
51
8.036044
0
ARC
8
DEFAULT_255_1_234
10
20.4562592
20
60.8733239
40
0.5286768
50
7.8928306
51
20.2962107
0
ARC
8
DEFAULT_255_1_234
10
20.6190162
20
60.9333395
40
0.3552073
50
20.3231126
51
36.4992797
0
ARC
8
DEFAULT_255_1_234
10
20.6875708
20
60.9861402
40
0.2686974
50
36.1437156
51
85.6627023
0
ARC
8
DEFAULT_255_1_234
10
20.6713254
20
60.8821221
40
0.373739
50
84.3852322
51
90.0757696
0
ARC
8
DEFAULT_255_1_234
10
20.6670927
20
60.9481839
40
0.3076997
50
89.3038458
51
109.9045693
0
ARC
8
DEFAULT_255_1_234
10
20.6578318
20
60.9864062
40
0.2686424
50
110.8228367
51
143.9179474
0
ARC
8
DEFAULT_255_1_234
10
20.7511978
20
60.9151236
40
0.3860887
50
143.5289163
51
163.2980757
0
ARC
8
DEFAULT_255_1_234
10
20.9419799
20
60.8551433
40
0.5860659
50
163.0418846
51
174.3140048
0
ARC
8
DEFAULT_255_1_234
10
21.1823911
20
60.8273854
40
0.8280531
50
174.0509143
51
179.4176892
0
ARC
8
DEFAULT_255_1_234
10
21.131965
20
60.7456954
40
0.7775954
50
179.6930361
51
188.7906598
0
ARC
8
DEFAULT_255_1_234
10
20.8656129
20
60.7030935
40
0.5078633
50
188.6331305
51
202.5629587
0
ARC
8
DEFAULT_255_1_234
10
20.7401721
20
60.6526996
40
0.3726913
50
202.8081362
51
216.1193925
0
ARC
8
DEFAULT_255_1_234
10
20.6592291
20
60.5875676
40
0.2689577
50
215.0755913
51
264.6379694
0
ARC
8
DEFAULT_255_1_234
10
20.671924
20
60.6706513
40
0.3528978
50
263.846392
51
270.0833719
0
ARC
8
DEFAULT_255_1_234
10
20.6760631
20
60.6448374
40
0.3271036
50
269.3649385
51
287.5152008
0
ARC
8
DEFAULT_255_1_234
10
20.6938788
20
60.5801238
40
0.2600406
50
288.0630309
51
323.8113348
0
ARC
8
DEFAULT_255_1_234
10
20.606763
20
60.6451049
40
0.3687189
50
323.6547608
51
342.6590488
0
ARC
8
DEFAULT_255_1_234
10
20.4036245
20
60.7111952
40
0.5823286
50
342.4091907
51
353.6451149
0
ARC
8
DEFAULT_255_1_234
10
20.1204756
20
60.746419
40
0.8676442
50
353.4029884
51
359.4847795
0
LINE
8
DEFAULT_255_1_234
10
22.0410458
20
61.3723211
11
22.1960583
21
61.3723211
0
LINE
8
DEFAULT_255_1_234
10
22.1960583
20
61.3723211
11
22.1960583
21
60.577179
0
LINE
8
DEFAULT_255_1_234
10
21.8121412
20
60.1884429
11
21.7711793
21
60.1868365
0
LINE
8
DEFAULT_255_1_234
10
21.3495131
20
60.5755727
11
21.3495131
21
61.3723211
0
LINE
8
DEFAULT_255_1_234
10
21.3495131
20
61.3723211
11
21.5021161
21
61.3723211
0
LINE
8
DEFAULT_255_1_234
10
21.5021161
20
61.3723211
11
21.5021161
21
60.5803917
0
LINE
8
DEFAULT_255_1_234
10
22.0410458
20
60.5795885
11
22.0410458
21
61.3723211
0
ARC
8
DEFAULT_255_1_234
10
21.7607481
20
60.5751928
40
0.4353147
50
343.0898354
51
0.2614217
0
ARC
8
DEFAULT_255_1_234
10
21.8435883
20
60.5520837
40
0.3493402
50
315.3345598
51
342.7641223
0
ARC
8
DEFAULT_255_1_234
10
21.8212332
20
60.5752682
40
0.3815385
50
284.6606969
51
315.2182466
0
ARC
8
DEFAULT_255_1_234
10
21.7757044
20
60.7298755
40
0.5426573
50
273.8500273
51
285.1797701
0
ARC
8
DEFAULT_255_1_234
10
21.7669095
20
60.7640475
40
0.5772268
50
257.6317484
51
270.4238298
0
ARC
8
DEFAULT_255_1_234
10
21.7244293
20
60.5819198
40
0.3902347
50
230.6087562
51
257.9964012
0
ARC
8
DEFAULT_255_1_234
10
21.7112295
20
60.5612802
40
0.3659186
50
227.7440991
51
230.1551448
0
ARC
8
DEFAULT_255_1_234
10
21.6978127
20
60.5451471
40
0.3449568
50
189.2524587
51
227.5916061
0
ARC
8
DEFAULT_255_1_234
10
21.8499813
20
60.5779013
40
0.5004737
50
180.2665968
51
190.1525252
0
ARC
8
DEFAULT_255_1_234
10
21.8721833
20
60.5775918
40
0.3700778
50
179.5665184
51
191.9952995
0
ARC
8
DEFAULT_255_1_234
10
21.7493939
20
60.5502043
40
0.2442808
50
191.6974072
51
215.1404042
0
ARC
8
DEFAULT_255_1_234
10
21.7255854
20
60.5360108
40
0.2166522
50
215.6950207
51
224.8513522
0
ARC
8
DEFAULT_255_1_234
10
21.7311598
20
60.5439697
40
0.2262237
50
225.2846858
51
255.0111758
0
ARC
8
DEFAULT_255_1_234
10
21.7635558
20
60.6553455
40
0.3421979
50
254.5944985
51
267.9129803
0
ARC
8
DEFAULT_255_1_234
10
21.7710038
20
60.7637903
40
0.4508556
50
267.4689655
51
270.0223026
0
ARC
8
DEFAULT_255_1_234
10
21.7740184
20
60.7048849
40
0.3919604
50
269.5849941
51
281.1843768
0
ARC
8
DEFAULT_255_1_234
10
21.8018948
20
60.5696059
40
0.2538457
50
280.9344262
51
300.9743589
0
ARC
8
DEFAULT_255_1_234
10
21.8231554
20
60.5304688
40
0.2093566
50
301.4980046
51
315.1466847
0
ARC
8
DEFAULT_255_1_234
10
21.8087092
20
60.5423236
40
0.2279656
50
315.5952539
51
345.6678731
0
ARC
8
DEFAULT_255_1_234
10
21.6967609
20
60.5735009
40
0.3441564
50
345.2524969
51
358.6304371
0
ARC
8
DEFAULT_255_1_234
10
21.5949963
20
60.5794916
40
0.4460494
50
358.1735671
51
0.0124524
0
LINE
8
DEFAULT_255_1_234
10
23.2474128
20
61.3723211
11
23.2474128
21
61.2454196
0
LINE
8
DEFAULT_255_1_234
10
23.2474128
20
61.2454196
11
22.8715275
21
61.2454196
0
LINE
8
DEFAULT_255_1_234
10
22.8715275
20
61.2454196
11
22.8715275
21
60.2029
0
LINE
8
DEFAULT_255_1_234
10
22.8715275
20
60.2029
11
22.7181213
21
60.2029
0
LINE
8
DEFAULT_255_1_234
10
22.7181213
20
60.2029
11
22.7181213
21
61.2454196
0
LINE
8
DEFAULT_255_1_234
10
22.7181213
20
61.2454196
11
22.3430391
21
61.2454196
0
LINE
8
DEFAULT_255_1_234
10
22.3430391
20
61.2454196
11
22.3430391
21
61.3723211
0
LINE
8
DEFAULT_255_1_234
10
22.3430391
20
61.3723211
11
23.2474128
21
61.3723211
0
LINE
8
DEFAULT_255_1_234
10
24.1011866
20
60.9048739
11
24.1011866
21
60.8615025
0
LINE
8
DEFAULT_255_1_234
10
23.5590443
20
60.2020968
11
23.53013
21
60.2020968
0
LINE
8
DEFAULT_255_1_234
10
23.53013
20
60.2020968
11
23.53013
21
60.3273919
0
LINE
8
DEFAULT_255_1_234
10
23.53013
20
60.3273919
11
23.5614538
21
60.3273919
0
LINE
8
DEFAULT_255_1_234
10
23.9525995
20
60.8759597
11
23.9525995
21
60.9353945
0
ARC
8
DEFAULT_255_1_234
10
23.6732264
20
60.9505403
40
0.3635579
50
297.4037347
51
320.016758
0
ARC
8
DEFAULT_255_1_234
10
23.7022213
20
60.894824
40
0.3007486
50
270.2633101
51
297.3851877
0
ARC
8
DEFAULT_255_1_234
10
23.6988169
20
60.9411904
40
0.3471448
50
269.9966443
51
270.7900392
0
ARC
8
DEFAULT_255_1_234
10
23.696265
20
60.9410143
40
0.3469779
50
254.5999133
51
270.4180344
0
ARC
8
DEFAULT_255_1_234
10
23.682001
20
60.8845647
40
0.2887697
50
236.4717942
51
254.3541279
0
ARC
8
DEFAULT_255_1_234
10
23.6976227
20
60.9055711
40
0.3149125
50
208.4727207
51
236.2134933
0
ARC
8
DEFAULT_255_1_234
10
23.7615002
20
60.9446455
40
0.3897115
50
204.3447514
51
209.0453999
0
ARC
8
DEFAULT_255_1_234
10
23.8294578
20
60.9734656
40
0.4635101
50
183.9375985
51
204.1276318
0
ARC
8
DEFAULT_255_1_234
10
23.9202829
20
60.9832482
40
0.5548037
50
179.9652252
51
184.3013875
0
ARC
8
DEFAULT_255_1_234
10
23.8962876
20
60.9865507
40
0.5308164
50
166.7585989
51
180.3201225
0
ARC
8
DEFAULT_255_1_234
10
23.8116489
20
61.0049488
40
0.4442163
50
154.6955053
51
166.5679793
0
ARC
8
DEFAULT_255_1_234
10
23.7263359
20
61.047921
40
0.3487299
50
136.3324195
51
155.0871442
0
ARC
8
DEFAULT_255_1_234
10
23.6982432
20
61.0719954
40
0.3117924
50
121.236733
51
135.9680508
0
ARC
8
DEFAULT_255_1_234
10
23.712293
20
61.0459743
40
0.3413302
50
96.845628
51
120.9881519
0
ARC
8
DEFAULT_255_1_234
10
23.7268512
20
60.9524515
40
0.4359341
50
89.8870174
51
97.2802754
0
ARC
8
DEFAULT_255_1_234
10
23.732095
20
61.0162095
40
0.3722009
50
70.6505584
51
90.6749113
0
ARC
8
DEFAULT_255_1_234
10
23.7452229
20
61.0675361
40
0.3194571
50
36.7492984
51
69.8219918
0
ARC
8
DEFAULT_255_1_234
10
23.6453394
20
60.9896993
40
0.4460685
50
15.39587
51
37.0840084
0
ARC
8
DEFAULT_255_1_234
10
23.4323827
20
60.9276242
40
0.6678714
50
3.9488873
51
15.6798563
0
ARC
8
DEFAULT_255_1_234
10
23.1922455
20
60.9059964
40
0.9089418
50
359.929245
51
4.2665314
0
ARC
8
DEFAULT_255_1_234
10
22.7316892
20
60.8548513
40
1.3695135
50
352.8366322
51
0.2782669
0
ARC
8
DEFAULT_255_1_234
10
23.2604571
20
60.7861629
40
0.8363105
50
341.8359505
51
352.9884176
0
ARC
8
DEFAULT_255_1_234
10
23.582329
20
60.67767
40
0.4966642
50
322.8578092
51
342.1527901
0
ARC
8
DEFAULT_255_1_234
10
23.6687246
20
60.6187384
40
0.3922466
50
319.334325
51
322.0998941
0
ARC
8
DEFAULT_255_1_234
10
23.6377583
20
60.6498209
40
0.4360033
50
285.9541367
51
318.8878087
0
ARC
8
DEFAULT_255_1_234
10
23.5650844
20
60.88086
40
0.678149
50
272.9281676
51
286.4922826
0
ARC
8
DEFAULT_255_1_234
10
23.5460962
20
61.1059587
40
0.9039547
50
270.8207226
51
273.4012994
0
ARC
8
DEFAULT_255_1_234
10
23.5549813
20
60.9240666
40
0.5967098
50
270.6214993
51
281.4062806
0
ARC
8
DEFAULT_255_1_234
10
23.5979794
20
60.7184833
40
0.3866861
50
281.1852553
51
299.0621114
0
ARC
8
DEFAULT_255_1_234
10
23.6353365
20
60.6463798
40
0.3055236
50
299.5067782
51
313.1200873
0
ARC
8
DEFAULT_255_1_234
10
23.6375332
20
60.6384554
40
0.2982623
50
313.8526205
51
338.5989322
0
ARC
8
DEFAULT_255_1_234
10
23.4751406
20
60.7051781
40
0.4738131
50
338.2523585
51
351.2430902
0
ARC
8
DEFAULT_255_1_234
10
23.2340702
20
60.7461447
40
0.7183203
50
350.9409515
51
357.6691871
0
ARC
8
DEFAULT_255_1_234
10
23.7231132
20
60.9463764
40
0.2294452
50
269.9447023
51
306.8248917
0
ARC
8
DEFAULT_255_1_234
10
23.6994047
20
60.9886898
40
0.2775994
50
305.5072438
51
327.0773448
0
ARC
8
DEFAULT_255_1_234
10
23.7112488
20
60.9792025
40
0.2625056
50
327.4104943
51
336.840169
0
ARC
8
DEFAULT_255_1_234
10
23.4018553
20
60.9386302
40
0.5507537
50
359.6633817
51
10.117533
0
ARC
8
DEFAULT_255_1_234
10
23.5772351
20
60.9710777
40
0.372403
50
9.9430141
51
26.7700076
0
ARC
8
DEFAULT_255_1_234
10
23.6369563
20
60.9986187
40
0.3066865
50
27.2015464
51
34.6829435
0
ARC
8
DEFAULT_255_1_234
10
23.6859044
20
61.0353977
40
0.245519
50
34.1250343
51
50.3070065
0
ARC
8
DEFAULT_255_1_234
10
23.7305723
20
61.0888385
40
0.1758693
50
50.3851167
51
90.6705993
0
ARC
8
DEFAULT_255_1_234
10
23.7258956
20
61.0583799
40
0.2063326
50
89.272901
51
111.9140407
0
ARC
8
DEFAULT_255_1_234
10
23.7239484
20
61.072444
40
0.1925887
50
112.9382311
51
142.5320782
0
ARC
8
DEFAULT_255_1_234
10
23.7785664
20
61.0280969
40
0.2629232
50
142.1021256
51
166.3835592
0
ARC
8
DEFAULT_255_1_234
10
23.8966969
20
60.9975915
40
0.3849193
50
166.1100289
51
178.665427
0
ARC
8
DEFAULT_255_1_234
10
24.0014559
20
60.9917117
40
0.4897989
50
178.2632126
51
180.0111093
0
ARC
8
DEFAULT_255_1_234
10
23.9212679
20
60.9888728
40
0.40962
50
179.6161962
51
191.8787166
0
ARC
8
DEFAULT_255_1_234
10
23.7992518
20
60.9618896
40
0.2846655
50
191.6191692
51
215.2972286
0
ARC
8
DEFAULT_255_1_234
10
23.7795709
20
60.9503918
40
0.2619665
50
215.7320102
51
216.5355409
0
ARC
8
DEFAULT_255_1_234
10
23.7256795
20
60.9071647
40
0.1929497
50
215.7486685
51
239.9727502
0
ARC
8
DEFAULT_255_1_234
10
23.7186711
20
60.9020894
40
0.1850822
50
241.0650169
51
269.2810483
0
ARC
8
DEFAULT_255_1_234
10
23.7228626
20
60.9511371
40
0.2342059
50
268.4062526
51
270.0071348
0
LINE
8
DEFAULT_255_1_234
10
21.1414911
20
68.7612534
11
21.1414911
21
68.6873614
0
LINE
8
DEFAULT_255_1_234
10
20.2009745
20
68.6769201
11
20.2009745
21
68.7612534
0
LINE
8
DEFAULT_255_1_234
10
20.9880849
20
68.6761169
11
20.9880849
21
68.7628597
0
LINE
8
DEFAULT_255_1_234
10
20.3543807
20
68.773301
11
20.3543807
21
68.6873614
0
ARC
8
DEFAULT_255_1_234
10
20.2772937
20
68.6834015
40
0.8642064
50
350.487711
51
0.2625388
0
ARC
8
DEFAULT_255_1_234
10
20.5066178
20
68.6439578
40
0.631518
50
336.0277639
51
350.5787438
0
ARC
8
DEFAULT_255_1_234
10
20.6411002
20
68.5831892
40
0.4839466
50
319.8877444
51
336.1328423
0
ARC
8
DEFAULT_255_1_234
10
20.7013643
20
68.534958
40
0.4067874
50
302.4806467
51
319.6143626
0
ARC
8
DEFAULT_255_1_234
10
20.6898653
20
68.5571202
40
0.4316636
50
275.8195682
51
302.1884709
0
ARC
8
DEFAULT_255_1_234
10
20.6732286
20
68.6713665
40
0.5470306
50
269.9171439
51
276.3397983
0
ARC
8
DEFAULT_255_1_234
10
20.6687496
20
68.6027681
40
0.4784458
50
252.5219675
51
270.4416499
0
ARC
8
DEFAULT_255_1_234
10
20.6543755
20
68.5488592
40
0.422716
50
237.5352116
51
252.1857531
0
ARC
8
DEFAULT_255_1_234
10
20.6632951
20
68.5602363
40
0.4371052
50
209.063312
51
237.3492538
0
ARC
8
DEFAULT_255_1_234
10
20.7502799
20
68.6148685
40
0.5397041
50
205.1183774
51
209.6470015
0
ARC
8
DEFAULT_255_1_234
10
20.8299836
20
68.648683
40
0.6262326
50
188.7215458
51
204.8240747
0
ARC
8
DEFAULT_255_1_234
10
21.0297364
20
68.6823067
40
0.8287794
50
180.3723947
51
188.9252049
0
ARC
8
DEFAULT_255_1_234
10
21.0270116
20
68.7652402
40
0.8260467
50
169.5253763
51
180.2765336
0
ARC
8
DEFAULT_255_1_234
10
20.8367564
20
68.8002309
40
0.6326007
50
155.8315255
51
169.5089989
0
ARC
8
DEFAULT_255_1_234
10
20.7087066
20
68.8596348
40
0.4914567
50
139.6258461
51
156.0379525
0
ARC
8
DEFAULT_255_1_234
10
20.6497399
20
68.9070799
40
0.4158054
50
122.6416387
51
139.3430715
0
ARC
8
DEFAULT_255_1_234
10
20.6598019
20
68.8887451
40
0.4366739
50
93.0223692
51
122.455762
0
ARC
8
DEFAULT_255_1_234
10
20.6706016
20
68.7922709
40
0.5336137
50
89.975342
51
93.6341897
0
ARC
8
DEFAULT_255_1_234
10
20.6744795
20
68.8321242
40
0.4937738
50
73.746375
51
90.4233405
0
ARC
8
DEFAULT_255_1_234
10
20.6920373
20
68.9001287
40
0.4235786
50
57.662753
51
73.4518111
0
ARC
8
DEFAULT_255_1_234
10
20.691238
20
68.9022832
40
0.4221899
50
29.1440151
51
57.414694
0
ARC
8
DEFAULT_255_1_234
10
20.5977574
20
68.8439005
40
0.5322966
50
24.0982783
51
29.7323517
0
ARC
8
DEFAULT_255_1_234
10
20.494385
20
68.8010399
40
0.6441673
50
8.6655297
51
23.8241346
0
ARC
8
DEFAULT_255_1_234
10
20.2709588
20
68.7645854
40
0.8705386
50
359.7806941
51
8.8218784
0
ARC
8
DEFAULT_255_1_234
10
20.1562586
20
68.7671345
40
0.8318373
50
359.7055579
51
8.036044
0
ARC
8
DEFAULT_255_1_234
10
20.4562592
20
68.8108239
40
0.5286768
50
7.8928306
51
20.2962107
0
ARC
8
DEFAULT_255_1_234
10
20.6190162
20
68.8708395
40
0.3552073
50
20.3231126
51
36.4992797
0
ARC
8
DEFAULT_255_1_234
10
20.6875708
20
68.9236402
40
0.2686974
50
36.1437156
51
85.6627023
0
ARC
8
DEFAULT_255_1_234
10
20.6713254
20
68.8196221
40
0.373739
50
84.3852322
51
90.0757696
0
ARC
8
DEFAULT_255_1_234
10
20.6670927
20
68.8856839
40
0.3076997
50
89.3038458
51
109.9045693
0
ARC
8
DEFAULT_255_1_234
10
20.6578318
20
68.9239062
40
0.2686424
50
110.8228367
51
143.9179474
0
ARC
8
DEFAULT_255_1_234
10
20.7511978
20
68.8526236
40
0.3860887
50
143.5289163
51
163.2980757
0
ARC
8
DEFAULT_255_1_234
10
20.9419799
20
68.7926433
40
0.5860659
50
163.0418846
51
174.3140048
0
ARC
8
DEFAULT_255_1_234
10
21.1823911
20
68.7648854
40
0.8280531
50
174.0509143
51
179.4176892
0
ARC
8
DEFAULT_255_1_234
10
21.131965
20
68.6831954
40
0.7775954
50
179.6930361
51
188.7906598
0
ARC
8
DEFAULT_255_1_234
10
20.8656129
20
68.6405935
40
0.5078633
50
188.6331305
51
202.5629587
0
ARC
8
DEFAULT_255_1_234
10
20.7401721
20
68.5901996
40
0.3726913
50
202.8081362
51
216.1193925
0
ARC
8
DEFAULT_255_1_234
10
20.6592291
20
68.5250676
40
0.2689577
50
215.0755913
51
264.6379694
0
ARC
8
DEFAULT_255_1_234
10
20.671924
20
68.6081513
40
0.3528978
50
263.846392
51
270.0833719
0
ARC
8
DEFAULT_255_1_234
10
20.6760631
20
68.5823374
40
0.3271036
50
269.3649385
51
287.5152008
0
ARC
8
DEFAULT_255_1_234
10
20.6938788
20
68.5176238
40
0.2600406
50
288.0630309
51
323.8113348
0
ARC
8
DEFAULT_255_1_234
10
20.606763
20
68.5826049
40
0.3687189
50
323.6547608
51
342.6590488
0
ARC
8
DEFAULT_255_1_234
10
20.4036245
20
68.6486952
40
0.5823286
50
342.4091907
51
353.6451149
0
ARC
8
DEFAULT_255_1_234
10
20.1204756
20
68.683919
40
0.8676442
50
353.4029884
51
359.4847795
0
LINE
8
DEFAULT_255_1_234
10
22.0410458
20
69.3098211
11
22.1960583
21
69.3098211
0
LINE
8
DEFAULT_255_1_234
10
22.1960583
20
69.3098211
11
22.1960583
21
68.514679
0
LINE
8
DEFAULT_255_1_234
10
21.8121412
20
68.1259429
11
21.7711793
21
68.1243365
0
LINE
8
DEFAULT_255_1_234
10
21.3495131
20
68.5130727
11
21.3495131
21
69.3098211
0
LINE
8
DEFAULT_255_1_234
10
21.3495131
20
69.3098211
11
21.5021161
21
69.3098211
0
LINE
8
DEFAULT_255_1_234
10
21.5021161
20
69.3098211
11
21.5021161
21
68.5178917
0
LINE
8
DEFAULT_255_1_234
10
22.0410458
20
68.5170885
11
22.0410458
21
69.3098211
0
ARC
8
DEFAULT_255_1_234
10
21.7607481
20
68.5126928
40
0.4353147
50
343.0898354
51
0.2614217
0
ARC
8
DEFAULT_255_1_234
10
21.8435883
20
68.4895837
40
0.3493402
50
315.3345598
51
342.7641223
0
ARC
8
DEFAULT_255_1_234
10
21.8212332
20
68.5127682
40
0.3815385
50
284.6606969
51
315.2182466
0
ARC
8
DEFAULT_255_1_234
10
21.7757044
20
68.6673755
40
0.5426573
50
273.8500273
51
285.1797701
0
ARC
8
DEFAULT_255_1_234
10
21.7669095
20
68.7015475
40
0.5772268
50
257.6317484
51
270.4238298
0
ARC
8
DEFAULT_255_1_234
10
21.7244293
20
68.5194198
40
0.3902347
50
230.6087562
51
257.9964012
0
ARC
8
DEFAULT_255_1_234
10
21.7112295
20
68.4987802
40
0.3659186
50
227.7440991
51
230.1551448
0
ARC
8
DEFAULT_255_1_234
10
21.6978127
20
68.4826471
40
0.3449568
50
189.2524587
51
227.5916061
0
ARC
8
DEFAULT_255_1_234
10
21.8499813
20
68.5154013
40
0.5004737
50
180.2665968
51
190.1525252
0
ARC
8
DEFAULT_255_1_234
10
21.8721833
20
68.5150918
40
0.3700778
50
179.5665184
51
191.9952995
0
ARC
8
DEFAULT_255_1_234
10
21.7493939
20
68.4877043
40
0.2442808
50
191.6974072
51
215.1404042
0
ARC
8
DEFAULT_255_1_234
10
21.7255854
20
68.4735108
40
0.2166522
50
215.6950207
51
224.8513522
0
ARC
8
DEFAULT_255_1_234
10
21.7311598
20
68.4814697
40
0.2262237
50
225.2846858
51
255.0111758
0
ARC
8
DEFAULT_255_1_234
10
21.7635558
20
68.5928455
40
0.3421979
50
254.5944985
51
267.9129803
0
ARC
8
DEFAULT_255_1_234
10
21.7710038
20
68.7012903
40
0.4508556
50
267.4689655
51
270.0223026
0
ARC
8
DEFAULT_255_1_234
10
21.7740184
20
68.6423849
40
0.3919604
50
269.5849941
51
281.1843768
0
ARC
8
DEFAULT_255_1_234
10
21.8018948
20
68.5071059
40
0.2538457
50
280.9344262
51
300.9743589
0
ARC
8
DEFAULT_255_1_234
10
21.8231554
20
68.4679688
40
0.2093566
50
301.4980046
51
315.1466847
0
ARC
8
DEFAULT_255_1_234
10
21.8087092
20
68.4798236
40
0.2279656
50
315.5952539
51
345.6678731
0
ARC
8
DEFAULT_255_1_234
10
21.6967609
20
68.5110009
40
0.3441564
50
345.2524969
51
358.6304371
0
ARC
8
DEFAULT_255_1_234
10
21.5949963
20
68.5169916
40
0.4460494
50
358.1735671
51
0.0124524
0
LINE
8
DEFAULT_255_1_234
10
23.2474128
20
69.3098211
11
23.2474128
21
69.1829196
0
LINE
8
DEFAULT_255_1_234
10
23.2474128
20
69.1829196
11
22.8715275
21
69.1829196
0
LINE
8
DEFAULT_255_1_234
10
22.8715275
20
69.1829196
11
22.8715275
21
68.1404
0
LINE
8
DEFAULT_255_1_234
10
22.8715275
20
68.1404
11
22.7181213
21
68.1404
0
LINE
8
DEFAULT_255_1_234
10
22.7181213
20
68.1404
11
22.7181213
21
69.1829196
0
LINE
8
DEFAULT_255_1_234
10
22.7181213
20
69.1829196
11
22.3430391
21
69.1829196
0
LINE
8
DEFAULT_255_1_234
10
22.3430391
20
69.1829196
11
22.3430391
21
69.3098211
0
LINE
8
DEFAULT_255_1_234
10
22.3430391
20
69.3098211
11
23.2474128
21
69.3098211
0
ARC
8
DEFAULT_255_1_234
10
23.8093244
20
69.0020703
40
0.2822356
50
338.8763615
51
0.5166041
0
ARC
8
DEFAULT_255_1_234
10
23.8261898
20
68.9975208
40
0.2648703
50
325.8412414
51
338.4795939
0
ARC
8
DEFAULT_255_1_234
10
23.7871266
20
69.0246042
40
0.3124019
50
296.7586019
51
325.753654
0
ARC
8
DEFAULT_255_1_234
10
23.7583374
20
69.0730789
40
0.368668
50
296.0902311
51
297.3618122
0
ARC
8
DEFAULT_255_1_234
10
23.7840832
20
68.4176041
40
0.3518806
50
47.9009248
51
67.1946869
0
ARC
8
DEFAULT_255_1_234
10
23.8037074
20
68.4422395
40
0.320451
50
35.236241
51
47.551371
0
ARC
8
DEFAULT_255_1_234
10
23.8298692
20
68.4596993
40
0.2890103
50
359.2759738
51
35.4014081
0
ARC
8
DEFAULT_255_1_234
10
23.7553723
20
68.4523826
40
0.3635026
50
343.1294516
51
0.5776525
0
ARC
8
DEFAULT_255_1_234
10
23.8278268
20
68.432433
40
0.2883832
50
310.8497458
51
342.744803
0
ARC
8
DEFAULT_255_1_234
10
23.7860381
20
68.4801294
40
0.3517954
50
281.5473923
51
310.9169905
0
ARC
8
DEFAULT_255_1_234
10
23.7503831
20
68.6354084
40
0.5110832
50
269.6192722
51
281.9789957
0
ARC
8
DEFAULT_255_1_234
10
23.743162
20
68.6354828
40
0.5111606
50
257.4584469
51
270.4287458
0
ARC
8
DEFAULT_255_1_234
10
23.7050763
20
68.4751344
40
0.3463762
50
228.7553743
51
257.8484423
0
ARC
8
DEFAULT_255_1_234
10
23.6740961
20
68.4378442
40
0.297916
50
184.0104442
51
228.5071787
0
ARC
8
DEFAULT_255_1_234
10
23.7903905
20
68.4555512
40
0.4152734
50
179.9315461
51
185.3254504
0
ARC
8
DEFAULT_255_1_234
10
23.6727551
20
68.4592992
40
0.2976554
50
145.6795913
51
180.6259649
0
ARC
8
DEFAULT_255_1_234
10
23.68909
20
68.4478929
40
0.3175776
50
115.5537925
51
145.6416199
0
ARC
8
DEFAULT_255_1_234
10
23.7231831
20
68.3868028
40
0.3874232
50
113.2437915
51
116.2054627
0
ARC
8
DEFAULT_255_1_234
10
23.7079043
20
69.026658
40
0.3154751
50
222.9548379
51
244.1372485
0
ARC
8
DEFAULT_255_1_234
10
23.6957118
20
69.0129834
40
0.2972382
50
213.3439227
51
222.6271327
0
ARC
8
DEFAULT_255_1_234
10
23.6765053
20
68.9999308
40
0.274019
50
180.4316517
51
213.2713999
0
ARC
8
DEFAULT_255_1_234
10
23.7340054
20
69.004611
40
0.33158
50
179.9992944
51
181.1655061
0
ARC
8
DEFAULT_255_1_234
10
23.7749471
20
69.0080561
40
0.3725376
50
164.6186108
51
180.5292368
0
ARC
8
DEFAULT_255_1_234
10
23.6851334
20
69.0322101
40
0.2795349
50
132.2454369
51
164.5092287
0
ARC
8
DEFAULT_255_1_234
10
23.7138438
20
68.9997028
40
0.3229019
50
100.7052766
51
132.1387266
0
ARC
8
DEFAULT_255_1_234
10
23.744341
20
68.8619086
40
0.4639835
50
89.6732617
51
101.2449487
0
ARC
8
DEFAULT_255_1_234
10
23.7505608
20
68.879399
40
0.4464999
50
76.2876631
51
90.4586123
0
ARC
8
DEFAULT_255_1_234
10
23.781184
20
69.001622
40
0.3205023
50
47.8240157
51
76.4266918
0
ARC
8
DEFAULT_255_1_234
10
23.803439
20
69.027659
40
0.2862661
50
6.9168658
51
47.6261438
0
ARC
8
DEFAULT_255_1_234
10
23.6847793
20
69.005737
40
0.4067708
50
359.8419705
51
7.9694496
0
ARC
8
DEFAULT_255_1_234
10
23.718969
20
68.4616925
40
0.2513121
50
359.4454068
51
16.9256425
0
ARC
8
DEFAULT_255_1_234
10
23.7658501
20
68.4746033
40
0.2027071
50
17.292259
51
45.462717
0
ARC
8
DEFAULT_255_1_234
10
23.7604437
20
68.4699434
40
0.2098212
50
45.3028762
51
83.1921472
0
ARC
8
DEFAULT_255_1_234
10
23.7461121
20
68.3897895
40
0.2911472
50
82.2614531
51
90.143954
0
ARC
8
DEFAULT_255_1_234
10
23.7430241
20
68.413095
40
0.2678513
50
89.4959189
51
104.8579811
0
ARC
8
DEFAULT_255_1_234
10
23.72535
20
68.480089
40
0.1985654
50
104.8855873
51
135.2448349
0
ARC
8
DEFAULT_255_1_234
10
23.7303273
20
68.4756336
40
0.2052373
50
135.3398955
51
172.104394
0
ARC
8
DEFAULT_255_1_234
10
23.8110331
20
68.4601925
40
0.2873299
50
171.2651929
51
180.1859362
0
ARC
8
DEFAULT_255_1_234
10
23.7941032
20
68.4569733
40
0.2704083
50
179.515471
51
193.6466734
0
ARC
8
DEFAULT_255_1_234
10
23.7124801
20
68.4361777
40
0.1861855
50
193.3540587
51
225.8256931
0
ARC
8
DEFAULT_255_1_234
10
23.7165559
20
68.4432524
40
0.1941102
50
226.418029
51
255.8553723
0
ARC
8
DEFAULT_255_1_234
10
23.7421991
20
68.5368998
40
0.2911917
50
255.4655572
51
268.7985967
0
ARC
8
DEFAULT_255_1_234
10
23.7469183
20
68.6207491
40
0.3751331
50
268.3464808
51
270.0104874
0
ARC
8
DEFAULT_255_1_234
10
23.7492571
20
68.5523138
40
0.3067064
50
269.575914
51
282.0823146
0
ARC
8
DEFAULT_255_1_234
10
23.771748
20
68.4528803
40
0.2047712
50
281.7522535
51
306.6056425
0
ARC
8
DEFAULT_255_1_234
10
23.7815906
20
68.4367487
40
0.1859604
50
307.1350025
51
314.0277951
0
ARC
8
DEFAULT_255_1_234
10
23.777999
20
68.4393766
40
0.1903475
50
314.2553419
51
350.169324
0
ARC
8
DEFAULT_255_1_234
10
23.6928459
20
68.4578409
40
0.2774269
50
349.4145679
51
0.2930737
0
ARC
8
DEFAULT_255_1_234
10
23.7448892
20
68.9737353
40
0.2300764
50
89.477591
51
105.729794
0
ARC
8
DEFAULT_255_1_234
10
23.7312806
20
69.0242637
40
0.1777519
50
105.922966
51
135.1662921
0
ARC
8
DEFAULT_255_1_234
10
23.7333308
20
69.0228419
40
0.1802087
50
135.3053131
51
168.9882338
0
ARC
8
DEFAULT_255_1_234
10
23.8160881
20
69.0038721
40
0.2650806
50
168.3802067
51
180.3602358
0
ARC
8
DEFAULT_255_1_234
10
23.793246
20
69.0001041
40
0.2422425
50
179.5029707
51
194.9126783
0
ARC
8
DEFAULT_255_1_234
10
23.7347121
20
68.984711
40
0.1817188
50
194.9722181
51
224.1943972
0
ARC
8
DEFAULT_255_1_234
10
23.7318988
20
68.9824169
40
0.1781027
50
224.2961434
51
262.0157375
0
ARC
8
DEFAULT_255_1_234
10
23.7461231
20
69.0555661
40
0.2525492
50
261.1250369
51
270.1959853
0
ARC
8
DEFAULT_255_1_234
10
23.7490986
20
69.0368339
40
0.233825
50
269.4825617
51
285.0988277
0
ARC
8
DEFAULT_255_1_234
10
23.7645145
20
68.978999
40
0.1739712
50
285.1585659
51
315.9484648
0
ARC
8
DEFAULT_255_1_234
10
23.7556157
20
68.9871886
40
0.1860616
50
316.0412958
51
351.9162715
0
ARC
8
DEFAULT_255_1_234
10
23.6823112
20
69.0013245
40
0.2606517
50
351.1056823
51
0.1936567
0
ARC
8
DEFAULT_255_1_234
10
23.7085941
20
69.0043369
40
0.234377
50
359.4789506
51
16.0679113
0
ARC
8
DEFAULT_255_1_234
10
23.75619
20
69.017181
40
0.1850875
50
16.3251951
51
44.791304
0
ARC
8
DEFAULT_255_1_234
10
23.7544181
20
69.0172339
40
0.186312
50
44.3958661
51
88.2498933
0
ARC
8
DEFAULT_255_1_234
10
23.7470735
20
68.9561154
40
0.2476868
50
86.9833827
51
90.0200148
0
LINE
8
DEFAULT_255_1_234
10
21.1414911
20
76.6987534
11
21.1414911
21
76.6248614
0
LINE
8
DEFAULT_255_1_234
10
20.2009745
20
76.6144201
11
20.2009745
21
76.6987534
0
LINE
8
DEFAULT_255_1_234
10
20.9880849
20
76.6136169
11
20.9880849
21
76.7003597
0
LINE
8
DEFAULT_255_1_234
10
20.3543807
20
76.710801
11
20.3543807
21
76.6248614
0
ARC
8
DEFAULT_255_1_234
10
20.2772937
20
76.6209015
40
0.8642064
50
350.487711
51
0.2625388
0
ARC
8
DEFAULT_255_1_234
10
20.5066178
20
76.5814578
40
0.631518
50
336.0277639
51
350.5787438
0
ARC
8
DEFAULT_255_1_234
10
20.6411002
20
76.5206892
40
0.4839466
50
319.8877444
51
336.1328423
0
ARC
8
DEFAULT_255_1_234
10
20.7013643
20
76.472458
40
0.4067874
50
302.4806467
51
319.6143626
0
ARC
8
DEFAULT_255_1_234
10
20.6898653
20
76.4946202
40
0.4316636
50
275.8195682
51
302.1884709
0
ARC
8
DEFAULT_255_1_234
10
20.6732286
20
76.6088665
40
0.5470306
50
269.9171439
51
276.3397983
0
ARC
8
DEFAULT_255_1_234
10
20.6687496
20
76.5402681
40
0.4784458
50
252.5219675
51
270.4416499
0
ARC
8
DEFAULT_255_1_234
10
20.6543755
20
76.4863592
40
0.422716
50
237.5352116
51
252.1857531
0
ARC
8
DEFAULT_255_1_234
10
20.6632951
20
76.4977363
40
0.4371052
50
209.063312
51
237.3492538
0
ARC
8
DEFAULT_255_1_234
10
20.7502799
20
76.5523685
40
0.5397041
50
205.1183774
51
209.6470015
0
ARC
8
DEFAULT_255_1_234
10
20.8299836
20
76.586183
40
0.6262326
50
188.7215458
51
204.8240747
0
ARC
8
DEFAULT_255_1_234
10
21.0297364
20
76.6198067
40
0.8287794
50
180.3723947
51
188.9252049
0
ARC
8
DEFAULT_255_1_234
10
21.0270116
20
76.7027402
40
0.8260467
50
169.5253763
51
180.2765336
0
ARC
8
DEFAULT_255_1_234
10
20.8367564
20
76.7377309
40
0.6326007
50
155.8315255
51
169.5089989
0
ARC
8
DEFAULT_255_1_234
10
20.7087066
20
76.7971348
40
0.4914567
50
139.6258461
51
156.0379525
0
ARC
8
DEFAULT_255_1_234
10
20.6497399
20
76.8445799
40
0.4158054
50
122.6416387
51
139.3430715
0
ARC
8
DEFAULT_255_1_234
10
20.6598019
20
76.8262451
40
0.4366739
50
93.0223692
51
122.455762
0
ARC
8
DEFAULT_255_1_234
10
20.6706016
20
76.7297709
40
0.5336137
50
89.975342
51
93.6341897
0
ARC
8
DEFAULT_255_1_234
10
20.6744795
20
76.7696242
40
0.4937738
50
73.746375
51
90.4233405
0
ARC
8
DEFAULT_255_1_234
10
20.6920373
20
76.8376287
40
0.4235786
50
57.662753
51
73.4518111
0
ARC
8
DEFAULT_255_1_234
10
20.691238
20
76.8397832
40
0.4221899
50
29.1440151
51
57.414694
0
ARC
8
DEFAULT_255_1_234
10
20.5977574
20
76.7814005
40
0.5322966
50
24.0982783
51
29.7323517
0
ARC
8
DEFAULT_255_1_234
10
20.494385
20
76.7385399
40
0.6441673
50
8.6655297
51
23.8241346
0
ARC
8
DEFAULT_255_1_234
10
20.2709588
20
76.7020854
40
0.8705386
50
359.7806941
51
8.8218784
0
ARC
8
DEFAULT_255_1_234
10
20.1562586
20
76.7046345
40
0.8318373
50
359.7055579
51
8.036044
0
ARC
8
DEFAULT_255_1_234
10
20.4562592
20
76.7483239
40
0.5286768
50
7.8928306
51
20.2962107
0
ARC
8
DEFAULT_255_1_234
10
20.6190162
20
76.8083395
40
0.3552073
50
20.3231126
51
36.4992797
0
ARC
8
DEFAULT_255_1_234
10
20.6875708
20
76.8611402
40
0.2686974
50
36.1437156
51
85.6627023
0
ARC
8
DEFAULT_255_1_234
10
20.6713254
20
76.7571221
40
0.373739
50
84.3852322
51
90.0757696
0
ARC
8
DEFAULT_255_1_234
10
20.6670927
20
76.8231839
40
0.3076997
50
89.3038458
51
109.9045693
0
ARC
8
DEFAULT_255_1_234
10
20.6578318
20
76.8614062
40
0.2686424
50
110.8228367
51
143.9179474
0
ARC
8
DEFAULT_255_1_234
10
20.7511978
20
76.7901236
40
0.3860887
50
143.5289163
51
163.2980757
0
ARC
8
DEFAULT_255_1_234
10
20.9419799
20
76.7301433
40
0.5860659
50
163.0418846
51
174.3140048
0
ARC
8
DEFAULT_255_1_234
10
21.1823911
20
76.7023854
40
0.8280531
50
174.0509143
51
179.4176892
0
ARC
8
DEFAULT_255_1_234
10
21.131965
20
76.6206954
40
0.7775954
50
179.6930361
51
188.7906598
0
ARC
8
DEFAULT_255_1_234
10
20.8656129
20
76.5780935
40
0.5078633
50
188.6331305
51
202.5629587
0
ARC
8
DEFAULT_255_1_234
10
20.7401721
20
76.5276996
40
0.3726913
50
202.8081362
51
216.1193925
0
ARC
8
DEFAULT_255_1_234
10
20.6592291
20
76.4625676
40
0.2689577
50
215.0755913
51
264.6379694
0
ARC
8
DEFAULT_255_1_234
10
20.671924
20
76.5456513
40
0.3528978
50
263.846392
51
270.0833719
0
ARC
8
DEFAULT_255_1_234
10
20.6760631
20
76.5198374
40
0.3271036
50
269.3649385
51
287.5152008
0
ARC
8
DEFAULT_255_1_234
10
20.6938788
20
76.4551238
40
0.2600406
50
288.0630309
51
323.8113348
0
ARC
8
DEFAULT_255_1_234
10
20.606763
20
76.5201049
40
0.3687189
50
323.6547608
51
342.6590488
0
ARC
8
DEFAULT_255_1_234
10
20.4036245
20
76.5861952
40
0.5823286
50
342.4091907
51
353.6451149
0
ARC
8
DEFAULT_255_1_234
10
20.1204756
20
76.621419
40
0.8676442
50
353.4029884
51
359.4847795
0
LINE
8
DEFAULT_255_1_234
10
22.0410458
20
77.2473211
11
22.1960583
21
77.2473211
0
LINE
8
DEFAULT_255_1_234
10
22.1960583
20
77.2473211
11
22.1960583
21
76.452179
0
LINE
8
DEFAULT_255_1_234
10
21.8121412
20
76.0634429
11
21.7711793
21
76.0618365
0
LINE
8
DEFAULT_255_1_234
10
21.3495131
20
76.4505727
11
21.3495131
21
77.2473211
0
LINE
8
DEFAULT_255_1_234
10
21.3495131
20
77.2473211
11
21.5021161
21
77.2473211
0
LINE
8
DEFAULT_255_1_234
10
21.5021161
20
77.2473211
11
21.5021161
21
76.4553917
0
LINE
8
DEFAULT_255_1_234
10
22.0410458
20
76.4545885
11
22.0410458
21
77.2473211
0
ARC
8
DEFAULT_255_1_234
10
21.7607481
20
76.4501928
40
0.4353147
50
343.0898354
51
0.2614217
0
ARC
8
DEFAULT_255_1_234
10
21.8435883
20
76.4270837
40
0.3493402
50
315.3345598
51
342.7641223
0
ARC
8
DEFAULT_255_1_234
10
21.8212332
20
76.4502682
40
0.3815385
50
284.6606969
51
315.2182466
0
ARC
8
DEFAULT_255_1_234
10
21.7757044
20
76.6048755
40
0.5426573
50
273.8500273
51
285.1797701
0
ARC
8
DEFAULT_255_1_234
10
21.7669095
20
76.6390475
40
0.5772268
50
257.6317484
51
270.4238298
0
ARC
8
DEFAULT_255_1_234
10
21.7244293
20
76.4569198
40
0.3902347
50
230.6087562
51
257.9964012
0
ARC
8
DEFAULT_255_1_234
10
21.7112295
20
76.4362802
40
0.3659186
50
227.7440991
51
230.1551448
0
ARC
8
DEFAULT_255_1_234
10
21.6978127
20
76.4201471
40
0.3449568
50
189.2524587
51
227.5916061
0
ARC
8
DEFAULT_255_1_234
10
21.8499813
20
76.4529013
40
0.5004737
50
180.2665968
51
190.1525252
0
ARC
8
DEFAULT_255_1_234
10
21.8721833
20
76.4525918
40
0.3700778
50
179.5665184
51
191.9952995
0
ARC
8
DEFAULT_255_1_234
10
21.7493939
20
76.4252043
40
0.2442808
50
191.6974072
51
215.1404042
0
ARC
8
DEFAULT_255_1_234
10
21.7255854
20
76.4110108
40
0.2166522
50
215.6950207
51
224.8513522
0
ARC
8
DEFAULT_255_1_234
10
21.7311598
20
76.4189697
40
0.2262237
50
225.2846858
51
255.0111758
0
ARC
8
DEFAULT_255_1_234
10
21.7635558
20
76.5303455
40
0.3421979
50
254.5944985
51
267.9129803
0
ARC
8
DEFAULT_255_1_234
10
21.7710038
20
76.6387903
40
0.4508556
50
267.4689655
51
270.0223026
0
ARC
8
DEFAULT_255_1_234
10
21.7740184
20
76.5798849
40
0.3919604
50
269.5849941
51
281.1843768
0
ARC
8
DEFAULT_255_1_234
10
21.8018948
20
76.4446059
40
0.2538457
50
280.9344262
51
300.9743589
0
ARC
8
DEFAULT_255_1_234
10
21.8231554
20
76.4054688
40
0.2093566
50
301.4980046
51
315.1466847
0
ARC
8
DEFAULT_255_1_234
10
21.8087092
20
76.4173236
40
0.2279656
50
315.5952539
51
345.6678731
0
ARC
8
DEFAULT_255_1_234
10
21.6967609
20
76.4485009
40
0.3441564
50
345.2524969
51
358.6304371
0
ARC
8
DEFAULT_255_1_234
10
21.5949963
20
76.4544916
40
0.4460494
50
358.1735671
51
0.0124524
0
LINE
8
DEFAULT_255_1_234
10
23.2474128
20
77.2473211
11
23.2474128
21
77.1204196
0
LINE
8
DEFAULT_255_1_234
10
23.2474128
20
77.1204196
11
22.8715275
21
77.1204196
0
LINE
8
DEFAULT_255_1_234
10
22.8715275
20
77.1204196
11
22.8715275
21
76.0779
0
LINE
8
DEFAULT_255_1_234
10
22.8715275
20
76.0779
11
22.7181213
21
76.0779
0
LINE
8
DEFAULT_255_1_234
10
22.7181213
20
76.0779
11
22.7181213
21
77.1204196
0
LINE
8
DEFAULT_255_1_234
10
22.7181213
20
77.1204196
11
22.3430391
21
77.1204196
0
LINE
8
DEFAULT_255_1_234
10
22.3430391
20
77.1204196
11
22.3430391
21
77.2473211
0
LINE
8
DEFAULT_255_1_234
10
22.3430391
20
77.2473211
11
23.2474128
21
77.2473211
0
LINE
8
DEFAULT_255_1_234
10
24.1373294
20
77.2473211
11
24.1373294
21
77.163791
0
LINE
8
DEFAULT_255_1_234
10
24.1373294
20
77.163791
11
23.6530156
21
76.0779
0
LINE
8
DEFAULT_255_1_234
10
23.6530156
20
76.0779
11
23.4971999
21
76.0779
0
LINE
8
DEFAULT_255_1_234
10
23.4971999
20
76.0779
11
23.9799074
21
77.1252387
0
LINE
8
DEFAULT_255_1_234
10
23.9799074
20
77.1252387
11
23.3470064
21
77.1252387
0
LINE
8
DEFAULT_255_1_234
10
23.3470064
20
77.1252387
11
23.3470064
21
77.2473211
0
LINE
8
DEFAULT_255_1_234
10
23.3470064
20
77.2473211
11
24.1373294
21
77.2473211
0
LINE
8
DEFAULT_255_1_234
10
21.1414911
20
84.6362534
11
21.1414911
21
84.5623614
0
LINE
8
DEFAULT_255_1_234
10
20.2009745
20
84.5519201
11
20.2009745
21
84.6362534
0
LINE
8
DEFAULT_255_1_234
10
20.9880849
20
84.5511169
11
20.9880849
21
84.6378597
0
LINE
8
DEFAULT_255_1_234
10
20.3543807
20
84.648301
11
20.3543807
21
84.5623614
0
ARC
8
DEFAULT_255_1_234
10
20.2772937
20
84.5584015
40
0.8642064
50
350.487711
51
0.2625388
0
ARC
8
DEFAULT_255_1_234
10
20.5066178
20
84.5189578
40
0.631518
50
336.0277639
51
350.5787438
0
ARC
8
DEFAULT_255_1_234
10
20.6411002
20
84.4581892
40
0.4839466
50
319.8877444
51
336.1328423
0
ARC
8
DEFAULT_255_1_234
10
20.7013643
20
84.409958
40
0.4067874
50
302.4806467
51
319.6143626
0
ARC
8
DEFAULT_255_1_234
10
20.6898653
20
84.4321202
40
0.4316636
50
275.8195682
51
302.1884709
0
ARC
8
DEFAULT_255_1_234
10
20.6732286
20
84.5463665
40
0.5470306
50
269.9171439
51
276.3397983
0
ARC
8
DEFAULT_255_1_234
10
20.6687496
20
84.4777681
40
0.4784458
50
252.5219675
51
270.4416499
0
ARC
8
DEFAULT_255_1_234
10
20.6543755
20
84.4238592
40
0.422716
50
237.5352116
51
252.1857531
0
ARC
8
DEFAULT_255_1_234
10
20.6632951
20
84.4352363
40
0.4371052
50
209.063312
51
237.3492538
0
ARC
8
DEFAULT_255_1_234
10
20.7502799
20
84.4898685
40
0.5397041
50
205.1183774
51
209.6470015
0
ARC
8
DEFAULT_255_1_234
10
20.8299836
20
84.523683
40
0.6262326
50
188.7215458
51
204.8240747
0
ARC
8
DEFAULT_255_1_234
10
21.0297364
20
84.5573067
40
0.8287794
50
180.3723947
51
188.9252049
0
ARC
8
DEFAULT_255_1_234
10
21.0270116
20
84.6402402
40
0.8260467
50
169.5253763
51
180.2765336
0
ARC
8
DEFAULT_255_1_234
10
20.8367564
20
84.6752309
40
0.6326007
50
155.8315255
51
169.5089989
0
ARC
8
DEFAULT_255_1_234
10
20.7087066
20
84.7346348
40
0.4914567
50
139.6258461
51
156.0379525
0
ARC
8
DEFAULT_255_1_234
10
20.6497399
20
84.7820799
40
0.4158054
50
122.6416387
51
139.3430715
0
ARC
8
DEFAULT_255_1_234
10
20.6598019
20
84.7637451
40
0.4366739
50
93.0223692
51
122.455762
0
ARC
8
DEFAULT_255_1_234
10
20.6706016
20
84.6672709
40
0.5336137
50
89.975342
51
93.6341897
0
ARC
8
DEFAULT_255_1_234
10
20.6744795
20
84.7071242
40
0.4937738
50
73.746375
51
90.4233405
0
ARC
8
DEFAULT_255_1_234
10
20.6920373
20
84.7751287
40
0.4235786
50
57.662753
51
73.4518111
0
ARC
8
DEFAULT_255_1_234
10
20.691238
20
84.7772832
40
0.4221899
50
29.1440151
51
57.414694
0
ARC
8
DEFAULT_255_1_234
10
20.5977574
20
84.7189005
40
0.5322966
50
24.0982783
51
29.7323517
0
ARC
8
DEFAULT_255_1_234
10
20.494385
20
84.6760399
40
0.6441673
50
8.6655297
51
23.8241346
0
ARC
8
DEFAULT_255_1_234
10
20.2709588
20
84.6395854
40
0.8705386
50
359.7806941
51
8.8218784
0
ARC
8
DEFAULT_255_1_234
10
20.1562586
20
84.6421345
40
0.8318373
50
359.7055579
51
8.036044
0
ARC
8
DEFAULT_255_1_234
10
20.4562592
20
84.6858239
40
0.5286768
50
7.8928306
51
20.2962107
0
ARC
8
DEFAULT_255_1_234
10
20.6190162
20
84.7458395
40
0.3552073
50
20.3231126
51
36.4992797
0
ARC
8
DEFAULT_255_1_234
10
20.6875708
20
84.7986402
40
0.2686974
50
36.1437156
51
85.6627023
0
ARC
8
DEFAULT_255_1_234
10
20.6713254
20
84.6946221
40
0.373739
50
84.3852322
51
90.0757696
0
ARC
8
DEFAULT_255_1_234
10
20.6670927
20
84.7606839
40
0.3076997
50
89.3038458
51
109.9045693
0
ARC
8
DEFAULT_255_1_234
10
20.6578318
20
84.7989062
40
0.2686424
50
110.8228367
51
143.9179474
0
ARC
8
DEFAULT_255_1_234
10
20.7511978
20
84.7276236
40
0.3860887
50
143.5289163
51
163.2980757
0
ARC
8
DEFAULT_255_1_234
10
20.9419799
20
84.6676433
40
0.5860659
50
163.0418846
51
174.3140048
0
ARC
8
DEFAULT_255_1_234
10
21.1823911
20
84.6398854
40
0.8280531
50
174.0509143
51
179.4176892
0
ARC
8
DEFAULT_255_1_234
10
21.131965
20
84.5581954
40
0.7775954
50
179.6930361
51
188.7906598
0
ARC
8
DEFAULT_255_1_234
10
20.8656129
20
84.5155935
40
0.5078633
50
188.6331305
51
202.5629587
0
ARC
8
DEFAULT_255_1_234
10
20.7401721
20
84.4651996
40
0.3726913
50
202.8081362
51
216.1193925
0
ARC
8
DEFAULT_255_1_234
10
20.6592291
20
84.4000676
40
0.2689577
50
215.0755913
51
264.6379694
0
ARC
8
DEFAULT_255_1_234
10
20.671924
20
84.4831513
40
0.3528978
50
263.846392
51
270.0833719
0
ARC
8
DEFAULT_255_1_234
10
20.6760631
20
84.4573374
40
0.3271036
50
269.3649385
51
287.5152008
0
ARC
8
DEFAULT_255_1_234
10
20.6938788
20
84.3926238
40
0.2600406
50
288.0630309
51
323.8113348
0
ARC
8
DEFAULT_255_1_234
10
20.606763
20
84.4576049
40
0.3687189
50
323.6547608
51
342.6590488
0
ARC
8
DEFAULT_255_1_234
10
20.4036245
20
84.5236952
40
0.5823286
50
342.4091907
51
353.6451149
0
ARC
8
DEFAULT_255_1_234
10
20.1204756
20
84.558919
40
0.8676442
50
353.4029884
51
359.4847795
0
LINE
8
DEFAULT_255_1_234
10
22.0410458
20
85.1848211
11
22.1960583
21
85.1848211
0
LINE
8
DEFAULT_255_1_234
10
22.1960583
20
85.1848211
11
22.1960583
21
84.389679
0
LINE
8
DEFAULT_255_1_234
10
21.8121412
20
84.0009429
11
21.7711793
21
83.9993365
0
LINE
8
DEFAULT_255_1_234
10
21.3495131
20
84.3880727
11
21.3495131
21
85.1848211
0
LINE
8
DEFAULT_255_1_234
10
21.3495131
20
85.1848211
11
21.5021161
21
85.1848211
0
LINE
8
DEFAULT_255_1_234
10
21.5021161
20
85.1848211
11
21.5021161
21
84.3928917
0
LINE
8
DEFAULT_255_1_234
10
22.0410458
20
84.3920885
11
22.0410458
21
85.1848211
0
ARC
8
DEFAULT_255_1_234
10
21.7607481
20
84.3876928
40
0.4353147
50
343.0898354
51
0.2614217
0
ARC
8
DEFAULT_255_1_234
10
21.8435883
20
84.3645837
40
0.3493402
50
315.3345598
51
342.7641223
0
ARC
8
DEFAULT_255_1_234
10
21.8212332
20
84.3877682
40
0.3815385
50
284.6606969
51
315.2182466
0
ARC
8
DEFAULT_255_1_234
10
21.7757044
20
84.5423755
40
0.5426573
50
273.8500273
51
285.1797701
0
ARC
8
DEFAULT_255_1_234
10
21.7669095
20
84.5765475
40
0.5772268
50
257.6317484
51
270.4238298
0
ARC
8
DEFAULT_255_1_234
10
21.7244293
20
84.3944198
40
0.3902347
50
230.6087562
51
257.9964012
0
ARC
8
DEFAULT_255_1_234
10
21.7112295
20
84.3737802
40
0.3659186
50
227.7440991
51
230.1551448
0
ARC
8
DEFAULT_255_1_234
10
21.6978127
20
84.3576471
40
0.3449568
50
189.2524587
51
227.5916061
0
ARC
8
DEFAULT_255_1_234
10
21.8499813
20
84.3904013
40
0.5004737
50
180.2665968
51
190.1525252
0
ARC
8
DEFAULT_255_1_234
10
21.8721833
20
84.3900918
40
0.3700778
50
179.5665184
51
191.9952995
0
ARC
8
DEFAULT_255_1_234
10
21.7493939
20
84.3627043
40
0.2442808
50
191.6974072
51
215.1404042
0
ARC
8
DEFAULT_255_1_234
10
21.7255854
20
84.3485108
40
0.2166522
50
215.6950207
51
224.8513522
0
ARC
8
DEFAULT_255_1_234
10
21.7311598
20
84.3564697
40
0.2262237
50
225.2846858
51
255.0111758
0
ARC
8
DEFAULT_255_1_234
10
21.7635558
20
84.4678455
40
0.3421979
50
254.5944985
51
267.9129803
0
ARC
8
DEFAULT_255_1_234
10
21.7710038
20
84.5762903
40
0.4508556
50
267.4689655
51
270.0223026
0
ARC
8
DEFAULT_255_1_234
10
21.7740184
20
84.5173849
40
0.3919604
50
269.5849941
51
281.1843768
0
ARC
8
DEFAULT_255_1_234
10
21.8018948
20
84.3821059
40
0.2538457
50
280.9344262
51
300.9743589
0
ARC
8
DEFAULT_255_1_234
10
21.8231554
20
84.3429688
40
0.2093566
50
301.4980046
51
315.1466847
0
ARC
8
DEFAULT_255_1_234
10
21.8087092
20
84.3548236
40
0.2279656
50
315.5952539
51
345.6678731
0
ARC
8
DEFAULT_255_1_234
10
21.6967609
20
84.3860009
40
0.3441564
50
345.2524969
51
358.6304371
0
ARC
8
DEFAULT_255_1_234
10
21.5949963
20
84.3919916
40
0.4460494
50
358.1735671
51
0.0124524
0
LINE
8
DEFAULT_255_1_234
10
23.2474128
20
85.1848211
11
23.2474128
21
85.0579196
0
LINE
8
DEFAULT_255_1_234
10
23.2474128
20
85.0579196
11
22.8715275
21
85.0579196
0
LINE
8
DEFAULT_255_1_234
10
22.8715275
20
85.0579196
11
22.8715275
21
84.0154
0
LINE
8
DEFAULT_255_1_234
10
22.8715275
20
84.0154
11
22.7181213
21
84.0154
0
LINE
8
DEFAULT_255_1_234
10
22.7181213
20
84.0154
11
22.7181213
21
85.0579196
0
LINE
8
DEFAULT_255_1_234
10
22.7181213
20
85.0579196
11
22.3430391
21
85.0579196
0
LINE
8
DEFAULT_255_1_234
10
22.3430391
20
85.0579196
11
22.3430391
21
85.1848211
0
LINE
8
DEFAULT_255_1_234
10
22.3430391
20
85.1848211
11
23.2474128
21
85.1848211
0
LINE
8
DEFAULT_255_1_234
10
23.9389455
20
85.1856243
11
23.9654502
21
85.1856243
0
LINE
8
DEFAULT_255_1_234
10
23.9654502
20
85.1856243
11
23.9654502
21
85.059526
0
LINE
8
DEFAULT_255_1_234
10
23.9654502
20
85.059526
11
23.9381423
21
85.059526
0
LINE
8
DEFAULT_255_1_234
10
23.391181
20
84.4603583
11
23.391181
21
84.5173836
0
LINE
8
DEFAULT_255_1_234
10
23.5405713
20
84.4981075
11
23.5405713
21
84.4434917
0
ARC
8
DEFAULT_255_1_234
10
23.9433771
20
84.5597455
40
0.4998079
50
90.6001036
51
104.514704
0
ARC
8
DEFAULT_255_1_234
10
23.9045287
20
84.7042131
40
0.3502176
50
104.2855254
51
133.862935
0
ARC
8
DEFAULT_255_1_234
10
23.9209044
20
84.693383
40
0.3693984
50
134.5302688
51
161.6210873
0
ARC
8
DEFAULT_255_1_234
10
24.0862233
20
84.6350895
40
0.5446739
50
161.2849839
51
174.2076652
0
ARC
8
DEFAULT_255_1_234
10
24.226917
20
84.6156787
40
0.6866274
50
173.7810589
51
174.9254635
0
ARC
8
DEFAULT_255_1_234
10
23.7719002
20
84.4773839
40
0.3033419
50
95.8330959
51
138.9954921
0
ARC
8
DEFAULT_255_1_234
10
23.7942358
20
84.3495375
40
0.4328947
50
89.8753725
51
97.0544009
0
ARC
8
DEFAULT_255_1_234
10
23.7989824
20
84.4330748
40
0.3493769
50
71.6407809
51
90.6240094
0
ARC
8
DEFAULT_255_1_234
10
23.8140397
20
84.4885082
40
0.2920396
50
39.6367836
51
71.019018
0
ARC
8
DEFAULT_255_1_234
10
23.750387
20
84.4334998
40
0.3761538
50
10.658731
51
39.9043955
0
ARC
8
DEFAULT_255_1_234
10
23.5955953
20
84.3998686
40
0.5345136
50
359.682601
51
11.132623
0
ARC
8
DEFAULT_255_1_234
10
23.5916084
20
84.392801
40
0.5385081
50
347.2486944
51
0.4369317
0
ARC
8
DEFAULT_255_1_234
10
23.7583561
20
84.3526807
40
0.3670249
50
318.1409698
51
347.6118597
0
ARC
8
DEFAULT_255_1_234
10
23.7908554
20
84.3259702
40
0.3250007
50
275.6342139
51
317.8248465
0
ARC
8
DEFAULT_255_1_234
10
23.7687666
20
84.4559219
40
0.4565864
50
269.8874292
51
276.7917694
0
ARC
8
DEFAULT_255_1_234
10
23.7632736
20
84.3533743
40
0.3540676
50
246.9140195
51
270.7437342
0
ARC
8
DEFAULT_255_1_234
10
23.7639126
20
84.3391384
40
0.3412781
50
218.1665114
51
245.878116
0
ARC
8
DEFAULT_255_1_234
10
23.8518587
20
84.4127279
40
0.455911
50
191.4115814
51
218.6077802
0
ARC
8
DEFAULT_255_1_234
10
24.0456676
20
84.4561833
40
0.6545001
50
179.6345085
51
191.7836486
0
ARC
8
DEFAULT_255_1_234
10
24.6039013
20
84.5240697
40
1.2127388
50
171.4525249
51
180.3158839
0
ARC
8
DEFAULT_255_1_234
10
24.1643889
20
84.5924608
40
0.7679464
50
157.9802646
51
171.6246686
0
ARC
8
DEFAULT_255_1_234
10
23.942991
20
84.6807421
40
0.5296008
50
141.4298019
51
157.854097
0
ARC
8
DEFAULT_255_1_234
10
23.8788231
20
84.7261381
40
0.4511509
50
102.8715806
51
140.8564722
0
ARC
8
DEFAULT_255_1_234
10
23.9435846
20
84.4821552
40
0.7034845
50
90.3778349
51
103.5869322
0
ARC
8
DEFAULT_255_1_234
10
23.7697622
20
84.421673
40
0.2370698
50
89.8751008
51
126.2071704
0
ARC
8
DEFAULT_255_1_234
10
23.7743412
20
84.4062303
40
0.2522934
50
124.9745049
51
144.895901
0
ARC
8
DEFAULT_255_1_234
10
23.7567603
20
84.420556
40
0.2296779
50
145.2974905
51
160.2660252
0
ARC
8
DEFAULT_255_1_234
10
24.0640141
20
84.4403071
40
0.5234525
50
179.6514266
51
190.2855912
0
ARC
8
DEFAULT_255_1_234
10
23.8946279
20
84.4083786
40
0.3510893
50
190.0945431
51
207.5098196
0
ARC
8
DEFAULT_255_1_234
10
23.8380548
20
84.3814623
40
0.288489
50
207.9583163
51
216.3251085
0
ARC
8
DEFAULT_255_1_234
10
23.8040656
20
84.3535105
40
0.2445587
50
215.7661442
51
232.5456785
0
ARC
8
DEFAULT_255_1_234
10
23.7657639
20
84.3048482
40
0.1826382
50
232.8005391
51
270.6605633
0
ARC
8
DEFAULT_255_1_234
10
23.770334
20
84.3412612
40
0.2190529
50
269.35537
51
288.4744281
0
ARC
8
DEFAULT_255_1_234
10
23.7796237
20
84.3063118
40
0.1829749
50
289.1833337
51
322.9683818
0
ARC
8
DEFAULT_255_1_234
10
23.7184759
20
84.3545391
40
0.2608399
50
322.6007884
51
346.5182367
0
ARC
8
DEFAULT_255_1_234
10
23.6027355
20
84.3840616
40
0.3802777
50
346.2582162
51
358.7741648
0
ARC
8
DEFAULT_255_1_234
10
23.5009024
20
84.3895965
40
0.4822176
50
358.3755224
51
0.0098023
0
ARC
8
DEFAULT_255_1_234
10
23.5765211
20
84.3923657
40
0.4066078
50
359.6214041
51
11.2839074
0
ARC
8
DEFAULT_255_1_234
10
23.7042358
20
84.4190066
40
0.2761514
50
11.0482309
51
31.8146458
0
ARC
8
DEFAULT_255_1_234
10
23.7351401
20
84.4357584
40
0.2410679
50
32.3035391
51
38.082671
0
ARC
8
DEFAULT_255_1_234
10
23.7772061
20
84.4738662
40
0.1844966
50
36.825067
51
85.7415724
0
ARC
8
DEFAULT_255_1_234
10
23.7704894
20
84.4238301
40
0.2349122
50
85.0140713
51
90.0513278
0
LINE
8
DEFAULT_255_1_234
10
21.1414911
20
92.5737534
11
21.1414911
21
92.4998614
0
LINE
8
DEFAULT_255_1_234
10
20.2009745
20
92.4894201
11
20.2009745
21
92.5737534
0
LINE
8
DEFAULT_255_1_234
10
20.9880849
20
92.4886169
11
20.9880849
21
92.5753597
0
LINE
8
DEFAULT_255_1_234
10
20.3543807
20
92.585801
11
20.3543807
21
92.4998614
0
ARC
8
DEFAULT_255_1_234
10
20.2772937
20
92.4959015
40
0.8642064
50
350.487711
51
0.2625388
0
ARC
8
DEFAULT_255_1_234
10
20.5066178
20
92.4564578
40
0.631518
50
336.0277639
51
350.5787438
0
ARC
8
DEFAULT_255_1_234
10
20.6411002
20
92.3956892
40
0.4839466
50
319.8877444
51
336.1328423
0
ARC
8
DEFAULT_255_1_234
10
20.7013643
20
92.347458
40
0.4067874
50
302.4806467
51
319.6143626
0
ARC
8
DEFAULT_255_1_234
10
20.6898653
20
92.3696202
40
0.4316636
50
275.8195682
51
302.1884709
0
ARC
8
DEFAULT_255_1_234
10
20.6732286
20
92.4838665
40
0.5470306
50
269.9171439
51
276.3397983
0
ARC
8
DEFAULT_255_1_234
10
20.6687496
20
92.4152681
40
0.4784458
50
252.5219675
51
270.4416499
0
ARC
8
DEFAULT_255_1_234
10
20.6543755
20
92.3613592
40
0.422716
50
237.5352116
51
252.1857531
0
ARC
8
DEFAULT_255_1_234
10
20.6632951
20
92.3727363
40
0.4371052
50
209.063312
51
237.3492538
0
ARC
8
DEFAULT_255_1_234
10
20.7502799
20
92.4273685
40
0.5397041
50
205.1183774
51
209.6470015
0
ARC
8
DEFAULT_255_1_234
10
20.8299836
20
92.461183
40
0.6262326
50
188.7215458
51
204.8240747
0
ARC
8
DEFAULT_255_1_234
10
21.0297364
20
92.4948067
40
0.8287794
50
180.3723947
51
188.9252049
0
ARC
8
DEFAULT_255_1_234
10
21.0270116
20
92.5777402
40
0.8260467
50
169.5253763
51
180.2765336
0
ARC
8
DEFAULT_255_1_234
10
20.8367564
20
92.6127309
40
0.6326007
50
155.8315255
51
169.5089989
0
ARC
8
DEFAULT_255_1_234
10
20.7087066
20
92.6721348
40
0.4914567
50
139.6258461
51
156.0379525
0
ARC
8
DEFAULT_255_1_234
10
20.6497399
20
92.7195799
40
0.4158054
50
122.6416387
51
139.3430715
0
ARC
8
DEFAULT_255_1_234
10
20.6598019
20
92.7012451
40
0.4366739
50
93.0223692
51
122.455762
0
ARC
8
DEFAULT_255_1_234
10
20.6706016
20
92.6047709
40
0.5336137
50
89.975342
51
93.6341897
0
ARC
8
DEFAULT_255_1_234
10
20.6744795
20
92.6446242
40
0.4937738
50
73.746375
51
90.4233405
0
ARC
8
DEFAULT_255_1_234
10
20.6920373
20
92.7126287
40
0.4235786
50
57.662753
51
73.4518111
0
ARC
8
DEFAULT_255_1_234
10
20.691238
20
92.7147832
40
0.4221899
50
29.1440151
51
57.414694
0
ARC
8
DEFAULT_255_1_234
10
20.5977574
20
92.6564005
40
0.5322966
50
24.0982783
51
29.7323517
0
ARC
8
DEFAULT_255_1_234
10
20.494385
20
92.6135399
40
0.6441673
50
8.6655297
51
23.8241346
0
ARC
8
DEFAULT_255_1_234
10
20.2709588
20
92.5770854
40
0.8705386
50
359.7806941
51
8.8218784
0
ARC
8
DEFAULT_255_1_234
10
20.1562586
20
92.5796345
40
0.8318373
50
359.7055579
51
8.036044
0
ARC
8
DEFAULT_255_1_234
10
20.4562592
20
92.6233239
40
0.5286768
50
7.8928306
51
20.2962107
0
ARC
8
DEFAULT_255_1_234
10
20.6190162
20
92.6833395
40
0.3552073
50
20.3231126
51
36.4992797
0
ARC
8
DEFAULT_255_1_234
10
20.6875708
20
92.7361402
40
0.2686974
50
36.1437156
51
85.6627023
0
ARC
8
DEFAULT_255_1_234
10
20.6713254
20
92.6321221
40
0.373739
50
84.3852322
51
90.0757696
0
ARC
8
DEFAULT_255_1_234
10
20.6670927
20
92.6981839
40
0.3076997
50
89.3038458
51
109.9045693
0
ARC
8
DEFAULT_255_1_234
10
20.6578318
20
92.7364062
40
0.2686424
50
110.8228367
51
143.9179474
0
ARC
8
DEFAULT_255_1_234
10
20.7511978
20
92.6651236
40
0.3860887
50
143.5289163
51
163.2980757
0
ARC
8
DEFAULT_255_1_234
10
20.9419799
20
92.6051433
40
0.5860659
50
163.0418846
51
174.3140048
0
ARC
8
DEFAULT_255_1_234
10
21.1823911
20
92.5773854
40
0.8280531
50
174.0509143
51
179.4176892
0
ARC
8
DEFAULT_255_1_234
10
21.131965
20
92.4956954
40
0.7775954
50
179.6930361
51
188.7906598
0
ARC
8
DEFAULT_255_1_234
10
20.8656129
20
92.4530935
40
0.5078633
50
188.6331305
51
202.5629587
0
ARC
8
DEFAULT_255_1_234
10
20.7401721
20
92.4026996
40
0.3726913
50
202.8081362
51
216.1193925
0
ARC
8
DEFAULT_255_1_234
10
20.6592291
20
92.3375676
40
0.2689577
50
215.0755913
51
264.6379694
0
ARC
8
DEFAULT_255_1_234
10
20.671924
20
92.4206513
40
0.3528978
50
263.846392
51
270.0833719
0
ARC
8
DEFAULT_255_1_234
10
20.6760631
20
92.3948374
40
0.3271036
50
269.3649385
51
287.5152008
0
ARC
8
DEFAULT_255_1_234
10
20.6938788
20
92.3301238
40
0.2600406
50
288.0630309
51
323.8113348
0
ARC
8
DEFAULT_255_1_234
10
20.606763
20
92.3951049
40
0.3687189
50
323.6547608
51
342.6590488
0
ARC
8
DEFAULT_255_1_234
10
20.4036245
20
92.4611952
40
0.5823286
50
342.4091907
51
353.6451149
0
ARC
8
DEFAULT_255_1_234
10
20.1204756
20
92.496419
40
0.8676442
50
353.4029884
51
359.4847795
0
LINE
8
DEFAULT_255_1_234
10
22.0410458
20
93.1223211
11
22.1960583
21
93.1223211
0
LINE
8
DEFAULT_255_1_234
10
22.1960583
20
93.1223211
11
22.1960583
21
92.327179
0
LINE
8
DEFAULT_255_1_234
10
21.8121412
20
91.9384429
11
21.7711793
21
91.9368365
0
LINE
8
DEFAULT_255_1_234
10
21.3495131
20
92.3255727
11
21.3495131
21
93.1223211
0
LINE
8
DEFAULT_255_1_234
10
21.3495131
20
93.1223211
11
21.5021161
21
93.1223211
0
LINE
8
DEFAULT_255_1_234
10
21.5021161
20
93.1223211
11
21.5021161
21
92.3303917
0
LINE
8
DEFAULT_255_1_234
10
22.0410458
20
92.3295885
11
22.0410458
21
93.1223211
0
ARC
8
DEFAULT_255_1_234
10
21.7607481
20
92.3251928
40
0.4353147
50
343.0898354
51
0.2614217
0
ARC
8
DEFAULT_255_1_234
10
21.8435883
20
92.3020837
40
0.3493402
50
315.3345598
51
342.7641223
0
ARC
8
DEFAULT_255_1_234
10
21.8212332
20
92.3252682
40
0.3815385
50
284.6606969
51
315.2182466
0
ARC
8
DEFAULT_255_1_234
10
21.7757044
20
92.4798755
40
0.5426573
50
273.8500273
51
285.1797701
0
ARC
8
DEFAULT_255_1_234
10
21.7669095
20
92.5140475
40
0.5772268
50
257.6317484
51
270.4238298
0
ARC
8
DEFAULT_255_1_234
10
21.7244293
20
92.3319198
40
0.3902347
50
230.6087562
51
257.9964012
0
ARC
8
DEFAULT_255_1_234
10
21.7112295
20
92.3112802
40
0.3659186
50
227.7440991
51
230.1551448
0
ARC
8
DEFAULT_255_1_234
10
21.6978127
20
92.2951471
40
0.3449568
50
189.2524587
51
227.5916061
0
ARC
8
DEFAULT_255_1_234
10
21.8499813
20
92.3279013
40
0.5004737
50
180.2665968
51
190.1525252
0
ARC
8
DEFAULT_255_1_234
10
21.8721833
20
92.3275918
40
0.3700778
50
179.5665184
51
191.9952995
0
ARC
8
DEFAULT_255_1_234
10
21.7493939
20
92.3002043
40
0.2442808
50
191.6974072
51
215.1404042
0
ARC
8
DEFAULT_255_1_234
10
21.7255854
20
92.2860108
40
0.2166522
50
215.6950207
51
224.8513522
0
ARC
8
DEFAULT_255_1_234
10
21.7311598
20
92.2939697
40
0.2262237
50
225.2846858
51
255.0111758
0
ARC
8
DEFAULT_255_1_234
10
21.7635558
20
92.4053455
40
0.3421979
50
254.5944985
51
267.9129803
0
ARC
8
DEFAULT_255_1_234
10
21.7710038
20
92.5137903
40
0.4508556
50
267.4689655
51
270.0223026
0
ARC
8
DEFAULT_255_1_234
10
21.7740184
20
92.4548849
40
0.3919604
50
269.5849941
51
281.1843768
0
ARC
8
DEFAULT_255_1_234
10
21.8018948
20
92.3196059
40
0.2538457
50
280.9344262
51
300.9743589
0
ARC
8
DEFAULT_255_1_234
10
21.8231554
20
92.2804688
40
0.2093566
50
301.4980046
51
315.1466847
0
ARC
8
DEFAULT_255_1_234
10
21.8087092
20
92.2923236
40
0.2279656
50
315.5952539
51
345.6678731
0
ARC
8
DEFAULT_255_1_234
10
21.6967609
20
92.3235009
40
0.3441564
50
345.2524969
51
358.6304371
0
ARC
8
DEFAULT_255_1_234
10
21.5949963
20
92.3294916
40
0.4460494
50
358.1735671
51
0.0124524
0
LINE
8
DEFAULT_255_1_234
10
23.2474128
20
93.1223211
11
23.2474128
21
92.9954196
0
LINE
8
DEFAULT_255_1_234
10
23.2474128
20
92.9954196
11
22.8715275
21
92.9954196
0
LINE
8
DEFAULT_255_1_234
10
22.8715275
20
92.9954196
11
22.8715275
21
91.9529
0
LINE
8
DEFAULT_255_1_234
10
22.8715275
20
91.9529
11
22.7181213
21
91.9529
0
LINE
8
DEFAULT_255_1_234
10
22.7181213
20
91.9529
11
22.7181213
21
92.9954196
0
LINE
8
DEFAULT_255_1_234
10
22.7181213
20
92.9954196
11
22.3430391
21
92.9954196
0
LINE
8
DEFAULT_255_1_234
10
22.3430391
20
92.9954196
11
22.3430391
21
93.1223211
0
LINE
8
DEFAULT_255_1_234
10
22.3430391
20
93.1223211
11
23.2474128
21
93.1223211
0
LINE
8
DEFAULT_255_1_234
10
23.5694855
20
92.5086963
11
23.4506158
21
92.5392169
0
LINE
8
DEFAULT_255_1_234
10
23.4506158
20
92.5392169
11
23.5100507
21
93.1223211
0
LINE
8
DEFAULT_255_1_234
10
23.5100507
20
93.1223211
11
24.1092184
21
93.1223211
0
LINE
8
DEFAULT_255_1_234
10
24.1092184
20
93.1223211
11
24.1092184
21
92.9849784
0
LINE
8
DEFAULT_255_1_234
10
24.1092184
20
92.9849784
11
23.636149
21
92.9849784
0
LINE
8
DEFAULT_255_1_234
10
23.636149
20
92.9849784
11
23.6008093
21
92.6661184
0
LINE
8
DEFAULT_255_1_234
10
23.4088508
20
92.2605156
11
23.5494062
21
92.2605156
0
LINE
8
DEFAULT_255_1_234
10
23.6088411
20
92.5408232
11
23.5694855
21
92.5086963
0
ARC
8
DEFAULT_255_1_234
10
23.7862877
20
92.348123
40
0.3681349
50
93.7182161
51
120.2538958
0
ARC
8
DEFAULT_255_1_234
10
23.795714
20
92.2673394
40
0.449379
50
89.9660152
51
94.2496022
0
ARC
8
DEFAULT_255_1_234
10
23.7997874
20
92.3262549
40
0.390482
50
73.8043271
51
90.5585896
0
ARC
8
DEFAULT_255_1_234
10
23.8232771
20
92.4120602
40
0.3015334
50
41.3071453
51
73.5430202
0
ARC
8
DEFAULT_255_1_234
10
23.7816598
20
92.3762324
40
0.3564457
50
13.5075983
51
41.2174222
0
ARC
8
DEFAULT_255_1_234
10
23.6174802
20
92.3332486
40
0.5261351
50
1.1331335
51
13.8829381
0
ARC
8
DEFAULT_255_1_234
10
23.4763171
20
92.3256665
40
0.6674378
50
359.9919444
51
1.544251
0
ARC
8
DEFAULT_255_1_234
10
23.6039997
20
92.321528
40
0.5397702
50
347.8572367
51
0.4293338
0
ARC
8
DEFAULT_255_1_234
10
23.7790315
20
92.2818736
40
0.3603188
50
323.673004
51
348.1672506
0
ARC
8
DEFAULT_255_1_234
10
23.8084823
20
92.2639168
40
0.3259678
50
316.8171152
51
323.1492751
0
ARC
8
DEFAULT_255_1_234
10
23.8146012
20
92.260246
40
0.3189975
50
281.8396411
51
316.5457803
0
ARC
8
DEFAULT_255_1_234
10
23.7770276
20
92.4157762
40
0.4789527
50
269.5770101
51
282.4214771
0
ARC
8
DEFAULT_255_1_234
10
23.7699087
20
92.3944125
40
0.45759
50
256.2427136
51
270.4486331
0
ARC
8
DEFAULT_255_1_234
10
23.739999
20
92.2744229
40
0.3339303
50
228.9023911
51
256.3314342
0
ARC
8
DEFAULT_255_1_234
10
23.7326222
20
92.2627746
40
0.32031
50
193.753695
51
228.5271154
0
ARC
8
DEFAULT_255_1_234
10
23.8564176
20
92.29908
40
0.4492253
50
184.924711
51
194.497588
0
ARC
8
DEFAULT_255_1_234
10
23.8756743
20
92.3026591
40
0.3289787
50
187.3600538
51
198.6732863
0
ARC
8
DEFAULT_255_1_234
10
23.7707037
20
92.2662674
40
0.217884
50
198.4451669
51
217.794479
0
ARC
8
DEFAULT_255_1_234
10
23.7411212
20
92.2453085
40
0.1816698
50
218.2887171
51
228.5612368
0
ARC
8
DEFAULT_255_1_234
10
23.7508999
20
92.2584963
40
0.1980329
50
228.9654866
51
258.1234728
0
ARC
8
DEFAULT_255_1_234
10
23.7714709
20
92.3465833
40
0.2884748
50
257.7258293
51
270.401361
0
ARC
8
DEFAULT_255_1_234
10
23.7759596
20
92.3020821
40
0.2439788
50
269.4204404
51
286.4209037
0
ARC
8
DEFAULT_255_1_234
10
23.7908083
20
92.2481657
40
0.1880666
50
286.7251356
51
320.600362
0
ARC
8
DEFAULT_255_1_234
10
23.7524908
20
92.2792595
40
0.2374121
50
320.6712579
51
344.5441685
0
ARC
8
DEFAULT_255_1_234
10
23.6368234
20
92.3132045
40
0.3579479
50
344.2412205
51
356.7357071
0
ARC
8
DEFAULT_255_1_234
10
23.5119383
20
92.3235444
40
0.4832297
50
356.3548756
51
0.0500261
0
ARC
8
DEFAULT_255_1_234
10
23.6455892
20
92.326665
40
0.3495889
50
359.5576869
51
12.953486
0
ARC
8
DEFAULT_255_1_234
10
23.7510789
20
92.3522434
40
0.2410532
50
12.6490276
51
41.6081334
0
ARC
8
DEFAULT_255_1_234
10
23.774116
20
92.3718321
40
0.2108218
50
41.7850273
51
85.9892764
0
ARC
8
DEFAULT_255_1_234
10
23.7617897
20
92.2905462
40
0.2928454
50
84.6957577
51
90.0676183
0
ARC
8
DEFAULT_255_1_234
10
23.7594381
20
92.2236716
40
0.3597255
50
89.6804936
51
99.1614436
0
ARC
8
DEFAULT_255_1_234
10
23.7389012
20
92.3464131
40
0.235281
50
98.9830931
51
113.8908934
0
ARC
8
DEFAULT_255_1_234
10
23.7159422
20
92.4005587
40
0.176479
50
114.1950727
51
127.3641004
0
LINE
8
DEFAULT_255_1_234
10
21.0356911
20
100.5112534
11
21.0356911
21
100.4373614
0
LINE
8
DEFAULT_255_1_234
10
20.0951745
20
100.4269201
11
20.0951745
21
100.5112534
0
LINE
8
DEFAULT_255_1_234
10
20.8822849
20
100.4261169
11
20.8822849
21
100.5128597
0
LINE
8
DEFAULT_255_1_234
10
20.2485807
20
100.523301
11
20.2485807
21
100.4373614
0
ARC
8
DEFAULT_255_1_234
10
20.1714937
20
100.4334015
40
0.8642064
50
350.487711
51
0.2625388
0
ARC
8
DEFAULT_255_1_234
10
20.4008178
20
100.3939578
40
0.631518
50
336.0277639
51
350.5787438
0
ARC
8
DEFAULT_255_1_234
10
20.5353002
20
100.3331892
40
0.4839466
50
319.8877444
51
336.1328423
0
ARC
8
DEFAULT_255_1_234
10
20.5955643
20
100.284958
40
0.4067874
50
302.4806467
51
319.6143626
0
ARC
8
DEFAULT_255_1_234
10
20.5840653
20
100.3071202
40
0.4316636
50
275.8195682
51
302.1884709
0
ARC
8
DEFAULT_255_1_234
10
20.5674286
20
100.4213665
40
0.5470306
50
269.9171439
51
276.3397983
0
ARC
8
DEFAULT_255_1_234
10
20.5629496
20
100.3527681
40
0.4784458
50
252.5219675
51
270.4416499
0
ARC
8
DEFAULT_255_1_234
10
20.5485755
20
100.2988592
40
0.422716
50
237.5352116
51
252.1857531
0
ARC
8
DEFAULT_255_1_234
10
20.5574951
20
100.3102363
40
0.4371052
50
209.063312
51
237.3492538
0
ARC
8
DEFAULT_255_1_234
10
20.6444799
20
100.3648685
40
0.5397041
50
205.1183774
51
209.6470015
0
ARC
8
DEFAULT_255_1_234
10
20.7241836
20
100.398683
40
0.6262326
50
188.7215458
51
204.8240747
0
ARC
8
DEFAULT_255_1_234
10
20.9239364
20
100.4323067
40
0.8287794
50
180.3723947
51
188.9252049
0
ARC
8
DEFAULT_255_1_234
10
20.9212116
20
100.5152402
40
0.8260467
50
169.5253763
51
180.2765336
0
ARC
8
DEFAULT_255_1_234
10
20.7309564
20
100.5502309
40
0.6326007
50
155.8315255
51
169.5089989
0
ARC
8
DEFAULT_255_1_234
10
20.6029066
20
100.6096348
40
0.4914567
50
139.6258461
51
156.0379525
0
ARC
8
DEFAULT_255_1_234
10
20.5439399
20
100.6570799
40
0.4158054
50
122.6416387
51
139.3430715
0
ARC
8
DEFAULT_255_1_234
10
20.5540019
20
100.6387451
40
0.4366739
50
93.0223692
51
122.455762
0
ARC
8
DEFAULT_255_1_234
10
20.5648016
20
100.5422709
40
0.5336137
50
89.975342
51
93.6341897
0
ARC
8
DEFAULT_255_1_234
10
20.5686795
20
100.5821242
40
0.4937738
50
73.746375
51
90.4233405
0
ARC
8
DEFAULT_255_1_234
10
20.5862373
20
100.6501287
40
0.4235786
50
57.662753
51
73.4518111
0
ARC
8
DEFAULT_255_1_234
10
20.585438
20
100.6522832
40
0.4221899
50
29.1440151
51
57.414694
0
ARC
8
DEFAULT_255_1_234
10
20.4919574
20
100.5939005
40
0.5322966
50
24.0982783
51
29.7323517
0
ARC
8
DEFAULT_255_1_234
10
20.388585
20
100.5510399
40
0.6441673
50
8.6655297
51
23.8241346
0
ARC
8
DEFAULT_255_1_234
10
20.1651588
20
100.5145854
40
0.8705386
50
359.7806941
51
8.8218784
0
ARC
8
DEFAULT_255_1_234
10
20.0504586
20
100.5171345
40
0.8318373
50
359.7055579
51
8.036044
0
ARC
8
DEFAULT_255_1_234
10
20.3504592
20
100.5608239
40
0.5286768
50
7.8928306
51
20.2962107
0
ARC
8
DEFAULT_255_1_234
10
20.5132162
20
100.6208395
40
0.3552073
50
20.3231126
51
36.4992797
0
ARC
8
DEFAULT_255_1_234
10
20.5817708
20
100.6736402
40
0.2686974
50
36.1437156
51
85.6627023
0
ARC
8
DEFAULT_255_1_234
10
20.5655254
20
100.5696221
40
0.373739
50
84.3852322
51
90.0757696
0
ARC
8
DEFAULT_255_1_234
10
20.5612927
20
100.6356839
40
0.3076997
50
89.3038458
51
109.9045693
0
ARC
8
DEFAULT_255_1_234
10
20.5520318
20
100.6739062
40
0.2686424
50
110.8228367
51
143.9179474
0
ARC
8
DEFAULT_255_1_234
10
20.6453978
20
100.6026236
40
0.3860887
50
143.5289163
51
163.2980757
0
ARC
8
DEFAULT_255_1_234
10
20.8361799
20
100.5426433
40
0.5860659
50
163.0418846
51
174.3140048
0
ARC
8
DEFAULT_255_1_234
10
21.0765911
20
100.5148854
40
0.8280531
50
174.0509143
51
179.4176892
0
ARC
8
DEFAULT_255_1_234
10
21.026165
20
100.4331954
40
0.7775954
50
179.6930361
51
188.7906598
0
ARC
8
DEFAULT_255_1_234
10
20.7598129
20
100.3905935
40
0.5078633
50
188.6331305
51
202.5629587
0
ARC
8
DEFAULT_255_1_234
10
20.6343721
20
100.3401996
40
0.3726913
50
202.8081362
51
216.1193925
0
ARC
8
DEFAULT_255_1_234
10
20.5534291
20
100.2750676
40
0.2689577
50
215.0755913
51
264.6379694
0
ARC
8
DEFAULT_255_1_234
10
20.566124
20
100.3581513
40
0.3528978
50
263.846392
51
270.0833719
0
ARC
8
DEFAULT_255_1_234
10
20.5702631
20
100.3323374
40
0.3271036
50
269.3649385
51
287.5152008
0
ARC
8
DEFAULT_255_1_234
10
20.5880788
20
100.2676238
40
0.2600406
50
288.0630309
51
323.8113348
0
ARC
8
DEFAULT_255_1_234
10
20.500963
20
100.3326049
40
0.3687189
50
323.6547608
51
342.6590488
0
ARC
8
DEFAULT_255_1_234
10
20.2978245
20
100.3986952
40
0.5823286
50
342.4091907
51
353.6451149
0
ARC
8
DEFAULT_255_1_234
10
20.0146756
20
100.433919
40
0.8676442
50
353.4029884
51
359.4847795
0
LINE
8
DEFAULT_255_1_234
10
21.9352458
20
101.0598211
11
22.0902583
21
101.0598211
0
LINE
8
DEFAULT_255_1_234
10
22.0902583
20
101.0598211
11
22.0902583
21
100.264679
0
LINE
8
DEFAULT_255_1_234
10
21.7063412
20
99.8759429
11
21.6653793
21
99.8743365
0
LINE
8
DEFAULT_255_1_234
10
21.2437131
20
100.2630727
11
21.2437131
21
101.0598211
0
LINE
8
DEFAULT_255_1_234
10
21.2437131
20
101.0598211
11
21.3963161
21
101.0598211
0
LINE
8
DEFAULT_255_1_234
10
21.3963161
20
101.0598211
11
21.3963161
21
100.2678917
0
LINE
8
DEFAULT_255_1_234
10
21.9352458
20
100.2670885
11
21.9352458
21
101.0598211
0
ARC
8
DEFAULT_255_1_234
10
21.6549481
20
100.2626928
40
0.4353147
50
343.0898354
51
0.2614217
0
ARC
8
DEFAULT_255_1_234
10
21.7377883
20
100.2395837
40
0.3493402
50
315.3345598
51
342.7641223
0
ARC
8
DEFAULT_255_1_234
10
21.7154332
20
100.2627682
40
0.3815385
50
284.6606969
51
315.2182466
0
ARC
8
DEFAULT_255_1_234
10
21.6699044
20
100.4173755
40
0.5426573
50
273.8500273
51
285.1797701
0
ARC
8
DEFAULT_255_1_234
10
21.6611095
20
100.4515475
40
0.5772268
50
257.6317484
51
270.4238298
0
ARC
8
DEFAULT_255_1_234
10
21.6186293
20
100.2694198
40
0.3902347
50
230.6087562
51
257.9964012
0
ARC
8
DEFAULT_255_1_234
10
21.6054295
20
100.2487802
40
0.3659186
50
227.7440991
51
230.1551448
0
ARC
8
DEFAULT_255_1_234
10
21.5920127
20
100.2326471
40
0.3449568
50
189.2524587
51
227.5916061
0
ARC
8
DEFAULT_255_1_234
10
21.7441813
20
100.2654013
40
0.5004737
50
180.2665968
51
190.1525252
0
ARC
8
DEFAULT_255_1_234
10
21.7663833
20
100.2650918
40
0.3700778
50
179.5665184
51
191.9952995
0
ARC
8
DEFAULT_255_1_234
10
21.6435939
20
100.2377043
40
0.2442808
50
191.6974072
51
215.1404042
0
ARC
8
DEFAULT_255_1_234
10
21.6197854
20
100.2235108
40
0.2166522
50
215.6950207
51
224.8513522
0
ARC
8
DEFAULT_255_1_234
10
21.6253598
20
100.2314697
40
0.2262237
50
225.2846858
51
255.0111758
0
ARC
8
DEFAULT_255_1_234
10
21.6577558
20
100.3428455
40
0.3421979
50
254.5944985
51
267.9129803
0
ARC
8
DEFAULT_255_1_234
10
21.6652038
20
100.4512903
40
0.4508556
50
267.4689655
51
270.0223026
0
ARC
8
DEFAULT_255_1_234
10
21.6682184
20
100.3923849
40
0.3919604
50
269.5849941
51
281.1843768
0
ARC
8
DEFAULT_255_1_234
10
21.6960948
20
100.2571059
40
0.2538457
50
280.9344262
51
300.9743589
0
ARC
8
DEFAULT_255_1_234
10
21.7173554
20
100.2179688
40
0.2093566
50
301.4980046
51
315.1466847
0
ARC
8
DEFAULT_255_1_234
10
21.7029092
20
100.2298236
40
0.2279656
50
315.5952539
51
345.6678731
0
ARC
8
DEFAULT_255_1_234
10
21.5909609
20
100.2610009
40
0.3441564
50
345.2524969
51
358.6304371
0
ARC
8
DEFAULT_255_1_234
10
21.4891963
20
100.2669916
40
0.4460494
50
358.1735671
51
0.0124524
0
LINE
8
DEFAULT_255_1_234
10
23.1416128
20
101.0598211
11
23.1416128
21
100.9329196
0
LINE
8
DEFAULT_255_1_234
10
23.1416128
20
100.9329196
11
22.7657275
21
100.9329196
0
LINE
8
DEFAULT_255_1_234
10
22.7657275
20
100.9329196
11
22.7657275
21
99.8904
0
LINE
8
DEFAULT_255_1_234
10
22.7657275
20
99.8904
11
22.6123213
21
99.8904
0
LINE
8
DEFAULT_255_1_234
10
22.6123213
20
99.8904
11
22.6123213
21
100.9329196
0
LINE
8
DEFAULT_255_1_234
10
22.6123213
20
100.9329196
11
22.2372391
21
100.9329196
0
LINE
8
DEFAULT_255_1_234
10
22.2372391
20
100.9329196
11
22.2372391
21
101.0598211
0
LINE
8
DEFAULT_255_1_234
10
22.2372391
20
101.0598211
11
23.1416128
21
101.0598211
0
LINE
8
DEFAULT_255_1_234
10
23.9038248
20
101.0598211
11
23.9038248
21
100.283152
0
LINE
8
DEFAULT_255_1_234
10
23.9038248
20
100.283152
11
24.0660659
21
100.283152
0
LINE
8
DEFAULT_255_1_234
10
24.0660659
20
100.283152
11
24.0660659
21
100.1618728
0
LINE
8
DEFAULT_255_1_234
10
24.0660659
20
100.1618728
11
23.9038248
21
100.1618728
0
LINE
8
DEFAULT_255_1_234
10
23.9038248
20
100.1618728
11
23.9038248
21
99.8904
0
LINE
8
DEFAULT_255_1_234
10
23.9038248
20
99.8904
11
23.7544345
21
99.8904
0
LINE
8
DEFAULT_255_1_234
10
23.7544345
20
99.8904
11
23.7544345
21
100.1618728
0
LINE
8
DEFAULT_255_1_234
10
23.7544345
20
100.1618728
11
23.2219302
21
100.1618728
0
LINE
8
DEFAULT_255_1_234
10
23.2219302
20
100.1618728
11
23.2219302
21
100.2494187
0
LINE
8
DEFAULT_255_1_234
10
23.2219302
20
100.2494187
11
23.7455996
21
101.0598211
0
LINE
8
DEFAULT_255_1_234
10
23.7455996
20
101.0598211
11
23.9038248
21
101.0598211
0
LINE
8
DEFAULT_255_1_234
10
23.7367646
20
100.8244912
11
23.3905967
21
100.283152
0
LINE
8
DEFAULT_255_1_234
10
23.3905967
20
100.283152
11
23.7544345
21
100.283152
0
LINE
8
DEFAULT_255_1_234
10
23.7544345
20
100.283152
11
23.7544345
21
100.8566181
0
LINE
8
DEFAULT_255_1_234
10
23.7544345
20
100.8566181
11
23.7367646
21
100.8244912
0
LINE
8
DEFAULT_255_1_234
10
21.1414911
20
108.4487534
11
21.1414911
21
108.3748614
0
LINE
8
DEFAULT_255_1_234
10
20.2009745
20
108.3644201
11
20.2009745
21
108.4487534
0
LINE
8
DEFAULT_255_1_234
10
20.9880849
20
108.3636169
11
20.9880849
21
108.4503597
0
LINE
8
DEFAULT_255_1_234
10
20.3543807
20
108.460801
11
20.3543807
21
108.3748614
0
ARC
8
DEFAULT_255_1_234
10
20.2772937
20
108.3709015
40
0.8642064
50
350.487711
51
0.2625388
0
ARC
8
DEFAULT_255_1_234
10
20.5066178
20
108.3314578
40
0.631518
50
336.0277639
51
350.5787438
0
ARC
8
DEFAULT_255_1_234
10
20.6411002
20
108.2706892
40
0.4839466
50
319.8877444
51
336.1328423
0
ARC
8
DEFAULT_255_1_234
10
20.7013643
20
108.222458
40
0.4067874
50
302.4806467
51
319.6143626
0
ARC
8
DEFAULT_255_1_234
10
20.6898653
20
108.2446202
40
0.4316636
50
275.8195682
51
302.1884709
0
ARC
8
DEFAULT_255_1_234
10
20.6732286
20
108.3588665
40
0.5470306
50
269.9171439
51
276.3397983
0
ARC
8
DEFAULT_255_1_234
10
20.6687496
20
108.2902681
40
0.4784458
50
252.5219675
51
270.4416499
0
ARC
8
DEFAULT_255_1_234
10
20.6543755
20
108.2363592
40
0.422716
50
237.5352116
51
252.1857531
0
ARC
8
DEFAULT_255_1_234
10
20.6632951
20
108.2477363
40
0.4371052
50
209.063312
51
237.3492538
0
ARC
8
DEFAULT_255_1_234
10
20.7502799
20
108.3023685
40
0.5397041
50
205.1183774
51
209.6470015
0
ARC
8
DEFAULT_255_1_234
10
20.8299836
20
108.336183
40
0.6262326
50
188.7215458
51
204.8240747
0
ARC
8
DEFAULT_255_1_234
10
21.0297364
20
108.3698067
40
0.8287794
50
180.3723947
51
188.9252049
0
ARC
8
DEFAULT_255_1_234
10
21.0270116
20
108.4527402
40
0.8260467
50
169.5253763
51
180.2765336
0
ARC
8
DEFAULT_255_1_234
10
20.8367564
20
108.4877309
40
0.6326007
50
155.8315255
51
169.5089989
0
ARC
8
DEFAULT_255_1_234
10
20.7087066
20
108.5471348
40
0.4914567
50
139.6258461
51
156.0379525
0
ARC
8
DEFAULT_255_1_234
10
20.6497399
20
108.5945799
40
0.4158054
50
122.6416387
51
139.3430715
0
ARC
8
DEFAULT_255_1_234
10
20.6598019
20
108.5762451
40
0.4366739
50
93.0223692
51
122.455762
0
ARC
8
DEFAULT_255_1_234
10
20.6706016
20
108.4797709
40
0.5336137
50
89.975342
51
93.6341897
0
ARC
8
DEFAULT_255_1_234
10
20.6744795
20
108.5196242
40
0.4937738
50
73.746375
51
90.4233405
0
ARC
8
DEFAULT_255_1_234
10
20.6920373
20
108.5876287
40
0.4235786
50
57.662753
51
73.4518111
0
ARC
8
DEFAULT_255_1_234
10
20.691238
20
108.5897832
40
0.4221899
50
29.1440151
51
57.414694
0
ARC
8
DEFAULT_255_1_234
10
20.5977574
20
108.5314005
40
0.5322966
50
24.0982783
51
29.7323517
0
ARC
8
DEFAULT_255_1_234
10
20.494385
20
108.4885399
40
0.6441673
50
8.6655297
51
23.8241346
0
ARC
8
DEFAULT_255_1_234
10
20.2709588
20
108.4520854
40
0.8705386
50
359.7806941
51
8.8218784
0
ARC
8
DEFAULT_255_1_234
10
20.1562586
20
108.4546345
40
0.8318373
50
359.7055579
51
8.036044
0
ARC
8
DEFAULT_255_1_234
10
20.4562592
20
108.4983239
40
0.5286768
50
7.8928306
51
20.2962107
0
ARC
8
DEFAULT_255_1_234
10
20.6190162
20
108.5583395
40
0.3552073
50
20.3231126
51
36.4992797
0
ARC
8
DEFAULT_255_1_234
10
20.6875708
20
108.6111402
40
0.2686974
50
36.1437156
51
85.6627023
0
ARC
8
DEFAULT_255_1_234
10
20.6713254
20
108.5071221
40
0.373739
50
84.3852322
51
90.0757696
0
ARC
8
DEFAULT_255_1_234
10
20.6670927
20
108.5731839
40
0.3076997
50
89.3038458
51
109.9045693
0
ARC
8
DEFAULT_255_1_234
10
20.6578318
20
108.6114062
40
0.2686424
50
110.8228367
51
143.9179474
0
ARC
8
DEFAULT_255_1_234
10
20.7511978
20
108.5401236
40
0.3860887
50
143.5289163
51
163.2980757
0
ARC
8
DEFAULT_255_1_234
10
20.9419799
20
108.4801433
40
0.5860659
50
163.0418846
51
174.3140048
0
ARC
8
DEFAULT_255_1_234
10
21.1823911
20
108.4523854
40
0.8280531
50
174.0509143
51
179.4176892
0
ARC
8
DEFAULT_255_1_234
10
21.131965
20
108.3706954
40
0.7775954
50
179.6930361
51
188.7906598
0
ARC
8
DEFAULT_255_1_234
10
20.8656129
20
108.3280935
40
0.5078633
50
188.6331305
51
202.5629587
0
ARC
8
DEFAULT_255_1_234
10
20.7401721
20
108.2776996
40
0.3726913
50
202.8081362
51
216.1193925
0
ARC
8
DEFAULT_255_1_234
10
20.6592291
20
108.2125676
40
0.2689577
50
215.0755913
51
264.6379694
0
ARC
8
DEFAULT_255_1_234
10
20.671924
20
108.2956513
40
0.3528978
50
263.846392
51
270.0833719
0
ARC
8
DEFAULT_255_1_234
10
20.6760631
20
108.2698374
40
0.3271036
50
269.3649385
51
287.5152008
0
ARC
8
DEFAULT_255_1_234
10
20.6938788
20
108.2051238
40
0.2600406
50
288.0630309
51
323.8113348
0
ARC
8
DEFAULT_255_1_234
10
20.606763
20
108.2701049
40
0.3687189
50
323.6547608
51
342.6590488
0
ARC
8
DEFAULT_255_1_234
10
20.4036245
20
108.3361952
40
0.5823286
50
342.4091907
51
353.6451149
0
ARC
8
DEFAULT_255_1_234
10
20.1204756
20
108.371419
40
0.8676442
50
353.4029884
51
359.4847795
0
LINE
8
DEFAULT_255_1_234
10
22.0410458
20
108.9973211
11
22.1960583
21
108.9973211
0
LINE
8
DEFAULT_255_1_234
10
22.1960583
20
108.9973211
11
22.1960583
21
108.202179
0
LINE
8
DEFAULT_255_1_234
10
21.8121412
20
107.8134429
11
21.7711793
21
107.8118365
0
LINE
8
DEFAULT_255_1_234
10
21.3495131
20
108.2005727
11
21.3495131
21
108.9973211
0
LINE
8
DEFAULT_255_1_234
10
21.3495131
20
108.9973211
11
21.5021161
21
108.9973211
0
LINE
8
DEFAULT_255_1_234
10
21.5021161
20
108.9973211
11
21.5021161
21
108.2053917
0
LINE
8
DEFAULT_255_1_234
10
22.0410458
20
108.2045885
11
22.0410458
21
108.9973211
0
ARC
8
DEFAULT_255_1_234
10
21.7607481
20
108.2001928
40
0.4353147
50
343.0898354
51
0.2614217
0
ARC
8
DEFAULT_255_1_234
10
21.8435883
20
108.1770837
40
0.3493402
50
315.3345598
51
342.7641223
0
ARC
8
DEFAULT_255_1_234
10
21.8212332
20
108.2002682
40
0.3815385
50
284.6606969
51
315.2182466
0
ARC
8
DEFAULT_255_1_234
10
21.7757044
20
108.3548755
40
0.5426573
50
273.8500273
51
285.1797701
0
ARC
8
DEFAULT_255_1_234
10
21.7669095
20
108.3890475
40
0.5772268
50
257.6317484
51
270.4238298
0
ARC
8
DEFAULT_255_1_234
10
21.7244293
20
108.2069198
40
0.3902347
50
230.6087562
51
257.9964012
0
ARC
8
DEFAULT_255_1_234
10
21.7112295
20
108.1862802
40
0.3659186
50
227.7440991
51
230.1551448
0
ARC
8
DEFAULT_255_1_234
10
21.6978127
20
108.1701471
40
0.3449568
50
189.2524587
51
227.5916061
0
ARC
8
DEFAULT_255_1_234
10
21.8499813
20
108.2029013
40
0.5004737
50
180.2665968
51
190.1525252
0
ARC
8
DEFAULT_255_1_234
10
21.8721833
20
108.2025918
40
0.3700778
50
179.5665184
51
191.9952995
0
ARC
8
DEFAULT_255_1_234
10
21.7493939
20
108.1752043
40
0.2442808
50
191.6974072
51
215.1404042
0
ARC
8
DEFAULT_255_1_234
10
21.7255854
20
108.1610108
40
0.2166522
50
215.6950207
51
224.8513522
0
ARC
8
DEFAULT_255_1_234
10
21.7311598
20
108.1689697
40
0.2262237
50
225.2846858
51
255.0111758
0
ARC
8
DEFAULT_255_1_234
10
21.7635558
20
108.2803455
40
0.3421979
50
254.5944985
51
267.9129803
0
ARC
8
DEFAULT_255_1_234
10
21.7710038
20
108.3887903
40
0.4508556
50
267.4689655
51
270.0223026
0
ARC
8
DEFAULT_255_1_234
10
21.7740184
20
108.3298849
40
0.3919604
50
269.5849941
51
281.1843768
0
ARC
8
DEFAULT_255_1_234
10
21.8018948
20
108.1946059
40
0.2538457
50
280.9344262
51
300.9743589
0
ARC
8
DEFAULT_255_1_234
10
21.8231554
20
108.1554688
40
0.2093566
50
301.4980046
51
315.1466847
0
ARC
8
DEFAULT_255_1_234
10
21.8087092
20
108.1673236
40
0.2279656
50
315.5952539
51
345.6678731
0
ARC
8
DEFAULT_255_1_234
10
21.6967609
20
108.1985009
40
0.3441564
50
345.2524969
51
358.6304371
0
ARC
8
DEFAULT_255_1_234
10
21.5949963
20
108.2044916
40
0.4460494
50
358.1735671
51
0.0124524
0
LINE
8
DEFAULT_255_1_234
10
23.2474128
20
108.9973211
11
23.2474128
21
108.8704196
0
LINE
8
DEFAULT_255_1_234
10
23.2474128
20
108.8704196
11
22.8715275
21
108.8704196
0
LINE
8
DEFAULT_255_1_234
10
22.8715275
20
108.8704196
11
22.8715275
21
107.8279
0
LINE
8
DEFAULT_255_1_234
10
22.8715275
20
107.8279
11
22.7181213
21
107.8279
0
LINE
8
DEFAULT_255_1_234
10
22.7181213
20
107.8279
11
22.7181213
21
108.8704196
0
LINE
8
DEFAULT_255_1_234
10
22.7181213
20
108.8704196
11
22.3430391
21
108.8704196
0
LINE
8
DEFAULT_255_1_234
10
22.3430391
20
108.8704196
11
22.3430391
21
108.9973211
0
LINE
8
DEFAULT_255_1_234
10
22.3430391
20
108.9973211
11
23.2474128
21
108.9973211
0
LINE
8
DEFAULT_255_1_234
10
23.5983998
20
108.3636169
11
23.5983998
21
108.4848962
0
LINE
8
DEFAULT_255_1_234
10
23.5983998
20
108.4848962
11
23.710041
21
108.4848962
0
LINE
8
DEFAULT_255_1_234
10
23.5196888
20
108.6905087
11
23.3711016
21
108.6905087
0
LINE
8
DEFAULT_255_1_234
10
23.3606604
20
108.1363188
11
23.5100507
21
108.1363188
0
LINE
8
DEFAULT_255_1_234
10
23.710041
20
108.3636169
11
23.5983998
21
108.3636169
0
ARC
8
DEFAULT_255_1_234
10
23.7071276
20
108.8241713
40
0.3392876
50
270.4919872
51
281.8951556
0
ARC
8
DEFAULT_255_1_234
10
23.7312538
20
108.7139702
40
0.2264817
50
281.6691735
51
301.2943132
0
ARC
8
DEFAULT_255_1_234
10
23.7482748
20
108.6828304
40
0.1910381
50
301.7833094
51
311.7545298
0
ARC
8
DEFAULT_255_1_234
10
23.7574324
20
108.6726748
40
0.1773635
50
311.7323931
51
354.2802411
0
ARC
8
DEFAULT_255_1_234
10
23.6847949
20
108.6851722
40
0.2509385
50
353.0937916
51
0.1181479
0
ARC
8
DEFAULT_255_1_234
10
23.6386734
20
108.6899386
40
0.2970898
50
359.1805295
51
15.0453146
0
ARC
8
DEFAULT_255_1_234
10
23.7732571
20
108.7291992
40
0.1569564
50
13.9577229
51
77.6713066
0
ARC
8
DEFAULT_255_1_234
10
23.73461
20
108.5906949
40
0.3006298
50
76.1116566
51
90.7026153
0
ARC
8
DEFAULT_255_1_234
10
23.7286938
20
108.6180545
40
0.2732568
50
89.5324876
51
103.531937
0
ARC
8
DEFAULT_255_1_234
10
23.7086383
20
108.6979884
40
0.1908508
50
103.2931773
51
133.5619022
0
ARC
8
DEFAULT_255_1_234
10
23.7041871
20
108.7039375
40
0.1834746
50
133.8349307
51
173.5344437
0
ARC
8
DEFAULT_255_1_234
10
23.7764914
20
108.6911213
40
0.2568033
50
172.5096846
51
180.1366907
0
ARC
8
DEFAULT_255_1_234
10
23.6813808
20
108.6945622
40
0.3103056
50
155.3484492
51
180.7484736
0
ARC
8
DEFAULT_255_1_234
10
23.6764897
20
108.6916846
40
0.3070957
50
131.5744599
51
154.4798489
0
ARC
8
DEFAULT_255_1_234
10
23.7078044
20
108.660031
40
0.3515643
50
96.9875458
51
131.9690667
0
ARC
8
DEFAULT_255_1_234
10
23.7297524
20
108.5354636
40
0.4779224
50
89.8596053
51
97.7825159
0
ARC
8
DEFAULT_255_1_234
10
23.7345587
20
108.5092616
40
0.5041361
50
78.3655447
51
90.4131539
0
ARC
8
DEFAULT_255_1_234
10
23.7703505
20
108.6751887
40
0.3344039
50
56.6229102
51
78.638727
0
ARC
8
DEFAULT_255_1_234
10
23.7918449
20
108.7127805
40
0.2912001
50
47.0253525
51
56.0854072
0
ARC
8
DEFAULT_255_1_234
10
23.7938229
20
108.7167223
40
0.2869704
50
10.9208013
51
46.7778124
0
ARC
8
DEFAULT_255_1_234
10
23.6574295
20
108.6851857
40
0.426899
50
359.6364486
51
11.6087304
0
ARC
8
DEFAULT_255_1_234
10
23.840914
20
108.6836752
40
0.243409
50
332.3549906
51
359.7179418
0
ARC
8
DEFAULT_255_1_234
10
23.7758741
20
108.7145142
40
0.3153459
50
325.2333722
51
332.8745602
0
ARC
8
DEFAULT_255_1_234
10
23.7911365
20
108.7038828
40
0.2967456
50
292.9802137
51
325.2392345
0
ARC
8
DEFAULT_255_1_234
10
23.7636739
20
108.7572863
40
0.3566604
50
292.5402179
51
293.6924929
0
ARC
8
DEFAULT_255_1_234
10
23.8029334
20
108.1118091
40
0.3307468
50
57.6435486
51
72.8625112
0
ARC
8
DEFAULT_255_1_234
10
23.8383834
20
108.1692549
40
0.2632492
50
36.7248896
51
57.4697979
0
ARC
8
DEFAULT_255_1_234
10
23.8372467
20
108.170522
40
0.2634081
50
8.0545065
51
36.356114
0
ARC
8
DEFAULT_255_1_234
10
23.7509652
20
108.1550174
40
0.3510261
50
359.8320645
51
8.5869982
0
ARC
8
DEFAULT_255_1_234
10
23.7134428
20
108.1502101
40
0.3885653
50
343.9829931
51
0.5571613
0
ARC
8
DEFAULT_255_1_234
10
23.8020626
20
108.1259438
40
0.2966924
50
311.6359546
51
343.7651759
0
ARC
8
DEFAULT_255_1_234
10
23.7642195
20
108.1686102
40
0.3537231
50
279.7829875
51
311.6255694
0
ARC
8
DEFAULT_255_1_234
10
23.7340971
20
108.312328
40
0.5004971
50
269.7286406
51
280.3856417
0
ARC
8
DEFAULT_255_1_234
10
23.7279043
20
108.3081996
40
0.4963778
50
256.6828919
51
270.4412052
0
ARC
8
DEFAULT_255_1_234
10
23.6940339
20
108.1697394
40
0.3538406
50
229.4223008
51
256.8556159
0
ARC
8
DEFAULT_255_1_234
10
23.6525732
20
108.1230736
40
0.2914296
50
181.818294
51
229.6455059
0
ARC
8
DEFAULT_255_1_234
10
23.7565688
20
108.1361496
40
0.3959084
50
179.9755256
51
183.2323064
0
ARC
8
DEFAULT_255_1_234
10
23.7393434
20
108.1341037
40
0.2293034
50
179.4465117
51
196.2869258
0
ARC
8
DEFAULT_255_1_234
10
23.6905842
20
108.1207651
40
0.1787621
50
196.5661473
51
227.705904
0
ARC
8
DEFAULT_255_1_234
10
23.7069937
20
108.1391155
40
0.2033784
50
227.7652068
51
257.8762805
0
ARC
8
DEFAULT_255_1_234
10
23.7294907
20
108.2334156
40
0.3003081
50
257.4584385
51
270.426602
0
ARC
8
DEFAULT_255_1_234
10
23.7340473
20
108.2623996
40
0.329292
50
269.5962073
51
280.8789248
0
ARC
8
DEFAULT_255_1_234
10
23.7570002
20
108.1477685
40
0.2123908
50
280.6346389
51
299.8595945
0
ARC
8
DEFAULT_255_1_234
10
23.7760909
20
108.1115212
40
0.171457
50
300.3576302
51
314.5517981
0
ARC
8
DEFAULT_255_1_234
10
23.7677969
20
108.1175919
40
0.1816095
50
315.0728369
51
345.0431014
0
ARC
8
DEFAULT_255_1_234
10
23.6754783
20
108.1444841
40
0.2777492
50
344.5986631
51
357.9269593
0
ARC
8
DEFAULT_255_1_234
10
23.585911
20
108.1506276
40
0.3674917
50
357.4748886
51
0.0231117
0
ARC
8
DEFAULT_255_1_234
10
23.6882219
20
108.1530679
40
0.2651907
50
359.5047933
51
13.4239635
0
ARC
8
DEFAULT_255_1_234
10
23.7748863
20
108.1752478
40
0.1757509
50
12.9498199
51
48.7551375
0
ARC
8
DEFAULT_255_1_234
10
23.7566597
20
108.15034
40
0.2065134
50
49.5088623
51
72.1836453
0
ARC
8
DEFAULT_255_1_234
10
23.7208749
20
108.0441291
40
0.3185836
50
71.9010081
51
84.3554254
0
ARC
8
DEFAULT_255_1_234
10
23.7047381
20
107.9080326
40
0.4556151
50
84.0193428
51
89.333121
0
LINE
8
DEFAULT_255_1_234
10
21.1414911
20
116.3862534
11
21.1414911
21
116.3123614
0
LINE
8
DEFAULT_255_1_234
10
20.2009745
20
116.3019201
11
20.2009745
21
116.3862534
0
LINE
8
DEFAULT_255_1_234
10
20.9880849
20
116.3011169
11
20.9880849
21
116.3878597
0
LINE
8
DEFAULT_255_1_234
10
20.3543807
20
116.398301
11
20.3543807
21
116.3123614
0
ARC
8
DEFAULT_255_1_234
10
20.2772937
20
116.3084015
40
0.8642064
50
350.487711
51
0.2625388
0
ARC
8
DEFAULT_255_1_234
10
20.5066178
20
116.2689578
40
0.631518
50
336.0277639
51
350.5787438
0
ARC
8
DEFAULT_255_1_234
10
20.6411002
20
116.2081892
40
0.4839466
50
319.8877444
51
336.1328423
0
ARC
8
DEFAULT_255_1_234
10
20.7013643
20
116.159958
40
0.4067874
50
302.4806467
51
319.6143626
0
ARC
8
DEFAULT_255_1_234
10
20.6898653
20
116.1821202
40
0.4316636
50
275.8195682
51
302.1884709
0
ARC
8
DEFAULT_255_1_234
10
20.6732286
20
116.2963665
40
0.5470306
50
269.9171439
51
276.3397983
0
ARC
8
DEFAULT_255_1_234
10
20.6687496
20
116.2277681
40
0.4784458
50
252.5219675
51
270.4416499
0
ARC
8
DEFAULT_255_1_234
10
20.6543755
20
116.1738592
40
0.422716
50
237.5352116
51
252.1857531
0
ARC
8
DEFAULT_255_1_234
10
20.6632951
20
116.1852363
40
0.4371052
50
209.063312
51
237.3492538
0
ARC
8
DEFAULT_255_1_234
10
20.7502799
20
116.2398685
40
0.5397041
50
205.1183774
51
209.6470015
0
ARC
8
DEFAULT_255_1_234
10
20.8299836
20
116.273683
40
0.6262326
50
188.7215458
51
204.8240747
0
ARC
8
DEFAULT_255_1_234
10
21.0297364
20
116.3073067
40
0.8287794
50
180.3723947
51
188.9252049
0
ARC
8
DEFAULT_255_1_234
10
21.0270116
20
116.3902402
40
0.8260467
50
169.5253763
51
180.2765336
0
ARC
8
DEFAULT_255_1_234
10
20.8367564
20
116.4252309
40
0.6326007
50
155.8315255
51
169.5089989
0
ARC
8
DEFAULT_255_1_234
10
20.7087066
20
116.4846348
40
0.4914567
50
139.6258461
51
156.0379525
0
ARC
8
DEFAULT_255_1_234
10
20.6497399
20
116.5320799
40
0.4158054
50
122.6416387
51
139.3430715
0
ARC
8
DEFAULT_255_1_234
10
20.6598019
20
116.5137451
40
0.4366739
50
93.0223692
51
122.455762
0
ARC
8
DEFAULT_255_1_234
10
20.6706016
20
116.4172709
40
0.5336137
50
89.975342
51
93.6341897
0
ARC
8
DEFAULT_255_1_234
10
20.6744795
20
116.4571242
40
0.4937738
50
73.746375
51
90.4233405
0
ARC
8
DEFAULT_255_1_234
10
20.6920373
20
116.5251287
40
0.4235786
50
57.662753
51
73.4518111
0
ARC
8
DEFAULT_255_1_234
10
20.691238
20
116.5272832
40
0.4221899
50
29.1440151
51
57.414694
0
ARC
8
DEFAULT_255_1_234
10
20.5977574
20
116.4689005
40
0.5322966
50
24.0982783
51
29.7323517
0
ARC
8
DEFAULT_255_1_234
10
20.494385
20
116.4260399
40
0.6441673
50
8.6655297
51
23.8241346
0
ARC
8
DEFAULT_255_1_234
10
20.2709588
20
116.3895854
40
0.8705386
50
359.7806941
51
8.8218784
0
ARC
8
DEFAULT_255_1_234
10
20.1562586
20
116.3921345
40
0.8318373
50
359.7055579
51
8.036044
0
ARC
8
DEFAULT_255_1_234
10
20.4562592
20
116.4358239
40
0.5286768
50
7.8928306
51
20.2962107
0
ARC
8
DEFAULT_255_1_234
10
20.6190162
20
116.4958395
40
0.3552073
50
20.3231126
51
36.4992797
0
ARC
8
DEFAULT_255_1_234
10
20.6875708
20
116.5486402
40
0.2686974
50
36.1437156
51
85.6627023
0
ARC
8
DEFAULT_255_1_234
10
20.6713254
20
116.4446221
40
0.373739
50
84.3852322
51
90.0757696
0
ARC
8
DEFAULT_255_1_234
10
20.6670927
20
116.5106839
40
0.3076997
50
89.3038458
51
109.9045693
0
ARC
8
DEFAULT_255_1_234
10
20.6578318
20
116.5489062
40
0.2686424
50
110.8228367
51
143.9179474
0
ARC
8
DEFAULT_255_1_234
10
20.7511978
20
116.4776236
40
0.3860887
50
143.5289163
51
163.2980757
0
ARC
8
DEFAULT_255_1_234
10
20.9419799
20
116.4176433
40
0.5860659
50
163.0418846
51
174.3140048
0
ARC
8
DEFAULT_255_1_234
10
21.1823911
20
116.3898854
40
0.8280531
50
174.0509143
51
179.4176892
0
ARC
8
DEFAULT_255_1_234
10
21.131965
20
116.3081954
40
0.7775954
50
179.6930361
51
188.7906598
0
ARC
8
DEFAULT_255_1_234
10
20.8656129
20
116.2655935
40
0.5078633
50
188.6331305
51
202.5629587
0
ARC
8
DEFAULT_255_1_234
10
20.7401721
20
116.2151996
40
0.3726913
50
202.8081362
51
216.1193925
0
ARC
8
DEFAULT_255_1_234
10
20.6592291
20
116.1500676
40
0.2689577
50
215.0755913
51
264.6379694
0
ARC
8
DEFAULT_255_1_234
10
20.671924
20
116.2331513
40
0.3528978
50
263.846392
51
270.0833719
0
ARC
8
DEFAULT_255_1_234
10
20.6760631
20
116.2073374
40
0.3271036
50
269.3649385
51
287.5152008
0
ARC
8
DEFAULT_255_1_234
10
20.6938788
20
116.1426238
40
0.2600406
50
288.0630309
51
323.8113348
0
ARC
8
DEFAULT_255_1_234
10
20.606763
20
116.2076049
40
0.3687189
50
323.6547608
51
342.6590488
0
ARC
8
DEFAULT_255_1_234
10
20.4036245
20
116.2736952
40
0.5823286
50
342.4091907
51
353.6451149
0
ARC
8
DEFAULT_255_1_234
10
20.1204756
20
116.308919
40
0.8676442
50
353.4029884
51
359.4847795
0
LINE
8
DEFAULT_255_1_234
10
22.0410458
20
116.9348211
11
22.1960583
21
116.9348211
0
LINE
8
DEFAULT_255_1_234
10
22.1960583
20
116.9348211
11
22.1960583
21
116.139679
0
LINE
8
DEFAULT_255_1_234
10
21.8121412
20
115.7509429
11
21.7711793
21
115.7493365
0
LINE
8
DEFAULT_255_1_234
10
21.3495131
20
116.1380727
11
21.3495131
21
116.9348211
0
LINE
8
DEFAULT_255_1_234
10
21.3495131
20
116.9348211
11
21.5021161
21
116.9348211
0
LINE
8
DEFAULT_255_1_234
10
21.5021161
20
116.9348211
11
21.5021161
21
116.1428917
0
LINE
8
DEFAULT_255_1_234
10
22.0410458
20
116.1420885
11
22.0410458
21
116.9348211
0
ARC
8
DEFAULT_255_1_234
10
21.7607481
20
116.1376928
40
0.4353147
50
343.0898354
51
0.2614217
0
ARC
8
DEFAULT_255_1_234
10
21.8435883
20
116.1145837
40
0.3493402
50
315.3345598
51
342.7641223
0
ARC
8
DEFAULT_255_1_234
10
21.8212332
20
116.1377682
40
0.3815385
50
284.6606969
51
315.2182466
0
ARC
8
DEFAULT_255_1_234
10
21.7757044
20
116.2923755
40
0.5426573
50
273.8500273
51
285.1797701
0
ARC
8
DEFAULT_255_1_234
10
21.7669095
20
116.3265475
40
0.5772268
50
257.6317484
51
270.4238298
0
ARC
8
DEFAULT_255_1_234
10
21.7244293
20
116.1444198
40
0.3902347
50
230.6087562
51
257.9964012
0
ARC
8
DEFAULT_255_1_234
10
21.7112295
20
116.1237802
40
0.3659186
50
227.7440991
51
230.1551448
0
ARC
8
DEFAULT_255_1_234
10
21.6978127
20
116.1076471
40
0.3449568
50
189.2524587
51
227.5916061
0
ARC
8
DEFAULT_255_1_234
10
21.8499813
20
116.1404013
40
0.5004737
50
180.2665968
51
190.1525252
0
ARC
8
DEFAULT_255_1_234
10
21.8721833
20
116.1400918
40
0.3700778
50
179.5665184
51
191.9952995
0
ARC
8
DEFAULT_255_1_234
10
21.7493939
20
116.1127043
40
0.2442808
50
191.6974072
51
215.1404042
0
ARC
8
DEFAULT_255_1_234
10
21.7255854
20
116.0985108
40
0.2166522
50
215.6950207
51
224.8513522
0
ARC
8
DEFAULT_255_1_234
10
21.7311598
20
116.1064697
40
0.2262237
50
225.2846858
51
255.0111758
0
ARC
8
DEFAULT_255_1_234
10
21.7635558
20
116.2178455
40
0.3421979
50
254.5944985
51
267.9129803
0
ARC
8
DEFAULT_255_1_234
10
21.7710038
20
116.3262903
40
0.4508556
50
267.4689655
51
270.0223026
0
ARC
8
DEFAULT_255_1_234
10
21.7740184
20
116.2673849
40
0.3919604
50
269.5849941
51
281.1843768
0
ARC
8
DEFAULT_255_1_234
10
21.8018948
20
116.1321059
40
0.2538457
50
280.9344262
51
300.9743589
0
ARC
8
DEFAULT_255_1_234
10
21.8231554
20
116.0929688
40
0.2093566
50
301.4980046
51
315.1466847
0
ARC
8
DEFAULT_255_1_234
10
21.8087092
20
116.1048236
40
0.2279656
50
315.5952539
51
345.6678731
0
ARC
8
DEFAULT_255_1_234
10
21.6967609
20
116.1360009
40
0.3441564
50
345.2524969
51
358.6304371
0
ARC
8
DEFAULT_255_1_234
10
21.5949963
20
116.1419916
40
0.4460494
50
358.1735671
51
0.0124524
0
LINE
8
DEFAULT_255_1_234
10
23.2474128
20
116.9348211
11
23.2474128
21
116.8079196
0
LINE
8
DEFAULT_255_1_234
10
23.2474128
20
116.8079196
11
22.8715275
21
116.8079196
0
LINE
8
DEFAULT_255_1_234
10
22.8715275
20
116.8079196
11
22.8715275
21
115.7654
0
LINE
8
DEFAULT_255_1_234
10
22.8715275
20
115.7654
11
22.7181213
21
115.7654
0
LINE
8
DEFAULT_255_1_234
10
22.7181213
20
115.7654
11
22.7181213
21
116.8079196
0
LINE
8
DEFAULT_255_1_234
10
22.7181213
20
116.8079196
11
22.3430391
21
116.8079196
0
LINE
8
DEFAULT_255_1_234
10
22.3430391
20
116.8079196
11
22.3430391
21
116.9348211
0
LINE
8
DEFAULT_255_1_234
10
22.3430391
20
116.9348211
11
23.2474128
21
116.9348211
0
LINE
8
DEFAULT_255_1_234
10
24.1485739
20
115.8866792
11
24.1485739
21
115.7654
0
LINE
8
DEFAULT_255_1_234
10
24.1485739
20
115.7654
11
23.382346
21
115.7654
0
LINE
8
DEFAULT_255_1_234
10
23.382346
20
115.7654
11
23.382346
21
115.8722221
0
LINE
8
DEFAULT_255_1_234
10
23.382346
20
115.8722221
11
23.7871457
21
116.3219995
0
LINE
8
DEFAULT_255_1_234
10
23.5084443
20
116.5902595
11
23.3598572
21
116.5902595
0
LINE
8
DEFAULT_255_1_234
10
23.8746916
20
116.2264218
11
23.5614538
21
115.8866792
0
LINE
8
DEFAULT_255_1_234
10
23.5614538
20
115.8866792
11
24.1485739
21
115.8866792
0
ARC
8
DEFAULT_255_1_234
10
22.438129
20
117.5149527
40
1.8008286
50
318.5132453
51
320.7828378
0
ARC
8
DEFAULT_255_1_234
10
22.9668264
20
117.0846426
40
1.1191493
50
320.7372736
51
323.9737074
0
ARC
8
DEFAULT_255_1_234
10
23.3588121
20
116.8006361
40
0.6350923
50
323.8961724
51
328.6421089
0
ARC
8
DEFAULT_255_1_234
10
23.5634716
20
116.6744031
40
0.3946393
50
328.8299013
51
331.789948
0
ARC
8
DEFAULT_255_1_234
10
23.6631895
20
116.6229509
40
0.2824501
50
331.4255242
51
352.9364833
0
ARC
8
DEFAULT_255_1_234
10
23.6768395
20
116.6198976
40
0.2685315
50
353.2248685
51
0.0169286
0
ARC
8
DEFAULT_255_1_234
10
23.6978272
20
116.622195
40
0.2475536
50
359.4866256
51
15.9339782
0
ARC
8
DEFAULT_255_1_234
10
23.7485257
20
116.6358286
40
0.1950618
50
16.1714718
51
43.5284424
0
ARC
8
DEFAULT_255_1_234
10
23.7562566
20
116.6435573
40
0.184134
50
43.4415429
51
83.1661404
0
ARC
8
DEFAULT_255_1_234
10
23.7428484
20
116.5698771
40
0.258926
50
82.160215
51
90.1505798
0
ARC
8
DEFAULT_255_1_234
10
23.7396912
20
116.5161865
40
0.3126255
50
89.5460705
51
102.5418777
0
ARC
8
DEFAULT_255_1_234
10
23.7153998
20
116.6192665
40
0.2067346
50
102.1739365
51
129.2061916
0
ARC
8
DEFAULT_255_1_234
10
23.7075069
20
116.6317094
40
0.1921118
50
129.7279328
51
135.7542026
0
ARC
8
DEFAULT_255_1_234
10
23.7196597
20
116.6220045
40
0.2075944
50
136.175737
51
166.3674722
0
ARC
8
DEFAULT_255_1_234
10
23.8203516
20
116.5950182
40
0.3118201
50
165.9092917
51
178.8683903
0
ARC
8
DEFAULT_255_1_234
10
23.9068378
20
116.5903179
40
0.3983935
50
178.438168
51
180.0083905
0
ARC
8
DEFAULT_255_1_234
10
23.766698
20
116.5942231
40
0.4068601
50
163.2878735
51
180.5581814
0
ARC
8
DEFAULT_255_1_234
10
23.6865241
20
116.616284
40
0.3237344
50
133.454115
51
162.9470031
0
ARC
8
DEFAULT_255_1_234
10
23.7043782
20
116.5973
40
0.349795
50
100.7869394
51
133.4384016
0
ARC
8
DEFAULT_255_1_234
10
23.7391554
20
116.4424319
40
0.5084616
50
89.6605301
51
101.3704185
0
ARC
8
DEFAULT_255_1_234
10
23.7457893
20
116.4485496
40
0.502348
50
78.2171172
51
90.4130393
0
ARC
8
DEFAULT_255_1_234
10
23.7812971
20
116.6109637
40
0.3361092
50
55.9268222
51
78.4888551
0
ARC
8
DEFAULT_255_1_234
10
23.8009411
20
116.6448324
40
0.2970617
50
47.9292255
51
55.4054003
0
ARC
8
DEFAULT_255_1_234
10
23.8110972
20
116.6551502
40
0.2825983
50
4.3347696
51
48.0560701
0
ARC
8
DEFAULT_255_1_234
10
23.7015365
20
116.6381601
40
0.393225
50
359.925209
51
5.5967654
0
ARC
8
DEFAULT_255_1_234
10
23.7444257
20
116.6437816
40
0.3503892
50
337.8914096
51
358.9967724
0
ARC
8
DEFAULT_255_1_234
10
23.4730669
20
116.7484706
40
0.6412172
50
326.9135351
51
338.3505194
0
ARC
8
DEFAULT_255_1_234
10
23.0744973
20
117.0039284
40
1.1146189
50
319.6472867
51
327.095818
0
ARC
8
DEFAULT_255_1_234
10
22.6911976
20
117.3201
40
1.6114559
50
317.2586784
51
319.9046139
0
LINE
8
DEFAULT_255_1_234
10
21.1501911
20
124.3237534
11
21.1501911
21
124.2498614
0
LINE
8
DEFAULT_255_1_234
10
20.2096745
20
124.2394201
11
20.2096745
21
124.3237534
0
LINE
8
DEFAULT_255_1_234
10
20.9967849
20
124.2386169
11
20.9967849
21
124.3253597
0
LINE
8
DEFAULT_255_1_234
10
20.3630807
20
124.335801
11
20.3630807
21
124.2498614
0
ARC
8
DEFAULT_255_1_234
10
20.2859937
20
124.2459015
40
0.8642064
50
350.487711
51
0.2625388
0
ARC
8
DEFAULT_255_1_234
10
20.5153178
20
124.2064578
40
0.631518
50
336.0277639
51
350.5787438
0
ARC
8
DEFAULT_255_1_234
10
20.6498002
20
124.1456892
40
0.4839466
50
319.8877444
51
336.1328423
0
ARC
8
DEFAULT_255_1_234
10
20.7100643
20
124.097458
40
0.4067874
50
302.4806467
51
319.6143626
0
ARC
8
DEFAULT_255_1_234
10
20.6985653
20
124.1196202
40
0.4316636
50
275.8195682
51
302.1884709
0
ARC
8
DEFAULT_255_1_234
10
20.6819286
20
124.2338665
40
0.5470306
50
269.9171439
51
276.3397983
0
ARC
8
DEFAULT_255_1_234
10
20.6774496
20
124.1652681
40
0.4784458
50
252.5219675
51
270.4416499
0
ARC
8
DEFAULT_255_1_234
10
20.6630755
20
124.1113592
40
0.422716
50
237.5352116
51
252.1857531
0
ARC
8
DEFAULT_255_1_234
10
20.6719951
20
124.1227363
40
0.4371052
50
209.063312
51
237.3492538
0
ARC
8
DEFAULT_255_1_234
10
20.7589799
20
124.1773685
40
0.5397041
50
205.1183774
51
209.6470015
0
ARC
8
DEFAULT_255_1_234
10
20.8386836
20
124.211183
40
0.6262326
50
188.7215458
51
204.8240747
0
ARC
8
DEFAULT_255_1_234
10
21.0384364
20
124.2448067
40
0.8287794
50
180.3723947
51
188.9252049
0
ARC
8
DEFAULT_255_1_234
10
21.0357116
20
124.3277402
40
0.8260467
50
169.5253763
51
180.2765336
0
ARC
8
DEFAULT_255_1_234
10
20.8454564
20
124.3627309
40
0.6326007
50
155.8315255
51
169.5089989
0
ARC
8
DEFAULT_255_1_234
10
20.7174066
20
124.4221348
40
0.4914567
50
139.6258461
51
156.0379525
0
ARC
8
DEFAULT_255_1_234
10
20.6584399
20
124.4695799
40
0.4158054
50
122.6416387
51
139.3430715
0
ARC
8
DEFAULT_255_1_234
10
20.6685019
20
124.4512451
40
0.4366739
50
93.0223692
51
122.455762
0
ARC
8
DEFAULT_255_1_234
10
20.6793016
20
124.3547709
40
0.5336137
50
89.975342
51
93.6341897
0
ARC
8
DEFAULT_255_1_234
10
20.6831795
20
124.3946242
40
0.4937738
50
73.746375
51
90.4233405
0
ARC
8
DEFAULT_255_1_234
10
20.7007373
20
124.4626287
40
0.4235786
50
57.662753
51
73.4518111
0
ARC
8
DEFAULT_255_1_234
10
20.699938
20
124.4647832
40
0.4221899
50
29.1440151
51
57.414694
0
ARC
8
DEFAULT_255_1_234
10
20.6064574
20
124.4064005
40
0.5322966
50
24.0982783
51
29.7323517
0
ARC
8
DEFAULT_255_1_234
10
20.503085
20
124.3635399
40
0.6441673
50
8.6655297
51
23.8241346
0
ARC
8
DEFAULT_255_1_234
10
20.2796588
20
124.3270854
40
0.8705386
50
359.7806941
51
8.8218784
0
ARC
8
DEFAULT_255_1_234
10
20.1649586
20
124.3296345
40
0.8318373
50
359.7055579
51
8.036044
0
ARC
8
DEFAULT_255_1_234
10
20.4649592
20
124.3733239
40
0.5286768
50
7.8928306
51
20.2962107
0
ARC
8
DEFAULT_255_1_234
10
20.6277162
20
124.4333395
40
0.3552073
50
20.3231126
51
36.4992797
0
ARC
8
DEFAULT_255_1_234
10
20.6962708
20
124.4861402
40
0.2686974
50
36.1437156
51
85.6627023
0
ARC
8
DEFAULT_255_1_234
10
20.6800254
20
124.3821221
40
0.373739
50
84.3852322
51
90.0757696
0
ARC
8
DEFAULT_255_1_234
10
20.6757927
20
124.4481839
40
0.3076997
50
89.3038458
51
109.9045693
0
ARC
8
DEFAULT_255_1_234
10
20.6665318
20
124.4864062
40
0.2686424
50
110.8228367
51
143.9179474
0
ARC
8
DEFAULT_255_1_234
10
20.7598978
20
124.4151236
40
0.3860887
50
143.5289163
51
163.2980757
0
ARC
8
DEFAULT_255_1_234
10
20.9506799
20
124.3551433
40
0.5860659
50
163.0418846
51
174.3140048
0
ARC
8
DEFAULT_255_1_234
10
21.1910911
20
124.3273854
40
0.8280531
50
174.0509143
51
179.4176892
0
ARC
8
DEFAULT_255_1_234
10
21.140665
20
124.2456954
40
0.7775954
50
179.6930361
51
188.7906598
0
ARC
8
DEFAULT_255_1_234
10
20.8743129
20
124.2030935
40
0.5078633
50
188.6331305
51
202.5629587
0
ARC
8
DEFAULT_255_1_234
10
20.7488721
20
124.1526996
40
0.3726913
50
202.8081362
51
216.1193925
0
ARC
8
DEFAULT_255_1_234
10
20.6679291
20
124.0875676
40
0.2689577
50
215.0755913
51
264.6379694
0
ARC
8
DEFAULT_255_1_234
10
20.680624
20
124.1706513
40
0.3528978
50
263.846392
51
270.0833719
0
ARC
8
DEFAULT_255_1_234
10
20.6847631
20
124.1448374
40
0.3271036
50
269.3649385
51
287.5152008
0
ARC
8
DEFAULT_255_1_234
10
20.7025788
20
124.0801238
40
0.2600406
50
288.0630309
51
323.8113348
0
ARC
8
DEFAULT_255_1_234
10
20.615463
20
124.1451049
40
0.3687189
50
323.6547608
51
342.6590488
0
ARC
8
DEFAULT_255_1_234
10
20.4123245
20
124.2111952
40
0.5823286
50
342.4091907
51
353.6451149
0
ARC
8
DEFAULT_255_1_234
10
20.1291756
20
124.246419
40
0.8676442
50
353.4029884
51
359.4847795
0
LINE
8
DEFAULT_255_1_234
10
22.0497458
20
124.8723211
11
22.2047583
21
124.8723211
0
LINE
8
DEFAULT_255_1_234
10
22.2047583
20
124.8723211
11
22.2047583
21
124.077179
0
LINE
8
DEFAULT_255_1_234
10
21.8208412
20
123.6884429
11
21.7798793
21
123.6868365
0
LINE
8
DEFAULT_255_1_234
10
21.3582131
20
124.0755727
11
21.3582131
21
124.8723211
0
LINE
8
DEFAULT_255_1_234
10
21.3582131
20
124.8723211
11
21.5108161
21
124.8723211
0
LINE
8
DEFAULT_255_1_234
10
21.5108161
20
124.8723211
11
21.5108161
21
124.0803917
0
LINE
8
DEFAULT_255_1_234
10
22.0497458
20
124.0795885
11
22.0497458
21
124.8723211
0
ARC
8
DEFAULT_255_1_234
10
21.7694481
20
124.0751928
40
0.4353147
50
343.0898354
51
0.2614217
0
ARC
8
DEFAULT_255_1_234
10
21.8522883
20
124.0520837
40
0.3493402
50
315.3345598
51
342.7641223
0
ARC
8
DEFAULT_255_1_234
10
21.8299332
20
124.0752682
40
0.3815385
50
284.6606969
51
315.2182466
0
ARC
8
DEFAULT_255_1_234
10
21.7844044
20
124.2298755
40
0.5426573
50
273.8500273
51
285.1797701
0
ARC
8
DEFAULT_255_1_234
10
21.7756095
20
124.2640475
40
0.5772268
50
257.6317484
51
270.4238298
0
ARC
8
DEFAULT_255_1_234
10
21.7331293
20
124.0819198
40
0.3902347
50
230.6087562
51
257.9964012
0
ARC
8
DEFAULT_255_1_234
10
21.7199295
20
124.0612802
40
0.3659186
50
227.7440991
51
230.1551448
0
ARC
8
DEFAULT_255_1_234
10
21.7065127
20
124.0451471
40
0.3449568
50
189.2524587
51
227.5916061
0
ARC
8
DEFAULT_255_1_234
10
21.8586813
20
124.0779013
40
0.5004737
50
180.2665968
51
190.1525252
0
ARC
8
DEFAULT_255_1_234
10
21.8808833
20
124.0775918
40
0.3700778
50
179.5665184
51
191.9952995
0
ARC
8
DEFAULT_255_1_234
10
21.7580939
20
124.0502043
40
0.2442808
50
191.6974072
51
215.1404042
0
ARC
8
DEFAULT_255_1_234
10
21.7342854
20
124.0360108
40
0.2166522
50
215.6950207
51
224.8513522
0
ARC
8
DEFAULT_255_1_234
10
21.7398598
20
124.0439697
40
0.2262237
50
225.2846858
51
255.0111758
0
ARC
8
DEFAULT_255_1_234
10
21.7722558
20
124.1553455
40
0.3421979
50
254.5944985
51
267.9129803
0
ARC
8
DEFAULT_255_1_234
10
21.7797038
20
124.2637903
40
0.4508556
50
267.4689655
51
270.0223026
0
ARC
8
DEFAULT_255_1_234
10
21.7827184
20
124.2048849
40
0.3919604
50
269.5849941
51
281.1843768
0
ARC
8
DEFAULT_255_1_234
10
21.8105948
20
124.0696059
40
0.2538457
50
280.9344262
51
300.9743589
0
ARC
8
DEFAULT_255_1_234
10
21.8318554
20
124.0304688
40
0.2093566
50
301.4980046
51
315.1466847
0
ARC
8
DEFAULT_255_1_234
10
21.8174092
20
124.0423236
40
0.2279656
50
315.5952539
51
345.6678731
0
ARC
8
DEFAULT_255_1_234
10
21.7054609
20
124.0735009
40
0.3441564
50
345.2524969
51
358.6304371
0
ARC
8
DEFAULT_255_1_234
10
21.6036963
20
124.0794916
40
0.4460494
50
358.1735671
51
0.0124524
0
LINE
8
DEFAULT_255_1_234
10
23.2561128
20
124.8723211
11
23.2561128
21
124.7454196
0
LINE
8
DEFAULT_255_1_234
10
23.2561128
20
124.7454196
11
22.8802275
21
124.7454196
0
LINE
8
DEFAULT_255_1_234
10
22.8802275
20
124.7454196
11
22.8802275
21
123.7029
0
LINE
8
DEFAULT_255_1_234
10
22.8802275
20
123.7029
11
22.7268213
21
123.7029
0
LINE
8
DEFAULT_255_1_234
10
22.7268213
20
123.7029
11
22.7268213
21
124.7454196
0
LINE
8
DEFAULT_255_1_234
10
22.7268213
20
124.7454196
11
22.3517391
21
124.7454196
0
LINE
8
DEFAULT_255_1_234
10
22.3517391
20
124.7454196
11
22.3517391
21
124.8723211
0
LINE
8
DEFAULT_255_1_234
10
22.3517391
20
124.8723211
11
23.2561128
21
124.8723211
0
LINE
8
DEFAULT_255_1_234
10
23.8793757
20
124.8779433
11
23.8793757
21
123.7029
0
LINE
8
DEFAULT_255_1_234
10
23.8793757
20
123.7029
11
23.7299854
21
123.7029
0
LINE
8
DEFAULT_255_1_234
10
23.7299854
20
123.7029
11
23.7299854
21
124.6932133
0
LINE
8
DEFAULT_255_1_234
10
23.7299854
20
124.6932133
11
23.4304016
21
124.5831785
0
LINE
8
DEFAULT_255_1_234
10
23.4304016
20
124.5831785
11
23.4304016
21
124.7181117
0
LINE
8
DEFAULT_255_1_234
10
23.4304016
20
124.7181117
11
23.8560837
21
124.8779433
0
LINE
8
DEFAULT_255_1_234
10
23.8560837
20
124.8779433
11
23.8793757
21
124.8779433
0
ENDSEC
0
EOF