0
SECTION
2
HEADER
9
$MEASUREMENT
70
1
0
ENDSEC
0
SECTION
2
TABLES
0
TABLE
2
LTYPE
0
LTYPE
72
65
70
64
2
CONTINUOUS
3
______
73
0
40
0
0
ENDTAB
0
TABLE
2
LAYER
0
LAYER
2
DEFAULT_255_2_778
70
0
62
255
6
CONTINUOUS
0
LAYER
2
DEFAULT_255_1_234
70
0
62
255
6
CONTINUOUS
0
ENDTAB
0
ENDSEC
0
SECTION
2
ENTITIES
0
ARC
8
DEFAULT_255_2_778
10
3.5700693
20
181.6384682
40
0.7914215
50
129.1312896
51
180.1450914
0
ARC
8
DEFAULT_255_2_778
10
3.5703345
20
181.6389553
40
0.7912112
50
89.854026
51
129.1684493
0
ARC
8
DEFAULT_255_2_778
10
25.7993937
20
181.6386419
40
0.7915249
50
39.4792447
51
90.147911
0
ARC
8
DEFAULT_255_2_778
10
25.7999935
20
181.6384885
40
0.7911595
50
359.8533901
51
39.5154338
0
ARC
8
DEFAULT_255_2_778
10
25.7997714
20
-1.9864442
40
0.7913815
50
309.1282118
51
0.1454017
0
ARC
8
DEFAULT_255_2_778
10
25.7993889
20
-1.9867615
40
0.7913769
50
269.8524075
51
309.1641908
0
ARC
8
DEFAULT_255_2_778
10
3.5703462
20
-1.9867169
40
0.7914215
50
219.1312896
51
270.1450914
0
ARC
8
DEFAULT_255_2_778
10
3.5698591
20
-1.9864517
40
0.7912112
50
179.854026
51
219.1684493
0
LINE
8
DEFAULT_255_2_778
10
3.5723503
20
182.4301641
11
25.7973503
21
182.4301641
0
LINE
8
DEFAULT_255_2_778
10
26.5911503
20
181.6364641
11
26.5911503
21
-1.9844359
0
LINE
8
DEFAULT_255_2_778
10
25.7973503
20
-2.7781359
11
3.5723503
21
-2.7781359
0
LINE
8
DEFAULT_255_2_778
10
2.7786503
20
-1.9844359
11
2.7786503
21
181.6364641
0
LINE
8
DEFAULT_255_1_234
10
10.9512119
20
-0.5300208
11
10.9512119
21
-0.6513
0
LINE
8
DEFAULT_255_1_234
10
10.9512119
20
-0.6513
11
10.184984
21
-0.6513
0
LINE
8
DEFAULT_255_1_234
10
10.184984
20
-0.6513
11
10.184984
21
-0.5444779
0
LINE
8
DEFAULT_255_1_234
10
10.184984
20
-0.5444779
11
10.5897836
21
-0.0947005
0
LINE
8
DEFAULT_255_1_234
10
10.3110823
20
0.1735595
11
10.1624952
21
0.1735595
0
LINE
8
DEFAULT_255_1_234
10
10.6773296
20
-0.1902782
11
10.3640918
21
-0.5300208
0
LINE
8
DEFAULT_255_1_234
10
10.3640918
20
-0.5300208
11
10.9512119
21
-0.5300208
0
ARC
8
DEFAULT_255_1_234
10
9.240767
20
1.0982527
40
1.8008286
50
318.5132453
51
320.7828378
0
ARC
8
DEFAULT_255_1_234
10
9.7694644
20
0.6679426
40
1.1191493
50
320.7372736
51
323.9737074
0
ARC
8
DEFAULT_255_1_234
10
10.1614501
20
0.3839361
40
0.6350923
50
323.8961724
51
328.6421089
0
ARC
8
DEFAULT_255_1_234
10
10.3661096
20
0.2577031
40
0.3946393
50
328.8299013
51
331.789948
0
ARC
8
DEFAULT_255_1_234
10
10.4658274
20
0.2062509
40
0.2824501
50
331.4255242
51
352.9364833
0
ARC
8
DEFAULT_255_1_234
10
10.4794775
20
0.2031976
40
0.2685315
50
353.2248685
51
0.0169286
0
ARC
8
DEFAULT_255_1_234
10
10.5004652
20
0.205495
40
0.2475536
50
359.4866256
51
15.9339782
0
ARC
8
DEFAULT_255_1_234
10
10.5511637
20
0.2191286
40
0.1950618
50
16.1714718
51
43.5284424
0
ARC
8
DEFAULT_255_1_234
10
10.5588946
20
0.2268573
40
0.184134
50
43.4415429
51
83.1661404
0
ARC
8
DEFAULT_255_1_234
10
10.5454864
20
0.1531771
40
0.258926
50
82.160215
51
90.1505798
0
ARC
8
DEFAULT_255_1_234
10
10.5423291
20
0.0994865
40
0.3126255
50
89.5460705
51
102.5418777
0
ARC
8
DEFAULT_255_1_234
10
10.5180377
20
0.2025665
40
0.2067346
50
102.1739365
51
129.2061916
0
ARC
8
DEFAULT_255_1_234
10
10.5101449
20
0.2150094
40
0.1921118
50
129.7279328
51
135.7542026
0
ARC
8
DEFAULT_255_1_234
10
10.5222977
20
0.2053045
40
0.2075944
50
136.175737
51
166.3674722
0
ARC
8
DEFAULT_255_1_234
10
10.6229896
20
0.1783182
40
0.3118201
50
165.9092917
51
178.8683903
0
ARC
8
DEFAULT_255_1_234
10
10.7094757
20
0.1736179
40
0.3983935
50
178.438168
51
180.0083905
0
ARC
8
DEFAULT_255_1_234
10
10.5693359
20
0.1775231
40
0.4068601
50
163.2878735
51
180.5581814
0
ARC
8
DEFAULT_255_1_234
10
10.4891621
20
0.199584
40
0.3237344
50
133.454115
51
162.9470031
0
ARC
8
DEFAULT_255_1_234
10
10.5070162
20
0.1806
40
0.349795
50
100.7869394
51
133.4384016
0
ARC
8
DEFAULT_255_1_234
10
10.5417934
20
0.0257319
40
0.5084616
50
89.6605301
51
101.3704185
0
ARC
8
DEFAULT_255_1_234
10
10.5484273
20
0.0318496
40
0.502348
50
78.2171172
51
90.4130393
0
ARC
8
DEFAULT_255_1_234
10
10.5839351
20
0.1942637
40
0.3361092
50
55.9268222
51
78.4888551
0
ARC
8
DEFAULT_255_1_234
10
10.6035791
20
0.2281324
40
0.2970617
50
47.9292255
51
55.4054003
0
ARC
8
DEFAULT_255_1_234
10
10.6137352
20
0.2384502
40
0.2825983
50
4.3347696
51
48.0560701
0
ARC
8
DEFAULT_255_1_234
10
10.5041745
20
0.2214601
40
0.393225
50
359.925209
51
5.5967654
0
ARC
8
DEFAULT_255_1_234
10
10.5470637
20
0.2270816
40
0.3503892
50
337.8914096
51
358.9967724
0
ARC
8
DEFAULT_255_1_234
10
10.2757049
20
0.3317706
40
0.6412172
50
326.9135351
51
338.3505194
0
ARC
8
DEFAULT_255_1_234
10
9.8771353
20
0.5872284
40
1.1146189
50
319.6472867
51
327.095818
0
ARC
8
DEFAULT_255_1_234
10
9.4938356
20
0.9034
40
1.6114559
50
317.2586784
51
319.9046139
0
LINE
8
DEFAULT_255_1_234
10
11.1471863
20
0.5181211
11
11.3463734
21
0.5181211
0
LINE
8
DEFAULT_255_1_234
10
11.3463734
20
0.5181211
11
11.7286841
21
-0.4360494
0
LINE
8
DEFAULT_255_1_234
10
11.7286841
20
-0.4360494
11
12.1109949
21
0.5181211
0
LINE
8
DEFAULT_255_1_234
10
12.1109949
20
0.5181211
11
12.3109852
21
0.5181211
0
LINE
8
DEFAULT_255_1_234
10
12.3109852
20
0.5181211
11
12.3109852
21
-0.6513
0
LINE
8
DEFAULT_255_1_234
10
12.3109852
20
-0.6513
11
12.1567758
21
-0.6513
0
LINE
8
DEFAULT_255_1_234
10
12.1567758
20
-0.6513
11
12.1567758
21
-0.1959004
0
LINE
8
DEFAULT_255_1_234
10
12.1567758
20
-0.1959004
11
12.1712329
21
0.2956419
0
LINE
8
DEFAULT_255_1_234
10
12.1712329
20
0.2956419
11
11.7873158
21
-0.6513
0
LINE
8
DEFAULT_255_1_234
10
11.7873158
20
-0.6513
11
11.6692493
21
-0.6513
0
LINE
8
DEFAULT_255_1_234
10
11.6692493
20
-0.6513
11
11.2861354
21
0.2932324
0
LINE
8
DEFAULT_255_1_234
10
11.2861354
20
0.2932324
11
11.3013957
21
-0.1959004
0
LINE
8
DEFAULT_255_1_234
10
11.3013957
20
-0.1959004
11
11.3013957
21
-0.6513
0
LINE
8
DEFAULT_255_1_234
10
11.3013957
20
-0.6513
11
11.1471863
21
-0.6513
0
LINE
8
DEFAULT_255_1_234
10
11.1471863
20
-0.6513
11
11.1471863
21
0.5181211
0
LINE
8
DEFAULT_255_1_234
10
12.7382736
20
0.5181211
11
12.7382736
21
-0.5252017
0
LINE
8
DEFAULT_255_1_234
10
12.7382736
20
-0.5252017
11
13.2924636
21
-0.5252017
0
LINE
8
DEFAULT_255_1_234
10
13.2924636
20
-0.5252017
11
13.2924636
21
-0.6513
0
LINE
8
DEFAULT_255_1_234
10
13.2924636
20
-0.6513
11
12.5832611
21
-0.6513
0
LINE
8
DEFAULT_255_1_234
10
12.5832611
20
-0.6513
11
12.5832611
21
0.5181211
0
LINE
8
DEFAULT_255_1_234
10
12.5832611
20
0.5181211
11
12.7382736
21
0.5181211
0
LINE
8
DEFAULT_255_1_234
10
13.6338125
20
0.5181211
11
13.6338125
21
-0.6513
0
LINE
8
DEFAULT_255_1_234
10
13.6338125
20
-0.6513
11
13.4796031
21
-0.6513
0
LINE
8
DEFAULT_255_1_234
10
13.4796031
20
-0.6513
11
13.4796031
21
0.5181211
0
LINE
8
DEFAULT_255_1_234
10
13.4796031
20
0.5181211
11
13.6338125
21
0.5181211
0
LINE
8
DEFAULT_255_1_234
10
14.2016563
20
-0.0938974
11
14.2016563
21
-0.2151766
0
LINE
8
DEFAULT_255_1_234
10
14.2016563
20
-0.2151766
11
13.8097075
21
-0.2151766
0
LINE
8
DEFAULT_255_1_234
10
13.8097075
20
-0.2151766
11
13.8097075
21
-0.0938974
0
LINE
8
DEFAULT_255_1_234
10
13.8097075
20
-0.0938974
11
14.2016563
21
-0.0938974
0
LINE
8
DEFAULT_255_1_234
10
14.6931987
20
-0.6513
11
14.3695197
21
-0.6513
0
LINE
8
DEFAULT_255_1_234
10
14.3695197
20
-0.6513
11
14.3695197
21
0.5181211
0
LINE
8
DEFAULT_255_1_234
10
14.3695197
20
0.5181211
11
14.6996241
21
0.5181211
0
LINE
8
DEFAULT_255_1_234
10
15.2152617
20
-0.0272339
11
15.2152617
21
-0.1019291
0
LINE
8
DEFAULT_255_1_234
10
14.70364
20
0.3912196
11
14.5237291
21
0.3912196
0
LINE
8
DEFAULT_255_1_234
10
14.5237291
20
0.3912196
11
14.5237291
21
-0.5252017
0
LINE
8
DEFAULT_255_1_234
10
14.5237291
20
-0.5252017
11
14.6859702
21
-0.5252017
0
LINE
8
DEFAULT_255_1_234
10
15.0626587
20
-0.0987164
11
15.0626587
21
-0.0304466
0
ARC
8
DEFAULT_255_1_234
10
14.7035184
20
-0.0684106
40
0.5865446
50
75.4101064
51
90.3804066
0
ARC
8
DEFAULT_255_1_234
10
14.7264697
20
0.0272492
40
0.4881916
50
60.145586
51
75.1888407
0
ARC
8
DEFAULT_255_1_234
10
14.7423473
20
0.0549199
40
0.4562893
50
26.5253612
51
60.1450928
0
ARC
8
DEFAULT_255_1_234
10
14.6303222
20
-0.0044842
40
0.5830602
50
7.4030428
51
26.8320788
0
ARC
8
DEFAULT_255_1_234
10
14.4708979
20
-0.0293196
40
0.7443669
50
0.1605367
51
7.7176192
0
ARC
8
DEFAULT_255_1_234
10
14.4872883
20
-0.1057566
40
0.7279835
50
348.7289388
51
0.3012466
0
ARC
8
DEFAULT_255_1_234
10
14.6529314
20
-0.1386614
40
0.559104
50
333.0706509
51
348.7181832
0
ARC
8
DEFAULT_255_1_234
10
14.7496071
20
-0.1911681
40
0.4491417
50
299.2531685
51
333.4571258
0
ARC
8
DEFAULT_255_1_234
10
14.7135211
20
-0.1226172
40
0.5265881
50
278.107187
51
299.0339503
0
ARC
8
DEFAULT_255_1_234
10
14.687929
20
0.0281216
40
0.679442
50
270.4443897
51
278.4511052
0
ARC
8
DEFAULT_255_1_234
10
14.690012
20
-0.0647787
40
0.4604407
50
269.4970433
51
284.0205042
0
ARC
8
DEFAULT_255_1_234
10
14.7255421
20
-0.2013022
40
0.3193797
50
283.7700273
51
318.1555492
0
ARC
8
DEFAULT_255_1_234
10
14.6918179
20
-0.1760633
40
0.3613588
50
318.7415601
51
343.6873628
0
ARC
8
DEFAULT_255_1_234
10
14.5114202
20
-0.1197168
40
0.5503313
50
343.3325091
51
355.8548958
0
ARC
8
DEFAULT_255_1_234
10
14.3015887
20
-0.0997681
40
0.7610708
50
355.4988528
51
0.0791727
0
ARC
8
DEFAULT_255_1_234
10
14.3798509
20
-0.026222
40
0.6828208
50
359.6455037
51
9.8607896
0
ARC
8
DEFAULT_255_1_234
10
14.6159207
20
0.0164099
40
0.4429406
50
9.6571907
51
26.1932807
0
ARC
8
DEFAULT_255_1_234
10
14.7087196
20
0.0595118
40
0.3406537
50
26.5777228
51
40.1532208
0
ARC
8
DEFAULT_255_1_234
10
14.7342922
20
0.0794619
40
0.308246
50
40.3840491
51
80.1431104
0
ARC
8
DEFAULT_255_1_234
10
14.701604
20
-0.0654667
40
0.4566909
50
79.2152159
51
89.7445637
0
LINE
8
DEFAULT_255_1_234
10
16.1758576
20
-0.5300208
11
16.1758576
21
-0.6513
0
LINE
8
DEFAULT_255_1_234
10
16.1758576
20
-0.6513
11
15.4096298
21
-0.6513
0
LINE
8
DEFAULT_255_1_234
10
15.4096298
20
-0.6513
11
15.4096298
21
-0.5444779
0
LINE
8
DEFAULT_255_1_234
10
15.4096298
20
-0.5444779
11
15.8144294
21
-0.0947005
0
LINE
8
DEFAULT_255_1_234
10
15.5357281
20
0.1735595
11
15.3871409
21
0.1735595
0
LINE
8
DEFAULT_255_1_234
10
15.9019753
20
-0.1902782
11
15.5887375
21
-0.5300208
0
LINE
8
DEFAULT_255_1_234
10
15.5887375
20
-0.5300208
11
16.1758576
21
-0.5300208
0
ARC
8
DEFAULT_255_1_234
10
14.4654127
20
1.0982527
40
1.8008286
50
318.5132453
51
320.7828378
0
ARC
8
DEFAULT_255_1_234
10
14.9941102
20
0.6679426
40
1.1191493
50
320.7372736
51
323.9737074
0
ARC
8
DEFAULT_255_1_234
10
15.3860958
20
0.3839361
40
0.6350923
50
323.8961724
51
328.6421089
0
ARC
8
DEFAULT_255_1_234
10
15.5907554
20
0.2577031
40
0.3946393
50
328.8299013
51
331.789948
0
ARC
8
DEFAULT_255_1_234
10
15.6904732
20
0.2062509
40
0.2824501
50
331.4255242
51
352.9364833
0
ARC
8
DEFAULT_255_1_234
10
15.7041233
20
0.2031976
40
0.2685315
50
353.2248685
51
0.0169286
0
ARC
8
DEFAULT_255_1_234
10
15.7251109
20
0.205495
40
0.2475536
50
359.4866256
51
15.9339782
0
ARC
8
DEFAULT_255_1_234
10
15.7758095
20
0.2191286
40
0.1950618
50
16.1714718
51
43.5284424
0
ARC
8
DEFAULT_255_1_234
10
15.7835403
20
0.2268573
40
0.184134
50
43.4415429
51
83.1661404
0
ARC
8
DEFAULT_255_1_234
10
15.7701321
20
0.1531771
40
0.258926
50
82.160215
51
90.1505798
0
ARC
8
DEFAULT_255_1_234
10
15.7669749
20
0.0994865
40
0.3126255
50
89.5460705
51
102.5418777
0
ARC
8
DEFAULT_255_1_234
10
15.7426835
20
0.2025665
40
0.2067346
50
102.1739365
51
129.2061916
0
ARC
8
DEFAULT_255_1_234
10
15.7347907
20
0.2150094
40
0.1921118
50
129.7279328
51
135.7542026
0
ARC
8
DEFAULT_255_1_234
10
15.7469434
20
0.2053045
40
0.2075944
50
136.175737
51
166.3674722
0
ARC
8
DEFAULT_255_1_234
10
15.8476354
20
0.1783182
40
0.3118201
50
165.9092917
51
178.8683903
0
ARC
8
DEFAULT_255_1_234
10
15.9341215
20
0.1736179
40
0.3983935
50
178.438168
51
180.0083905
0
ARC
8
DEFAULT_255_1_234
10
15.7939817
20
0.1775231
40
0.4068601
50
163.2878735
51
180.5581814
0
ARC
8
DEFAULT_255_1_234
10
15.7138078
20
0.199584
40
0.3237344
50
133.454115
51
162.9470031
0
ARC
8
DEFAULT_255_1_234
10
15.731662
20
0.1806
40
0.349795
50
100.7869394
51
133.4384016
0
ARC
8
DEFAULT_255_1_234
10
15.7664391
20
0.0257319
40
0.5084616
50
89.6605301
51
101.3704185
0
ARC
8
DEFAULT_255_1_234
10
15.773073
20
0.0318496
40
0.502348
50
78.2171172
51
90.4130393
0
ARC
8
DEFAULT_255_1_234
10
15.8085808
20
0.1942637
40
0.3361092
50
55.9268222
51
78.4888551
0
ARC
8
DEFAULT_255_1_234
10
15.8282248
20
0.2281324
40
0.2970617
50
47.9292255
51
55.4054003
0
ARC
8
DEFAULT_255_1_234
10
15.8383809
20
0.2384502
40
0.2825983
50
4.3347696
51
48.0560701
0
ARC
8
DEFAULT_255_1_234
10
15.7288203
20
0.2214601
40
0.393225
50
359.925209
51
5.5967654
0
ARC
8
DEFAULT_255_1_234
10
15.7717095
20
0.2270816
40
0.3503892
50
337.8914096
51
358.9967724
0
ARC
8
DEFAULT_255_1_234
10
15.5003507
20
0.3317706
40
0.6412172
50
326.9135351
51
338.3505194
0
ARC
8
DEFAULT_255_1_234
10
15.101781
20
0.5872284
40
1.1146189
50
319.6472867
51
327.095818
0
ARC
8
DEFAULT_255_1_234
10
14.7184814
20
0.9034
40
1.6114559
50
317.2586784
51
319.9046139
0
LINE
8
DEFAULT_255_1_234
10
16.9605584
20
0.5181211
11
16.9605584
21
-0.258548
0
LINE
8
DEFAULT_255_1_234
10
16.9605584
20
-0.258548
11
17.1227996
21
-0.258548
0
LINE
8
DEFAULT_255_1_234
10
17.1227996
20
-0.258548
11
17.1227996
21
-0.3798272
0
LINE
8
DEFAULT_255_1_234
10
17.1227996
20
-0.3798272
11
16.9605584
21
-0.3798272
0
LINE
8
DEFAULT_255_1_234
10
16.9605584
20
-0.3798272
11
16.9605584
21
-0.6513
0
LINE
8
DEFAULT_255_1_234
10
16.9605584
20
-0.6513
11
16.8111681
21
-0.6513
0
LINE
8
DEFAULT_255_1_234
10
16.8111681
20
-0.6513
11
16.8111681
21
-0.3798272
0
LINE
8
DEFAULT_255_1_234
10
16.8111681
20
-0.3798272
11
16.2786639
21
-0.3798272
0
LINE
8
DEFAULT_255_1_234
10
16.2786639
20
-0.3798272
11
16.2786639
21
-0.2922813
0
LINE
8
DEFAULT_255_1_234
10
16.2786639
20
-0.2922813
11
16.8023332
21
0.5181211
0
LINE
8
DEFAULT_255_1_234
10
16.8023332
20
0.5181211
11
16.9605584
21
0.5181211
0
LINE
8
DEFAULT_255_1_234
10
16.7934983
20
0.2827912
11
16.4473304
21
-0.258548
0
LINE
8
DEFAULT_255_1_234
10
16.4473304
20
-0.258548
11
16.8111681
21
-0.258548
0
LINE
8
DEFAULT_255_1_234
10
16.8111681
20
-0.258548
11
16.8111681
21
0.3149181
0
LINE
8
DEFAULT_255_1_234
10
16.8111681
20
0.3149181
11
16.7934983
21
0.2827912
0
LINE
8
DEFAULT_255_1_234
10
18.0528749
20
-0.6513
11
17.9412337
21
-0.3460939
0
LINE
8
DEFAULT_255_1_234
10
17.9412337
20
-0.3460939
11
17.4512977
21
-0.3460939
0
LINE
8
DEFAULT_255_1_234
10
17.4512977
20
-0.3460939
11
17.3412628
21
-0.6513
0
LINE
8
DEFAULT_255_1_234
10
17.3412628
20
-0.6513
11
17.1822344
21
-0.6513
0
LINE
8
DEFAULT_255_1_234
10
17.1822344
20
-0.6513
11
17.6287991
21
0.5181211
0
LINE
8
DEFAULT_255_1_234
10
17.6287991
20
0.5181211
11
17.7637323
21
0.5181211
0
LINE
8
DEFAULT_255_1_234
10
17.7637323
20
0.5181211
11
18.2111001
21
-0.6513
0
LINE
8
DEFAULT_255_1_234
10
18.2111001
20
-0.6513
11
18.0528749
21
-0.6513
0
LINE
8
DEFAULT_255_1_234
10
17.6962657
20
0.3277689
11
17.4978817
21
-0.2191925
0
LINE
8
DEFAULT_255_1_234
10
17.4978817
20
-0.2191925
11
17.8954528
21
-0.2191925
0
LINE
8
DEFAULT_255_1_234
10
17.8954528
20
-0.2191925
11
17.6962657
21
0.3277689
0
ARC
8
DEFAULT_255_2_778
10
12.6050348
20
179.9371041
40
0.3813723
50
156.9728279
51
180.9672924
0
ARC
8
DEFAULT_255_2_778
10
12.4650905
20
179.9997556
40
0.2280903
50
120.6143155
51
157.7057572
0
ARC
8
DEFAULT_255_2_778
10
12.423185
20
180.0616889
40
0.1535155
50
105.6024085
51
118.9253865
0
ARC
8
DEFAULT_255_2_778
10
12.4163051
20
180.086458
40
0.1278087
50
90.2188612
51
105.6183161
0
ARC
8
DEFAULT_255_2_778
10
12.4186564
20
179.9193412
40
0.2949385
50
82.1187511
51
90.5516271
0
ARC
8
DEFAULT_255_2_778
10
12.4470429
20
180.0840036
40
0.128059
50
23.164146
51
84.5981403
0
ARC
8
DEFAULT_255_2_778
10
12.3195078
20
180.0322267
40
0.2656921
50
1.2065942
51
22.6109196
0
ARC
8
DEFAULT_255_2_778
10
12.1068205
20
180.0143377
40
0.4788966
50
359.9555286
51
2.8107684
0
ARC
8
DEFAULT_255_2_778
10
12.4802764
20
180.0029207
40
0.6523641
50
359.5121336
51
18.1513483
0
ARC
8
DEFAULT_255_2_778
10
12.6313291
20
180.0539245
40
0.4929411
50
17.987628
51
47.7515239
0
ARC
8
DEFAULT_255_2_778
10
12.6654537
20
180.0856389
40
0.4465388
50
48.2567149
51
90.320171
0
ARC
8
DEFAULT_255_2_778
10
12.6638541
20
180.0375874
40
0.4945841
50
90.103751
51
104.0317339
0
ARC
8
DEFAULT_255_2_778
10
12.6706581
20
180.0062342
40
0.5266526
50
103.9228462
51
106.737064
0
ARC
8
DEFAULT_255_2_778
10
12.6850928
20
179.9635316
40
0.5717052
50
106.8899656
51
120.2615348
0
ARC
8
DEFAULT_255_2_778
10
12.7341581
20
179.8790122
40
0.6694339
50
120.2432243
51
131.2854864
0
ARC
8
DEFAULT_255_2_778
10
12.785036
20
179.818252
40
0.7486631
50
131.143212
51
134.0802792
0
ARC
8
DEFAULT_255_2_778
10
15.2709404
20
178.8452131
40
0.1197666
50
309.5218924
51
339.9060311
0
ARC
8
DEFAULT_255_2_778
10
15.3039085
20
178.8077254
40
0.0698871
50
287.710739
51
308.230668
0
ARC
8
DEFAULT_255_2_778
10
15.3092212
20
178.7920982
40
0.0533853
50
270.2503717
51
287.3813074
0
ARC
8
DEFAULT_255_2_778
10
15.3118783
20
178.7929536
40
0.0542942
50
194.7346052
51
267.4414086
0
ARC
8
DEFAULT_255_2_778
10
15.3603123
20
178.815972
40
0.107451
50
190.9475811
51
200.0439116
0
ARC
8
DEFAULT_255_2_778
10
14.9941035
20
178.8030621
40
0.2608211
50
358.353068
51
64.1268931
0
ARC
8
DEFAULT_255_2_778
10
15.0249058
20
178.8487249
40
0.206441
50
66.2890109
51
89.9969258
0
ARC
8
DEFAULT_255_2_778
10
15.0382115
20
178.8134645
40
0.2420668
50
93.1483498
51
177.0819403
0
ARC
8
DEFAULT_255_2_778
10
15.0906424
20
178.7956292
40
0.2957256
50
174.1467469
51
180.0122521
0
ARC
8
DEFAULT_255_2_778
10
15.0902349
20
178.799093
40
0.2953391
50
180.6842551
51
197.2976119
0
ARC
8
DEFAULT_255_2_778
10
15.1427344
20
178.8152135
40
0.3502574
50
197.2618666
51
237.3003567
0
ARC
8
DEFAULT_255_2_778
10
15.1574152
20
178.843855
40
0.3823034
50
237.7678185
51
267.0989043
0
ARC
8
DEFAULT_255_2_778
10
15.1676437
20
178.929185
40
0.468079
50
266.3770992
51
270.0209723
0
ARC
8
DEFAULT_255_2_778
10
15.1676985
20
178.9594308
40
0.4983248
50
270.0133909
51
272.716577
0
ARC
8
DEFAULT_255_2_778
10
15.1758148
20
178.8448424
40
0.3834899
50
272.3167324
51
299.1303886
0
ARC
8
DEFAULT_255_2_778
10
15.1234049
20
178.9183329
40
0.4733038
50
300.3417229
51
327.7658215
0
ARC
8
DEFAULT_255_2_778
10
14.9406676
20
179.0468134
40
0.6964958
50
326.843622
51
335.4998036
0
ARC
8
DEFAULT_255_2_778
10
14.8514976
20
179.0890766
40
0.7951648
50
335.3932154
51
340.0324022
0
ARC
8
DEFAULT_255_2_778
10
14.8370312
20
179.0946094
40
0.8106509
50
340.0140149
51
340.5492811
0
ARC
8
DEFAULT_255_2_778
10
10.7612214
20
179.7927581
40
0.768197
50
90.8730151
51
175.0627552
0
ARC
8
DEFAULT_255_2_778
10
10.8136126
20
179.7763058
40
0.8218958
50
174.2343992
51
180.0097514
0
ARC
8
DEFAULT_255_2_778
10
10.7889867
20
179.7730729
40
0.7972759
50
179.7777162
51
222.1414196
0
ARC
8
DEFAULT_255_2_778
10
10.7511509
20
179.735135
40
0.7437709
50
221.9300285
51
269.8741254
0
ARC
8
DEFAULT_255_2_778
10
10.7376549
20
179.7595244
40
0.7682501
50
270.8846918
51
355.0667038
0
ARC
8
DEFAULT_255_2_778
10
10.6852873
20
179.7760267
40
0.8219296
50
354.2345114
51
0.0097094
0
ARC
8
DEFAULT_255_2_778
10
10.7100678
20
179.7792703
40
0.7971551
50
359.7768758
51
42.1436072
0
ARC
8
DEFAULT_255_2_778
10
10.7478782
20
179.8171788
40
0.7436889
50
41.9327014
51
89.8737509
0
ARC
8
DEFAULT_255_2_778
10
10.7319112
20
179.3999045
40
0.2064136
50
282.3154686
51
2.5716381
0
ARC
8
DEFAULT_255_2_778
10
10.749558
20
179.3648913
40
0.1687253
50
269.98603
51
278.995025
0
ARC
8
DEFAULT_255_2_778
10
10.7617107
20
179.3963042
40
0.2005094
50
178.6786273
51
266.5134562
0
ARC
8
DEFAULT_255_2_778
10
10.8074017
20
179.4091655
40
0.2462849
50
179.9999044
51
181.9167359
0
ARC
8
DEFAULT_255_2_778
10
10.7673954
20
180.1524548
40
0.2064787
50
103.0315545
51
182.5228891
0
ARC
8
DEFAULT_255_2_778
10
10.7494718
20
180.1875048
40
0.1685611
50
89.9846994
51
99.7807169
0
ARC
8
DEFAULT_255_2_778
10
10.7371616
20
180.1555176
40
0.2009286
50
358.490526
51
86.4746259
0
ARC
8
DEFAULT_255_2_778
10
10.6939639
20
180.1433644
40
0.244153
50
0.0003602
51
1.6101146
0
ARC
8
DEFAULT_255_2_778
10
13.7769085
20
179.7756122
40
1.0339085
50
353.7729731
51
0.0306848
0
ARC
8
DEFAULT_255_2_778
10
14.0136678
20
179.7792703
40
0.7971551
50
359.7768758
51
42.1436072
0
ARC
8
DEFAULT_255_2_778
10
14.0514782
20
179.8171788
40
0.7436889
50
41.9327014
51
89.8737509
0
ARC
8
DEFAULT_255_2_778
10
14.0648214
20
179.7927581
40
0.768197
50
90.8730151
51
175.0627552
0
ARC
8
DEFAULT_255_2_778
10
14.1172126
20
179.7763058
40
0.8218958
50
174.2343992
51
180.0097514
0
ARC
8
DEFAULT_255_2_778
10
14.0925867
20
179.7730729
40
0.7972759
50
179.7777162
51
222.1414196
0
ARC
8
DEFAULT_255_2_778
10
14.0547509
20
179.735135
40
0.7437709
50
221.9300285
51
269.8741254
0
ARC
8
DEFAULT_255_2_778
10
14.0479775
20
179.7451375
40
0.753789
50
270.3906469
51
332.9011285
0
ARC
8
DEFAULT_255_2_778
10
14.0503073
20
179.7566988
40
0.5766383
50
270.2493497
51
330.3649047
0
ARC
8
DEFAULT_255_2_778
10
14.0738266
20
179.3850117
40
0.2060198
50
188.4673322
51
264.146848
0
ARC
8
DEFAULT_255_2_778
10
14.1170452
20
179.4091502
40
0.2529285
50
180.0643852
51
192.4374066
0
ARC
8
DEFAULT_255_2_778
10
14.070552
20
180.1526297
40
0.2060435
50
102.2220352
51
182.5768883
0
ARC
8
DEFAULT_255_2_778
10
14.0532765
20
180.1868306
40
0.1692354
50
89.9863487
51
98.9553742
0
ARC
8
DEFAULT_255_2_778
10
14.0410627
20
180.1557487
40
0.2006917
50
358.1298546
51
86.4993767
0
ARC
8
DEFAULT_255_2_778
10
13.9951604
20
180.1433582
40
0.2465564
50
0.0018041
51
1.3574921
0
ARC
8
DEFAULT_255_2_778
10
18.8395085
20
179.7756122
40
1.0339085
50
353.7729731
51
0.0306848
0
ARC
8
DEFAULT_255_2_778
10
19.0763127
20
179.7792756
40
0.7971102
50
359.7764759
51
42.1460177
0
ARC
8
DEFAULT_255_2_778
10
19.1140101
20
179.8170511
40
0.7438166
50
41.9370909
51
89.8762358
0
ARC
8
DEFAULT_255_2_778
10
19.1273214
20
179.7927581
40
0.768197
50
90.8730151
51
175.0627552
0
ARC
8
DEFAULT_255_2_778
10
19.1797126
20
179.7763058
40
0.8218958
50
174.2343992
51
180.0097514
0
ARC
8
DEFAULT_255_2_778
10
19.1550867
20
179.7730729
40
0.7972759
50
179.7777162
51
222.1414196
0
ARC
8
DEFAULT_255_2_778
10
19.1172509
20
179.735135
40
0.7437709
50
221.9300285
51
269.8741254
0
ARC
8
DEFAULT_255_2_778
10
19.1104966
20
179.7455973
40
0.7542487
50
270.3889576
51
332.8797533
0
ARC
8
DEFAULT_255_2_778
10
19.1131073
20
179.7566988
40
0.5766383
50
270.2493497
51
330.3649047
0
ARC
8
DEFAULT_255_2_778
10
19.1366787
20
179.384607
40
0.2056225
50
188.7424888
51
264.120891
0
ARC
8
DEFAULT_255_2_778
10
19.180402
20
179.4091673
40
0.2531853
50
180.0682018
51
192.7352383
0
ARC
8
DEFAULT_255_2_778
10
19.1332623
20
180.152331
40
0.2062492
50
102.479692
51
182.5468765
0
ARC
8
DEFAULT_255_2_778
10
19.1155784
20
180.1873755
40
0.1684904
50
89.986931
51
99.1816697
0
ARC
8
DEFAULT_255_2_778
10
19.1031384
20
180.1551685
40
0.201085
50
358.3379179
51
86.4421934
0
ARC
8
DEFAULT_255_2_778
10
19.0609425
20
180.1431683
40
0.2432745
50
359.9994511
51
1.4527903
0
LINE
8
DEFAULT_255_2_778
10
20.0578169
20
179.0876659
11
20.5605169
21
179.0876659
0
LINE
8
DEFAULT_255_2_778
10
20.5605169
20
179.0876659
11
20.5605169
21
181.1072659
0
LINE
8
DEFAULT_255_2_778
10
20.5605169
20
181.1072659
11
20.0578169
21
181.1072659
0
LINE
8
DEFAULT_255_2_778
10
20.0578169
20
181.1072659
11
20.0578169
21
179.0876659
0
LINE
8
DEFAULT_255_2_778
10
20.0578169
20
179.0876659
11
20.0578169
21
179.0876659
0
LINE
8
DEFAULT_255_2_778
10
20.0578169
20
179.0876659
11
20.0578169
21
179.0876659
0
LINE
8
DEFAULT_255_2_778
10
21.2995169
20
181.1072659
11
21.2995169
21
179.0876659
0
LINE
8
DEFAULT_255_2_778
10
21.2995169
20
179.0876659
11
20.7970169
21
179.0876659
0
LINE
8
DEFAULT_255_2_778
10
20.7970169
20
179.0876659
11
20.7970169
21
181.1072659
0
LINE
8
DEFAULT_255_2_778
10
20.7970169
20
181.1072659
11
21.2995169
21
181.1072659
0
LINE
8
DEFAULT_255_2_778
10
21.2995169
20
181.1072659
11
21.2995169
21
181.1072659
0
LINE
8
DEFAULT_255_2_778
10
21.2995169
20
181.1072659
11
21.2995169
21
181.1072659
0
LINE
8
DEFAULT_255_2_778
10
9.1419169
20
180.3227659
11
8.7355169
21
180.3227659
0
LINE
8
DEFAULT_255_2_778
10
8.7355169
20
180.3227659
11
8.7355169
21
181.1072659
0
LINE
8
DEFAULT_255_2_778
10
8.7355169
20
181.1072659
11
8.0703169
21
181.1072659
0
LINE
8
DEFAULT_255_2_778
10
8.0703169
20
181.1072659
11
8.0703169
21
179.0876659
0
LINE
8
DEFAULT_255_2_778
10
8.0703169
20
179.0876659
11
8.7355169
21
179.0876659
0
LINE
8
DEFAULT_255_2_778
10
8.7355169
20
179.0876659
11
8.7355169
21
180.0891659
0
LINE
8
DEFAULT_255_2_778
10
8.7355169
20
180.0891659
11
9.1419169
21
180.0891659
0
LINE
8
DEFAULT_255_2_778
10
9.1419169
20
180.0891659
11
9.1419169
21
179.0876659
0
LINE
8
DEFAULT_255_2_778
10
9.1419169
20
179.0876659
11
9.8070169
21
179.0876659
0
LINE
8
DEFAULT_255_2_778
10
9.8070169
20
179.0876659
11
9.8070169
21
181.1072659
0
LINE
8
DEFAULT_255_2_778
10
9.8070169
20
181.1072659
11
9.1419169
21
181.1072659
0
LINE
8
DEFAULT_255_2_778
10
9.1419169
20
181.1072659
11
9.1419169
21
180.3227659
0
LINE
8
DEFAULT_255_2_778
10
9.1419169
20
180.3227659
11
9.1419169
21
180.3227659
0
LINE
8
DEFAULT_255_2_778
10
9.1419169
20
180.3227659
11
9.1419169
21
180.3227659
0
LINE
8
DEFAULT_255_2_778
10
12.2645169
20
180.3563659
11
12.2237169
21
180.4899659
0
LINE
8
DEFAULT_255_2_778
10
12.2237169
20
180.4899659
11
11.6768169
21
180.4899659
0
LINE
8
DEFAULT_255_2_778
10
11.6768169
20
180.4899659
11
11.6768169
21
179.0879659
0
LINE
8
DEFAULT_255_2_778
10
11.6768169
20
179.0879659
11
12.2237169
21
179.0879659
0
LINE
8
DEFAULT_255_2_778
10
12.2237169
20
179.0879659
11
12.2237169
21
179.9306659
0
LINE
8
DEFAULT_255_2_778
10
12.2237169
20
179.9306659
11
12.2237169
21
179.9306659
0
LINE
8
DEFAULT_255_2_778
10
12.5857169
20
180.0139659
11
12.5857169
21
180.0139659
0
LINE
8
DEFAULT_255_2_778
10
12.5857169
20
180.0139659
11
12.5857169
21
179.0876659
0
LINE
8
DEFAULT_255_2_778
10
12.5857169
20
179.0876659
11
13.1326169
21
179.0876659
0
LINE
8
DEFAULT_255_2_778
10
13.1326169
20
179.0876659
11
13.1326169
21
179.9973659
0
LINE
8
DEFAULT_255_2_778
10
13.1326169
20
179.9973659
11
13.1326169
21
179.9973659
0
LINE
8
DEFAULT_255_2_778
10
12.2642169
20
180.3560659
11
12.2642169
21
180.3560659
0
LINE
8
DEFAULT_255_2_778
10
12.2642169
20
180.3560659
11
12.2642169
21
180.3560659
0
LINE
8
DEFAULT_255_2_778
10
12.2642169
20
180.3560659
11
12.2642169
21
180.3560659
0
LINE
8
DEFAULT_255_2_778
10
12.2642169
20
180.3560659
11
12.2645169
21
180.3563659
0
LINE
8
DEFAULT_255_2_778
10
17.8816169
20
179.6761659
11
17.6265169
21
180.4897659
0
LINE
8
DEFAULT_255_2_778
10
17.6265169
20
180.4897659
11
17.2532169
21
180.4897659
0
LINE
8
DEFAULT_255_2_778
10
17.2532169
20
180.4897659
11
16.9981169
21
179.6427659
0
LINE
8
DEFAULT_255_2_778
10
16.9981169
20
179.6427659
11
16.7322169
21
180.4897659
0
LINE
8
DEFAULT_255_2_778
10
16.7322169
20
180.4897659
11
16.2113169
21
180.4897659
0
LINE
8
DEFAULT_255_2_778
10
16.2113169
20
180.4897659
11
16.2076169
21
180.4897659
0
LINE
8
DEFAULT_255_2_778
10
16.2076169
20
180.4897659
11
16.0007169
21
180.4897659
0
LINE
8
DEFAULT_255_2_778
10
16.0007169
20
180.4897659
11
15.7382169
21
179.7763659
0
LINE
8
DEFAULT_255_2_778
10
15.7382169
20
179.7763659
11
15.3688169
21
180.4897659
0
LINE
8
DEFAULT_255_2_778
10
15.3688169
20
180.4897659
11
14.7441169
21
180.4897659
0
LINE
8
DEFAULT_255_2_778
10
14.7441169
20
180.4897659
11
15.4794169
21
179.0710659
0
LINE
8
DEFAULT_255_2_778
10
15.4794169
20
179.0710659
11
15.3834169
21
178.8040659
0
LINE
8
DEFAULT_255_2_778
10
15.3834169
20
178.8040659
11
15.3834169
21
178.8040659
0
LINE
8
DEFAULT_255_2_778
10
15.6014169
20
178.8246659
11
15.6014169
21
178.8246659
0
LINE
8
DEFAULT_255_2_778
10
15.6014169
20
178.8246659
11
16.2091169
21
180.4838659
0
LINE
8
DEFAULT_255_2_778
10
16.2091169
20
180.4838659
11
16.6473169
21
179.0874659
0
LINE
8
DEFAULT_255_2_778
10
16.6473169
20
179.0874659
11
17.0463169
21
179.0874659
0
LINE
8
DEFAULT_255_2_778
10
17.0463169
20
179.0874659
11
17.2902169
21
179.8928659
0
LINE
8
DEFAULT_255_2_778
10
17.2902169
20
179.8928659
11
17.5416169
21
179.0874659
0
LINE
8
DEFAULT_255_2_778
10
17.5416169
20
179.0874659
11
17.9186169
21
179.0874659
0
LINE
8
DEFAULT_255_2_778
10
17.9186169
20
179.0874659
11
18.3435169
21
180.4894659
0
LINE
8
DEFAULT_255_2_778
10
18.3435169
20
180.4894659
11
18.1255169
21
180.4894659
0
LINE
8
DEFAULT_255_2_778
10
18.1255169
20
180.4894659
11
17.8816169
21
179.6758659
0
LINE
8
DEFAULT_255_2_778
10
17.8816169
20
179.6758659
11
17.8816169
21
179.6758659
0
LINE
8
DEFAULT_255_2_778
10
17.8816169
20
179.6758659
11
17.8816169
21
179.6758659
0
LINE
8
DEFAULT_255_2_778
10
17.8816169
20
179.6758659
11
17.8816169
21
179.6761659
0
LINE
8
DEFAULT_255_2_778
10
10.7495169
20
180.5608659
11
10.7495169
21
180.5608659
0
LINE
8
DEFAULT_255_2_778
10
10.7495169
20
180.5608659
11
10.7495169
21
180.5608659
0
LINE
8
DEFAULT_255_2_778
10
10.7495169
20
180.5608659
11
10.7495169
21
180.5608659
0
LINE
8
DEFAULT_255_2_778
10
10.7495169
20
180.5608659
11
10.7495169
21
180.5608659
0
LINE
8
DEFAULT_255_2_778
10
10.5611169
20
179.4091659
11
10.5611169
21
179.4091659
0
LINE
8
DEFAULT_255_2_778
10
10.5611169
20
179.4091659
11
10.5611169
21
180.1433659
0
LINE
8
DEFAULT_255_2_778
10
10.5611169
20
180.1433659
11
10.5611169
21
180.1433659
0
LINE
8
DEFAULT_255_2_778
10
10.9381169
20
180.1433659
11
10.9381169
21
180.1433659
0
LINE
8
DEFAULT_255_2_778
10
10.9381169
20
180.1433659
11
10.9381169
21
179.4091659
0
LINE
8
DEFAULT_255_2_778
10
10.9381169
20
179.4091659
11
10.9381169
21
179.4091659
0
LINE
8
DEFAULT_255_2_778
10
10.9381169
20
179.4091659
11
10.9381169
21
179.4091659
0
LINE
8
DEFAULT_255_2_778
10
10.9381169
20
179.4091659
11
10.9381169
21
179.4091659
0
LINE
8
DEFAULT_255_2_778
10
14.7190169
20
179.4017659
11
14.7190169
21
179.4017659
0
LINE
8
DEFAULT_255_2_778
10
14.7190169
20
179.4017659
11
14.5515169
21
179.4715659
0
LINE
8
DEFAULT_255_2_778
10
14.5515169
20
179.4715659
11
14.5515169
21
179.4715659
0
LINE
8
DEFAULT_255_2_778
10
13.8641169
20
179.4088659
11
13.8641169
21
179.4088659
0
LINE
8
DEFAULT_255_2_778
10
13.8641169
20
179.4088659
11
13.8641169
21
179.6634659
0
LINE
8
DEFAULT_255_2_778
10
13.8641169
20
179.6634659
11
14.8042169
21
179.6634659
0
LINE
8
DEFAULT_255_2_778
10
14.8042169
20
179.6634659
11
14.8042169
21
179.6634659
0
LINE
8
DEFAULT_255_2_778
10
14.8042169
20
179.6634659
11
14.8042169
21
179.6634659
0
LINE
8
DEFAULT_255_2_778
10
14.8042169
20
179.6634659
11
14.8047169
21
179.6634659
0
LINE
8
DEFAULT_255_2_778
10
14.2417169
20
180.1433659
11
14.2417169
21
180.1433659
0
LINE
8
DEFAULT_255_2_778
10
14.2417169
20
180.1433659
11
14.2417169
21
179.8637659
0
LINE
8
DEFAULT_255_2_778
10
14.2417169
20
179.8637659
11
13.8647169
21
179.8637659
0
LINE
8
DEFAULT_255_2_778
10
13.8647169
20
179.8637659
11
13.8647169
21
180.1433659
0
LINE
8
DEFAULT_255_2_778
10
13.8647169
20
180.1433659
11
13.8647169
21
180.1433659
0
LINE
8
DEFAULT_255_2_778
10
13.8647169
20
180.1433659
11
13.8647169
21
180.1433659
0
LINE
8
DEFAULT_255_2_778
10
13.8647169
20
180.1433659
11
13.8647169
21
180.1433659
0
LINE
8
DEFAULT_255_2_778
10
19.7818169
20
179.4017659
11
19.7818169
21
179.4017659
0
LINE
8
DEFAULT_255_2_778
10
19.7818169
20
179.4017659
11
19.6143169
21
179.4715659
0
LINE
8
DEFAULT_255_2_778
10
19.6143169
20
179.4715659
11
19.6143169
21
179.4715659
0
LINE
8
DEFAULT_255_2_778
10
18.9272169
20
179.4088659
11
18.9272169
21
179.4088659
0
LINE
8
DEFAULT_255_2_778
10
18.9272169
20
179.4088659
11
18.9272169
21
179.6634659
0
LINE
8
DEFAULT_255_2_778
10
18.9272169
20
179.6634659
11
19.8673169
21
179.6634659
0
LINE
8
DEFAULT_255_2_778
10
19.8673169
20
179.6634659
11
19.8673169
21
179.6634659
0
LINE
8
DEFAULT_255_2_778
10
19.8673169
20
179.6634659
11
19.8673169
21
179.6634659
0
LINE
8
DEFAULT_255_2_778
10
19.8673169
20
179.6634659
11
19.8673169
21
179.6634659
0
LINE
8
DEFAULT_255_2_778
10
19.3042169
20
180.1431659
11
19.3042169
21
180.1431659
0
LINE
8
DEFAULT_255_2_778
10
19.3042169
20
180.1431659
11
19.3042169
21
179.8637659
0
LINE
8
DEFAULT_255_2_778
10
19.3042169
20
179.8637659
11
18.9272169
21
179.8637659
0
LINE
8
DEFAULT_255_2_778
10
18.9272169
20
179.8637659
11
18.9272169
21
180.1433659
0
LINE
8
DEFAULT_255_2_778
10
18.9272169
20
180.1433659
11
18.9272169
21
180.1433659
0
LINE
8
DEFAULT_255_2_778
10
18.9272169
20
180.1433659
11
18.9272169
21
180.1433659
0
LINE
8
DEFAULT_255_2_778
10
18.9272169
20
180.1433659
11
18.9272169
21
180.1431659
0
LINE
8
DEFAULT_255_1_234
10
9.7208364
20
177.1274211
11
9.9200235
21
177.1274211
0
LINE
8
DEFAULT_255_1_234
10
9.9200235
20
177.1274211
11
10.3023342
21
176.1732506
0
LINE
8
DEFAULT_255_1_234
10
10.3023342
20
176.1732506
11
10.684645
21
177.1274211
0
LINE
8
DEFAULT_255_1_234
10
10.684645
20
177.1274211
11
10.8846353
21
177.1274211
0
LINE
8
DEFAULT_255_1_234
10
10.8846353
20
177.1274211
11
10.8846353
21
175.958
0
LINE
8
DEFAULT_255_1_234
10
10.8846353
20
175.958
11
10.7304259
21
175.958
0
LINE
8
DEFAULT_255_1_234
10
10.7304259
20
175.958
11
10.7304259
21
176.4133996
0
LINE
8
DEFAULT_255_1_234
10
10.7304259
20
176.4133996
11
10.744883
21
176.9049419
0
LINE
8
DEFAULT_255_1_234
10
10.744883
20
176.9049419
11
10.3609659
21
175.958
0
LINE
8
DEFAULT_255_1_234
10
10.3609659
20
175.958
11
10.2428994
21
175.958
0
LINE
8
DEFAULT_255_1_234
10
10.2428994
20
175.958
11
9.8597854
21
176.9025324
0
LINE
8
DEFAULT_255_1_234
10
9.8597854
20
176.9025324
11
9.8750458
21
176.4133996
0
LINE
8
DEFAULT_255_1_234
10
9.8750458
20
176.4133996
11
9.8750458
21
175.958
0
LINE
8
DEFAULT_255_1_234
10
9.8750458
20
175.958
11
9.7208364
21
175.958
0
LINE
8
DEFAULT_255_1_234
10
9.7208364
20
175.958
11
9.7208364
21
177.1274211
0
LINE
8
DEFAULT_255_1_234
10
11.825955
20
175.958
11
11.6701393
21
175.958
0
LINE
8
DEFAULT_255_1_234
10
11.5022759
20
176.484882
11
11.6468472
21
176.484882
0
LINE
8
DEFAULT_255_1_234
10
11.6468472
20
176.484882
11
11.6468472
21
176.5531518
0
LINE
8
DEFAULT_255_1_234
10
11.2757809
20
176.5860819
11
11.1263906
21
176.5860819
0
LINE
8
DEFAULT_255_1_234
10
11.7954344
20
176.5611835
11
11.7954344
21
176.161203
0
LINE
8
DEFAULT_255_1_234
10
11.825955
20
175.9708508
11
11.825955
21
175.958
0
LINE
8
DEFAULT_255_1_234
10
11.6468472
20
176.2013617
11
11.6468472
21
176.3796663
0
LINE
8
DEFAULT_255_1_234
10
11.6468472
20
176.3796663
11
11.530387
21
176.3796663
0
ARC
8
DEFAULT_255_1_234
10
11.7740931
20
176.0084194
40
0.1155358
50
197.0791116
51
205.8741701
0
ARC
8
DEFAULT_255_1_234
10
11.897953
20
176.0476654
40
0.2454626
50
192.2918602
51
197.3448991
0
ARC
8
DEFAULT_255_1_234
10
12.0932979
20
176.0910663
40
0.4455697
50
189.1576348
51
192.3971359
0
ARC
8
DEFAULT_255_1_234
10
12.374726
20
176.1369549
40
0.7307142
50
186.8689952
51
189.1979448
0
ARC
8
DEFAULT_255_1_234
10
11.3918414
20
176.2916258
40
0.353352
50
294.0080019
51
316.7604136
0
ARC
8
DEFAULT_255_1_234
10
11.4047478
20
176.2734572
40
0.3315331
50
269.5042461
51
293.2479736
0
ARC
8
DEFAULT_255_1_234
10
11.3987963
20
176.3135491
40
0.3716254
50
255.403374
51
270.4753162
0
ARC
8
DEFAULT_255_1_234
10
11.3757935
20
176.2242825
40
0.2794431
50
228.6140946
51
255.354999
0
ARC
8
DEFAULT_255_1_234
10
11.3425459
20
176.1924491
40
0.2336109
50
181.8953303
51
229.5703879
0
ARC
8
DEFAULT_255_1_234
10
11.4016964
20
176.1988708
40
0.2929755
50
179.984097
51
182.7679515
0
ARC
8
DEFAULT_255_1_234
10
11.3933906
20
176.2023413
40
0.28469
50
161.0341165
51
180.6820968
0
ARC
8
DEFAULT_255_1_234
10
11.3494452
20
176.2137729
40
0.2394402
50
125.0523775
51
160.2033967
0
ARC
8
DEFAULT_255_1_234
10
11.4156461
20
176.1234431
40
0.3514152
50
106.2671988
51
125.4298572
0
ARC
8
DEFAULT_255_1_234
10
11.4728917
20
175.9363842
40
0.5470269
50
95.4857064
51
106.534858
0
ARC
8
DEFAULT_255_1_234
10
11.5002071
20
175.6864758
40
0.7984089
50
89.8515322
51
95.7224983
0
ARC
8
DEFAULT_255_1_234
10
11.4362666
20
176.5549759
40
0.2105886
50
359.503704
51
14.3184734
0
ARC
8
DEFAULT_255_1_234
10
11.493679
20
176.5699017
40
0.1512684
50
14.2187004
51
45.2025693
0
ARC
8
DEFAULT_255_1_234
10
11.4972986
20
176.5713251
40
0.1477163
50
45.8098026
51
73.0032427
0
ARC
8
DEFAULT_255_1_234
10
11.4723954
20
176.4951896
40
0.2278113
50
72.610967
51
85.7232876
0
ARC
8
DEFAULT_255_1_234
10
11.4633948
20
176.4038569
40
0.3195681
50
85.3352114
51
90.0850615
0
ARC
8
DEFAULT_255_1_234
10
11.4610351
20
176.4629391
40
0.2604924
50
89.5853149
51
103.4592217
0
ARC
8
DEFAULT_255_1_234
10
11.4457954
20
176.5264597
40
0.1951693
50
103.44851
51
126.5404292
0
ARC
8
DEFAULT_255_1_234
10
11.4218834
20
176.557043
40
0.1563639
50
126.1729825
51
141.5004088
0
ARC
8
DEFAULT_255_1_234
10
11.3840435
20
176.5867385
40
0.1082645
50
141.3333588
51
180.3474677
0
ARC
8
DEFAULT_255_1_234
10
11.3166145
20
176.5850174
40
0.1902269
50
151.6374668
51
179.6793754
0
ARC
8
DEFAULT_255_1_234
10
11.3768387
20
176.5550334
40
0.2574753
50
142.4988163
51
152.1325379
0
ARC
8
DEFAULT_255_1_234
10
11.4086347
20
176.5300735
40
0.2978957
50
120.8284787
51
142.4132259
0
ARC
8
DEFAULT_255_1_234
10
11.4502456
20
176.4649301
40
0.3751664
50
113.9638113
51
121.1869885
0
ARC
8
DEFAULT_255_1_234
10
11.4638608
20
176.4317544
40
0.4110136
50
93.3784663
51
113.8198047
0
ARC
8
DEFAULT_255_1_234
10
11.471539
20
176.3552446
40
0.487853
50
89.9745882
51
93.7491274
0
ARC
8
DEFAULT_255_1_234
10
11.4750276
20
176.3588605
40
0.4842481
50
79.1325877
51
90.3871757
0
ARC
8
DEFAULT_255_1_234
10
11.5075396
20
176.5213435
40
0.3185522
50
60.1435559
51
79.3654871
0
ARC
8
DEFAULT_255_1_234
10
11.5332085
20
176.570643
40
0.2630271
50
48.6192091
51
59.646742
0
ARC
8
DEFAULT_255_1_234
10
11.5379823
20
176.5769691
40
0.2551253
50
9.0349315
51
48.4844544
0
ARC
8
DEFAULT_255_1_234
10
11.4303667
20
176.5534793
40
0.3651489
50
1.2089744
51
10.0233366
0
ARC
8
DEFAULT_255_1_234
10
12.5590412
20
176.1587518
40
0.7636108
50
179.8160804
51
185.3206488
0
ARC
8
DEFAULT_255_1_234
10
12.2894894
20
176.1330155
40
0.4928344
50
185.2474014
51
192.7953707
0
ARC
8
DEFAULT_255_1_234
10
12.1133151
20
176.0925824
40
0.3120807
50
192.7197759
51
202.9585048
0
ARC
8
DEFAULT_255_1_234
10
11.4235334
20
176.3323928
40
0.2611453
50
270.0069004
51
300.5035019
0
ARC
8
DEFAULT_255_1_234
10
11.4357942
20
176.3195927
40
0.2439274
50
299.5482464
51
315.6095048
0
ARC
8
DEFAULT_255_1_234
10
11.4648039
20
176.2899155
40
0.2024389
50
315.868035
51
334.0596869
0
ARC
8
DEFAULT_255_1_234
10
11.5260399
20
175.6822943
40
0.6973855
50
89.6428514
51
97.2870891
0
ARC
8
DEFAULT_255_1_234
10
11.4819162
20
176.0126571
40
0.3640992
50
96.9938028
51
109.7781797
0
ARC
8
DEFAULT_255_1_234
10
11.4153787
20
176.1907891
40
0.1739759
50
109.0087453
51
135.326626
0
ARC
8
DEFAULT_255_1_234
10
11.3880392
20
176.2246473
40
0.1308198
50
137.4539381
51
182.1082805
0
ARC
8
DEFAULT_255_1_234
10
11.4254382
20
176.2181893
40
0.1681384
50
179.4392907
51
195.7200177
0
ARC
8
DEFAULT_255_1_234
10
11.384281
20
176.2069426
40
0.1254738
50
195.8684065
51
230.1572205
0
ARC
8
DEFAULT_255_1_234
10
11.4085237
20
176.2359769
40
0.1632985
50
230.1530708
51
259.7485588
0
ARC
8
DEFAULT_255_1_234
10
11.4223941
20
176.3013386
40
0.230094
50
259.2463819
51
270.291543
0
LINE
8
DEFAULT_255_1_234
10
12.6749097
20
176.5716248
11
12.5255194
21
176.5716248
0
LINE
8
DEFAULT_255_1_234
10
11.992212
20
176.2254569
11
12.1407991
21
176.2254569
0
ARC
8
DEFAULT_255_1_234
10
12.4067012
20
176.1899959
40
0.1276617
50
359.3334982
51
18.5871358
0
ARC
8
DEFAULT_255_1_234
10
12.427565
20
176.1955133
40
0.1061371
50
19.3540742
51
54.6485071
0
ARC
8
DEFAULT_255_1_234
10
12.3771552
20
176.1259919
40
0.1920087
50
54.3827097
51
65.0622807
0
ARC
8
DEFAULT_255_1_234
10
12.3002948
20
175.96429
40
0.3710447
50
64.8282493
51
71.4200025
0
ARC
8
DEFAULT_255_1_234
10
12.2100823
20
175.6996107
40
0.6506741
50
71.3164301
51
75.8006402
0
ARC
8
DEFAULT_255_1_234
10
12.1259643
20
175.3755561
40
0.9854641
50
75.6809531
51
78.0061883
0
ARC
8
DEFAULT_255_1_234
10
12.5708177
20
177.473477
40
1.1591028
50
254.6901892
51
258.0466452
0
ARC
8
DEFAULT_255_1_234
10
12.4670085
20
177.0975781
40
0.7691345
50
249.9010773
51
254.755261
0
ARC
8
DEFAULT_255_1_234
10
12.3666427
20
176.8249982
40
0.478665
50
243.3097214
51
249.9709442
0
ARC
8
DEFAULT_255_1_234
10
12.3037448
20
176.6995778
40
0.3383568
50
234.4047477
51
243.2862168
0
ARC
8
DEFAULT_255_1_234
10
12.2414972
20
176.6136232
40
0.2322322
50
220.8667099
51
234.5493881
0
ARC
8
DEFAULT_255_1_234
10
12.2072913
20
176.5824817
40
0.1859923
50
214.3062465
51
220.5065136
0
ARC
8
DEFAULT_255_1_234
10
12.2046992
20
176.579388
40
0.1821108
50
186.912965
51
213.9618616
0
ARC
8
DEFAULT_255_1_234
10
12.2579087
20
176.5880009
40
0.2359799
50
179.8808832
51
187.4339886
0
ARC
8
DEFAULT_255_1_234
10
12.242422
20
176.5900088
40
0.2204978
50
132.005434
51
180.3942919
0
ARC
8
DEFAULT_255_1_234
10
12.3080834
20
176.5294083
40
0.3095791
50
129.2319861
51
133.5302299
0
ARC
8
DEFAULT_255_1_234
10
12.3134342
20
176.5199928
40
0.3202615
50
100.4410011
51
128.9081242
0
ARC
8
DEFAULT_255_1_234
10
12.3408225
20
176.3914455
40
0.4516583
50
89.6985377
51
100.9026564
0
ARC
8
DEFAULT_255_1_234
10
12.3465267
20
176.3754166
40
0.4676928
50
77.6965325
51
90.4076836
0
ARC
8
DEFAULT_255_1_234
10
12.3796252
20
176.5181413
40
0.3211988
50
50.7276602
51
78.0399361
0
ARC
8
DEFAULT_255_1_234
10
12.424071
20
176.5699296
40
0.2529778
50
25.7545084
51
51.0957453
0
ARC
8
DEFAULT_255_1_234
10
12.4241935
20
176.5749206
40
0.250738
50
359.2468627
51
24.7394243
0
ARC
8
DEFAULT_255_1_234
10
12.3957387
20
176.5720664
40
0.1297815
50
359.8050318
51
45.1544908
0
ARC
8
DEFAULT_255_1_234
10
12.3550528
20
176.5372794
40
0.1831883
50
43.8047702
51
49.6271585
0
ARC
8
DEFAULT_255_1_234
10
12.355843
20
176.5373678
40
0.18261
50
49.7980766
51
82.1218353
0
ARC
8
DEFAULT_255_1_234
10
12.3439402
20
176.4726998
40
0.2483163
50
81.4465357
51
90.1710293
0
ARC
8
DEFAULT_255_1_234
10
12.3415005
20
176.420088
40
0.300932
50
89.6766211
51
99.1264602
0
ARC
8
DEFAULT_255_1_234
10
12.3243466
20
176.5234537
40
0.1961547
50
98.968313
51
113.4570237
0
ARC
8
DEFAULT_255_1_234
10
12.3047551
20
176.5702965
40
0.1453859
50
113.722589
51
127.4763106
0
ARC
8
DEFAULT_255_1_234
10
12.2879198
20
176.5903124
40
0.1192639
50
126.9083309
51
150.3165862
0
ARC
8
DEFAULT_255_1_234
10
12.283153
20
176.5953981
40
0.112623
50
151.3635175
51
180.0701457
0
ARC
8
DEFAULT_255_1_234
10
12.3140315
20
176.593299
40
0.1435149
50
179.2169974
51
179.9954013
0
ARC
8
DEFAULT_255_1_234
10
12.2779372
20
176.5920056
40
0.1074286
50
179.3040112
51
198.4225446
0
ARC
8
DEFAULT_255_1_234
10
12.2587506
20
176.5870127
40
0.0876573
50
199.2895851
51
238.6034594
0
ARC
8
DEFAULT_255_1_234
10
12.3190352
20
176.681645
40
0.1998512
50
237.9846301
51
246.8744712
0
ARC
8
DEFAULT_255_1_234
10
12.4048297
20
176.8779205
40
0.4140547
50
246.6234531
51
251.8168941
0
ARC
8
DEFAULT_255_1_234
10
12.5078841
20
177.1873905
40
0.7402308
50
251.713434
51
255.0778414
0
ARC
8
DEFAULT_255_1_234
10
12.6278104
20
177.6340563
40
1.2027155
50
255.0367487
51
257.4705983
0
ARC
8
DEFAULT_255_1_234
10
12.1170113
20
175.3326863
40
1.1546601
50
73.6837552
51
77.5016755
0
ARC
8
DEFAULT_255_1_234
10
12.2258888
20
175.7026581
40
0.7690009
50
68.7044154
51
73.7249639
0
ARC
8
DEFAULT_255_1_234
10
12.3161909
20
175.9353654
40
0.5193873
50
63.590599
51
68.6626804
0
ARC
8
DEFAULT_255_1_234
10
12.3932928
20
176.0891123
40
0.3473927
50
54.7106439
51
63.7013633
0
ARC
8
DEFAULT_255_1_234
10
12.4557382
20
176.17634
40
0.2401192
50
41.0622434
51
54.8487496
0
ARC
8
DEFAULT_255_1_234
10
12.4898769
20
176.2076592
40
0.1938094
50
34.4950568
51
40.7105546
0
ARC
8
DEFAULT_255_1_234
10
12.4945576
20
176.2125078
40
0.1872106
50
9.3763373
51
34.0833615
0
ARC
8
DEFAULT_255_1_234
10
12.4292447
20
176.1999728
40
0.2536988
50
359.7694872
51
9.7663171
0
ARC
8
DEFAULT_255_1_234
10
12.4489947
20
176.1956764
40
0.2339696
50
335.8654732
51
0.8022045
0
ARC
8
DEFAULT_255_1_234
10
12.4564992
20
176.1970197
40
0.2277108
50
307.7357725
51
334.7849066
0
ARC
8
DEFAULT_255_1_234
10
12.4164168
20
176.2420645
40
0.2878951
50
307.0241536
51
308.5578354
0
ARC
8
DEFAULT_255_1_234
10
12.3906499
20
176.2806801
40
0.3342515
50
282.9362969
51
306.5646424
0
ARC
8
DEFAULT_255_1_234
10
12.3544796
20
176.4274108
40
0.4853615
50
271.1026298
51
283.2200835
0
ARC
8
DEFAULT_255_1_234
10
12.348104
20
176.5515418
40
0.6096052
50
269.9919117
51
271.4772449
0
ARC
8
DEFAULT_255_1_234
10
12.3454795
20
176.4437436
40
0.5018135
50
259.0723564
51
270.289833
0
ARC
8
DEFAULT_255_1_234
10
12.3242528
20
176.3320271
40
0.388099
50
245.4963068
51
259.0227342
0
ARC
8
DEFAULT_255_1_234
10
12.2964484
20
176.2738615
40
0.3236422
50
228.9684658
51
245.7044727
0
ARC
8
DEFAULT_255_1_234
10
12.2698928
20
176.2411575
40
0.2815426
50
214.4011705
51
228.6759915
0
ARC
8
DEFAULT_255_1_234
10
12.2409668
20
176.225329
40
0.2487548
50
179.9705531
51
215.1572795
0
ARC
8
DEFAULT_255_1_234
10
12.3110268
20
176.2326806
40
0.1703809
50
182.4299387
51
203.0329699
0
ARC
8
DEFAULT_255_1_234
10
12.2925926
20
176.2270396
40
0.1512226
50
203.798802
51
232.548466
0
ARC
8
DEFAULT_255_1_234
10
12.3202447
20
176.2621826
40
0.1959374
50
232.3782728
51
256.3934612
0
ARC
8
DEFAULT_255_1_234
10
12.3432809
20
176.3511842
40
0.2878639
50
256.104506
51
268.4626716
0
ARC
8
DEFAULT_255_1_234
10
12.3479293
20
176.4308487
40
0.3676329
50
268.0715632
51
270.0138206
0
ARC
8
DEFAULT_255_1_234
10
12.3497818
20
176.4036083
40
0.3403971
50
269.7031147
51
278.8341955
0
ARC
8
DEFAULT_255_1_234
10
12.3679911
20
176.2905876
40
0.2259217
50
278.6728789
51
292.8232582
0
ARC
8
DEFAULT_255_1_234
10
12.3880449
20
176.2404449
40
0.171929
50
293.1452328
51
303.6655899
0
ARC
8
DEFAULT_255_1_234
10
12.4145328
20
176.2028204
40
0.1259367
50
303.1248165
51
321.742847
0
ARC
8
DEFAULT_255_1_234
10
12.4331208
20
176.1865156
40
0.1012531
50
322.4748573
51
1.1291126
0
LINE
8
DEFAULT_255_1_234
10
12.9295158
20
177.0374656
11
13.078103
21
177.0374656
0
LINE
8
DEFAULT_255_1_234
10
13.078103
20
177.0374656
11
13.078103
21
176.8270341
0
LINE
8
DEFAULT_255_1_234
10
13.078103
20
176.8270341
11
13.2403441
21
176.8270341
0
LINE
8
DEFAULT_255_1_234
10
13.2403441
20
176.8270341
11
13.2403441
21
176.7121802
0
LINE
8
DEFAULT_255_1_234
10
13.2403441
20
176.7121802
11
13.078103
21
176.7121802
0
LINE
8
DEFAULT_255_1_234
10
13.078103
20
176.7121802
11
13.078103
21
176.1732506
0
LINE
8
DEFAULT_255_1_234
10
13.24436
20
176.0784761
11
13.24436
21
175.958
0
LINE
8
DEFAULT_255_1_234
10
12.9295158
20
176.1732506
11
12.9295158
21
176.7121802
0
LINE
8
DEFAULT_255_1_234
10
12.9295158
20
176.7121802
11
12.7712906
21
176.7121802
0
LINE
8
DEFAULT_255_1_234
10
12.7712906
20
176.7121802
11
12.7712906
21
176.8270341
0
LINE
8
DEFAULT_255_1_234
10
12.7712906
20
176.8270341
11
12.9295158
21
176.8270341
0
LINE
8
DEFAULT_255_1_234
10
12.9295158
20
176.8270341
11
12.9295158
21
177.0374656
0
ARC
8
DEFAULT_255_1_234
10
13.2788533
20
176.1722084
40
0.200753
50
179.7025659
51
187.917967
0
ARC
8
DEFAULT_255_1_234
10
13.2042559
20
176.1614724
40
0.1253883
50
187.7545981
51
200.2447476
0
ARC
8
DEFAULT_255_1_234
10
13.162188
20
176.1457859
40
0.0804913
50
200.130383
51
219.174133
0
ARC
8
DEFAULT_255_1_234
10
13.1486056
20
176.1365515
40
0.0641445
50
220.4434483
51
249.6172
0
ARC
8
DEFAULT_255_1_234
10
13.1640907
20
176.1754968
40
0.1060489
50
249.1032952
51
262.775154
0
ARC
8
DEFAULT_255_1_234
10
13.1729079
20
176.2383715
40
0.1695354
50
262.4913187
51
270.2611758
0
ARC
8
DEFAULT_255_1_234
10
13.1726496
20
176.2599103
40
0.191075
50
270.3091804
51
275.6625139
0
ARC
8
DEFAULT_255_1_234
10
13.158372
20
176.4100435
40
0.3418851
50
275.5610264
51
279.0879356
0
ARC
8
DEFAULT_255_1_234
10
13.1253598
20
176.6195699
40
0.5539959
50
279.0365489
51
281.5011378
0
ARC
8
DEFAULT_255_1_234
10
13.0896674
20
176.7999423
40
0.7378639
50
281.4243939
51
282.1017894
0
ARC
8
DEFAULT_255_1_234
10
13.1239921
20
176.3917858
40
0.4501761
50
275.2597045
51
285.5083879
0
ARC
8
DEFAULT_255_1_234
10
13.1301246
20
176.3361606
40
0.3942242
50
270.0268409
51
275.1132796
0
ARC
8
DEFAULT_255_1_234
10
13.1281211
20
176.2034614
40
0.261534
50
257.3573315
51
270.479383
0
ARC
8
DEFAULT_255_1_234
10
13.1068102
20
176.1136406
40
0.1692304
50
230.8037497
51
257.741658
0
ARC
8
DEFAULT_255_1_234
10
13.1000005
20
176.1026777
40
0.1564393
50
219.974146
51
230.1990686
0
ARC
8
DEFAULT_255_1_234
10
13.1331952
20
176.1280579
40
0.1981916
50
196.5084186
51
219.4318458
0
ARC
8
DEFAULT_255_1_234
10
13.2347397
20
176.1599194
40
0.3046086
50
184.6404872
51
196.8269686
0
ARC
8
DEFAULT_255_1_234
10
13.3592461
20
176.1724908
40
0.4297309
50
179.8986958
51
184.9681077
0
LINE
8
DEFAULT_255_1_234
10
13.3760805
20
176.3684218
11
13.3760805
21
176.3957297
0
LINE
8
DEFAULT_255_1_234
10
14.113394
20
176.4117932
11
14.113394
21
176.3499488
0
LINE
8
DEFAULT_255_1_234
10
14.113394
20
176.3499488
11
13.5246676
21
176.3499488
0
LINE
8
DEFAULT_255_1_234
10
14.011391
20
176.1804792
11
14.1021496
21
176.1097999
0
LINE
8
DEFAULT_255_1_234
10
13.5294867
20
176.4720313
11
13.9648069
21
176.4720313
0
LINE
8
DEFAULT_255_1_234
10
13.9648069
20
176.4720313
11
13.9648069
21
176.4832757
0
ARC
8
DEFAULT_255_1_234
10
13.770017
20
176.3795332
40
0.4376191
50
252.3266134
51
270.5810217
0
ARC
8
DEFAULT_255_1_234
10
13.7495259
20
176.3054644
40
0.3608374
50
223.3000567
51
251.8561855
0
ARC
8
DEFAULT_255_1_234
10
13.7706619
20
176.3259937
40
0.3902993
50
190.9374509
51
223.3654032
0
ARC
8
DEFAULT_255_1_234
10
13.9431592
20
176.3649885
40
0.5670891
50
179.6531105
51
191.4989439
0
ARC
8
DEFAULT_255_1_234
10
13.9553604
20
176.3989417
40
0.5792888
50
167.4007466
51
180.3176909
0
ARC
8
DEFAULT_255_1_234
10
13.8501666
20
176.4211885
40
0.471777
50
154.1835823
51
167.250763
0
ARC
8
DEFAULT_255_1_234
10
13.7870133
20
176.4544417
40
0.4004528
50
134.3149965
51
154.5315275
0
ARC
8
DEFAULT_255_1_234
10
13.7652628
20
176.4735228
40
0.371612
50
122.8616532
51
133.9707695
0
ARC
8
DEFAULT_255_1_234
10
13.7549202
20
176.4957703
40
0.3473289
50
89.8249009
51
123.4199222
0
ARC
8
DEFAULT_255_1_234
10
13.7599243
20
176.4310967
40
0.4120197
50
74.7876118
51
90.5482747
0
ARC
8
DEFAULT_255_1_234
10
13.7892987
20
176.539603
40
0.2996077
50
39.8178249
51
74.7633718
0
ARC
8
DEFAULT_255_1_234
10
13.7380307
20
176.4996351
40
0.3645855
50
16.8990863
51
39.4829761
0
ARC
8
DEFAULT_255_1_234
10
13.5485603
20
176.4389526
40
0.5635218
50
4.9636328
51
17.2026414
0
ARC
8
DEFAULT_255_1_234
10
13.3067673
20
176.413434
40
0.8066286
50
359.8834553
51
5.2834307
0
ARC
8
DEFAULT_255_1_234
10
13.9105198
20
176.3565803
40
0.3859091
50
180.9846213
51
194.9401313
0
ARC
8
DEFAULT_255_1_234
10
13.8055476
20
176.3278849
40
0.2770883
50
194.80314
51
222.0412631
0
ARC
8
DEFAULT_255_1_234
10
13.7751357
20
176.2977116
40
0.2343055
50
221.5417084
51
268.8614402
0
ARC
8
DEFAULT_255_1_234
10
13.7824352
20
176.3653686
40
0.3021528
50
267.732405
51
270.0097136
0
ARC
8
DEFAULT_255_1_234
10
13.7842162
20
176.3855105
40
0.3222994
50
269.6924892
51
280.4117579
0
ARC
8
DEFAULT_255_1_234
10
13.8018569
20
176.2936193
40
0.2287344
50
280.2255091
51
298.6338936
0
ARC
8
DEFAULT_255_1_234
10
13.8135361
20
176.2692223
40
0.2017294
50
299.0430333
51
300.4643464
0
ARC
8
DEFAULT_255_1_234
10
13.7455366
20
176.3826038
40
0.3339357
50
300.6577328
51
322.0378878
0
ARC
8
DEFAULT_255_1_234
10
13.7104905
20
176.4130021
40
0.3802736
50
321.6750233
51
322.3046845
0
ARC
8
DEFAULT_255_1_234
10
13.8035867
20
176.296337
40
0.3520454
50
276.9728461
51
328.0035423
0
ARC
8
DEFAULT_255_1_234
10
13.775892
20
176.4443841
40
0.5024498
50
269.8361028
51
278.0581756
0
ARC
8
DEFAULT_255_1_234
10
13.7531657
20
176.5188757
40
0.202159
50
89.2018686
51
117.2851756
0
ARC
8
DEFAULT_255_1_234
10
13.7584826
20
176.5146752
40
0.2083484
50
118.0551165
51
137.4540413
0
ARC
8
DEFAULT_255_1_234
10
13.7959566
20
176.4806304
40
0.2589774
50
137.5109581
51
158.8516286
0
ARC
8
DEFAULT_255_1_234
10
13.9097402
20
176.4347074
40
0.38167
50
158.5845963
51
170.1721436
0
ARC
8
DEFAULT_255_1_234
10
14.0266791
20
176.4114823
40
0.5008657
50
169.8376422
51
173.0566086
0
ARC
8
DEFAULT_255_1_234
10
13.5569865
20
176.4625509
40
0.4083467
50
2.9091802
51
12.8847116
0
ARC
8
DEFAULT_255_1_234
10
13.6940541
20
176.4948101
40
0.2675383
50
12.6957781
51
28.6404489
0
ARC
8
DEFAULT_255_1_234
10
13.7482212
20
176.5228458
40
0.2065654
50
29.0169854
51
41.1487595
0
ARC
8
DEFAULT_255_1_234
10
13.7684997
20
176.5405003
40
0.1796786
50
41.1646065
51
85.0013516
0
ARC
8
DEFAULT_255_1_234
10
13.7564094
20
176.4670431
40
0.2539726
50
83.7280015
51
90.0964893
0
LINE
8
DEFAULT_255_1_234
10
14.7053332
20
176.8318531
11
14.7053332
21
176.6937072
0
LINE
8
DEFAULT_255_1_234
10
14.4338604
20
176.5748375
11
14.4338604
21
175.958
0
LINE
8
DEFAULT_255_1_234
10
14.4338604
20
175.958
11
14.2852732
21
175.958
0
LINE
8
DEFAULT_255_1_234
10
14.2852732
20
175.958
11
14.2852732
21
176.8270341
0
LINE
8
DEFAULT_255_1_234
10
14.2852732
20
176.8270341
11
14.4298445
21
176.8270341
0
LINE
8
DEFAULT_255_1_234
10
14.4298445
20
176.8270341
11
14.4322541
21
176.7266374
0
ARC
8
DEFAULT_255_1_234
10
14.6386737
20
176.2877342
40
0.4114092
50
80.6754243
51
86.8932892
0
ARC
8
DEFAULT_255_1_234
10
14.6326271
20
176.19097
40
0.5083596
50
86.8038578
51
90.0431435
0
ARC
8
DEFAULT_255_1_234
10
14.6289252
20
176.4366866
40
0.2626638
50
89.2759698
51
106.6213787
0
ARC
8
DEFAULT_255_1_234
10
14.6084816
20
176.510983
40
0.1856317
50
107.1346045
51
157.6458115
0
ARC
8
DEFAULT_255_1_234
10
14.6776418
20
176.4726311
40
0.2643398
50
155.6586782
51
157.2539184
0
ARC
8
DEFAULT_255_1_234
10
14.657162
20
176.5895157
40
0.2634121
50
127.8165941
51
148.6302098
0
ARC
8
DEFAULT_255_1_234
10
14.6318089
20
176.6155218
40
0.2273596
50
91.3329982
51
126.7875809
0
ARC
8
DEFAULT_255_1_234
10
14.6394029
20
176.5440195
40
0.299078
50
89.986594
51
92.4688449
0
ARC
8
DEFAULT_255_1_234
10
14.6402424
20
176.5715078
40
0.2715908
50
85.3589899
51
90.1623399
0
ARC
8
DEFAULT_255_1_234
10
14.648694
20
176.6719164
40
0.1708278
50
78.401942
51
85.4594656
0
ARC
8
DEFAULT_255_1_234
10
14.6631824
20
176.7410236
40
0.1002194
50
67.7858312
51
78.5728455
0
ARC
8
DEFAULT_255_1_234
10
14.6739676
20
176.7689887
40
0.0702548
50
63.4835954
51
67.3062642
0
LINE
8
DEFAULT_255_1_234
10
15.0201773
20
177.1274211
11
15.0201773
21
176.0840983
0
LINE
8
DEFAULT_255_1_234
10
15.0201773
20
176.0840983
11
15.5743672
21
176.0840983
0
LINE
8
DEFAULT_255_1_234
10
15.5743672
20
176.0840983
11
15.5743672
21
175.958
0
LINE
8
DEFAULT_255_1_234
10
15.5743672
20
175.958
11
14.8651647
21
175.958
0
LINE
8
DEFAULT_255_1_234
10
14.8651647
20
175.958
11
14.8651647
21
177.1274211
0
LINE
8
DEFAULT_255_1_234
10
14.8651647
20
177.1274211
11
15.0201773
21
177.1274211
0
LINE
8
DEFAULT_255_1_234
10
15.6876147
20
176.3901075
11
15.6876147
21
176.4005488
0
LINE
8
DEFAULT_255_1_234
10
16.478741
20
176.3933202
11
16.478741
21
176.382879
0
ARC
8
DEFAULT_255_1_234
10
16.2462327
20
176.4037837
40
0.5586273
50
166.3003825
51
180.3317926
0
ARC
8
DEFAULT_255_1_234
10
16.1599486
20
176.4230964
40
0.4702272
50
153.8608245
51
166.0967125
0
ARC
8
DEFAULT_255_1_234
10
16.0933889
20
176.458775
40
0.3947658
50
135.1316692
51
154.253643
0
ARC
8
DEFAULT_255_1_234
10
16.0655448
20
176.4833666
40
0.3576898
50
121.7044358
51
134.776924
0
ARC
8
DEFAULT_255_1_234
10
16.0722442
20
176.4704867
40
0.3721701
50
93.4002104
51
121.5398234
0
ARC
8
DEFAULT_255_1_234
10
16.0817398
20
176.3879228
40
0.4551749
50
89.9706281
51
93.9769836
0
ARC
8
DEFAULT_255_1_234
10
16.086449
20
176.4269362
40
0.4161854
50
71.3323442
51
90.6161982
0
ARC
8
DEFAULT_255_1_234
10
16.1027186
20
176.4871578
40
0.3539455
50
41.1815071
51
70.707185
0
ARC
8
DEFAULT_255_1_234
10
16.0549586
20
176.4437919
40
0.4184468
50
12.1971897
51
41.3445735
0
ARC
8
DEFAULT_255_1_234
10
15.8623594
20
176.3979425
40
0.616399
50
359.5703439
51
12.5804035
0
ARC
8
DEFAULT_255_1_234
10
15.9096669
20
176.3797116
40
0.5690829
50
347.0197749
51
0.3188898
0
ARC
8
DEFAULT_255_1_234
10
16.0055171
20
176.3590808
40
0.4710501
50
334.3504053
51
346.846361
0
ARC
8
DEFAULT_255_1_234
10
16.0900594
20
176.3151805
40
0.3758475
50
310.422922
51
334.8045033
0
ARC
8
DEFAULT_255_1_234
10
16.098242
20
176.3087782
40
0.3656736
50
301.8486886
51
310.097356
0
ARC
8
DEFAULT_255_1_234
10
16.0950146
20
176.3163638
40
0.3738224
50
274.307774
51
301.655379
0
ARC
8
DEFAULT_255_1_234
10
16.0839453
20
176.4041361
40
0.4621997
50
269.9546461
51
274.8588071
0
ARC
8
DEFAULT_255_1_234
10
16.0790387
20
176.3540249
40
0.4121134
50
250.888809
51
270.631312
0
ARC
8
DEFAULT_255_1_234
10
16.0640307
20
176.2981277
40
0.3544073
50
221.1701932
51
250.2227191
0
ARC
8
DEFAULT_255_1_234
10
16.1124461
20
176.3422439
40
0.4198961
50
191.6263638
51
221.3526367
0
ARC
8
DEFAULT_255_1_234
10
16.3012457
20
176.3859329
40
0.6136451
50
179.610213
51
192.0693181
0
ARC
8
DEFAULT_255_1_234
10
16.3435685
20
176.3796633
40
0.5065736
50
179.636298
51
190.6162791
0
ARC
8
DEFAULT_255_1_234
10
16.1793353
20
176.347659
40
0.3392576
50
190.4136628
51
208.7170242
0
ARC
8
DEFAULT_255_1_234
10
16.1282977
20
176.3223366
40
0.2823401
50
209.1867941
51
217.4225593
0
ARC
8
DEFAULT_255_1_234
10
16.0753811
20
176.2757558
40
0.2120636
50
216.1156896
51
265.2575835
0
ARC
8
DEFAULT_255_1_234
10
16.083296
20
176.3331109
40
0.2698952
50
264.5897417
51
270.0601757
0
ARC
8
DEFAULT_255_1_234
10
16.086602
20
176.2951185
40
0.2319225
50
269.2532621
51
291.8792492
0
ARC
8
DEFAULT_255_1_234
10
16.0895242
20
176.2773238
40
0.2143562
50
292.9269754
51
323.1776747
0
ARC
8
DEFAULT_255_1_234
10
16.0502064
20
176.3121452
40
0.2667346
50
322.2518483
51
323.0930371
0
ARC
8
DEFAULT_255_1_234
10
16.0207723
20
176.330299
40
0.3011886
50
323.6941278
51
343.8493282
0
ARC
8
DEFAULT_255_1_234
10
15.8629266
20
176.378335
40
0.4661719
50
343.5748474
51
355.0079071
0
ARC
8
DEFAULT_255_1_234
10
15.6621511
20
176.3991424
40
0.6680042
50
354.7285225
51
0.1206288
0
ARC
8
DEFAULT_255_1_234
10
15.8389977
20
176.4037751
40
0.4911667
50
359.623636
51
11.2015604
0
ARC
8
DEFAULT_255_1_234
10
15.9924205
20
176.435364
40
0.3345323
50
10.9989411
51
30.8319188
0
ARC
8
DEFAULT_255_1_234
10
16.0320077
20
176.4562297
40
0.2898553
50
31.3008956
51
37.3959224
0
ARC
8
DEFAULT_255_1_234
10
16.0816656
20
176.4981653
40
0.2249582
50
36.5915954
51
62.2442953
0
ARC
8
DEFAULT_255_1_234
10
16.0863109
20
176.4978602
40
0.2231053
50
63.3365542
51
89.7195421
0
ARC
8
DEFAULT_255_1_234
10
16.0819963
20
176.4409884
40
0.2800267
50
88.8936788
51
90.0047485
0
ARC
8
DEFAULT_255_1_234
10
16.0788322
20
176.4982787
40
0.2227586
50
89.1921125
51
114.7099455
0
ARC
8
DEFAULT_255_1_234
10
16.0817086
20
176.5020628
40
0.2205633
50
115.7997161
51
142.2900762
0
ARC
8
DEFAULT_255_1_234
10
16.1255819
20
176.4630658
40
0.2791541
50
141.4658779
51
142.3795754
0
ARC
8
DEFAULT_255_1_234
10
16.1364723
20
176.4587557
40
0.2904292
50
143.0175714
51
163.234115
0
ARC
8
DEFAULT_255_1_234
10
16.2942896
20
176.4088054
40
0.4559523
50
162.9447461
51
174.3732162
0
ARC
8
DEFAULT_255_1_234
10
16.508871
20
176.3847143
40
0.6718682
50
174.1228657
51
180.1565175
0
LINE
8
DEFAULT_255_1_234
10
17.2208736
20
176.7306532
11
17.2281021
21
176.8270341
0
LINE
8
DEFAULT_255_1_234
10
17.2281021
20
176.8270341
11
17.3638385
21
176.8270341
0
LINE
8
DEFAULT_255_1_234
10
17.3638385
20
176.8270341
11
17.3638385
21
175.9788825
0
LINE
8
DEFAULT_255_1_234
10
16.6739122
20
175.7660415
11
16.7510169
21
175.8551938
0
LINE
8
DEFAULT_255_1_234
10
17.2144482
20
175.9700476
11
17.2144482
21
176.0447428
0
LINE
8
DEFAULT_255_1_234
10
17.2144482
20
176.1957395
11
17.2144482
21
176.5925073
0
ARC
8
DEFAULT_255_1_234
10
17.3443184
20
176.404067
40
0.7145938
50
169.8803029
51
180.346492
0
ARC
8
DEFAULT_255_1_234
10
17.1089956
20
176.4477732
40
0.4752555
50
152.8532592
51
170.0826994
0
ARC
8
DEFAULT_255_1_234
10
17.025673
20
176.4872298
40
0.3831198
50
142.0149503
51
152.4184154
0
ARC
8
DEFAULT_255_1_234
10
16.9619687
20
176.5452197
40
0.2972906
50
94.3317211
51
143.267544
0
ARC
8
DEFAULT_255_1_234
10
16.9723586
20
176.4669614
40
0.3761364
50
89.949086
51
95.0094918
0
ARC
8
DEFAULT_255_1_234
10
16.9765156
20
176.4828946
40
0.3602233
50
72.9495766
51
90.6080422
0
ARC
8
DEFAULT_255_1_234
10
16.9970262
20
176.5571804
40
0.2831969
50
37.7742493
51
72.5100279
0
ARC
8
DEFAULT_255_1_234
10
16.9050175
20
175.9750461
40
0.4588371
50
346.3654765
51
0.4790689
0
ARC
8
DEFAULT_255_1_234
10
17.0417999
20
175.9402784
40
0.3177173
50
314.3365179
51
346.6439967
0
ARC
8
DEFAULT_255_1_234
10
17.0315901
20
175.954612
40
0.3351156
50
280.7143003
51
313.8723582
0
ARC
8
DEFAULT_255_1_234
10
16.9980554
20
176.1040406
40
0.4882011
50
269.662739
51
281.3210136
0
ARC
8
DEFAULT_255_1_234
10
16.9964233
20
176.062807
40
0.4469607
50
245.5258041
51
269.8408437
0
ARC
8
DEFAULT_255_1_234
10
16.9582789
20
175.9912537
40
0.3660692
50
232.6665166
51
246.3199597
0
ARC
8
DEFAULT_255_1_234
10
16.9098583
20
175.9270155
40
0.2856276
50
214.3037329
51
232.5747698
0
ARC
8
DEFAULT_255_1_234
10
17.0216764
20
176.0695759
40
0.3452771
50
218.3818001
51
236.3658697
0
ARC
8
DEFAULT_255_1_234
10
16.9816588
20
176.0137637
40
0.2766535
50
236.8638847
51
270.6382346
0
ARC
8
DEFAULT_255_1_234
10
16.9871419
20
176.0468542
40
0.3097363
50
269.5557741
51
282.3971413
0
ARC
8
DEFAULT_255_1_234
10
17.0107494
20
175.9453559
40
0.2055403
50
282.04403
51
308.3081445
0
ARC
8
DEFAULT_255_1_234
10
17.0192892
20
175.9317365
40
0.1895677
50
308.8344832
51
315.2032883
0
ARC
8
DEFAULT_255_1_234
10
17.0114465
20
175.937477
40
0.199183
50
315.6210926
51
345.6795494
0
ARC
8
DEFAULT_255_1_234
10
16.9135352
20
175.9647308
40
0.3008009
50
345.2625808
51
358.6313382
0
ARC
8
DEFAULT_255_1_234
10
16.8246774
20
175.9699622
40
0.3897707
50
358.1745328
51
0.0125581
0
ARC
8
DEFAULT_255_1_234
10
16.9931432
20
176.2360802
40
0.2925507
50
275.695063
51
319.1537421
0
ARC
8
DEFAULT_255_1_234
10
16.9719576
20
176.3584945
40
0.4165589
50
269.8801937
51
276.923904
0
ARC
8
DEFAULT_255_1_234
10
16.9666482
20
176.247505
40
0.3056007
50
244.0749417
51
270.8321594
0
ARC
8
DEFAULT_255_1_234
10
16.9741595
20
176.2495057
40
0.3107397
50
217.7817538
51
242.9905588
0
ARC
8
DEFAULT_255_1_234
10
17.0352153
20
176.3037252
40
0.3922508
50
217.5213304
51
218.5773048
0
ARC
8
DEFAULT_255_1_234
10
17.0622685
20
176.3194333
40
0.4232938
50
195.3495212
51
216.9774018
0
ARC
8
DEFAULT_255_1_234
10
17.2645699
20
176.3782389
40
0.6339531
50
183.9386736
51
195.634887
0
ARC
8
DEFAULT_255_1_234
10
17.4921999
20
176.3986851
40
0.8624629
50
179.9295504
51
184.2550478
0
ARC
8
DEFAULT_255_1_234
10
17.3600412
20
176.3798275
40
0.5809212
50
179.6990322
51
188.5748787
0
ARC
8
DEFAULT_255_1_234
10
17.158723
20
176.3483858
40
0.377167
50
188.411837
51
202.0556851
0
ARC
8
DEFAULT_255_1_234
10
17.061846
20
176.310353
40
0.2731001
50
202.2924333
51
215.4475715
0
ARC
8
DEFAULT_255_1_234
10
16.9974087
20
176.2604537
40
0.191695
50
214.4673484
51
264.336154
0
ARC
8
DEFAULT_255_1_234
10
17.0076027
20
176.3241255
40
0.2560911
50
263.4724496
51
270.0961704
0
ARC
8
DEFAULT_255_1_234
10
17.0116229
20
176.309192
40
0.2411839
50
269.1470351
51
291.7977507
0
ARC
8
DEFAULT_255_1_234
10
17.0178663
20
176.2812994
40
0.2130159
50
293.0244875
51
327.6231489
0
ARC
8
DEFAULT_255_1_234
10
16.9470844
20
176.3330511
40
0.3005627
50
326.5166824
51
332.8160514
0
ARC
8
DEFAULT_255_1_234
10
16.9821878
20
176.4690491
40
0.2630339
50
27.9929136
51
47.6313992
0
ARC
8
DEFAULT_255_1_234
10
17.0183402
20
176.5034486
40
0.2132848
50
48.5793389
51
88.624502
0
ARC
8
DEFAULT_255_1_234
10
17.0097248
20
176.4285538
40
0.2884455
50
87.2706405
51
90.0170635
0
ARC
8
DEFAULT_255_1_234
10
17.0068572
20
176.494445
40
0.2225717
50
89.2839171
51
110.1848324
0
ARC
8
DEFAULT_255_1_234
10
17.0007059
20
176.521027
40
0.1955293
50
111.1807684
51
145.0424799
0
ARC
8
DEFAULT_255_1_234
10
17.0113839
20
176.508755
40
0.2113491
50
143.9743769
51
144.1060945
0
ARC
8
DEFAULT_255_1_234
10
17.0656806
20
176.473575
40
0.2759807
50
144.7982748
51
162.8715388
0
ARC
8
DEFAULT_255_1_234
10
17.2351456
20
176.4190842
40
0.453983
50
162.5984223
51
173.3418672
0
ARC
8
DEFAULT_255_1_234
10
17.5019234
20
176.3859851
40
0.7228019
50
173.1877442
51
180.2462216
0
LINE
8
DEFAULT_255_1_234
10
17.749362
20
176.8270341
11
17.749362
21
175.958
0
LINE
8
DEFAULT_255_1_234
10
17.749362
20
175.958
11
17.6007748
21
175.958
0
LINE
8
DEFAULT_255_1_234
10
17.6007748
20
175.958
11
17.6007748
21
176.8270341
0
LINE
8
DEFAULT_255_1_234
10
17.6007748
20
176.8270341
11
17.749362
21
176.8270341
0
ARC
8
DEFAULT_255_1_234
10
17.6865897
20
177.0584889
40
0.097867
50
161.415052
51
180.5526306
0
ARC
8
DEFAULT_255_1_234
10
17.6741675
20
177.0619077
40
0.0850062
50
138.1827368
51
160.9307106
0
ARC
8
DEFAULT_255_1_234
10
17.663162
20
177.0714588
40
0.0704362
50
104.6368899
51
138.0039868
0
ARC
8
DEFAULT_255_1_234
10
17.6738775
20
177.0347963
40
0.1086221
50
92.0600725
51
105.2189128
0
ARC
8
DEFAULT_255_1_234
10
17.6762124
20
177.0005117
40
0.1429728
50
89.9756393
51
92.5012496
0
ARC
8
DEFAULT_255_1_234
10
17.6772143
20
177.0230731
40
0.1204151
50
78.0235316
51
90.4478182
0
ARC
8
DEFAULT_255_1_234
10
17.6864235
20
177.0644295
40
0.0780493
50
55.051506
51
78.3369085
0
ARC
8
DEFAULT_255_1_234
10
17.6914509
20
177.0728711
40
0.0682538
50
42.0501187
51
54.4513741
0
ARC
8
DEFAULT_255_1_234
10
17.6779376
20
177.0604798
40
0.0865878
50
1.7497075
51
42.1496013
0
ARC
8
DEFAULT_255_1_234
10
17.6524709
20
177.0575738
40
0.1121515
50
359.9852656
51
2.8364544
0
ARC
8
DEFAULT_255_1_234
10
17.6690701
20
177.0566229
40
0.0955566
50
342.1070653
51
0.552888
0
ARC
8
DEFAULT_255_1_234
10
17.6833399
20
177.0526904
40
0.0807713
50
316.7107116
51
341.6516965
0
ARC
8
DEFAULT_255_1_234
10
17.6900436
20
177.0466823
40
0.0717724
50
285.4397031
51
316.5324284
0
ARC
8
DEFAULT_255_1_234
10
17.6790353
20
177.0832554
40
0.1099597
50
272.3547054
51
285.8953117
0
ARC
8
DEFAULT_255_1_234
10
17.6763511
20
177.1198048
40
0.1465932
50
269.9695369
51
272.8160237
0
ARC
8
DEFAULT_255_1_234
10
17.6753692
20
177.0978863
40
0.1246779
50
258.8431134
51
270.4153935
0
ARC
8
DEFAULT_255_1_234
10
17.6663735
20
177.0543414
40
0.0802162
50
238.5431189
51
259.1288175
0
ARC
8
DEFAULT_255_1_234
10
17.6595619
20
177.0419856
40
0.0661247
50
222.5062634
51
237.9906969
0
ARC
8
DEFAULT_255_1_234
10
17.6723207
20
177.0535889
40
0.0833707
50
184.1069131
51
222.460413
0
ARC
8
DEFAULT_255_1_234
10
17.6992448
20
177.0574349
40
0.1105176
50
179.9429482
51
185.0960898
0
LINE
8
DEFAULT_255_1_234
10
18.5404882
20
176.2318823
11
18.6810436
21
176.2318823
0
LINE
8
DEFAULT_255_1_234
10
17.9485491
20
176.3844853
11
17.9485491
21
176.4093837
0
LINE
8
DEFAULT_255_1_234
10
18.6810436
20
176.5282534
11
18.5404882
21
176.5282534
0
LINE
8
DEFAULT_255_1_234
10
18.0971362
20
176.4037615
11
18.0971362
21
176.3756504
0
ARC
8
DEFAULT_255_1_234
10
18.3392917
20
176.2772121
40
0.2140268
50
269.0327816
51
309.2224514
0
ARC
8
DEFAULT_255_1_234
10
18.3602672
20
176.2557108
40
0.1841255
50
308.396669
51
329.6984113
0
ARC
8
DEFAULT_255_1_234
10
18.3740527
20
176.245282
40
0.166974
50
330.401383
51
355.3970571
0
ARC
8
DEFAULT_255_1_234
10
18.4197393
20
176.2470082
40
0.2617417
50
329.2357853
51
356.6870514
0
ARC
8
DEFAULT_255_1_234
10
18.3647415
20
176.2760971
40
0.3238945
50
324.8706984
51
329.7905871
0
ARC
8
DEFAULT_255_1_234
10
18.3569133
20
176.2828106
40
0.3341614
50
298.8769168
51
324.7016144
0
ARC
8
DEFAULT_255_1_234
10
18.3237325
20
176.3356917
40
0.3965068
50
296.9023738
51
299.385174
0
ARC
8
DEFAULT_255_1_234
10
18.3366938
20
176.3069422
40
0.365007
50
269.8406811
51
297.1299281
0
ARC
8
DEFAULT_255_1_234
10
18.3313595
20
176.3707407
40
0.4288259
50
253.315473
51
270.5771285
0
ARC
8
DEFAULT_255_1_234
10
18.306663
20
176.2813739
40
0.3361372
50
221.1002312
51
252.9744583
0
ARC
8
DEFAULT_255_1_234
10
18.3526627
20
176.320859
40
0.3967576
50
194.5394537
51
221.0302238
0
ARC
8
DEFAULT_255_1_234
10
18.5375448
20
176.3723952
40
0.5886672
50
182.0499201
51
194.8773585
0
ARC
8
DEFAULT_255_1_234
10
18.7145646
20
176.384206
40
0.7660157
50
179.9791086
51
182.4591564
0
ARC
8
DEFAULT_255_1_234
10
18.540769
20
176.4123498
40
0.5922274
50
168.614861
51
180.2869651
0
ARC
8
DEFAULT_255_1_234
10
18.4205835
20
176.4359269
40
0.4697532
50
154.9162259
51
168.5402336
0
ARC
8
DEFAULT_255_1_234
10
18.3284343
20
176.481463
40
0.3669966
50
133.5746694
51
155.2558665
0
ARC
8
DEFAULT_255_1_234
10
18.3121502
20
176.4953467
40
0.3457206
50
122.0165146
51
133.2055214
0
ARC
8
DEFAULT_255_1_234
10
18.315734
20
176.4865361
40
0.355095
50
97.8731644
51
121.7531281
0
ARC
8
DEFAULT_255_1_234
10
18.3336423
20
176.3808159
40
0.4622833
50
89.8471353
51
98.2769494
0
ARC
8
DEFAULT_255_1_234
10
18.3385176
20
176.4418091
40
0.401305
50
73.3760412
51
90.5199766
0
ARC
8
DEFAULT_255_1_234
10
18.3581539
20
176.5140516
40
0.3264695
50
47.7085968
51
73.0509704
0
ARC
8
DEFAULT_255_1_234
10
18.3711409
20
176.5253128
40
0.309407
50
3.7443473
51
48.0843753
0
ARC
8
DEFAULT_255_1_234
10
18.2724359
20
176.5095614
40
0.4090351
50
2.6192045
51
5.0432185
0
ARC
8
DEFAULT_255_1_234
10
18.3181212
20
176.5135592
40
0.2228519
50
3.780656
51
23.9356886
0
ARC
8
DEFAULT_255_1_234
10
18.3409828
20
176.5216155
40
0.198697
50
24.4869552
51
46.9440088
0
ARC
8
DEFAULT_255_1_234
10
18.3410679
20
176.5239484
40
0.1969404
50
46.498716
51
89.3298174
0
ARC
8
DEFAULT_255_1_234
10
18.3349033
20
176.4644723
40
0.2565428
50
88.1083975
51
90.0061569
0
ARC
8
DEFAULT_255_1_234
10
18.3321463
20
176.4698759
40
0.251154
50
89.3773333
51
107.2071161
0
ARC
8
DEFAULT_255_1_234
10
18.3178586
20
176.521619
40
0.1975072
50
107.6883219
51
143.3583002
0
ARC
8
DEFAULT_255_1_234
10
18.3745969
20
176.4789873
40
0.2684762
50
143.2846717
51
162.935323
0
ARC
8
DEFAULT_255_1_234
10
18.5251571
20
176.4306652
40
0.4265927
50
162.6650068
51
174.0805419
0
ARC
8
DEFAULT_255_1_234
10
18.739441
20
176.4057636
40
0.6423078
50
173.8423985
51
180.1785963
0
ARC
8
DEFAULT_255_1_234
10
18.684651
20
176.3726039
40
0.5875227
50
179.7028978
51
188.2277152
0
ARC
8
DEFAULT_255_1_234
10
18.4744812
20
176.3411247
40
0.3750127
50
188.0629871
51
201.1160002
0
ARC
8
DEFAULT_255_1_234
10
18.364701
20
176.2992238
40
0.2575093
50
201.2187293
51
216.9761968
0
ARC
8
DEFAULT_255_1_234
10
18.3195573
20
176.2653993
40
0.2010998
50
217.0135981
51
265.2056839
0
ARC
8
DEFAULT_255_1_234
10
18.3351433
20
176.3575695
40
0.2943543
50
263.681807
51
270.104251
0
LINE
8
DEFAULT_255_2_778
10
9.3932417
20
169.2010311
11
10.7161417
21
169.2010311
0
LINE
8
DEFAULT_255_2_778
10
10.7161417
20
169.2010311
11
10.7161417
21
89.8260311
0
LINE
8
DEFAULT_255_2_778
10
10.7161417
20
84.5343311
11
10.7161417
21
5.1593311
0
LINE
8
DEFAULT_255_2_778
10
10.7161417
20
5.1593311
11
9.3932417
21
5.1593311
0
LINE
8
DEFAULT_255_2_778
10
9.3932834
20
89.8260333
11
12.0390834
21
89.8260333
0
LINE
8
DEFAULT_255_2_778
10
12.0390834
20
89.8260333
11
12.0390834
21
84.5343333
0
LINE
8
DEFAULT_255_2_778
10
12.0390834
20
84.5343333
11
9.3932834
21
84.5343333
0
LINE
8
DEFAULT_255_2_778
10
9.3932834
20
84.5343333
11
9.3932834
21
89.8260333
0
LINE
8
DEFAULT_255_2_778
10
10.187
20
85.0635666
11
10.187
21
89.2968666
0
LINE
8
DEFAULT_255_2_778
10
9.9224167
20
88.503175
11
10.1870167
21
89.296875
0
LINE
8
DEFAULT_255_2_778
10
10.1870167
20
89.296875
11
10.4516167
21
88.503175
0
LINE
8
DEFAULT_255_2_778
10
10.4516167
20
88.503175
11
9.9224167
21
88.503175
0
LINE
8
DEFAULT_255_2_778
10
11.2453
20
89.2968666
11
11.2453
21
85.0635666
0
LINE
8
DEFAULT_255_2_778
10
10.9807167
20
85.857275
11
11.2453167
21
85.063575
0
LINE
8
DEFAULT_255_2_778
10
11.2453167
20
85.063575
11
11.5099167
21
85.857275
0
LINE
8
DEFAULT_255_2_778
10
11.5099167
20
85.857275
11
10.9807167
21
85.857275
0
LINE
8
DEFAULT_255_1_234
10
4.9290119
20
174.0949792
11
4.9290119
21
173.9737
0
LINE
8
DEFAULT_255_1_234
10
4.9290119
20
173.9737
11
4.162784
21
173.9737
0
LINE
8
DEFAULT_255_1_234
10
4.162784
20
173.9737
11
4.162784
21
174.0805221
0
LINE
8
DEFAULT_255_1_234
10
4.162784
20
174.0805221
11
4.5675836
21
174.5302995
0
LINE
8
DEFAULT_255_1_234
10
4.2888823
20
174.7985595
11
4.1402952
21
174.7985595
0
LINE
8
DEFAULT_255_1_234
10
4.6551296
20
174.4347218
11
4.3418918
21
174.0949792
0
LINE
8
DEFAULT_255_1_234
10
4.3418918
20
174.0949792
11
4.9290119
21
174.0949792
0
ARC
8
DEFAULT_255_1_234
10
3.218567
20
175.7232527
40
1.8008286
50
318.5132453
51
320.7828378
0
ARC
8
DEFAULT_255_1_234
10
3.7472644
20
175.2929426
40
1.1191493
50
320.7372736
51
323.9737074
0
ARC
8
DEFAULT_255_1_234
10
4.1392501
20
175.0089361
40
0.6350923
50
323.8961724
51
328.6421089
0
ARC
8
DEFAULT_255_1_234
10
4.3439096
20
174.8827031
40
0.3946393
50
328.8299013
51
331.789948
0
ARC
8
DEFAULT_255_1_234
10
4.4436274
20
174.8312509
40
0.2824501
50
331.4255242
51
352.9364833
0
ARC
8
DEFAULT_255_1_234
10
4.4572775
20
174.8281976
40
0.2685315
50
353.2248685
51
0.0169286
0
ARC
8
DEFAULT_255_1_234
10
4.4782652
20
174.830495
40
0.2475536
50
359.4866256
51
15.9339782
0
ARC
8
DEFAULT_255_1_234
10
4.5289637
20
174.8441286
40
0.1950618
50
16.1714718
51
43.5284424
0
ARC
8
DEFAULT_255_1_234
10
4.5366946
20
174.8518573
40
0.184134
50
43.4415429
51
83.1661404
0
ARC
8
DEFAULT_255_1_234
10
4.5232864
20
174.7781771
40
0.258926
50
82.160215
51
90.1505798
0
ARC
8
DEFAULT_255_1_234
10
4.5201291
20
174.7244865
40
0.3126255
50
89.5460705
51
102.5418777
0
ARC
8
DEFAULT_255_1_234
10
4.4958377
20
174.8275665
40
0.2067346
50
102.1739365
51
129.2061916
0
ARC
8
DEFAULT_255_1_234
10
4.4879449
20
174.8400094
40
0.1921118
50
129.7279328
51
135.7542026
0
ARC
8
DEFAULT_255_1_234
10
4.5000977
20
174.8303045
40
0.2075944
50
136.175737
51
166.3674722
0
ARC
8
DEFAULT_255_1_234
10
4.6007896
20
174.8033182
40
0.3118201
50
165.9092917
51
178.8683903
0
ARC
8
DEFAULT_255_1_234
10
4.6872757
20
174.7986179
40
0.3983935
50
178.438168
51
180.0083905
0
ARC
8
DEFAULT_255_1_234
10
4.5471359
20
174.8025231
40
0.4068601
50
163.2878735
51
180.5581814
0
ARC
8
DEFAULT_255_1_234
10
4.4669621
20
174.824584
40
0.3237344
50
133.454115
51
162.9470031
0
ARC
8
DEFAULT_255_1_234
10
4.4848162
20
174.8056
40
0.349795
50
100.7869394
51
133.4384016
0
ARC
8
DEFAULT_255_1_234
10
4.5195934
20
174.6507319
40
0.5084616
50
89.6605301
51
101.3704185
0
ARC
8
DEFAULT_255_1_234
10
4.5262273
20
174.6568496
40
0.502348
50
78.2171172
51
90.4130393
0
ARC
8
DEFAULT_255_1_234
10
4.5617351
20
174.8192637
40
0.3361092
50
55.9268222
51
78.4888551
0
ARC
8
DEFAULT_255_1_234
10
4.5813791
20
174.8531324
40
0.2970617
50
47.9292255
51
55.4054003
0
ARC
8
DEFAULT_255_1_234
10
4.5915352
20
174.8634502
40
0.2825983
50
4.3347696
51
48.0560701
0
ARC
8
DEFAULT_255_1_234
10
4.4819745
20
174.8464601
40
0.393225
50
359.925209
51
5.5967654
0
ARC
8
DEFAULT_255_1_234
10
4.5248637
20
174.8520816
40
0.3503892
50
337.8914096
51
358.9967724
0
ARC
8
DEFAULT_255_1_234
10
4.2535049
20
174.9567706
40
0.6412172
50
326.9135351
51
338.3505194
0
ARC
8
DEFAULT_255_1_234
10
3.8549353
20
175.2122284
40
1.1146189
50
319.6472867
51
327.095818
0
ARC
8
DEFAULT_255_1_234
10
3.4716356
20
175.5284
40
1.6114559
50
317.2586784
51
319.9046139
0
LINE
8
DEFAULT_255_1_234
10
5.7137127
20
175.1431211
11
5.7137127
21
174.366452
0
LINE
8
DEFAULT_255_1_234
10
5.7137127
20
174.366452
11
5.8759538
21
174.366452
0
LINE
8
DEFAULT_255_1_234
10
5.8759538
20
174.366452
11
5.8759538
21
174.2451728
0
LINE
8
DEFAULT_255_1_234
10
5.8759538
20
174.2451728
11
5.7137127
21
174.2451728
0
LINE
8
DEFAULT_255_1_234
10
5.7137127
20
174.2451728
11
5.7137127
21
173.9737
0
LINE
8
DEFAULT_255_1_234
10
5.7137127
20
173.9737
11
5.5643224
21
173.9737
0
LINE
8
DEFAULT_255_1_234
10
5.5643224
20
173.9737
11
5.5643224
21
174.2451728
0
LINE
8
DEFAULT_255_1_234
10
5.5643224
20
174.2451728
11
5.0318181
21
174.2451728
0
LINE
8
DEFAULT_255_1_234
10
5.0318181
20
174.2451728
11
5.0318181
21
174.3327187
0
LINE
8
DEFAULT_255_1_234
10
5.0318181
20
174.3327187
11
5.5554875
21
175.1431211
0
LINE
8
DEFAULT_255_1_234
10
5.5554875
20
175.1431211
11
5.7137127
21
175.1431211
0
LINE
8
DEFAULT_255_1_234
10
5.5466525
20
174.9077912
11
5.2004846
21
174.366452
0
LINE
8
DEFAULT_255_1_234
10
5.2004846
20
174.366452
11
5.5643224
21
174.366452
0
LINE
8
DEFAULT_255_1_234
10
5.5643224
20
174.366452
11
5.5643224
21
174.9399181
0
LINE
8
DEFAULT_255_1_234
10
5.5643224
20
174.9399181
11
5.5466525
21
174.9077912
0
LINE
8
DEFAULT_255_1_234
10
6.103252
20
175.1431211
11
6.435766
21
174.1785093
0
LINE
8
DEFAULT_255_1_234
10
6.435766
20
174.1785093
11
6.7698863
21
175.1431211
0
LINE
8
DEFAULT_255_1_234
10
6.7698863
20
175.1431211
11
6.9385528
21
175.1431211
0
LINE
8
DEFAULT_255_1_234
10
6.9385528
20
175.1431211
11
6.5048389
21
173.9737
0
LINE
8
DEFAULT_255_1_234
10
6.5048389
20
173.9737
11
6.3682994
21
173.9737
0
LINE
8
DEFAULT_255_1_234
10
6.3682994
20
173.9737
11
5.9353887
21
175.1431211
0
LINE
8
DEFAULT_255_1_234
10
5.9353887
20
175.1431211
11
6.103252
21
175.1431211
0
LINE
8
DEFAULT_255_1_234
10
4.3652902
20
5.8097211
11
4.3652902
21
4.6403
0
LINE
8
DEFAULT_255_1_234
10
4.3652902
20
4.6403
11
4.2110808
21
4.6403
0
LINE
8
DEFAULT_255_1_234
10
4.2110808
20
4.6403
11
4.2110808
21
5.8097211
0
LINE
8
DEFAULT_255_1_234
10
4.2110808
20
5.8097211
11
4.3652902
21
5.8097211
0
LINE
8
DEFAULT_255_1_234
10
5.5459557
20
5.8097211
11
5.5459557
21
4.6403
0
LINE
8
DEFAULT_255_1_234
10
5.5459557
20
4.6403
11
5.3909432
21
4.6403
0
LINE
8
DEFAULT_255_1_234
10
5.3909432
20
4.6403
11
4.8022167
21
5.541461
0
LINE
8
DEFAULT_255_1_234
10
4.8022167
20
5.541461
11
4.8022167
21
4.6403
0
LINE
8
DEFAULT_255_1_234
10
4.8022167
20
4.6403
11
4.6472042
21
4.6403
0
LINE
8
DEFAULT_255_1_234
10
4.6472042
20
4.6403
11
4.6472042
21
5.8097211
0
LINE
8
DEFAULT_255_1_234
10
4.6472042
20
5.8097211
11
4.8022167
21
5.8097211
0
LINE
8
DEFAULT_255_1_234
10
4.8022167
20
5.8097211
11
5.3925495
21
4.9045442
0
LINE
8
DEFAULT_255_1_234
10
5.3925495
20
4.9045442
11
5.3925495
21
5.8097211
0
LINE
8
DEFAULT_255_1_234
10
5.3925495
20
5.8097211
11
5.5459557
21
5.8097211
0
LINE
8
DEFAULT_255_1_234
10
5.9973394
20
5.1760169
11
5.9973394
21
5.2972962
0
LINE
8
DEFAULT_255_1_234
10
5.9973394
20
5.2972962
11
6.1089806
21
5.2972962
0
LINE
8
DEFAULT_255_1_234
10
5.9186284
20
5.5029087
11
5.7700412
21
5.5029087
0
LINE
8
DEFAULT_255_1_234
10
5.7596
20
4.9487187
11
5.9089903
21
4.9487187
0
LINE
8
DEFAULT_255_1_234
10
6.1089806
20
5.1760169
11
5.9973394
21
5.1760169
0
ARC
8
DEFAULT_255_1_234
10
6.1060672
20
5.6365713
40
0.3392876
50
270.4919872
51
281.8951556
0
ARC
8
DEFAULT_255_1_234
10
6.1301934
20
5.5263702
40
0.2264817
50
281.6691735
51
301.2943132
0
ARC
8
DEFAULT_255_1_234
10
6.1472144
20
5.4952304
40
0.1910381
50
301.7833094
51
311.7545298
0
ARC
8
DEFAULT_255_1_234
10
6.156372
20
5.4850748
40
0.1773635
50
311.7323931
51
354.2802411
0
ARC
8
DEFAULT_255_1_234
10
6.0837345
20
5.4975722
40
0.2509385
50
353.0937916
51
0.1181479
0
ARC
8
DEFAULT_255_1_234
10
6.037613
20
5.5023386
40
0.2970898
50
359.1805295
51
15.0453146
0
ARC
8
DEFAULT_255_1_234
10
6.1721967
20
5.5415992
40
0.1569564
50
13.9577229
51
77.6713066
0
ARC
8
DEFAULT_255_1_234
10
6.1335496
20
5.4030949
40
0.3006298
50
76.1116566
51
90.7026153
0
ARC
8
DEFAULT_255_1_234
10
6.1276334
20
5.4304545
40
0.2732568
50
89.5324876
51
103.531937
0
ARC
8
DEFAULT_255_1_234
10
6.1075779
20
5.5103884
40
0.1908508
50
103.2931773
51
133.5619022
0
ARC
8
DEFAULT_255_1_234
10
6.1031267
20
5.5163375
40
0.1834746
50
133.8349307
51
173.5344437
0
ARC
8
DEFAULT_255_1_234
10
6.175431
20
5.5035213
40
0.2568033
50
172.5096846
51
180.1366907
0
ARC
8
DEFAULT_255_1_234
10
6.0803204
20
5.5069622
40
0.3103056
50
155.3484492
51
180.7484736
0
ARC
8
DEFAULT_255_1_234
10
6.0754293
20
5.5040846
40
0.3070957
50
131.5744599
51
154.4798489
0
ARC
8
DEFAULT_255_1_234
10
6.106744
20
5.472431
40
0.3515643
50
96.9875458
51
131.9690667
0
ARC
8
DEFAULT_255_1_234
10
6.128692
20
5.3478636
40
0.4779224
50
89.8596053
51
97.7825159
0
ARC
8
DEFAULT_255_1_234
10
6.1334983
20
5.3216616
40
0.5041361
50
78.3655447
51
90.4131539
0
ARC
8
DEFAULT_255_1_234
10
6.1692901
20
5.4875887
40
0.3344039
50
56.6229102
51
78.638727
0
ARC
8
DEFAULT_255_1_234
10
6.1907845
20
5.5251805
40
0.2912001
50
47.0253525
51
56.0854072
0
ARC
8
DEFAULT_255_1_234
10
6.1927625
20
5.5291223
40
0.2869704
50
10.9208013
51
46.7778124
0
ARC
8
DEFAULT_255_1_234
10
6.0563691
20
5.4975857
40
0.426899
50
359.6364486
51
11.6087304
0
ARC
8
DEFAULT_255_1_234
10
6.2398536
20
5.4960752
40
0.243409
50
332.3549906
51
359.7179418
0
ARC
8
DEFAULT_255_1_234
10
6.1748137
20
5.5269142
40
0.3153459
50
325.2333722
51
332.8745602
0
ARC
8
DEFAULT_255_1_234
10
6.1900761
20
5.5162828
40
0.2967456
50
292.9802137
51
325.2392345
0
ARC
8
DEFAULT_255_1_234
10
6.1626135
20
5.5696863
40
0.3566604
50
292.5402179
51
293.6924929
0
ARC
8
DEFAULT_255_1_234
10
6.201873
20
4.9242091
40
0.3307468
50
57.6435486
51
72.8625112
0
ARC
8
DEFAULT_255_1_234
10
6.237323
20
4.9816549
40
0.2632492
50
36.7248896
51
57.4697979
0
ARC
8
DEFAULT_255_1_234
10
6.2361863
20
4.982922
40
0.2634081
50
8.0545065
51
36.356114
0
ARC
8
DEFAULT_255_1_234
10
6.1499048
20
4.9674174
40
0.3510261
50
359.8320645
51
8.5869982
0
ARC
8
DEFAULT_255_1_234
10
6.1123824
20
4.9626101
40
0.3885653
50
343.9829931
51
0.5571613
0
ARC
8
DEFAULT_255_1_234
10
6.2010022
20
4.9383438
40
0.2966924
50
311.6359546
51
343.7651759
0
ARC
8
DEFAULT_255_1_234
10
6.1631591
20
4.9810102
40
0.3537231
50
279.7829875
51
311.6255694
0
ARC
8
DEFAULT_255_1_234
10
6.1330367
20
5.124728
40
0.5004971
50
269.7286406
51
280.3856417
0
ARC
8
DEFAULT_255_1_234
10
6.1268439
20
5.1205996
40
0.4963778
50
256.6828919
51
270.4412052
0
ARC
8
DEFAULT_255_1_234
10
6.0929735
20
4.9821394
40
0.3538406
50
229.4223008
51
256.8556159
0
ARC
8
DEFAULT_255_1_234
10
6.0515128
20
4.9354736
40
0.2914296
50
181.818294
51
229.6455059
0
ARC
8
DEFAULT_255_1_234
10
6.1555084
20
4.9485496
40
0.3959084
50
179.9755256
51
183.2323064
0
ARC
8
DEFAULT_255_1_234
10
6.138283
20
4.9465037
40
0.2293034
50
179.4465117
51
196.2869258
0
ARC
8
DEFAULT_255_1_234
10
6.0895238
20
4.9331651
40
0.1787621
50
196.5661473
51
227.705904
0
ARC
8
DEFAULT_255_1_234
10
6.1059333
20
4.9515155
40
0.2033784
50
227.7652068
51
257.8762805
0
ARC
8
DEFAULT_255_1_234
10
6.1284303
20
5.0458156
40
0.3003081
50
257.4584385
51
270.426602
0
ARC
8
DEFAULT_255_1_234
10
6.1329869
20
5.0747996
40
0.329292
50
269.5962073
51
280.8789248
0
ARC
8
DEFAULT_255_1_234
10
6.1559398
20
4.9601685
40
0.2123908
50
280.6346389
51
299.8595945
0
ARC
8
DEFAULT_255_1_234
10
6.1750305
20
4.9239212
40
0.171457
50
300.3576302
51
314.5517981
0
ARC
8
DEFAULT_255_1_234
10
6.1667365
20
4.9299919
40
0.1816095
50
315.0728369
51
345.0431014
0
ARC
8
DEFAULT_255_1_234
10
6.0744179
20
4.9568841
40
0.2777492
50
344.5986631
51
357.9269593
0
ARC
8
DEFAULT_255_1_234
10
5.9848506
20
4.9630276
40
0.3674917
50
357.4748886
51
0.0231117
0
ARC
8
DEFAULT_255_1_234
10
6.0871615
20
4.9654679
40
0.2651907
50
359.5047933
51
13.4239635
0
ARC
8
DEFAULT_255_1_234
10
6.1738259
20
4.9876478
40
0.1757509
50
12.9498199
51
48.7551375
0
ARC
8
DEFAULT_255_1_234
10
6.1555993
20
4.96274
40
0.2065134
50
49.5088623
51
72.1836453
0
ARC
8
DEFAULT_255_1_234
10
6.1198145
20
4.8565291
40
0.3185836
50
71.9010081
51
84.3554254
0
ARC
8
DEFAULT_255_1_234
10
6.1036777
20
4.7204326
40
0.4556151
50
84.0193428
51
89.333121
0
LINE
8
DEFAULT_255_1_234
10
7.4711634
20
4.7615792
11
7.4711634
21
4.6403
0
LINE
8
DEFAULT_255_1_234
10
7.4711634
20
4.6403
11
6.7049355
21
4.6403
0
LINE
8
DEFAULT_255_1_234
10
6.7049355
20
4.6403
11
6.7049355
21
4.7471221
0
LINE
8
DEFAULT_255_1_234
10
6.7049355
20
4.7471221
11
7.1097352
21
5.1968995
0
LINE
8
DEFAULT_255_1_234
10
6.8310338
20
5.4651595
11
6.6824467
21
5.4651595
0
LINE
8
DEFAULT_255_1_234
10
7.1972811
20
5.1013218
11
6.8840433
21
4.7615792
0
LINE
8
DEFAULT_255_1_234
10
6.8840433
20
4.7615792
11
7.4711634
21
4.7615792
0
ARC
8
DEFAULT_255_1_234
10
5.7607185
20
6.3898527
40
1.8008286
50
318.5132453
51
320.7828378
0
ARC
8
DEFAULT_255_1_234
10
6.2894159
20
5.9595426
40
1.1191493
50
320.7372736
51
323.9737074
0
ARC
8
DEFAULT_255_1_234
10
6.6814016
20
5.6755361
40
0.6350923
50
323.8961724
51
328.6421089
0
ARC
8
DEFAULT_255_1_234
10
6.8860611
20
5.5493031
40
0.3946393
50
328.8299013
51
331.789948
0
ARC
8
DEFAULT_255_1_234
10
6.985779
20
5.4978509
40
0.2824501
50
331.4255242
51
352.9364833
0
ARC
8
DEFAULT_255_1_234
10
6.999429
20
5.4947976
40
0.2685315
50
353.2248685
51
0.0169286
0
ARC
8
DEFAULT_255_1_234
10
7.0204167
20
5.497095
40
0.2475536
50
359.4866256
51
15.9339782
0
ARC
8
DEFAULT_255_1_234
10
7.0711152
20
5.5107286
40
0.1950618
50
16.1714718
51
43.5284424
0
ARC
8
DEFAULT_255_1_234
10
7.0788461
20
5.5184573
40
0.184134
50
43.4415429
51
83.1661404
0
ARC
8
DEFAULT_255_1_234
10
7.0654379
20
5.4447771
40
0.258926
50
82.160215
51
90.1505798
0
ARC
8
DEFAULT_255_1_234
10
7.0622807
20
5.3910865
40
0.3126255
50
89.5460705
51
102.5418777
0
ARC
8
DEFAULT_255_1_234
10
7.0379893
20
5.4941665
40
0.2067346
50
102.1739365
51
129.2061916
0
ARC
8
DEFAULT_255_1_234
10
7.0300964
20
5.5066094
40
0.1921118
50
129.7279328
51
135.7542026
0
ARC
8
DEFAULT_255_1_234
10
7.0422492
20
5.4969045
40
0.2075944
50
136.175737
51
166.3674722
0
ARC
8
DEFAULT_255_1_234
10
7.1429411
20
5.4699182
40
0.3118201
50
165.9092917
51
178.8683903
0
ARC
8
DEFAULT_255_1_234
10
7.2294273
20
5.4652179
40
0.3983935
50
178.438168
51
180.0083905
0
ARC
8
DEFAULT_255_1_234
10
7.0892875
20
5.4691231
40
0.4068601
50
163.2878735
51
180.5581814
0
ARC
8
DEFAULT_255_1_234
10
7.0091136
20
5.491184
40
0.3237344
50
133.454115
51
162.9470031
0
ARC
8
DEFAULT_255_1_234
10
7.0269677
20
5.4722
40
0.349795
50
100.7869394
51
133.4384016
0
ARC
8
DEFAULT_255_1_234
10
7.0617449
20
5.3173319
40
0.5084616
50
89.6605301
51
101.3704185
0
ARC
8
DEFAULT_255_1_234
10
7.0683788
20
5.3234496
40
0.502348
50
78.2171172
51
90.4130393
0
ARC
8
DEFAULT_255_1_234
10
7.1038866
20
5.4858637
40
0.3361092
50
55.9268222
51
78.4888551
0
ARC
8
DEFAULT_255_1_234
10
7.1235306
20
5.5197324
40
0.2970617
50
47.9292255
51
55.4054003
0
ARC
8
DEFAULT_255_1_234
10
7.1336867
20
5.5300502
40
0.2825983
50
4.3347696
51
48.0560701
0
ARC
8
DEFAULT_255_1_234
10
7.024126
20
5.5130601
40
0.393225
50
359.925209
51
5.5967654
0
ARC
8
DEFAULT_255_1_234
10
7.0670152
20
5.5186816
40
0.3503892
50
337.8914096
51
358.9967724
0
ARC
8
DEFAULT_255_1_234
10
6.7956564
20
5.6233706
40
0.6412172
50
326.9135351
51
338.3505194
0
ARC
8
DEFAULT_255_1_234
10
6.3970868
20
5.8788284
40
1.1146189
50
319.6472867
51
327.095818
0
ARC
8
DEFAULT_255_1_234
10
6.0137871
20
6.195
40
1.6114559
50
317.2586784
51
319.9046139
0
LINE
8
DEFAULT_255_1_234
10
4.3570902
20
11.1014211
11
4.3570902
21
9.932
0
LINE
8
DEFAULT_255_1_234
10
4.3570902
20
9.932
11
4.2028808
21
9.932
0
LINE
8
DEFAULT_255_1_234
10
4.2028808
20
9.932
11
4.2028808
21
11.1014211
0
LINE
8
DEFAULT_255_1_234
10
4.2028808
20
11.1014211
11
4.3570902
21
11.1014211
0
LINE
8
DEFAULT_255_1_234
10
5.5377557
20
11.1014211
11
5.5377557
21
9.932
0
LINE
8
DEFAULT_255_1_234
10
5.5377557
20
9.932
11
5.3827432
21
9.932
0
LINE
8
DEFAULT_255_1_234
10
5.3827432
20
9.932
11
4.7940167
21
10.833161
0
LINE
8
DEFAULT_255_1_234
10
4.7940167
20
10.833161
11
4.7940167
21
9.932
0
LINE
8
DEFAULT_255_1_234
10
4.7940167
20
9.932
11
4.6390042
21
9.932
0
LINE
8
DEFAULT_255_1_234
10
4.6390042
20
9.932
11
4.6390042
21
11.1014211
0
LINE
8
DEFAULT_255_1_234
10
4.6390042
20
11.1014211
11
4.7940167
21
11.1014211
0
LINE
8
DEFAULT_255_1_234
10
4.7940167
20
11.1014211
11
5.3843495
21
10.1962442
0
LINE
8
DEFAULT_255_1_234
10
5.3843495
20
10.1962442
11
5.3843495
21
11.1014211
0
LINE
8
DEFAULT_255_1_234
10
5.3843495
20
11.1014211
11
5.5377557
21
11.1014211
0
LINE
8
DEFAULT_255_1_234
10
5.9891394
20
10.4677169
11
5.9891394
21
10.5889962
0
LINE
8
DEFAULT_255_1_234
10
5.9891394
20
10.5889962
11
6.1007806
21
10.5889962
0
LINE
8
DEFAULT_255_1_234
10
5.9104284
20
10.7946087
11
5.7618412
21
10.7946087
0
LINE
8
DEFAULT_255_1_234
10
5.7514
20
10.2404188
11
5.9007903
21
10.2404188
0
LINE
8
DEFAULT_255_1_234
10
6.1007806
20
10.4677169
11
5.9891394
21
10.4677169
0
ARC
8
DEFAULT_255_1_234
10
6.0978672
20
10.9282713
40
0.3392876
50
270.4919872
51
281.8951556
0
ARC
8
DEFAULT_255_1_234
10
6.1219934
20
10.8180702
40
0.2264817
50
281.6691735
51
301.2943132
0
ARC
8
DEFAULT_255_1_234
10
6.1390144
20
10.7869304
40
0.1910381
50
301.7833094
51
311.7545298
0
ARC
8
DEFAULT_255_1_234
10
6.148172
20
10.7767748
40
0.1773635
50
311.7323931
51
354.2802411
0
ARC
8
DEFAULT_255_1_234
10
6.0755345
20
10.7892722
40
0.2509385
50
353.0937916
51
0.1181479
0
ARC
8
DEFAULT_255_1_234
10
6.029413
20
10.7940386
40
0.2970898
50
359.1805295
51
15.0453146
0
ARC
8
DEFAULT_255_1_234
10
6.1639967
20
10.8332992
40
0.1569564
50
13.9577229
51
77.6713066
0
ARC
8
DEFAULT_255_1_234
10
6.1253496
20
10.6947949
40
0.3006298
50
76.1116566
51
90.7026153
0
ARC
8
DEFAULT_255_1_234
10
6.1194334
20
10.7221545
40
0.2732568
50
89.5324876
51
103.531937
0
ARC
8
DEFAULT_255_1_234
10
6.0993779
20
10.8020884
40
0.1908508
50
103.2931773
51
133.5619022
0
ARC
8
DEFAULT_255_1_234
10
6.0949267
20
10.8080375
40
0.1834746
50
133.8349307
51
173.5344437
0
ARC
8
DEFAULT_255_1_234
10
6.167231
20
10.7952213
40
0.2568033
50
172.5096846
51
180.1366907
0
ARC
8
DEFAULT_255_1_234
10
6.0721204
20
10.7986622
40
0.3103056
50
155.3484492
51
180.7484736
0
ARC
8
DEFAULT_255_1_234
10
6.0672293
20
10.7957846
40
0.3070957
50
131.5744599
51
154.4798489
0
ARC
8
DEFAULT_255_1_234
10
6.098544
20
10.764131
40
0.3515643
50
96.9875458
51
131.9690667
0
ARC
8
DEFAULT_255_1_234
10
6.120492
20
10.6395636
40
0.4779224
50
89.8596053
51
97.7825159
0
ARC
8
DEFAULT_255_1_234
10
6.1252983
20
10.6133616
40
0.5041361
50
78.3655447
51
90.4131539
0
ARC
8
DEFAULT_255_1_234
10
6.1610901
20
10.7792887
40
0.3344039
50
56.6229102
51
78.638727
0
ARC
8
DEFAULT_255_1_234
10
6.1825845
20
10.8168805
40
0.2912001
50
47.0253525
51
56.0854072
0
ARC
8
DEFAULT_255_1_234
10
6.1845625
20
10.8208223
40
0.2869704
50
10.9208013
51
46.7778124
0
ARC
8
DEFAULT_255_1_234
10
6.0481691
20
10.7892857
40
0.426899
50
359.6364486
51
11.6087304
0
ARC
8
DEFAULT_255_1_234
10
6.2316536
20
10.7877752
40
0.243409
50
332.3549906
51
359.7179418
0
ARC
8
DEFAULT_255_1_234
10
6.1666137
20
10.8186142
40
0.3153459
50
325.2333722
51
332.8745602
0
ARC
8
DEFAULT_255_1_234
10
6.1818761
20
10.8079828
40
0.2967456
50
292.9802137
51
325.2392345
0
ARC
8
DEFAULT_255_1_234
10
6.1544135
20
10.8613863
40
0.3566604
50
292.5402179
51
293.6924929
0
ARC
8
DEFAULT_255_1_234
10
6.193673
20
10.2159091
40
0.3307468
50
57.6435486
51
72.8625112
0
ARC
8
DEFAULT_255_1_234
10
6.229123
20
10.2733549
40
0.2632492
50
36.7248896
51
57.4697979
0
ARC
8
DEFAULT_255_1_234
10
6.2279863
20
10.274622
40
0.2634081
50
8.0545065
51
36.356114
0
ARC
8
DEFAULT_255_1_234
10
6.1417048
20
10.2591174
40
0.3510261
50
359.8320645
51
8.5869982
0
ARC
8
DEFAULT_255_1_234
10
6.1041824
20
10.2543101
40
0.3885653
50
343.9829931
51
0.5571613
0
ARC
8
DEFAULT_255_1_234
10
6.1928022
20
10.2300438
40
0.2966924
50
311.6359546
51
343.7651759
0
ARC
8
DEFAULT_255_1_234
10
6.1549591
20
10.2727102
40
0.3537231
50
279.7829875
51
311.6255694
0
ARC
8
DEFAULT_255_1_234
10
6.1248367
20
10.416428
40
0.5004971
50
269.7286406
51
280.3856417
0
ARC
8
DEFAULT_255_1_234
10
6.1186439
20
10.4122996
40
0.4963778
50
256.6828919
51
270.4412052
0
ARC
8
DEFAULT_255_1_234
10
6.0847735
20
10.2738394
40
0.3538406
50
229.4223008
51
256.8556159
0
ARC
8
DEFAULT_255_1_234
10
6.0433128
20
10.2271736
40
0.2914296
50
181.818294
51
229.6455059
0
ARC
8
DEFAULT_255_1_234
10
6.1473084
20
10.2402496
40
0.3959084
50
179.9755256
51
183.2323064
0
ARC
8
DEFAULT_255_1_234
10
6.130083
20
10.2382037
40
0.2293034
50
179.4465117
51
196.2869258
0
ARC
8
DEFAULT_255_1_234
10
6.0813238
20
10.2248651
40
0.1787621
50
196.5661473
51
227.705904
0
ARC
8
DEFAULT_255_1_234
10
6.0977333
20
10.2432155
40
0.2033784
50
227.7652068
51
257.8762805
0
ARC
8
DEFAULT_255_1_234
10
6.1202303
20
10.3375156
40
0.3003081
50
257.4584385
51
270.426602
0
ARC
8
DEFAULT_255_1_234
10
6.1247869
20
10.3664996
40
0.329292
50
269.5962073
51
280.8789248
0
ARC
8
DEFAULT_255_1_234
10
6.1477398
20
10.2518685
40
0.2123908
50
280.6346389
51
299.8595945
0
ARC
8
DEFAULT_255_1_234
10
6.1668305
20
10.2156212
40
0.171457
50
300.3576302
51
314.5517981
0
ARC
8
DEFAULT_255_1_234
10
6.1585365
20
10.2216919
40
0.1816095
50
315.0728369
51
345.0431014
0
ARC
8
DEFAULT_255_1_234
10
6.0662179
20
10.2485841
40
0.2777492
50
344.5986631
51
357.9269593
0
ARC
8
DEFAULT_255_1_234
10
5.9766506
20
10.2547276
40
0.3674917
50
357.4748886
51
0.0231117
0
ARC
8
DEFAULT_255_1_234
10
6.0789615
20
10.2571679
40
0.2651907
50
359.5047933
51
13.4239635
0
ARC
8
DEFAULT_255_1_234
10
6.1656259
20
10.2793478
40
0.1757509
50
12.9498199
51
48.7551375
0
ARC
8
DEFAULT_255_1_234
10
6.1473993
20
10.25444
40
0.2065134
50
49.5088623
51
72.1836453
0
ARC
8
DEFAULT_255_1_234
10
6.1116145
20
10.1482291
40
0.3185836
50
71.9010081
51
84.3554254
0
ARC
8
DEFAULT_255_1_234
10
6.0954777
20
10.0121326
40
0.4556151
50
84.0193428
51
89.333121
0
LINE
8
DEFAULT_255_1_234
10
7.1850652
20
11.1070433
11
7.1850652
21
9.932
0
LINE
8
DEFAULT_255_1_234
10
7.1850652
20
9.932
11
7.0356749
21
9.932
0
LINE
8
DEFAULT_255_1_234
10
7.0356749
20
9.932
11
7.0356749
21
10.9223133
0
LINE
8
DEFAULT_255_1_234
10
7.0356749
20
10.9223133
11
6.7360911
21
10.8122785
0
LINE
8
DEFAULT_255_1_234
10
6.7360911
20
10.8122785
11
6.7360911
21
10.9472117
0
LINE
8
DEFAULT_255_1_234
10
6.7360911
20
10.9472117
11
7.1617732
21
11.1070433
0
LINE
8
DEFAULT_255_1_234
10
7.1617732
20
11.1070433
11
7.1850652
21
11.1070433
0
LINE
8
DEFAULT_255_1_234
10
4.3652902
20
16.3931211
11
4.3652902
21
15.2237
0
LINE
8
DEFAULT_255_1_234
10
4.3652902
20
15.2237
11
4.2110808
21
15.2237
0
LINE
8
DEFAULT_255_1_234
10
4.2110808
20
15.2237
11
4.2110808
21
16.3931211
0
LINE
8
DEFAULT_255_1_234
10
4.2110808
20
16.3931211
11
4.3652902
21
16.3931211
0
LINE
8
DEFAULT_255_1_234
10
5.5459557
20
16.3931211
11
5.5459557
21
15.2237
0
LINE
8
DEFAULT_255_1_234
10
5.5459557
20
15.2237
11
5.3909432
21
15.2237
0
LINE
8
DEFAULT_255_1_234
10
5.3909432
20
15.2237
11
4.8022167
21
16.124861
0
LINE
8
DEFAULT_255_1_234
10
4.8022167
20
16.124861
11
4.8022167
21
15.2237
0
LINE
8
DEFAULT_255_1_234
10
4.8022167
20
15.2237
11
4.6472042
21
15.2237
0
LINE
8
DEFAULT_255_1_234
10
4.6472042
20
15.2237
11
4.6472042
21
16.3931211
0
LINE
8
DEFAULT_255_1_234
10
4.6472042
20
16.3931211
11
4.8022167
21
16.3931211
0
LINE
8
DEFAULT_255_1_234
10
4.8022167
20
16.3931211
11
5.3925495
21
15.4879442
0
LINE
8
DEFAULT_255_1_234
10
5.3925495
20
15.4879442
11
5.3925495
21
16.3931211
0
LINE
8
DEFAULT_255_1_234
10
5.3925495
20
16.3931211
11
5.5459557
21
16.3931211
0
LINE
8
DEFAULT_255_1_234
10
5.9973394
20
15.7594169
11
5.9973394
21
15.8806962
0
LINE
8
DEFAULT_255_1_234
10
5.9973394
20
15.8806962
11
6.1089806
21
15.8806962
0
LINE
8
DEFAULT_255_1_234
10
5.9186284
20
16.0863087
11
5.7700412
21
16.0863087
0
LINE
8
DEFAULT_255_1_234
10
5.7596
20
15.5321188
11
5.9089903
21
15.5321188
0
LINE
8
DEFAULT_255_1_234
10
6.1089806
20
15.7594169
11
5.9973394
21
15.7594169
0
ARC
8
DEFAULT_255_1_234
10
6.1060672
20
16.2199713
40
0.3392876
50
270.4919872
51
281.8951556
0
ARC
8
DEFAULT_255_1_234
10
6.1301934
20
16.1097702
40
0.2264817
50
281.6691735
51
301.2943132
0
ARC
8
DEFAULT_255_1_234
10
6.1472144
20
16.0786304
40
0.1910381
50
301.7833094
51
311.7545298
0
ARC
8
DEFAULT_255_1_234
10
6.156372
20
16.0684748
40
0.1773635
50
311.7323931
51
354.2802411
0
ARC
8
DEFAULT_255_1_234
10
6.0837345
20
16.0809722
40
0.2509385
50
353.0937916
51
0.1181479
0
ARC
8
DEFAULT_255_1_234
10
6.037613
20
16.0857386
40
0.2970898
50
359.1805295
51
15.0453146
0
ARC
8
DEFAULT_255_1_234
10
6.1721967
20
16.1249992
40
0.1569564
50
13.9577229
51
77.6713066
0
ARC
8
DEFAULT_255_1_234
10
6.1335496
20
15.9864949
40
0.3006298
50
76.1116566
51
90.7026153
0
ARC
8
DEFAULT_255_1_234
10
6.1276334
20
16.0138545
40
0.2732568
50
89.5324876
51
103.531937
0
ARC
8
DEFAULT_255_1_234
10
6.1075779
20
16.0937884
40
0.1908508
50
103.2931773
51
133.5619022
0
ARC
8
DEFAULT_255_1_234
10
6.1031267
20
16.0997375
40
0.1834746
50
133.8349307
51
173.5344437
0
ARC
8
DEFAULT_255_1_234
10
6.175431
20
16.0869213
40
0.2568033
50
172.5096846
51
180.1366907
0
ARC
8
DEFAULT_255_1_234
10
6.0803204
20
16.0903622
40
0.3103056
50
155.3484492
51
180.7484736
0
ARC
8
DEFAULT_255_1_234
10
6.0754293
20
16.0874846
40
0.3070957
50
131.5744599
51
154.4798489
0
ARC
8
DEFAULT_255_1_234
10
6.106744
20
16.055831
40
0.3515643
50
96.9875458
51
131.9690667
0
ARC
8
DEFAULT_255_1_234
10
6.128692
20
15.9312636
40
0.4779224
50
89.8596053
51
97.7825159
0
ARC
8
DEFAULT_255_1_234
10
6.1334983
20
15.9050616
40
0.5041361
50
78.3655447
51
90.4131539
0
ARC
8
DEFAULT_255_1_234
10
6.1692901
20
16.0709887
40
0.3344039
50
56.6229102
51
78.638727
0
ARC
8
DEFAULT_255_1_234
10
6.1907845
20
16.1085805
40
0.2912001
50
47.0253525
51
56.0854072
0
ARC
8
DEFAULT_255_1_234
10
6.1927625
20
16.1125223
40
0.2869704
50
10.9208013
51
46.7778124
0
ARC
8
DEFAULT_255_1_234
10
6.0563691
20
16.0809857
40
0.426899
50
359.6364486
51
11.6087304
0
ARC
8
DEFAULT_255_1_234
10
6.2398536
20
16.0794752
40
0.243409
50
332.3549906
51
359.7179418
0
ARC
8
DEFAULT_255_1_234
10
6.1748137
20
16.1103142
40
0.3153459
50
325.2333722
51
332.8745602
0
ARC
8
DEFAULT_255_1_234
10
6.1900761
20
16.0996828
40
0.2967456
50
292.9802137
51
325.2392345
0
ARC
8
DEFAULT_255_1_234
10
6.1626135
20
16.1530863
40
0.3566604
50
292.5402179
51
293.6924929
0
ARC
8
DEFAULT_255_1_234
10
6.201873
20
15.5076091
40
0.3307468
50
57.6435486
51
72.8625112
0
ARC
8
DEFAULT_255_1_234
10
6.237323
20
15.5650549
40
0.2632492
50
36.7248896
51
57.4697979
0
ARC
8
DEFAULT_255_1_234
10
6.2361863
20
15.566322
40
0.2634081
50
8.0545065
51
36.356114
0
ARC
8
DEFAULT_255_1_234
10
6.1499048
20
15.5508174
40
0.3510261
50
359.8320645
51
8.5869982
0
ARC
8
DEFAULT_255_1_234
10
6.1123824
20
15.5460101
40
0.3885653
50
343.9829931
51
0.5571613
0
ARC
8
DEFAULT_255_1_234
10
6.2010022
20
15.5217438
40
0.2966924
50
311.6359546
51
343.7651759
0
ARC
8
DEFAULT_255_1_234
10
6.1631591
20
15.5644102
40
0.3537231
50
279.7829875
51
311.6255694
0
ARC
8
DEFAULT_255_1_234
10
6.1330367
20
15.708128
40
0.5004971
50
269.7286406
51
280.3856417
0
ARC
8
DEFAULT_255_1_234
10
6.1268439
20
15.7039996
40
0.4963778
50
256.6828919
51
270.4412052
0
ARC
8
DEFAULT_255_1_234
10
6.0929735
20
15.5655394
40
0.3538406
50
229.4223008
51
256.8556159
0
ARC
8
DEFAULT_255_1_234
10
6.0515128
20
15.5188736
40
0.2914296
50
181.818294
51
229.6455059
0
ARC
8
DEFAULT_255_1_234
10
6.1555084
20
15.5319496
40
0.3959084
50
179.9755256
51
183.2323064
0
ARC
8
DEFAULT_255_1_234
10
6.138283
20
15.5299037
40
0.2293034
50
179.4465117
51
196.2869258
0
ARC
8
DEFAULT_255_1_234
10
6.0895238
20
15.5165651
40
0.1787621
50
196.5661473
51
227.705904
0
ARC
8
DEFAULT_255_1_234
10
6.1059333
20
15.5349155
40
0.2033784
50
227.7652068
51
257.8762805
0
ARC
8
DEFAULT_255_1_234
10
6.1284303
20
15.6292156
40
0.3003081
50
257.4584385
51
270.426602
0
ARC
8
DEFAULT_255_1_234
10
6.1329869
20
15.6581996
40
0.329292
50
269.5962073
51
280.8789248
0
ARC
8
DEFAULT_255_1_234
10
6.1559398
20
15.5435685
40
0.2123908
50
280.6346389
51
299.8595945
0
ARC
8
DEFAULT_255_1_234
10
6.1750305
20
15.5073212
40
0.171457
50
300.3576302
51
314.5517981
0
ARC
8
DEFAULT_255_1_234
10
6.1667365
20
15.5133919
40
0.1816095
50
315.0728369
51
345.0431014
0
ARC
8
DEFAULT_255_1_234
10
6.0744179
20
15.5402841
40
0.2777492
50
344.5986631
51
357.9269593
0
ARC
8
DEFAULT_255_1_234
10
5.9848506
20
15.5464276
40
0.3674917
50
357.4748886
51
0.0231117
0
ARC
8
DEFAULT_255_1_234
10
6.0871615
20
15.5488679
40
0.2651907
50
359.5047933
51
13.4239635
0
ARC
8
DEFAULT_255_1_234
10
6.1738259
20
15.5710478
40
0.1757509
50
12.9498199
51
48.7551375
0
ARC
8
DEFAULT_255_1_234
10
6.1555993
20
15.54614
40
0.2065134
50
49.5088623
51
72.1836453
0
ARC
8
DEFAULT_255_1_234
10
6.1198145
20
15.4399291
40
0.3185836
50
71.9010081
51
84.3554254
0
ARC
8
DEFAULT_255_1_234
10
6.1036777
20
15.3038326
40
0.4556151
50
84.0193428
51
89.333121
0
LINE
8
DEFAULT_255_1_234
10
7.4382333
20
15.9152327
11
7.4382333
21
15.7224709
0
LINE
8
DEFAULT_255_1_234
10
6.7001165
20
15.7023916
11
6.7001165
21
15.9007755
0
LINE
8
DEFAULT_255_1_234
10
7.2896461
20
15.6823123
11
7.2896461
21
15.9256739
0
LINE
8
DEFAULT_255_1_234
10
6.8487037
20
15.9369184
11
6.8487037
21
15.6991789
0
ARC
8
DEFAULT_255_1_234
10
6.2135222
20
15.7175805
40
1.2247208
50
353.8441951
51
0.2287902
0
ARC
8
DEFAULT_255_1_234
10
6.6774726
20
15.6657806
40
0.7578929
50
344.4934747
51
353.9765454
0
ARC
8
DEFAULT_255_1_234
10
6.9767316
20
15.5806981
40
0.4467846
50
329.2803592
51
344.7472793
0
ARC
8
DEFAULT_255_1_234
10
7.0760141
20
15.5262018
40
0.3336173
50
324.9352394
51
328.6160465
0
ARC
8
DEFAULT_255_1_234
10
7.113725
20
15.4998427
40
0.2876076
50
280.580143
51
324.9173126
0
ARC
8
DEFAULT_255_1_234
10
7.0736042
20
15.6669099
40
0.4592847
50
269.5977311
51
281.6734359
0
ARC
8
DEFAULT_255_1_234
10
7.0663948
20
15.6549173
40
0.4472986
50
256.6228859
51
270.51044
0
ARC
8
DEFAULT_255_1_234
10
7.0261926
20
15.5000877
40
0.2873874
50
215.8618325
51
257.2788573
0
ARC
8
DEFAULT_255_1_234
10
7.1282957
20
15.5685977
40
0.4102928
50
197.9693508
51
215.2623606
0
ARC
8
DEFAULT_255_1_234
10
7.3768073
20
15.6524709
40
0.6725652
50
187.8816417
51
198.2346507
0
ARC
8
DEFAULT_255_1_234
10
7.7726281
20
15.7096079
40
1.0724845
50
180.8976217
51
188.0055519
0
ARC
8
DEFAULT_255_1_234
10
8.0526469
20
15.7199777
40
1.3526448
50
180.7449369
51
181.1510016
0
ARC
8
DEFAULT_255_1_234
10
7.8949198
20
15.9056042
40
1.1948131
50
173.7675579
51
180.231553
0
ARC
8
DEFAULT_255_1_234
10
7.4431345
20
15.9566666
40
0.7401564
50
164.3058563
51
173.9002247
0
ARC
8
DEFAULT_255_1_234
10
7.1519414
20
16.0405656
40
0.4371288
50
148.7922025
51
164.568378
0
ARC
8
DEFAULT_255_1_234
10
7.0567866
20
16.0936929
40
0.3282386
50
144.5883898
51
148.1176286
0
ARC
8
DEFAULT_255_1_234
10
7.0224764
20
16.1176315
40
0.2864044
50
101.6440918
51
144.514236
0
ARC
8
DEFAULT_255_1_234
10
7.0649831
20
15.9487069
40
0.4604934
50
89.5284041
51
102.5819763
0
ARC
8
DEFAULT_255_1_234
10
7.0728918
20
15.9448018
40
0.464401
50
77.0437873
51
90.5081339
0
ARC
8
DEFAULT_255_1_234
10
7.113092
20
16.1090615
40
0.2953195
50
48.2778575
51
77.4994676
0
ARC
8
DEFAULT_255_1_234
10
7.1203551
20
16.1219746
40
0.2808655
50
36.3142134
51
47.6305865
0
ARC
8
DEFAULT_255_1_234
10
7.0334858
20
16.0634515
40
0.3855453
50
18.2931786
51
35.6769206
0
ARC
8
DEFAULT_255_1_234
10
6.7791617
20
15.9761593
40
0.654423
50
8.024666
51
18.5605216
0
ARC
8
DEFAULT_255_1_234
10
6.3628537
20
15.9146792
40
1.0752407
50
1.1274072
51
8.1718305
0
ARC
8
DEFAULT_255_1_234
10
6.0392728
20
15.9019885
40
1.3990231
50
0.5424119
51
1.3863029
0
ARC
8
DEFAULT_255_1_234
10
6.2214106
20
15.9292342
40
1.0682415
50
359.8090433
51
4.9407866
0
ARC
8
DEFAULT_255_1_234
10
6.642412
20
15.9668113
40
0.6455691
50
4.8362157
51
12.2904523
0
ARC
8
DEFAULT_255_1_234
10
6.9179234
20
16.0281965
40
0.3633074
50
12.0805627
51
23.8173984
0
ARC
8
DEFAULT_255_1_234
10
7.035294
20
16.0778919
40
0.2358723
50
24.2871213
51
31.3935614
0
ARC
8
DEFAULT_255_1_234
10
7.0877637
20
16.1122233
40
0.1732111
50
30.7407893
51
82.4657128
0
ARC
8
DEFAULT_255_1_234
10
7.0697771
20
16.0238691
40
0.263235
50
81.1060089
51
90.2184952
0
ARC
8
DEFAULT_255_1_234
10
7.066207
20
16.0496924
40
0.2374236
50
89.3806855
51
105.6762551
0
ARC
8
DEFAULT_255_1_234
10
7.0478701
20
16.1163567
40
0.1682847
50
105.7981136
51
149.7388061
0
ARC
8
DEFAULT_255_1_234
10
7.1542779
20
16.052395
40
0.2924306
50
149.4208916
51
163.6286378
0
ARC
8
DEFAULT_255_1_234
10
7.3633667
20
15.988625
40
0.5110213
50
163.3763315
51
172.1410975
0
ARC
8
DEFAULT_255_1_234
10
7.6934386
20
15.9413518
40
0.8444586
50
172.0259487
51
178.0703232
0
ARC
8
DEFAULT_255_1_234
10
7.9964476
20
15.9269906
40
1.1477868
50
177.8631668
51
179.5044149
0
ARC
8
DEFAULT_255_1_234
10
7.889188
20
15.6955389
40
1.0404907
50
179.7995573
51
185.2460446
0
ARC
8
DEFAULT_255_1_234
10
7.4848919
20
15.6572513
40
0.6343885
50
185.1411642
51
193.0079639
0
ARC
8
DEFAULT_255_1_234
10
7.2205392
20
15.5947641
40
0.3627568
50
192.7897626
51
205.2507664
0
ARC
8
DEFAULT_255_1_234
10
7.1158939
20
15.5480415
40
0.2481908
50
205.8005384
51
211.2537509
0
ARC
8
DEFAULT_255_1_234
10
7.0635379
20
15.512958
40
0.1852521
50
210.3789793
51
238.4008143
0
ARC
8
DEFAULT_255_1_234
10
7.0615901
20
15.5176376
40
0.1882621
50
239.6520629
51
265.9793761
0
ARC
8
DEFAULT_255_1_234
10
7.0701101
20
15.5848427
40
0.2559272
50
265.1315437
51
270.060332
0
ARC
8
DEFAULT_255_1_234
10
7.072988
20
15.5524534
40
0.2235528
50
269.3314664
51
287.2178029
0
ARC
8
DEFAULT_255_1_234
10
7.0867732
20
15.5021279
40
0.1714108
50
287.7958004
51
329.080874
0
ARC
8
DEFAULT_255_1_234
10
6.9910189
20
15.561893
40
0.2842745
50
328.6634704
51
343.3325132
0
ARC
8
DEFAULT_255_1_234
10
6.7737209
20
15.6295863
40
0.5118644
50
343.0499468
51
351.9393422
0
ARC
8
DEFAULT_255_1_234
10
6.4270509
20
15.6806949
40
0.8622784
50
351.8069023
51
357.7959224
0
ARC
8
DEFAULT_255_1_234
10
6.1035065
20
15.6974721
40
1.1862365
50
357.5871873
51
359.2677531
0
LINE
8
DEFAULT_255_1_234
10
4.3652902
20
21.6847211
11
4.3652902
21
20.5153
0
LINE
8
DEFAULT_255_1_234
10
4.3652902
20
20.5153
11
4.2110808
21
20.5153
0
LINE
8
DEFAULT_255_1_234
10
4.2110808
20
20.5153
11
4.2110808
21
21.6847211
0
LINE
8
DEFAULT_255_1_234
10
4.2110808
20
21.6847211
11
4.3652902
21
21.6847211
0
LINE
8
DEFAULT_255_1_234
10
5.5459557
20
21.6847211
11
5.5459557
21
20.5153
0
LINE
8
DEFAULT_255_1_234
10
5.5459557
20
20.5153
11
5.3909432
21
20.5153
0
LINE
8
DEFAULT_255_1_234
10
5.3909432
20
20.5153
11
4.8022167
21
21.416461
0
LINE
8
DEFAULT_255_1_234
10
4.8022167
20
21.416461
11
4.8022167
21
20.5153
0
LINE
8
DEFAULT_255_1_234
10
4.8022167
20
20.5153
11
4.6472042
21
20.5153
0
LINE
8
DEFAULT_255_1_234
10
4.6472042
20
20.5153
11
4.6472042
21
21.6847211
0
LINE
8
DEFAULT_255_1_234
10
4.6472042
20
21.6847211
11
4.8022167
21
21.6847211
0
LINE
8
DEFAULT_255_1_234
10
4.8022167
20
21.6847211
11
5.3925495
21
20.7795442
0
LINE
8
DEFAULT_255_1_234
10
5.3925495
20
20.7795442
11
5.3925495
21
21.6847211
0
LINE
8
DEFAULT_255_1_234
10
5.3925495
20
21.6847211
11
5.5459557
21
21.6847211
0
LINE
8
DEFAULT_255_1_234
10
6.5475135
20
20.6365792
11
6.5475135
21
20.5153
0
LINE
8
DEFAULT_255_1_234
10
6.5475135
20
20.5153
11
5.7812856
21
20.5153
0
LINE
8
DEFAULT_255_1_234
10
5.7812856
20
20.5153
11
5.7812856
21
20.6221221
0
LINE
8
DEFAULT_255_1_234
10
5.7812856
20
20.6221221
11
6.1860853
21
21.0718995
0
LINE
8
DEFAULT_255_1_234
10
5.9073839
20
21.3401595
11
5.7587968
21
21.3401595
0
LINE
8
DEFAULT_255_1_234
10
6.2736312
20
20.9763218
11
5.9603934
21
20.6365792
0
LINE
8
DEFAULT_255_1_234
10
5.9603934
20
20.6365792
11
6.5475135
21
20.6365792
0
ARC
8
DEFAULT_255_1_234
10
4.8370686
20
22.2648527
40
1.8008286
50
318.5132453
51
320.7828378
0
ARC
8
DEFAULT_255_1_234
10
5.365766
20
21.8345426
40
1.1191493
50
320.7372736
51
323.9737074
0
ARC
8
DEFAULT_255_1_234
10
5.7577517
20
21.5505361
40
0.6350923
50
323.8961724
51
328.6421089
0
ARC
8
DEFAULT_255_1_234
10
5.9624112
20
21.4243031
40
0.3946393
50
328.8299013
51
331.789948
0
ARC
8
DEFAULT_255_1_234
10
6.0621291
20
21.3728509
40
0.2824501
50
331.4255242
51
352.9364833
0
ARC
8
DEFAULT_255_1_234
10
6.0757791
20
21.3697976
40
0.2685315
50
353.2248685
51
0.0169286
0
ARC
8
DEFAULT_255_1_234
10
6.0967668
20
21.372095
40
0.2475536
50
359.4866256
51
15.9339782
0
ARC
8
DEFAULT_255_1_234
10
6.1474653
20
21.3857286
40
0.1950618
50
16.1714718
51
43.5284424
0
ARC
8
DEFAULT_255_1_234
10
6.1551962
20
21.3934573
40
0.184134
50
43.4415429
51
83.1661404
0
ARC
8
DEFAULT_255_1_234
10
6.141788
20
21.3197771
40
0.258926
50
82.160215
51
90.1505798
0
ARC
8
DEFAULT_255_1_234
10
6.1386308
20
21.2660865
40
0.3126255
50
89.5460705
51
102.5418777
0
ARC
8
DEFAULT_255_1_234
10
6.1143394
20
21.3691665
40
0.2067346
50
102.1739365
51
129.2061916
0
ARC
8
DEFAULT_255_1_234
10
6.1064465
20
21.3816094
40
0.1921118
50
129.7279328
51
135.7542026
0
ARC
8
DEFAULT_255_1_234
10
6.1185993
20
21.3719045
40
0.2075944
50
136.175737
51
166.3674722
0
ARC
8
DEFAULT_255_1_234
10
6.2192912
20
21.3449182
40
0.3118201
50
165.9092917
51
178.8683903
0
ARC
8
DEFAULT_255_1_234
10
6.3057774
20
21.3402179
40
0.3983935
50
178.438168
51
180.0083905
0
ARC
8
DEFAULT_255_1_234
10
6.1656376
20
21.3441231
40
0.4068601
50
163.2878735
51
180.5581814
0
ARC
8
DEFAULT_255_1_234
10
6.0854637
20
21.366184
40
0.3237344
50
133.454115
51
162.9470031
0
ARC
8
DEFAULT_255_1_234
10
6.1033178
20
21.3472
40
0.349795
50
100.7869394
51
133.4384016
0
ARC
8
DEFAULT_255_1_234
10
6.138095
20
21.1923319
40
0.5084616
50
89.6605301
51
101.3704185
0
ARC
8
DEFAULT_255_1_234
10
6.1447289
20
21.1984496
40
0.502348
50
78.2171172
51
90.4130393
0
ARC
8
DEFAULT_255_1_234
10
6.1802367
20
21.3608637
40
0.3361092
50
55.9268222
51
78.4888551
0
ARC
8
DEFAULT_255_1_234
10
6.1998807
20
21.3947324
40
0.2970617
50
47.9292255
51
55.4054003
0
ARC
8
DEFAULT_255_1_234
10
6.2100368
20
21.4050502
40
0.2825983
50
4.3347696
51
48.0560701
0
ARC
8
DEFAULT_255_1_234
10
6.1004761
20
21.3880601
40
0.393225
50
359.925209
51
5.5967654
0
ARC
8
DEFAULT_255_1_234
10
6.1433653
20
21.3936816
40
0.3503892
50
337.8914096
51
358.9967724
0
ARC
8
DEFAULT_255_1_234
10
5.8720065
20
21.4983706
40
0.6412172
50
326.9135351
51
338.3505194
0
ARC
8
DEFAULT_255_1_234
10
5.4734369
20
21.7538284
40
1.1146189
50
319.6472867
51
327.095818
0
ARC
8
DEFAULT_255_1_234
10
5.0901372
20
22.07
40
1.6114559
50
317.2586784
51
319.9046139
0
LINE
8
DEFAULT_255_1_234
10
7.4237761
20
21.2172739
11
7.4237761
21
21.1739025
0
LINE
8
DEFAULT_255_1_234
10
6.8816338
20
20.5144968
11
6.8527195
21
20.5144968
0
LINE
8
DEFAULT_255_1_234
10
6.8527195
20
20.5144968
11
6.8527195
21
20.6397919
0
LINE
8
DEFAULT_255_1_234
10
6.8527195
20
20.6397919
11
6.8840433
21
20.6397919
0
LINE
8
DEFAULT_255_1_234
10
7.275189
20
21.1883597
11
7.275189
21
21.2477945
0
ARC
8
DEFAULT_255_1_234
10
6.9958159
20
21.2629403
40
0.3635579
50
297.4037347
51
320.016758
0
ARC
8
DEFAULT_255_1_234
10
7.0248108
20
21.207224
40
0.3007486
50
270.2633101
51
297.3851877
0
ARC
8
DEFAULT_255_1_234
10
7.0214064
20
21.2535904
40
0.3471448
50
269.9966443
51
270.7900392
0
ARC
8
DEFAULT_255_1_234
10
7.0188545
20
21.2534143
40
0.3469779
50
254.5999133
51
270.4180344
0
ARC
8
DEFAULT_255_1_234
10
7.0045905
20
21.1969647
40
0.2887697
50
236.4717942
51
254.3541279
0
ARC
8
DEFAULT_255_1_234
10
7.0202122
20
21.2179711
40
0.3149125
50
208.4727207
51
236.2134933
0
ARC
8
DEFAULT_255_1_234
10
7.0840897
20
21.2570455
40
0.3897115
50
204.3447514
51
209.0453999
0
ARC
8
DEFAULT_255_1_234
10
7.1520473
20
21.2858656
40
0.4635101
50
183.9375985
51
204.1276318
0
ARC
8
DEFAULT_255_1_234
10
7.2428724
20
21.2956482
40
0.5548037
50
179.9652252
51
184.3013875
0
ARC
8
DEFAULT_255_1_234
10
7.2188771
20
21.2989507
40
0.5308164
50
166.7585989
51
180.3201225
0
ARC
8
DEFAULT_255_1_234
10
7.1342384
20
21.3173488
40
0.4442163
50
154.6955053
51
166.5679793
0
ARC
8
DEFAULT_255_1_234
10
7.0489254
20
21.360321
40
0.3487299
50
136.3324195
51
155.0871442
0
ARC
8
DEFAULT_255_1_234
10
7.0208327
20
21.3843954
40
0.3117924
50
121.236733
51
135.9680508
0
ARC
8
DEFAULT_255_1_234
10
7.0348825
20
21.3583743
40
0.3413302
50
96.845628
51
120.9881519
0
ARC
8
DEFAULT_255_1_234
10
7.0494407
20
21.2648515
40
0.4359341
50
89.8870174
51
97.2802754
0
ARC
8
DEFAULT_255_1_234
10
7.0546845
20
21.3286095
40
0.3722009
50
70.6505584
51
90.6749113
0
ARC
8
DEFAULT_255_1_234
10
7.0678124
20
21.3799361
40
0.3194571
50
36.7492984
51
69.8219918
0
ARC
8
DEFAULT_255_1_234
10
6.9679289
20
21.3020993
40
0.4460685
50
15.39587
51
37.0840084
0
ARC
8
DEFAULT_255_1_234
10
6.7549722
20
21.2400242
40
0.6678714
50
3.9488873
51
15.6798563
0
ARC
8
DEFAULT_255_1_234
10
6.514835
20
21.2183964
40
0.9089418
50
359.929245
51
4.2665314
0
ARC
8
DEFAULT_255_1_234
10
6.0542787
20
21.1672513
40
1.3695135
50
352.8366322
51
0.2782669
0
ARC
8
DEFAULT_255_1_234
10
6.5830466
20
21.0985629
40
0.8363105
50
341.8359505
51
352.9884176
0
ARC
8
DEFAULT_255_1_234
10
6.9049185
20
20.99007
40
0.4966642
50
322.8578092
51
342.1527901
0
ARC
8
DEFAULT_255_1_234
10
6.9913141
20
20.9311384
40
0.3922466
50
319.334325
51
322.0998941
0
ARC
8
DEFAULT_255_1_234
10
6.9603478
20
20.9622209
40
0.4360033
50
285.9541367
51
318.8878087
0
ARC
8
DEFAULT_255_1_234
10
6.8876739
20
21.19326
40
0.678149
50
272.9281676
51
286.4922826
0
ARC
8
DEFAULT_255_1_234
10
6.8686857
20
21.4183587
40
0.9039547
50
270.8207226
51
273.4012994
0
ARC
8
DEFAULT_255_1_234
10
6.8775708
20
21.2364666
40
0.5967098
50
270.6214993
51
281.4062806
0
ARC
8
DEFAULT_255_1_234
10
6.9205689
20
21.0308833
40
0.3866861
50
281.1852553
51
299.0621114
0
ARC
8
DEFAULT_255_1_234
10
6.957926
20
20.9587798
40
0.3055236
50
299.5067782
51
313.1200873
0
ARC
8
DEFAULT_255_1_234
10
6.9601227
20
20.9508554
40
0.2982623
50
313.8526205
51
338.5989322
0
ARC
8
DEFAULT_255_1_234
10
6.7977301
20
21.0175781
40
0.4738131
50
338.2523585
51
351.2430902
0
ARC
8
DEFAULT_255_1_234
10
6.5566597
20
21.0585447
40
0.7183203
50
350.9409515
51
357.6691871
0
ARC
8
DEFAULT_255_1_234
10
7.0457027
20
21.2587764
40
0.2294452
50
269.9447023
51
306.8248917
0
ARC
8
DEFAULT_255_1_234
10
7.0219942
20
21.3010898
40
0.2775994
50
305.5072438
51
327.0773448
0
ARC
8
DEFAULT_255_1_234
10
7.0338383
20
21.2916025
40
0.2625056
50
327.4104943
51
336.840169
0
ARC
8
DEFAULT_255_1_234
10
6.7244448
20
21.2510302
40
0.5507537
50
359.6633817
51
10.117533
0
ARC
8
DEFAULT_255_1_234
10
6.8998246
20
21.2834777
40
0.372403
50
9.9430141
51
26.7700076
0
ARC
8
DEFAULT_255_1_234
10
6.9595458
20
21.3110187
40
0.3066865
50
27.2015464
51
34.6829435
0
ARC
8
DEFAULT_255_1_234
10
7.0084939
20
21.3477977
40
0.245519
50
34.1250343
51
50.3070065
0
ARC
8
DEFAULT_255_1_234
10
7.0531618
20
21.4012385
40
0.1758693
50
50.3851167
51
90.6705993
0
ARC
8
DEFAULT_255_1_234
10
7.0484851
20
21.3707799
40
0.2063326
50
89.272901
51
111.9140407
0
ARC
8
DEFAULT_255_1_234
10
7.0465379
20
21.384844
40
0.1925887
50
112.9382311
51
142.5320782
0
ARC
8
DEFAULT_255_1_234
10
7.1011559
20
21.3404969
40
0.2629232
50
142.1021256
51
166.3835592
0
ARC
8
DEFAULT_255_1_234
10
7.2192864
20
21.3099915
40
0.3849193
50
166.1100289
51
178.665427
0
ARC
8
DEFAULT_255_1_234
10
7.3240454
20
21.3041117
40
0.4897989
50
178.2632126
51
180.0111093
0
ARC
8
DEFAULT_255_1_234
10
7.2438574
20
21.3012728
40
0.40962
50
179.6161962
51
191.8787166
0
ARC
8
DEFAULT_255_1_234
10
7.1218413
20
21.2742896
40
0.2846655
50
191.6191692
51
215.2972286
0
ARC
8
DEFAULT_255_1_234
10
7.1021604
20
21.2627918
40
0.2619665
50
215.7320102
51
216.5355409
0
ARC
8
DEFAULT_255_1_234
10
7.0482691
20
21.2195647
40
0.1929497
50
215.7486685
51
239.9727502
0
ARC
8
DEFAULT_255_1_234
10
7.0412606
20
21.2144894
40
0.1850822
50
241.0650169
51
269.2810483
0
ARC
8
DEFAULT_255_1_234
10
7.0454521
20
21.2635371
40
0.2342059
50
268.4062526
51
270.0071348
0
LINE
8
DEFAULT_255_1_234
10
4.3652902
20
26.9764211
11
4.3652902
21
25.807
0
LINE
8
DEFAULT_255_1_234
10
4.3652902
20
25.807
11
4.2110808
21
25.807
0
LINE
8
DEFAULT_255_1_234
10
4.2110808
20
25.807
11
4.2110808
21
26.9764211
0
LINE
8
DEFAULT_255_1_234
10
4.2110808
20
26.9764211
11
4.3652902
21
26.9764211
0
LINE
8
DEFAULT_255_1_234
10
5.5459557
20
26.9764211
11
5.5459557
21
25.807
0
LINE
8
DEFAULT_255_1_234
10
5.5459557
20
25.807
11
5.3909432
21
25.807
0
LINE
8
DEFAULT_255_1_234
10
5.3909432
20
25.807
11
4.8022167
21
26.708161
0
LINE
8
DEFAULT_255_1_234
10
4.8022167
20
26.708161
11
4.8022167
21
25.807
0
LINE
8
DEFAULT_255_1_234
10
4.8022167
20
25.807
11
4.6472042
21
25.807
0
LINE
8
DEFAULT_255_1_234
10
4.6472042
20
25.807
11
4.6472042
21
26.9764211
0
LINE
8
DEFAULT_255_1_234
10
4.6472042
20
26.9764211
11
4.8022167
21
26.9764211
0
LINE
8
DEFAULT_255_1_234
10
4.8022167
20
26.9764211
11
5.3925495
21
26.0712442
0
LINE
8
DEFAULT_255_1_234
10
5.3925495
20
26.0712442
11
5.3925495
21
26.9764211
0
LINE
8
DEFAULT_255_1_234
10
5.3925495
20
26.9764211
11
5.5459557
21
26.9764211
0
LINE
8
DEFAULT_255_1_234
10
6.5475135
20
25.9282792
11
6.5475135
21
25.807
0
LINE
8
DEFAULT_255_1_234
10
6.5475135
20
25.807
11
5.7812856
21
25.807
0
LINE
8
DEFAULT_255_1_234
10
5.7812856
20
25.807
11
5.7812856
21
25.9138221
0
LINE
8
DEFAULT_255_1_234
10
5.7812856
20
25.9138221
11
6.1860853
21
26.3635995
0
LINE
8
DEFAULT_255_1_234
10
5.9073839
20
26.6318595
11
5.7587968
21
26.6318595
0
LINE
8
DEFAULT_255_1_234
10
6.2736312
20
26.2680218
11
5.9603934
21
25.9282792
0
LINE
8
DEFAULT_255_1_234
10
5.9603934
20
25.9282792
11
6.5475135
21
25.9282792
0
ARC
8
DEFAULT_255_1_234
10
4.8370686
20
27.5565527
40
1.8008286
50
318.5132453
51
320.7828378
0
ARC
8
DEFAULT_255_1_234
10
5.365766
20
27.1262426
40
1.1191493
50
320.7372736
51
323.9737074
0
ARC
8
DEFAULT_255_1_234
10
5.7577517
20
26.8422361
40
0.6350923
50
323.8961724
51
328.6421089
0
ARC
8
DEFAULT_255_1_234
10
5.9624112
20
26.7160031
40
0.3946393
50
328.8299013
51
331.789948
0
ARC
8
DEFAULT_255_1_234
10
6.0621291
20
26.6645509
40
0.2824501
50
331.4255242
51
352.9364833
0
ARC
8
DEFAULT_255_1_234
10
6.0757791
20
26.6614976
40
0.2685315
50
353.2248685
51
0.0169286
0
ARC
8
DEFAULT_255_1_234
10
6.0967668
20
26.663795
40
0.2475536
50
359.4866256
51
15.9339782
0
ARC
8
DEFAULT_255_1_234
10
6.1474653
20
26.6774286
40
0.1950618
50
16.1714718
51
43.5284424
0
ARC
8
DEFAULT_255_1_234
10
6.1551962
20
26.6851573
40
0.184134
50
43.4415429
51
83.1661404
0
ARC
8
DEFAULT_255_1_234
10
6.141788
20
26.6114771
40
0.258926
50
82.160215
51
90.1505798
0
ARC
8
DEFAULT_255_1_234
10
6.1386308
20
26.5577865
40
0.3126255
50
89.5460705
51
102.5418777
0
ARC
8
DEFAULT_255_1_234
10
6.1143394
20
26.6608665
40
0.2067346
50
102.1739365
51
129.2061916
0
ARC
8
DEFAULT_255_1_234
10
6.1064465
20
26.6733094
40
0.1921118
50
129.7279328
51
135.7542026
0
ARC
8
DEFAULT_255_1_234
10
6.1185993
20
26.6636045
40
0.2075944
50
136.175737
51
166.3674722
0
ARC
8
DEFAULT_255_1_234
10
6.2192912
20
26.6366182
40
0.3118201
50
165.9092917
51
178.8683903
0
ARC
8
DEFAULT_255_1_234
10
6.3057774
20
26.6319179
40
0.3983935
50
178.438168
51
180.0083905
0
ARC
8
DEFAULT_255_1_234
10
6.1656376
20
26.6358231
40
0.4068601
50
163.2878735
51
180.5581814
0
ARC
8
DEFAULT_255_1_234
10
6.0854637
20
26.657884
40
0.3237344
50
133.454115
51
162.9470031
0
ARC
8
DEFAULT_255_1_234
10
6.1033178
20
26.6389
40
0.349795
50
100.7869394
51
133.4384016
0
ARC
8
DEFAULT_255_1_234
10
6.138095
20
26.4840319
40
0.5084616
50
89.6605301
51
101.3704185
0
ARC
8
DEFAULT_255_1_234
10
6.1447289
20
26.4901496
40
0.502348
50
78.2171172
51
90.4130393
0
ARC
8
DEFAULT_255_1_234
10
6.1802367
20
26.6525637
40
0.3361092
50
55.9268222
51
78.4888551
0
ARC
8
DEFAULT_255_1_234
10
6.1998807
20
26.6864324
40
0.2970617
50
47.9292255
51
55.4054003
0
ARC
8
DEFAULT_255_1_234
10
6.2100368
20
26.6967502
40
0.2825983
50
4.3347696
51
48.0560701
0
ARC
8
DEFAULT_255_1_234
10
6.1004761
20
26.6797601
40
0.393225
50
359.925209
51
5.5967654
0
ARC
8
DEFAULT_255_1_234
10
6.1433653
20
26.6853816
40
0.3503892
50
337.8914096
51
358.9967724
0
ARC
8
DEFAULT_255_1_234
10
5.8720065
20
26.7900706
40
0.6412172
50
326.9135351
51
338.3505194
0
ARC
8
DEFAULT_255_1_234
10
5.4734369
20
27.0455284
40
1.1146189
50
319.6472867
51
327.095818
0
ARC
8
DEFAULT_255_1_234
10
5.0901372
20
27.3617
40
1.6114559
50
317.2586784
51
319.9046139
0
ARC
8
DEFAULT_255_1_234
10
7.1319139
20
26.6686703
40
0.2822356
50
338.8763615
51
0.5166041
0
ARC
8
DEFAULT_255_1_234
10
7.1487793
20
26.6641208
40
0.2648703
50
325.8412414
51
338.4795939
0
ARC
8
DEFAULT_255_1_234
10
7.1097161
20
26.6912042
40
0.3124019
50
296.7586019
51
325.753654
0
ARC
8
DEFAULT_255_1_234
10
7.080927
20
26.7396789
40
0.368668
50
296.0902311
51
297.3618122
0
ARC
8
DEFAULT_255_1_234
10
7.1066727
20
26.0842041
40
0.3518806
50
47.9009248
51
67.1946869
0
ARC
8
DEFAULT_255_1_234
10
7.1262969
20
26.1088395
40
0.320451
50
35.236241
51
47.551371
0
ARC
8
DEFAULT_255_1_234
10
7.1524587
20
26.1262993
40
0.2890103
50
359.2759738
51
35.4014081
0
ARC
8
DEFAULT_255_1_234
10
7.0779618
20
26.1189826
40
0.3635026
50
343.1294516
51
0.5776525
0
ARC
8
DEFAULT_255_1_234
10
7.1504163
20
26.099033
40
0.2883832
50
310.8497458
51
342.744803
0
ARC
8
DEFAULT_255_1_234
10
7.1086276
20
26.1467294
40
0.3517954
50
281.5473923
51
310.9169905
0
ARC
8
DEFAULT_255_1_234
10
7.0729726
20
26.3020084
40
0.5110832
50
269.6192722
51
281.9789957
0
ARC
8
DEFAULT_255_1_234
10
7.0657515
20
26.3020828
40
0.5111606
50
257.4584469
51
270.4287458
0
ARC
8
DEFAULT_255_1_234
10
7.0276658
20
26.1417344
40
0.3463762
50
228.7553743
51
257.8484423
0
ARC
8
DEFAULT_255_1_234
10
6.9966856
20
26.1044442
40
0.297916
50
184.0104442
51
228.5071787
0
ARC
8
DEFAULT_255_1_234
10
7.11298
20
26.1221512
40
0.4152734
50
179.9315461
51
185.3254504
0
ARC
8
DEFAULT_255_1_234
10
6.9953446
20
26.1258992
40
0.2976554
50
145.6795913
51
180.6259649
0
ARC
8
DEFAULT_255_1_234
10
7.0116795
20
26.1144929
40
0.3175776
50
115.5537925
51
145.6416199
0
ARC
8
DEFAULT_255_1_234
10
7.0457726
20
26.0534028
40
0.3874232
50
113.2437915
51
116.2054627
0
ARC
8
DEFAULT_255_1_234
10
7.0304938
20
26.693258
40
0.3154751
50
222.9548379
51
244.1372485
0
ARC
8
DEFAULT_255_1_234
10
7.0183013
20
26.6795834
40
0.2972382
50
213.3439227
51
222.6271327
0
ARC
8
DEFAULT_255_1_234
10
6.9990948
20
26.6665308
40
0.274019
50
180.4316517
51
213.2713999
0
ARC
8
DEFAULT_255_1_234
10
7.0565949
20
26.671211
40
0.33158
50
179.9992944
51
181.1655061
0
ARC
8
DEFAULT_255_1_234
10
7.0975366
20
26.6746561
40
0.3725376
50
164.6186108
51
180.5292368
0
ARC
8
DEFAULT_255_1_234
10
7.0077229
20
26.6988101
40
0.2795349
50
132.2454369
51
164.5092287
0
ARC
8
DEFAULT_255_1_234
10
7.0364333
20
26.6663028
40
0.3229019
50
100.7052766
51
132.1387266
0
ARC
8
DEFAULT_255_1_234
10
7.0669305
20
26.5285086
40
0.4639835
50
89.6732617
51
101.2449487
0
ARC
8
DEFAULT_255_1_234
10
7.0731503
20
26.545999
40
0.4464999
50
76.2876631
51
90.4586123
0
ARC
8
DEFAULT_255_1_234
10
7.1037735
20
26.668222
40
0.3205023
50
47.8240157
51
76.4266918
0
ARC
8
DEFAULT_255_1_234
10
7.1260285
20
26.694259
40
0.2862661
50
6.9168658
51
47.6261438
0
ARC
8
DEFAULT_255_1_234
10
7.0073688
20
26.672337
40
0.4067708
50
359.8419705
51
7.9694496
0
ARC
8
DEFAULT_255_1_234
10
7.0415585
20
26.1282925
40
0.2513121
50
359.4454068
51
16.9256425
0
ARC
8
DEFAULT_255_1_234
10
7.0884396
20
26.1412033
40
0.2027071
50
17.292259
51
45.462717
0
ARC
8
DEFAULT_255_1_234
10
7.0830332
20
26.1365434
40
0.2098212
50
45.3028762
51
83.1921472
0
ARC
8
DEFAULT_255_1_234
10
7.0687016
20
26.0563895
40
0.2911472
50
82.2614531
51
90.143954
0
ARC
8
DEFAULT_255_1_234
10
7.0656136
20
26.079695
40
0.2678513
50
89.4959189
51
104.8579811
0
ARC
8
DEFAULT_255_1_234
10
7.0479395
20
26.146689
40
0.1985654
50
104.8855873
51
135.2448349
0
ARC
8
DEFAULT_255_1_234
10
7.0529168
20
26.1422336
40
0.2052373
50
135.3398955
51
172.104394
0
ARC
8
DEFAULT_255_1_234
10
7.1336226
20
26.1267925
40
0.2873299
50
171.2651929
51
180.1859362
0
ARC
8
DEFAULT_255_1_234
10
7.1166927
20
26.1235733
40
0.2704083
50
179.515471
51
193.6466734
0
ARC
8
DEFAULT_255_1_234
10
7.0350696
20
26.1027777
40
0.1861855
50
193.3540587
51
225.8256931
0
ARC
8
DEFAULT_255_1_234
10
7.0391454
20
26.1098524
40
0.1941102
50
226.418029
51
255.8553723
0
ARC
8
DEFAULT_255_1_234
10
7.0647886
20
26.2034998
40
0.2911917
50
255.4655572
51
268.7985967
0
ARC
8
DEFAULT_255_1_234
10
7.0695078
20
26.2873491
40
0.3751331
50
268.3464808
51
270.0104874
0
ARC
8
DEFAULT_255_1_234
10
7.0718466
20
26.2189138
40
0.3067064
50
269.575914
51
282.0823146
0
ARC
8
DEFAULT_255_1_234
10
7.0943375
20
26.1194803
40
0.2047712
50
281.7522535
51
306.6056425
0
ARC
8
DEFAULT_255_1_234
10
7.1041801
20
26.1033487
40
0.1859604
50
307.1350025
51
314.0277951
0
ARC
8
DEFAULT_255_1_234
10
7.1005886
20
26.1059766
40
0.1903475
50
314.2553419
51
350.169324
0
ARC
8
DEFAULT_255_1_234
10
7.0154354
20
26.1244409
40
0.2774269
50
349.4145679
51
0.2930737
0
ARC
8
DEFAULT_255_1_234
10
7.0674787
20
26.6403353
40
0.2300764
50
89.477591
51
105.729794
0
ARC
8
DEFAULT_255_1_234
10
7.0538701
20
26.6908637
40
0.1777519
50
105.922966
51
135.1662921
0
ARC
8
DEFAULT_255_1_234
10
7.0559203
20
26.6894419
40
0.1802087
50
135.3053131
51
168.9882338
0
ARC
8
DEFAULT_255_1_234
10
7.1386776
20
26.6704721
40
0.2650806
50
168.3802067
51
180.3602358
0
ARC
8
DEFAULT_255_1_234
10
7.1158355
20
26.6667041
40
0.2422425
50
179.5029707
51
194.9126783
0
ARC
8
DEFAULT_255_1_234
10
7.0573016
20
26.651311
40
0.1817188
50
194.9722181
51
224.1943972
0
ARC
8
DEFAULT_255_1_234
10
7.0544883
20
26.6490169
40
0.1781027
50
224.2961434
51
262.0157375
0
ARC
8
DEFAULT_255_1_234
10
7.0687126
20
26.7221661
40
0.2525492
50
261.1250369
51
270.1959853
0
ARC
8
DEFAULT_255_1_234
10
7.0716881
20
26.7034339
40
0.233825
50
269.4825617
51
285.0988277
0
ARC
8
DEFAULT_255_1_234
10
7.087104
20
26.645599
40
0.1739712
50
285.1585659
51
315.9484648
0
ARC
8
DEFAULT_255_1_234
10
7.0782052
20
26.6537886
40
0.1860616
50
316.0412958
51
351.9162715
0
ARC
8
DEFAULT_255_1_234
10
7.0049007
20
26.6679245
40
0.2606517
50
351.1056823
51
0.1936567
0
ARC
8
DEFAULT_255_1_234
10
7.0311836
20
26.6709369
40
0.234377
50
359.4789506
51
16.0679113
0
ARC
8
DEFAULT_255_1_234
10
7.0787795
20
26.683781
40
0.1850875
50
16.3251951
51
44.791304
0
ARC
8
DEFAULT_255_1_234
10
7.0770076
20
26.6838339
40
0.186312
50
44.3958661
51
88.2498933
0
ARC
8
DEFAULT_255_1_234
10
7.069663
20
26.6227154
40
0.2476868
50
86.9833827
51
90.0200148
0
LINE
8
DEFAULT_255_1_234
10
4.3652902
20
32.2681211
11
4.3652902
21
31.0987
0
LINE
8
DEFAULT_255_1_234
10
4.3652902
20
31.0987
11
4.2110808
21
31.0987
0
LINE
8
DEFAULT_255_1_234
10
4.2110808
20
31.0987
11
4.2110808
21
32.2681211
0
LINE
8
DEFAULT_255_1_234
10
4.2110808
20
32.2681211
11
4.3652902
21
32.2681211
0
LINE
8
DEFAULT_255_1_234
10
5.5459557
20
32.2681211
11
5.5459557
21
31.0987
0
LINE
8
DEFAULT_255_1_234
10
5.5459557
20
31.0987
11
5.3909432
21
31.0987
0
LINE
8
DEFAULT_255_1_234
10
5.3909432
20
31.0987
11
4.8022167
21
31.999861
0
LINE
8
DEFAULT_255_1_234
10
4.8022167
20
31.999861
11
4.8022167
21
31.0987
0
LINE
8
DEFAULT_255_1_234
10
4.8022167
20
31.0987
11
4.6472042
21
31.0987
0
LINE
8
DEFAULT_255_1_234
10
4.6472042
20
31.0987
11
4.6472042
21
32.2681211
0
LINE
8
DEFAULT_255_1_234
10
4.6472042
20
32.2681211
11
4.8022167
21
32.2681211
0
LINE
8
DEFAULT_255_1_234
10
4.8022167
20
32.2681211
11
5.3925495
21
31.3629442
0
LINE
8
DEFAULT_255_1_234
10
5.3925495
20
31.3629442
11
5.3925495
21
32.2681211
0
LINE
8
DEFAULT_255_1_234
10
5.3925495
20
32.2681211
11
5.5459557
21
32.2681211
0
LINE
8
DEFAULT_255_1_234
10
6.5475135
20
31.2199792
11
6.5475135
21
31.0987
0
LINE
8
DEFAULT_255_1_234
10
6.5475135
20
31.0987
11
5.7812856
21
31.0987
0
LINE
8
DEFAULT_255_1_234
10
5.7812856
20
31.0987
11
5.7812856
21
31.2055221
0
LINE
8
DEFAULT_255_1_234
10
5.7812856
20
31.2055221
11
6.1860853
21
31.6552995
0
LINE
8
DEFAULT_255_1_234
10
5.9073839
20
31.9235595
11
5.7587968
21
31.9235595
0
LINE
8
DEFAULT_255_1_234
10
6.2736312
20
31.5597218
11
5.9603934
21
31.2199792
0
LINE
8
DEFAULT_255_1_234
10
5.9603934
20
31.2199792
11
6.5475135
21
31.2199792
0
ARC
8
DEFAULT_255_1_234
10
4.8370686
20
32.8482527
40
1.8008286
50
318.5132453
51
320.7828378
0
ARC
8
DEFAULT_255_1_234
10
5.365766
20
32.4179426
40
1.1191493
50
320.7372736
51
323.9737074
0
ARC
8
DEFAULT_255_1_234
10
5.7577517
20
32.1339361
40
0.6350923
50
323.8961724
51
328.6421089
0
ARC
8
DEFAULT_255_1_234
10
5.9624112
20
32.0077031
40
0.3946393
50
328.8299013
51
331.789948
0
ARC
8
DEFAULT_255_1_234
10
6.0621291
20
31.9562509
40
0.2824501
50
331.4255242
51
352.9364833
0
ARC
8
DEFAULT_255_1_234
10
6.0757791
20
31.9531976
40
0.2685315
50
353.2248685
51
0.0169286
0
ARC
8
DEFAULT_255_1_234
10
6.0967668
20
31.955495
40
0.2475536
50
359.4866256
51
15.9339782
0
ARC
8
DEFAULT_255_1_234
10
6.1474653
20
31.9691286
40
0.1950618
50
16.1714718
51
43.5284424
0
ARC
8
DEFAULT_255_1_234
10
6.1551962
20
31.9768573
40
0.184134
50
43.4415429
51
83.1661404
0
ARC
8
DEFAULT_255_1_234
10
6.141788
20
31.9031771
40
0.258926
50
82.160215
51
90.1505798
0
ARC
8
DEFAULT_255_1_234
10
6.1386308
20
31.8494865
40
0.3126255
50
89.5460705
51
102.5418777
0
ARC
8
DEFAULT_255_1_234
10
6.1143394
20
31.9525665
40
0.2067346
50
102.1739365
51
129.2061916
0
ARC
8
DEFAULT_255_1_234
10
6.1064465
20
31.9650094
40
0.1921118
50
129.7279328
51
135.7542026
0
ARC
8
DEFAULT_255_1_234
10
6.1185993
20
31.9553045
40
0.2075944
50
136.175737
51
166.3674722
0
ARC
8
DEFAULT_255_1_234
10
6.2192912
20
31.9283182
40
0.3118201
50
165.9092917
51
178.8683903
0
ARC
8
DEFAULT_255_1_234
10
6.3057774
20
31.9236179
40
0.3983935
50
178.438168
51
180.0083905
0
ARC
8
DEFAULT_255_1_234
10
6.1656376
20
31.9275231
40
0.4068601
50
163.2878735
51
180.5581814
0
ARC
8
DEFAULT_255_1_234
10
6.0854637
20
31.949584
40
0.3237344
50
133.454115
51
162.9470031
0
ARC
8
DEFAULT_255_1_234
10
6.1033178
20
31.9306
40
0.349795
50
100.7869394
51
133.4384016
0
ARC
8
DEFAULT_255_1_234
10
6.138095
20
31.7757319
40
0.5084616
50
89.6605301
51
101.3704185
0
ARC
8
DEFAULT_255_1_234
10
6.1447289
20
31.7818496
40
0.502348
50
78.2171172
51
90.4130393
0
ARC
8
DEFAULT_255_1_234
10
6.1802367
20
31.9442637
40
0.3361092
50
55.9268222
51
78.4888551
0
ARC
8
DEFAULT_255_1_234
10
6.1998807
20
31.9781324
40
0.2970617
50
47.9292255
51
55.4054003
0
ARC
8
DEFAULT_255_1_234
10
6.2100368
20
31.9884502
40
0.2825983
50
4.3347696
51
48.0560701
0
ARC
8
DEFAULT_255_1_234
10
6.1004761
20
31.9714601
40
0.393225
50
359.925209
51
5.5967654
0
ARC
8
DEFAULT_255_1_234
10
6.1433653
20
31.9770816
40
0.3503892
50
337.8914096
51
358.9967724
0
ARC
8
DEFAULT_255_1_234
10
5.8720065
20
32.0817706
40
0.6412172
50
326.9135351
51
338.3505194
0
ARC
8
DEFAULT_255_1_234
10
5.4734369
20
32.3372284
40
1.1146189
50
319.6472867
51
327.095818
0
ARC
8
DEFAULT_255_1_234
10
5.0901372
20
32.6534
40
1.6114559
50
317.2586784
51
319.9046139
0
LINE
8
DEFAULT_255_1_234
10
7.4599189
20
32.2681211
11
7.4599189
21
32.184591
0
LINE
8
DEFAULT_255_1_234
10
7.4599189
20
32.184591
11
6.9756051
21
31.0987
0
LINE
8
DEFAULT_255_1_234
10
6.9756051
20
31.0987
11
6.8197894
21
31.0987
0
LINE
8
DEFAULT_255_1_234
10
6.8197894
20
31.0987
11
7.3024969
21
32.1460387
0
LINE
8
DEFAULT_255_1_234
10
7.3024969
20
32.1460387
11
6.6695959
21
32.1460387
0
LINE
8
DEFAULT_255_1_234
10
6.6695959
20
32.1460387
11
6.6695959
21
32.2681211
0
LINE
8
DEFAULT_255_1_234
10
6.6695959
20
32.2681211
11
7.4599189
21
32.2681211
0
LINE
8
DEFAULT_255_1_234
10
4.3652902
20
37.5597211
11
4.3652902
21
36.3903
0
LINE
8
DEFAULT_255_1_234
10
4.3652902
20
36.3903
11
4.2110808
21
36.3903
0
LINE
8
DEFAULT_255_1_234
10
4.2110808
20
36.3903
11
4.2110808
21
37.5597211
0
LINE
8
DEFAULT_255_1_234
10
4.2110808
20
37.5597211
11
4.3652902
21
37.5597211
0
LINE
8
DEFAULT_255_1_234
10
5.5459557
20
37.5597211
11
5.5459557
21
36.3903
0
LINE
8
DEFAULT_255_1_234
10
5.5459557
20
36.3903
11
5.3909432
21
36.3903
0
LINE
8
DEFAULT_255_1_234
10
5.3909432
20
36.3903
11
4.8022167
21
37.291461
0
LINE
8
DEFAULT_255_1_234
10
4.8022167
20
37.291461
11
4.8022167
21
36.3903
0
LINE
8
DEFAULT_255_1_234
10
4.8022167
20
36.3903
11
4.6472042
21
36.3903
0
LINE
8
DEFAULT_255_1_234
10
4.6472042
20
36.3903
11
4.6472042
21
37.5597211
0
LINE
8
DEFAULT_255_1_234
10
4.6472042
20
37.5597211
11
4.8022167
21
37.5597211
0
LINE
8
DEFAULT_255_1_234
10
4.8022167
20
37.5597211
11
5.3925495
21
36.6545442
0
LINE
8
DEFAULT_255_1_234
10
5.3925495
20
36.6545442
11
5.3925495
21
37.5597211
0
LINE
8
DEFAULT_255_1_234
10
5.3925495
20
37.5597211
11
5.5459557
21
37.5597211
0
LINE
8
DEFAULT_255_1_234
10
6.5475135
20
36.5115792
11
6.5475135
21
36.3903
0
LINE
8
DEFAULT_255_1_234
10
6.5475135
20
36.3903
11
5.7812856
21
36.3903
0
LINE
8
DEFAULT_255_1_234
10
5.7812856
20
36.3903
11
5.7812856
21
36.4971221
0
LINE
8
DEFAULT_255_1_234
10
5.7812856
20
36.4971221
11
6.1860853
21
36.9468995
0
LINE
8
DEFAULT_255_1_234
10
5.9073839
20
37.2151595
11
5.7587968
21
37.2151595
0
LINE
8
DEFAULT_255_1_234
10
6.2736312
20
36.8513218
11
5.9603934
21
36.5115792
0
LINE
8
DEFAULT_255_1_234
10
5.9603934
20
36.5115792
11
6.5475135
21
36.5115792
0
ARC
8
DEFAULT_255_1_234
10
4.8370686
20
38.1398527
40
1.8008286
50
318.5132453
51
320.7828378
0
ARC
8
DEFAULT_255_1_234
10
5.365766
20
37.7095426
40
1.1191493
50
320.7372736
51
323.9737074
0
ARC
8
DEFAULT_255_1_234
10
5.7577517
20
37.4255361
40
0.6350923
50
323.8961724
51
328.6421089
0
ARC
8
DEFAULT_255_1_234
10
5.9624112
20
37.2993031
40
0.3946393
50
328.8299013
51
331.789948
0
ARC
8
DEFAULT_255_1_234
10
6.0621291
20
37.2478509
40
0.2824501
50
331.4255242
51
352.9364833
0
ARC
8
DEFAULT_255_1_234
10
6.0757791
20
37.2447976
40
0.2685315
50
353.2248685
51
0.0169286
0
ARC
8
DEFAULT_255_1_234
10
6.0967668
20
37.247095
40
0.2475536
50
359.4866256
51
15.9339782
0
ARC
8
DEFAULT_255_1_234
10
6.1474653
20
37.2607286
40
0.1950618
50
16.1714718
51
43.5284424
0
ARC
8
DEFAULT_255_1_234
10
6.1551962
20
37.2684573
40
0.184134
50
43.4415429
51
83.1661404
0
ARC
8
DEFAULT_255_1_234
10
6.141788
20
37.1947771
40
0.258926
50
82.160215
51
90.1505798
0
ARC
8
DEFAULT_255_1_234
10
6.1386308
20
37.1410865
40
0.3126255
50
89.5460705
51
102.5418777
0
ARC
8
DEFAULT_255_1_234
10
6.1143394
20
37.2441665
40
0.2067346
50
102.1739365
51
129.2061916
0
ARC
8
DEFAULT_255_1_234
10
6.1064465
20
37.2566094
40
0.1921118
50
129.7279328
51
135.7542026
0
ARC
8
DEFAULT_255_1_234
10
6.1185993
20
37.2469045
40
0.2075944
50
136.175737
51
166.3674722
0
ARC
8
DEFAULT_255_1_234
10
6.2192912
20
37.2199182
40
0.3118201
50
165.9092917
51
178.8683903
0
ARC
8
DEFAULT_255_1_234
10
6.3057774
20
37.2152179
40
0.3983935
50
178.438168
51
180.0083905
0
ARC
8
DEFAULT_255_1_234
10
6.1656376
20
37.2191231
40
0.4068601
50
163.2878735
51
180.5581814
0
ARC
8
DEFAULT_255_1_234
10
6.0854637
20
37.241184
40
0.3237344
50
133.454115
51
162.9470031
0
ARC
8
DEFAULT_255_1_234
10
6.1033178
20
37.2222
40
0.349795
50
100.7869394
51
133.4384016
0
ARC
8
DEFAULT_255_1_234
10
6.138095
20
37.0673319
40
0.5084616
50
89.6605301
51
101.3704185
0
ARC
8
DEFAULT_255_1_234
10
6.1447289
20
37.0734496
40
0.502348
50
78.2171172
51
90.4130393
0
ARC
8
DEFAULT_255_1_234
10
6.1802367
20
37.2358637
40
0.3361092
50
55.9268222
51
78.4888551
0
ARC
8
DEFAULT_255_1_234
10
6.1998807
20
37.2697324
40
0.2970617
50
47.9292255
51
55.4054003
0
ARC
8
DEFAULT_255_1_234
10
6.2100368
20
37.2800502
40
0.2825983
50
4.3347696
51
48.0560701
0
ARC
8
DEFAULT_255_1_234
10
6.1004761
20
37.2630601
40
0.393225
50
359.925209
51
5.5967654
0
ARC
8
DEFAULT_255_1_234
10
6.1433653
20
37.2686816
40
0.3503892
50
337.8914096
51
358.9967724
0
ARC
8
DEFAULT_255_1_234
10
5.8720065
20
37.3733706
40
0.6412172
50
326.9135351
51
338.3505194
0
ARC
8
DEFAULT_255_1_234
10
5.4734369
20
37.6288284
40
1.1146189
50
319.6472867
51
327.095818
0
ARC
8
DEFAULT_255_1_234
10
5.0901372
20
37.945
40
1.6114559
50
317.2586784
51
319.9046139
0
LINE
8
DEFAULT_255_1_234
10
7.261535
20
37.5605243
11
7.2880397
21
37.5605243
0
LINE
8
DEFAULT_255_1_234
10
7.2880397
20
37.5605243
11
7.2880397
21
37.434426
0
LINE
8
DEFAULT_255_1_234
10
7.2880397
20
37.434426
11
7.2607318
21
37.434426
0
LINE
8
DEFAULT_255_1_234
10
6.7137705
20
36.8352583
11
6.7137705
21
36.8922836
0
LINE
8
DEFAULT_255_1_234
10
6.8631608
20
36.8730075
11
6.8631608
21
36.8183917
0
ARC
8
DEFAULT_255_1_234
10
7.2659666
20
36.9346455
40
0.4998079
50
90.6001036
51
104.514704
0
ARC
8
DEFAULT_255_1_234
10
7.2271182
20
37.0791131
40
0.3502176
50
104.2855254
51
133.862935
0
ARC
8
DEFAULT_255_1_234
10
7.2434939
20
37.068283
40
0.3693984
50
134.5302688
51
161.6210873
0
ARC
8
DEFAULT_255_1_234
10
7.4088128
20
37.0099895
40
0.5446739
50
161.2849839
51
174.2076652
0
ARC
8
DEFAULT_255_1_234
10
7.5495065
20
36.9905787
40
0.6866274
50
173.7810589
51
174.9254635
0
ARC
8
DEFAULT_255_1_234
10
7.0944897
20
36.8522839
40
0.3033419
50
95.8330959
51
138.9954921
0
ARC
8
DEFAULT_255_1_234
10
7.1168253
20
36.7244375
40
0.4328947
50
89.8753725
51
97.0544009
0
ARC
8
DEFAULT_255_1_234
10
7.1215719
20
36.8079748
40
0.3493769
50
71.6407809
51
90.6240094
0
ARC
8
DEFAULT_255_1_234
10
7.1366292
20
36.8634082
40
0.2920396
50
39.6367836
51
71.019018
0
ARC
8
DEFAULT_255_1_234
10
7.0729765
20
36.8083998
40
0.3761538
50
10.658731
51
39.9043955
0
ARC
8
DEFAULT_255_1_234
10
6.9181848
20
36.7747686
40
0.5345136
50
359.682601
51
11.132623
0
ARC
8
DEFAULT_255_1_234
10
6.9141979
20
36.767701
40
0.5385081
50
347.2486944
51
0.4369317
0
ARC
8
DEFAULT_255_1_234
10
7.0809456
20
36.7275807
40
0.3670249
50
318.1409698
51
347.6118597
0
ARC
8
DEFAULT_255_1_234
10
7.1134449
20
36.7008702
40
0.3250007
50
275.6342139
51
317.8248465
0
ARC
8
DEFAULT_255_1_234
10
7.0913561
20
36.8308219
40
0.4565864
50
269.8874292
51
276.7917694
0
ARC
8
DEFAULT_255_1_234
10
7.0858631
20
36.7282743
40
0.3540676
50
246.9140195
51
270.7437342
0
ARC
8
DEFAULT_255_1_234
10
7.0865021
20
36.7140384
40
0.3412781
50
218.1665114
51
245.878116
0
ARC
8
DEFAULT_255_1_234
10
7.1744482
20
36.7876279
40
0.455911
50
191.4115814
51
218.6077802
0
ARC
8
DEFAULT_255_1_234
10
7.3682571
20
36.8310833
40
0.6545001
50
179.6345085
51
191.7836486
0
ARC
8
DEFAULT_255_1_234
10
7.9264908
20
36.8989697
40
1.2127388
50
171.4525249
51
180.3158839
0
ARC
8
DEFAULT_255_1_234
10
7.4869784
20
36.9673608
40
0.7679464
50
157.9802646
51
171.6246686
0
ARC
8
DEFAULT_255_1_234
10
7.2655805
20
37.0556421
40
0.5296008
50
141.4298019
51
157.854097
0
ARC
8
DEFAULT_255_1_234
10
7.2014126
20
37.1010381
40
0.4511509
50
102.8715806
51
140.8564722
0
ARC
8
DEFAULT_255_1_234
10
7.2661741
20
36.8570552
40
0.7034845
50
90.3778349
51
103.5869322
0
ARC
8
DEFAULT_255_1_234
10
7.0923517
20
36.796573
40
0.2370698
50
89.8751008
51
126.2071704
0
ARC
8
DEFAULT_255_1_234
10
7.0969307
20
36.7811303
40
0.2522934
50
124.9745049
51
144.895901
0
ARC
8
DEFAULT_255_1_234
10
7.0793498
20
36.795456
40
0.2296779
50
145.2974905
51
160.2660252
0
ARC
8
DEFAULT_255_1_234
10
7.3866036
20
36.8152071
40
0.5234525
50
179.6514266
51
190.2855912
0
ARC
8
DEFAULT_255_1_234
10
7.2172174
20
36.7832786
40
0.3510893
50
190.0945431
51
207.5098196
0
ARC
8
DEFAULT_255_1_234
10
7.1606443
20
36.7563623
40
0.288489
50
207.9583163
51
216.3251085
0
ARC
8
DEFAULT_255_1_234
10
7.1266551
20
36.7284105
40
0.2445587
50
215.7661442
51
232.5456785
0
ARC
8
DEFAULT_255_1_234
10
7.0883534
20
36.6797482
40
0.1826382
50
232.8005391
51
270.6605633
0
ARC
8
DEFAULT_255_1_234
10
7.0929235
20
36.7161612
40
0.2190529
50
269.35537
51
288.4744281
0
ARC
8
DEFAULT_255_1_234
10
7.1022132
20
36.6812118
40
0.1829749
50
289.1833337
51
322.9683818
0
ARC
8
DEFAULT_255_1_234
10
7.0410654
20
36.7294391
40
0.2608399
50
322.6007884
51
346.5182367
0
ARC
8
DEFAULT_255_1_234
10
6.925325
20
36.7589616
40
0.3802777
50
346.2582162
51
358.7741648
0
ARC
8
DEFAULT_255_1_234
10
6.8234919
20
36.7644965
40
0.4822176
50
358.3755224
51
0.0098023
0
ARC
8
DEFAULT_255_1_234
10
6.8991106
20
36.7672657
40
0.4066078
50
359.6214041
51
11.2839074
0
ARC
8
DEFAULT_255_1_234
10
7.0268253
20
36.7939066
40
0.2761514
50
11.0482309
51
31.8146458
0
ARC
8
DEFAULT_255_1_234
10
7.0577296
20
36.8106584
40
0.2410679
50
32.3035391
51
38.082671
0
ARC
8
DEFAULT_255_1_234
10
7.0997956
20
36.8487662
40
0.1844966
50
36.825067
51
85.7415724
0
ARC
8
DEFAULT_255_1_234
10
7.0930789
20
36.7987301
40
0.2349122
50
85.0140713
51
90.0513278
0
LINE
8
DEFAULT_255_1_234
10
4.3652902
20
42.8514211
11
4.3652902
21
41.682
0
LINE
8
DEFAULT_255_1_234
10
4.3652902
20
41.682
11
4.2110808
21
41.682
0
LINE
8
DEFAULT_255_1_234
10
4.2110808
20
41.682
11
4.2110808
21
42.8514211
0
LINE
8
DEFAULT_255_1_234
10
4.2110808
20
42.8514211
11
4.3652902
21
42.8514211
0
LINE
8
DEFAULT_255_1_234
10
5.5459557
20
42.8514211
11
5.5459557
21
41.682
0
LINE
8
DEFAULT_255_1_234
10
5.5459557
20
41.682
11
5.3909432
21
41.682
0
LINE
8
DEFAULT_255_1_234
10
5.3909432
20
41.682
11
4.8022167
21
42.583161
0
LINE
8
DEFAULT_255_1_234
10
4.8022167
20
42.583161
11
4.8022167
21
41.682
0
LINE
8
DEFAULT_255_1_234
10
4.8022167
20
41.682
11
4.6472042
21
41.682
0
LINE
8
DEFAULT_255_1_234
10
4.6472042
20
41.682
11
4.6472042
21
42.8514211
0
LINE
8
DEFAULT_255_1_234
10
4.6472042
20
42.8514211
11
4.8022167
21
42.8514211
0
LINE
8
DEFAULT_255_1_234
10
4.8022167
20
42.8514211
11
5.3925495
21
41.9462442
0
LINE
8
DEFAULT_255_1_234
10
5.3925495
20
41.9462442
11
5.3925495
21
42.8514211
0
LINE
8
DEFAULT_255_1_234
10
5.3925495
20
42.8514211
11
5.5459557
21
42.8514211
0
LINE
8
DEFAULT_255_1_234
10
6.5475135
20
41.8032792
11
6.5475135
21
41.682
0
LINE
8
DEFAULT_255_1_234
10
6.5475135
20
41.682
11
5.7812856
21
41.682
0
LINE
8
DEFAULT_255_1_234
10
5.7812856
20
41.682
11
5.7812856
21
41.7888221
0
LINE
8
DEFAULT_255_1_234
10
5.7812856
20
41.7888221
11
6.1860853
21
42.2385995
0
LINE
8
DEFAULT_255_1_234
10
5.9073839
20
42.5068595
11
5.7587968
21
42.5068595
0
LINE
8
DEFAULT_255_1_234
10
6.2736312
20
42.1430218
11
5.9603934
21
41.8032792
0
LINE
8
DEFAULT_255_1_234
10
5.9603934
20
41.8032792
11
6.5475135
21
41.8032792
0
ARC
8
DEFAULT_255_1_234
10
4.8370686
20
43.4315527
40
1.8008286
50
318.5132453
51
320.7828378
0
ARC
8
DEFAULT_255_1_234
10
5.365766
20
43.0012426
40
1.1191493
50
320.7372736
51
323.9737074
0
ARC
8
DEFAULT_255_1_234
10
5.7577517
20
42.7172361
40
0.6350923
50
323.8961724
51
328.6421089
0
ARC
8
DEFAULT_255_1_234
10
5.9624112
20
42.5910031
40
0.3946393
50
328.8299013
51
331.789948
0
ARC
8
DEFAULT_255_1_234
10
6.0621291
20
42.5395509
40
0.2824501
50
331.4255242
51
352.9364833
0
ARC
8
DEFAULT_255_1_234
10
6.0757791
20
42.5364976
40
0.2685315
50
353.2248685
51
0.0169286
0
ARC
8
DEFAULT_255_1_234
10
6.0967668
20
42.538795
40
0.2475536
50
359.4866256
51
15.9339782
0
ARC
8
DEFAULT_255_1_234
10
6.1474653
20
42.5524286
40
0.1950618
50
16.1714718
51
43.5284424
0
ARC
8
DEFAULT_255_1_234
10
6.1551962
20
42.5601573
40
0.184134
50
43.4415429
51
83.1661404
0
ARC
8
DEFAULT_255_1_234
10
6.141788
20
42.4864771
40
0.258926
50
82.160215
51
90.1505798
0
ARC
8
DEFAULT_255_1_234
10
6.1386308
20
42.4327865
40
0.3126255
50
89.5460705
51
102.5418777
0
ARC
8
DEFAULT_255_1_234
10
6.1143394
20
42.5358665
40
0.2067346
50
102.1739365
51
129.2061916
0
ARC
8
DEFAULT_255_1_234
10
6.1064465
20
42.5483094
40
0.1921118
50
129.7279328
51
135.7542026
0
ARC
8
DEFAULT_255_1_234
10
6.1185993
20
42.5386045
40
0.2075944
50
136.175737
51
166.3674722
0
ARC
8
DEFAULT_255_1_234
10
6.2192912
20
42.5116182
40
0.3118201
50
165.9092917
51
178.8683903
0
ARC
8
DEFAULT_255_1_234
10
6.3057774
20
42.5069179
40
0.3983935
50
178.438168
51
180.0083905
0
ARC
8
DEFAULT_255_1_234
10
6.1656376
20
42.5108231
40
0.4068601
50
163.2878735
51
180.5581814
0
ARC
8
DEFAULT_255_1_234
10
6.0854637
20
42.532884
40
0.3237344
50
133.454115
51
162.9470031
0
ARC
8
DEFAULT_255_1_234
10
6.1033178
20
42.5139
40
0.349795
50
100.7869394
51
133.4384016
0
ARC
8
DEFAULT_255_1_234
10
6.138095
20
42.3590319
40
0.5084616
50
89.6605301
51
101.3704185
0
ARC
8
DEFAULT_255_1_234
10
6.1447289
20
42.3651496
40
0.502348
50
78.2171172
51
90.4130393
0
ARC
8
DEFAULT_255_1_234
10
6.1802367
20
42.5275637
40
0.3361092
50
55.9268222
51
78.4888551
0
ARC
8
DEFAULT_255_1_234
10
6.1998807
20
42.5614324
40
0.2970617
50
47.9292255
51
55.4054003
0
ARC
8
DEFAULT_255_1_234
10
6.2100368
20
42.5717502
40
0.2825983
50
4.3347696
51
48.0560701
0
ARC
8
DEFAULT_255_1_234
10
6.1004761
20
42.5547601
40
0.393225
50
359.925209
51
5.5967654
0
ARC
8
DEFAULT_255_1_234
10
6.1433653
20
42.5603816
40
0.3503892
50
337.8914096
51
358.9967724
0
ARC
8
DEFAULT_255_1_234
10
5.8720065
20
42.6650706
40
0.6412172
50
326.9135351
51
338.3505194
0
ARC
8
DEFAULT_255_1_234
10
5.4734369
20
42.9205284
40
1.1146189
50
319.6472867
51
327.095818
0
ARC
8
DEFAULT_255_1_234
10
5.0901372
20
43.2367
40
1.6114559
50
317.2586784
51
319.9046139
0
LINE
8
DEFAULT_255_1_234
10
6.892075
20
42.2377963
11
6.7732053
21
42.2683169
0
LINE
8
DEFAULT_255_1_234
10
6.7732053
20
42.2683169
11
6.8326402
21
42.8514211
0
LINE
8
DEFAULT_255_1_234
10
6.8326402
20
42.8514211
11
7.4318079
21
42.8514211
0
LINE
8
DEFAULT_255_1_234
10
7.4318079
20
42.8514211
11
7.4318079
21
42.7140784
0
LINE
8
DEFAULT_255_1_234
10
7.4318079
20
42.7140784
11
6.9587385
21
42.7140784
0
LINE
8
DEFAULT_255_1_234
10
6.9587385
20
42.7140784
11
6.9233988
21
42.3952184
0
LINE
8
DEFAULT_255_1_234
10
6.7314403
20
41.9896156
11
6.8719957
21
41.9896156
0
LINE
8
DEFAULT_255_1_234
10
6.9314306
20
42.2699232
11
6.892075
21
42.2377963
0
ARC
8
DEFAULT_255_1_234
10
7.1088772
20
42.077223
40
0.3681349
50
93.7182161
51
120.2538958
0
ARC
8
DEFAULT_255_1_234
10
7.1183035
20
41.9964394
40
0.449379
50
89.9660152
51
94.2496022
0
ARC
8
DEFAULT_255_1_234
10
7.1223769
20
42.0553549
40
0.390482
50
73.8043271
51
90.5585896
0
ARC
8
DEFAULT_255_1_234
10
7.1458666
20
42.1411602
40
0.3015334
50
41.3071453
51
73.5430202
0
ARC
8
DEFAULT_255_1_234
10
7.1042493
20
42.1053324
40
0.3564457
50
13.5075983
51
41.2174222
0
ARC
8
DEFAULT_255_1_234
10
6.9400697
20
42.0623486
40
0.5261351
50
1.1331335
51
13.8829381
0
ARC
8
DEFAULT_255_1_234
10
6.7989066
20
42.0547665
40
0.6674378
50
359.9919444
51
1.544251
0
ARC
8
DEFAULT_255_1_234
10
6.9265892
20
42.050628
40
0.5397702
50
347.8572367
51
0.4293338
0
ARC
8
DEFAULT_255_1_234
10
7.101621
20
42.0109736
40
0.3603188
50
323.673004
51
348.1672506
0
ARC
8
DEFAULT_255_1_234
10
7.1310718
20
41.9930168
40
0.3259678
50
316.8171152
51
323.1492751
0
ARC
8
DEFAULT_255_1_234
10
7.1371907
20
41.989346
40
0.3189975
50
281.8396411
51
316.5457803
0
ARC
8
DEFAULT_255_1_234
10
7.0996171
20
42.1448762
40
0.4789527
50
269.5770101
51
282.4214771
0
ARC
8
DEFAULT_255_1_234
10
7.0924983
20
42.1235125
40
0.45759
50
256.2427136
51
270.4486331
0
ARC
8
DEFAULT_255_1_234
10
7.0625885
20
42.0035229
40
0.3339303
50
228.9023911
51
256.3314342
0
ARC
8
DEFAULT_255_1_234
10
7.0552117
20
41.9918746
40
0.32031
50
193.753695
51
228.5271154
0
ARC
8
DEFAULT_255_1_234
10
7.1790071
20
42.02818
40
0.4492253
50
184.924711
51
194.497588
0
ARC
8
DEFAULT_255_1_234
10
7.1982638
20
42.0317591
40
0.3289787
50
187.3600538
51
198.6732863
0
ARC
8
DEFAULT_255_1_234
10
7.0932932
20
41.9953674
40
0.217884
50
198.4451669
51
217.794479
0
ARC
8
DEFAULT_255_1_234
10
7.0637107
20
41.9744085
40
0.1816698
50
218.2887171
51
228.5612368
0
ARC
8
DEFAULT_255_1_234
10
7.0734894
20
41.9875963
40
0.1980329
50
228.9654866
51
258.1234728
0
ARC
8
DEFAULT_255_1_234
10
7.0940604
20
42.0756833
40
0.2884748
50
257.7258293
51
270.401361
0
ARC
8
DEFAULT_255_1_234
10
7.0985491
20
42.0311821
40
0.2439788
50
269.4204404
51
286.4209037
0
ARC
8
DEFAULT_255_1_234
10
7.1133978
20
41.9772657
40
0.1880666
50
286.7251356
51
320.600362
0
ARC
8
DEFAULT_255_1_234
10
7.0750803
20
42.0083595
40
0.2374121
50
320.6712579
51
344.5441685
0
ARC
8
DEFAULT_255_1_234
10
6.9594129
20
42.0423045
40
0.3579479
50
344.2412205
51
356.7357071
0
ARC
8
DEFAULT_255_1_234
10
6.8345278
20
42.0526444
40
0.4832297
50
356.3548756
51
0.0500261
0
ARC
8
DEFAULT_255_1_234
10
6.9681787
20
42.055765
40
0.3495889
50
359.5576869
51
12.953486
0
ARC
8
DEFAULT_255_1_234
10
7.0736684
20
42.0813434
40
0.2410532
50
12.6490276
51
41.6081334
0
ARC
8
DEFAULT_255_1_234
10
7.0967055
20
42.1009321
40
0.2108218
50
41.7850273
51
85.9892764
0
ARC
8
DEFAULT_255_1_234
10
7.0843792
20
42.0196462
40
0.2928454
50
84.6957577
51
90.0676183
0
ARC
8
DEFAULT_255_1_234
10
7.0820276
20
41.9527716
40
0.3597255
50
89.6804936
51
99.1614436
0
ARC
8
DEFAULT_255_1_234
10
7.0614907
20
42.0755131
40
0.235281
50
98.9830931
51
113.8908934
0
ARC
8
DEFAULT_255_1_234
10
7.0385317
20
42.1296587
40
0.176479
50
114.1950727
51
127.3641004
0
LINE
8
DEFAULT_255_1_234
10
4.4710902
20
48.1431211
11
4.4710902
21
46.9737
0
LINE
8
DEFAULT_255_1_234
10
4.4710902
20
46.9737
11
4.3168808
21
46.9737
0
LINE
8
DEFAULT_255_1_234
10
4.3168808
20
46.9737
11
4.3168808
21
48.1431211
0
LINE
8
DEFAULT_255_1_234
10
4.3168808
20
48.1431211
11
4.4710902
21
48.1431211
0
LINE
8
DEFAULT_255_1_234
10
5.6517557
20
48.1431211
11
5.6517557
21
46.9737
0
LINE
8
DEFAULT_255_1_234
10
5.6517557
20
46.9737
11
5.4967432
21
46.9737
0
LINE
8
DEFAULT_255_1_234
10
5.4967432
20
46.9737
11
4.9080167
21
47.874861
0
LINE
8
DEFAULT_255_1_234
10
4.9080167
20
47.874861
11
4.9080167
21
46.9737
0
LINE
8
DEFAULT_255_1_234
10
4.9080167
20
46.9737
11
4.7530042
21
46.9737
0
LINE
8
DEFAULT_255_1_234
10
4.7530042
20
46.9737
11
4.7530042
21
48.1431211
0
LINE
8
DEFAULT_255_1_234
10
4.7530042
20
48.1431211
11
4.9080167
21
48.1431211
0
LINE
8
DEFAULT_255_1_234
10
4.9080167
20
48.1431211
11
5.4983495
21
47.2379442
0
LINE
8
DEFAULT_255_1_234
10
5.4983495
20
47.2379442
11
5.4983495
21
48.1431211
0
LINE
8
DEFAULT_255_1_234
10
5.4983495
20
48.1431211
11
5.6517557
21
48.1431211
0
LINE
8
DEFAULT_255_1_234
10
6.6533135
20
47.0949792
11
6.6533135
21
46.9737
0
LINE
8
DEFAULT_255_1_234
10
6.6533135
20
46.9737
11
5.8870856
21
46.9737
0
LINE
8
DEFAULT_255_1_234
10
5.8870856
20
46.9737
11
5.8870856
21
47.0805221
0
LINE
8
DEFAULT_255_1_234
10
5.8870856
20
47.0805221
11
6.2918853
21
47.5302995
0
LINE
8
DEFAULT_255_1_234
10
6.0131839
20
47.7985595
11
5.8645968
21
47.7985595
0
LINE
8
DEFAULT_255_1_234
10
6.3794312
20
47.4347218
11
6.0661934
21
47.0949792
0
LINE
8
DEFAULT_255_1_234
10
6.0661934
20
47.0949792
11
6.6533135
21
47.0949792
0
ARC
8
DEFAULT_255_1_234
10
4.9428686
20
48.7232527
40
1.8008286
50
318.5132453
51
320.7828378
0
ARC
8
DEFAULT_255_1_234
10
5.471566
20
48.2929426
40
1.1191493
50
320.7372736
51
323.9737074
0
ARC
8
DEFAULT_255_1_234
10
5.8635517
20
48.0089361
40
0.6350923
50
323.8961724
51
328.6421089
0
ARC
8
DEFAULT_255_1_234
10
6.0682112
20
47.8827031
40
0.3946393
50
328.8299013
51
331.789948
0
ARC
8
DEFAULT_255_1_234
10
6.1679291
20
47.8312509
40
0.2824501
50
331.4255242
51
352.9364833
0
ARC
8
DEFAULT_255_1_234
10
6.1815791
20
47.8281976
40
0.2685315
50
353.2248685
51
0.0169286
0
ARC
8
DEFAULT_255_1_234
10
6.2025668
20
47.830495
40
0.2475536
50
359.4866256
51
15.9339782
0
ARC
8
DEFAULT_255_1_234
10
6.2532653
20
47.8441286
40
0.1950618
50
16.1714718
51
43.5284424
0
ARC
8
DEFAULT_255_1_234
10
6.2609962
20
47.8518573
40
0.184134
50
43.4415429
51
83.1661404
0
ARC
8
DEFAULT_255_1_234
10
6.247588
20
47.7781771
40
0.258926
50
82.160215
51
90.1505798
0
ARC
8
DEFAULT_255_1_234
10
6.2444308
20
47.7244865
40
0.3126255
50
89.5460705
51
102.5418777
0
ARC
8
DEFAULT_255_1_234
10
6.2201394
20
47.8275665
40
0.2067346
50
102.1739365
51
129.2061916
0
ARC
8
DEFAULT_255_1_234
10
6.2122465
20
47.8400094
40
0.1921118
50
129.7279328
51
135.7542026
0
ARC
8
DEFAULT_255_1_234
10
6.2243993
20
47.8303045
40
0.2075944
50
136.175737
51
166.3674722
0
ARC
8
DEFAULT_255_1_234
10
6.3250912
20
47.8033182
40
0.3118201
50
165.9092917
51
178.8683903
0
ARC
8
DEFAULT_255_1_234
10
6.4115774
20
47.7986179
40
0.3983935
50
178.438168
51
180.0083905
0
ARC
8
DEFAULT_255_1_234
10
6.2714376
20
47.8025231
40
0.4068601
50
163.2878735
51
180.5581814
0
ARC
8
DEFAULT_255_1_234
10
6.1912637
20
47.824584
40
0.3237344
50
133.454115
51
162.9470031
0
ARC
8
DEFAULT_255_1_234
10
6.2091178
20
47.8056
40
0.349795
50
100.7869394
51
133.4384016
0
ARC
8
DEFAULT_255_1_234
10
6.243895
20
47.6507319
40
0.5084616
50
89.6605301
51
101.3704185
0
ARC
8
DEFAULT_255_1_234
10
6.2505289
20
47.6568496
40
0.502348
50
78.2171172
51
90.4130393
0
ARC
8
DEFAULT_255_1_234
10
6.2860367
20
47.8192637
40
0.3361092
50
55.9268222
51
78.4888551
0
ARC
8
DEFAULT_255_1_234
10
6.3056807
20
47.8531324
40
0.2970617
50
47.9292255
51
55.4054003
0
ARC
8
DEFAULT_255_1_234
10
6.3158368
20
47.8634502
40
0.2825983
50
4.3347696
51
48.0560701
0
ARC
8
DEFAULT_255_1_234
10
6.2062761
20
47.8464601
40
0.393225
50
359.925209
51
5.5967654
0
ARC
8
DEFAULT_255_1_234
10
6.2491653
20
47.8520816
40
0.3503892
50
337.8914096
51
358.9967724
0
ARC
8
DEFAULT_255_1_234
10
5.9778065
20
47.9567706
40
0.6412172
50
326.9135351
51
338.3505194
0
ARC
8
DEFAULT_255_1_234
10
5.5792369
20
48.2122284
40
1.1146189
50
319.6472867
51
327.095818
0
ARC
8
DEFAULT_255_1_234
10
5.1959372
20
48.5284
40
1.6114559
50
317.2586784
51
319.9046139
0
LINE
8
DEFAULT_255_1_234
10
7.4380143
20
48.1431211
11
7.4380143
21
47.366452
0
LINE
8
DEFAULT_255_1_234
10
7.4380143
20
47.366452
11
7.6002554
21
47.366452
0
LINE
8
DEFAULT_255_1_234
10
7.6002554
20
47.366452
11
7.6002554
21
47.2451728
0
LINE
8
DEFAULT_255_1_234
10
7.6002554
20
47.2451728
11
7.4380143
21
47.2451728
0
LINE
8
DEFAULT_255_1_234
10
7.4380143
20
47.2451728
11
7.4380143
21
46.9737
0
LINE
8
DEFAULT_255_1_234
10
7.4380143
20
46.9737
11
7.288624
21
46.9737
0
LINE
8
DEFAULT_255_1_234
10
7.288624
20
46.9737
11
7.288624
21
47.2451728
0
LINE
8
DEFAULT_255_1_234
10
7.288624
20
47.2451728
11
6.7561197
21
47.2451728
0
LINE
8
DEFAULT_255_1_234
10
6.7561197
20
47.2451728
11
6.7561197
21
47.3327187
0
LINE
8
DEFAULT_255_1_234
10
6.7561197
20
47.3327187
11
7.2797891
21
48.1431211
0
LINE
8
DEFAULT_255_1_234
10
7.2797891
20
48.1431211
11
7.4380143
21
48.1431211
0
LINE
8
DEFAULT_255_1_234
10
7.2709542
20
47.9077912
11
6.9247862
21
47.366452
0
LINE
8
DEFAULT_255_1_234
10
6.9247862
20
47.366452
11
7.288624
21
47.366452
0
LINE
8
DEFAULT_255_1_234
10
7.288624
20
47.366452
11
7.288624
21
47.9399181
0
LINE
8
DEFAULT_255_1_234
10
7.288624
20
47.9399181
11
7.2709542
21
47.9077912
0
LINE
8
DEFAULT_255_1_234
10
4.3652902
20
53.4347211
11
4.3652902
21
52.2653
0
LINE
8
DEFAULT_255_1_234
10
4.3652902
20
52.2653
11
4.2110808
21
52.2653
0
LINE
8
DEFAULT_255_1_234
10
4.2110808
20
52.2653
11
4.2110808
21
53.4347211
0
LINE
8
DEFAULT_255_1_234
10
4.2110808
20
53.4347211
11
4.3652902
21
53.4347211
0
LINE
8
DEFAULT_255_1_234
10
5.5459557
20
53.4347211
11
5.5459557
21
52.2653
0
LINE
8
DEFAULT_255_1_234
10
5.5459557
20
52.2653
11
5.3909432
21
52.2653
0
LINE
8
DEFAULT_255_1_234
10
5.3909432
20
52.2653
11
4.8022167
21
53.166461
0
LINE
8
DEFAULT_255_1_234
10
4.8022167
20
53.166461
11
4.8022167
21
52.2653
0
LINE
8
DEFAULT_255_1_234
10
4.8022167
20
52.2653
11
4.6472042
21
52.2653
0
LINE
8
DEFAULT_255_1_234
10
4.6472042
20
52.2653
11
4.6472042
21
53.4347211
0
LINE
8
DEFAULT_255_1_234
10
4.6472042
20
53.4347211
11
4.8022167
21
53.4347211
0
LINE
8
DEFAULT_255_1_234
10
4.8022167
20
53.4347211
11
5.3925495
21
52.5295442
0
LINE
8
DEFAULT_255_1_234
10
5.3925495
20
52.5295442
11
5.3925495
21
53.4347211
0
LINE
8
DEFAULT_255_1_234
10
5.3925495
20
53.4347211
11
5.5459557
21
53.4347211
0
LINE
8
DEFAULT_255_1_234
10
6.5475135
20
52.3865792
11
6.5475135
21
52.2653
0
LINE
8
DEFAULT_255_1_234
10
6.5475135
20
52.2653
11
5.7812856
21
52.2653
0
LINE
8
DEFAULT_255_1_234
10
5.7812856
20
52.2653
11
5.7812856
21
52.3721221
0
LINE
8
DEFAULT_255_1_234
10
5.7812856
20
52.3721221
11
6.1860853
21
52.8218995
0
LINE
8
DEFAULT_255_1_234
10
5.9073839
20
53.0901595
11
5.7587968
21
53.0901595
0
LINE
8
DEFAULT_255_1_234
10
6.2736312
20
52.7263218
11
5.9603934
21
52.3865792
0
LINE
8
DEFAULT_255_1_234
10
5.9603934
20
52.3865792
11
6.5475135
21
52.3865792
0
ARC
8
DEFAULT_255_1_234
10
4.8370686
20
54.0148527
40
1.8008286
50
318.5132453
51
320.7828378
0
ARC
8
DEFAULT_255_1_234
10
5.365766
20
53.5845426
40
1.1191493
50
320.7372736
51
323.9737074
0
ARC
8
DEFAULT_255_1_234
10
5.7577517
20
53.3005361
40
0.6350923
50
323.8961724
51
328.6421089
0
ARC
8
DEFAULT_255_1_234
10
5.9624112
20
53.1743031
40
0.3946393
50
328.8299013
51
331.789948
0
ARC
8
DEFAULT_255_1_234
10
6.0621291
20
53.1228509
40
0.2824501
50
331.4255242
51
352.9364833
0
ARC
8
DEFAULT_255_1_234
10
6.0757791
20
53.1197976
40
0.2685315
50
353.2248685
51
0.0169286
0
ARC
8
DEFAULT_255_1_234
10
6.0967668
20
53.122095
40
0.2475536
50
359.4866256
51
15.9339782
0
ARC
8
DEFAULT_255_1_234
10
6.1474653
20
53.1357286
40
0.1950618
50
16.1714718
51
43.5284424
0
ARC
8
DEFAULT_255_1_234
10
6.1551962
20
53.1434573
40
0.184134
50
43.4415429
51
83.1661404
0
ARC
8
DEFAULT_255_1_234
10
6.141788
20
53.0697771
40
0.258926
50
82.160215
51
90.1505798
0
ARC
8
DEFAULT_255_1_234
10
6.1386308
20
53.0160865
40
0.3126255
50
89.5460705
51
102.5418777
0
ARC
8
DEFAULT_255_1_234
10
6.1143394
20
53.1191665
40
0.2067346
50
102.1739365
51
129.2061916
0
ARC
8
DEFAULT_255_1_234
10
6.1064465
20
53.1316094
40
0.1921118
50
129.7279328
51
135.7542026
0
ARC
8
DEFAULT_255_1_234
10
6.1185993
20
53.1219045
40
0.2075944
50
136.175737
51
166.3674722
0
ARC
8
DEFAULT_255_1_234
10
6.2192912
20
53.0949182
40
0.3118201
50
165.9092917
51
178.8683903
0
ARC
8
DEFAULT_255_1_234
10
6.3057774
20
53.0902179
40
0.3983935
50
178.438168
51
180.0083905
0
ARC
8
DEFAULT_255_1_234
10
6.1656376
20
53.0941231
40
0.4068601
50
163.2878735
51
180.5581814
0
ARC
8
DEFAULT_255_1_234
10
6.0854637
20
53.116184
40
0.3237344
50
133.454115
51
162.9470031
0
ARC
8
DEFAULT_255_1_234
10
6.1033178
20
53.0972
40
0.349795
50
100.7869394
51
133.4384016
0
ARC
8
DEFAULT_255_1_234
10
6.138095
20
52.9423319
40
0.5084616
50
89.6605301
51
101.3704185
0
ARC
8
DEFAULT_255_1_234
10
6.1447289
20
52.9484496
40
0.502348
50
78.2171172
51
90.4130393
0
ARC
8
DEFAULT_255_1_234
10
6.1802367
20
53.1108637
40
0.3361092
50
55.9268222
51
78.4888551
0
ARC
8
DEFAULT_255_1_234
10
6.1998807
20
53.1447324
40
0.2970617
50
47.9292255
51
55.4054003
0
ARC
8
DEFAULT_255_1_234
10
6.2100368
20
53.1550502
40
0.2825983
50
4.3347696
51
48.0560701
0
ARC
8
DEFAULT_255_1_234
10
6.1004761
20
53.1380601
40
0.393225
50
359.925209
51
5.5967654
0
ARC
8
DEFAULT_255_1_234
10
6.1433653
20
53.1436816
40
0.3503892
50
337.8914096
51
358.9967724
0
ARC
8
DEFAULT_255_1_234
10
5.8720065
20
53.2483706
40
0.6412172
50
326.9135351
51
338.3505194
0
ARC
8
DEFAULT_255_1_234
10
5.4734369
20
53.5038284
40
1.1146189
50
319.6472867
51
327.095818
0
ARC
8
DEFAULT_255_1_234
10
5.0901372
20
53.82
40
1.6114559
50
317.2586784
51
319.9046139
0
LINE
8
DEFAULT_255_1_234
10
6.9209893
20
52.8010169
11
6.9209893
21
52.9222962
0
LINE
8
DEFAULT_255_1_234
10
6.9209893
20
52.9222962
11
7.0326305
21
52.9222962
0
LINE
8
DEFAULT_255_1_234
10
6.8422783
20
53.1279087
11
6.6936911
21
53.1279087
0
LINE
8
DEFAULT_255_1_234
10
6.6832499
20
52.5737188
11
6.8326402
21
52.5737188
0
LINE
8
DEFAULT_255_1_234
10
7.0326305
20
52.8010169
11
6.9209893
21
52.8010169
0
ARC
8
DEFAULT_255_1_234
10
7.0297171
20
53.2615713
40
0.3392876
50
270.4919872
51
281.8951556
0
ARC
8
DEFAULT_255_1_234
10
7.0538433
20
53.1513702
40
0.2264817
50
281.6691735
51
301.2943132
0
ARC
8
DEFAULT_255_1_234
10
7.0708643
20
53.1202304
40
0.1910381
50
301.7833094
51
311.7545298
0
ARC
8
DEFAULT_255_1_234
10
7.0800219
20
53.1100748
40
0.1773635
50
311.7323931
51
354.2802411
0
ARC
8
DEFAULT_255_1_234
10
7.0073844
20
53.1225722
40
0.2509385
50
353.0937916
51
0.1181479
0
ARC
8
DEFAULT_255_1_234
10
6.9612629
20
53.1273386
40
0.2970898
50
359.1805295
51
15.0453146
0
ARC
8
DEFAULT_255_1_234
10
7.0958466
20
53.1665992
40
0.1569564
50
13.9577229
51
77.6713066
0
ARC
8
DEFAULT_255_1_234
10
7.0571995
20
53.0280949
40
0.3006298
50
76.1116566
51
90.7026153
0
ARC
8
DEFAULT_255_1_234
10
7.0512833
20
53.0554545
40
0.2732568
50
89.5324876
51
103.531937
0
ARC
8
DEFAULT_255_1_234
10
7.0312278
20
53.1353884
40
0.1908508
50
103.2931773
51
133.5619022
0
ARC
8
DEFAULT_255_1_234
10
7.0267766
20
53.1413375
40
0.1834746
50
133.8349307
51
173.5344437
0
ARC
8
DEFAULT_255_1_234
10
7.0990809
20
53.1285213
40
0.2568033
50
172.5096846
51
180.1366907
0
ARC
8
DEFAULT_255_1_234
10
7.0039703
20
53.1319622
40
0.3103056
50
155.3484492
51
180.7484736
0
ARC
8
DEFAULT_255_1_234
10
6.9990792
20
53.1290846
40
0.3070957
50
131.5744599
51
154.4798489
0
ARC
8
DEFAULT_255_1_234
10
7.0303939
20
53.097431
40
0.3515643
50
96.9875458
51
131.9690667
0
ARC
8
DEFAULT_255_1_234
10
7.0523419
20
52.9728636
40
0.4779224
50
89.8596053
51
97.7825159
0
ARC
8
DEFAULT_255_1_234
10
7.0571482
20
52.9466616
40
0.5041361
50
78.3655447
51
90.4131539
0
ARC
8
DEFAULT_255_1_234
10
7.09294
20
53.1125887
40
0.3344039
50
56.6229102
51
78.638727
0
ARC
8
DEFAULT_255_1_234
10
7.1144344
20
53.1501805
40
0.2912001
50
47.0253525
51
56.0854072
0
ARC
8
DEFAULT_255_1_234
10
7.1164124
20
53.1541223
40
0.2869704
50
10.9208013
51
46.7778124
0
ARC
8
DEFAULT_255_1_234
10
6.980019
20
53.1225857
40
0.426899
50
359.6364486
51
11.6087304
0
ARC
8
DEFAULT_255_1_234
10
7.1635035
20
53.1210752
40
0.243409
50
332.3549906
51
359.7179418
0
ARC
8
DEFAULT_255_1_234
10
7.0984636
20
53.1519142
40
0.3153459
50
325.2333722
51
332.8745602
0
ARC
8
DEFAULT_255_1_234
10
7.113726
20
53.1412828
40
0.2967456
50
292.9802137
51
325.2392345
0
ARC
8
DEFAULT_255_1_234
10
7.0862634
20
53.1946863
40
0.3566604
50
292.5402179
51
293.6924929
0
ARC
8
DEFAULT_255_1_234
10
7.1255229
20
52.5492091
40
0.3307468
50
57.6435486
51
72.8625112
0
ARC
8
DEFAULT_255_1_234
10
7.1609729
20
52.6066549
40
0.2632492
50
36.7248896
51
57.4697979
0
ARC
8
DEFAULT_255_1_234
10
7.1598362
20
52.607922
40
0.2634081
50
8.0545065
51
36.356114
0
ARC
8
DEFAULT_255_1_234
10
7.0735547
20
52.5924174
40
0.3510261
50
359.8320645
51
8.5869982
0
ARC
8
DEFAULT_255_1_234
10
7.0360323
20
52.5876101
40
0.3885653
50
343.9829931
51
0.5571613
0
ARC
8
DEFAULT_255_1_234
10
7.1246521
20
52.5633438
40
0.2966924
50
311.6359546
51
343.7651759
0
ARC
8
DEFAULT_255_1_234
10
7.086809
20
52.6060102
40
0.3537231
50
279.7829875
51
311.6255694
0
ARC
8
DEFAULT_255_1_234
10
7.0566866
20
52.749728
40
0.5004971
50
269.7286406
51
280.3856417
0
ARC
8
DEFAULT_255_1_234
10
7.0504939
20
52.7455996
40
0.4963778
50
256.6828919
51
270.4412052
0
ARC
8
DEFAULT_255_1_234
10
7.0166234
20
52.6071394
40
0.3538406
50
229.4223008
51
256.8556159
0
ARC
8
DEFAULT_255_1_234
10
6.9751627
20
52.5604736
40
0.2914296
50
181.818294
51
229.6455059
0
ARC
8
DEFAULT_255_1_234
10
7.0791583
20
52.5735496
40
0.3959084
50
179.9755256
51
183.2323064
0
ARC
8
DEFAULT_255_1_234
10
7.0619329
20
52.5715037
40
0.2293034
50
179.4465117
51
196.2869258
0
ARC
8
DEFAULT_255_1_234
10
7.0131737
20
52.5581651
40
0.1787621
50
196.5661473
51
227.705904
0
ARC
8
DEFAULT_255_1_234
10
7.0295832
20
52.5765155
40
0.2033784
50
227.7652068
51
257.8762805
0
ARC
8
DEFAULT_255_1_234
10
7.0520802
20
52.6708156
40
0.3003081
50
257.4584385
51
270.426602
0
ARC
8
DEFAULT_255_1_234
10
7.0566368
20
52.6997996
40
0.329292
50
269.5962073
51
280.8789248
0
ARC
8
DEFAULT_255_1_234
10
7.0795897
20
52.5851685
40
0.2123908
50
280.6346389
51
299.8595945
0
ARC
8
DEFAULT_255_1_234
10
7.0986804
20
52.5489212
40
0.171457
50
300.3576302
51
314.5517981
0
ARC
8
DEFAULT_255_1_234
10
7.0903864
20
52.5549919
40
0.1816095
50
315.0728369
51
345.0431014
0
ARC
8
DEFAULT_255_1_234
10
6.9980678
20
52.5818841
40
0.2777492
50
344.5986631
51
357.9269593
0
ARC
8
DEFAULT_255_1_234
10
6.9085005
20
52.5880276
40
0.3674917
50
357.4748886
51
0.0231117
0
ARC
8
DEFAULT_255_1_234
10
7.0108114
20
52.5904679
40
0.2651907
50
359.5047933
51
13.4239635
0
ARC
8
DEFAULT_255_1_234
10
7.0974758
20
52.6126478
40
0.1757509
50
12.9498199
51
48.7551375
0
ARC
8
DEFAULT_255_1_234
10
7.0792492
20
52.58774
40
0.2065134
50
49.5088623
51
72.1836453
0
ARC
8
DEFAULT_255_1_234
10
7.0434644
20
52.4815291
40
0.3185836
50
71.9010081
51
84.3554254
0
ARC
8
DEFAULT_255_1_234
10
7.0273276
20
52.3454326
40
0.4556151
50
84.0193428
51
89.333121
0
LINE
8
DEFAULT_255_1_234
10
4.3652902
20
58.7264211
11
4.3652902
21
57.557
0
LINE
8
DEFAULT_255_1_234
10
4.3652902
20
57.557
11
4.2110808
21
57.557
0
LINE
8
DEFAULT_255_1_234
10
4.2110808
20
57.557
11
4.2110808
21
58.7264211
0
LINE
8
DEFAULT_255_1_234
10
4.2110808
20
58.7264211
11
4.3652902
21
58.7264211
0
LINE
8
DEFAULT_255_1_234
10
5.5459557
20
58.7264211
11
5.5459557
21
57.557
0
LINE
8
DEFAULT_255_1_234
10
5.5459557
20
57.557
11
5.3909432
21
57.557
0
LINE
8
DEFAULT_255_1_234
10
5.3909432
20
57.557
11
4.8022167
21
58.458161
0
LINE
8
DEFAULT_255_1_234
10
4.8022167
20
58.458161
11
4.8022167
21
57.557
0
LINE
8
DEFAULT_255_1_234
10
4.8022167
20
57.557
11
4.6472042
21
57.557
0
LINE
8
DEFAULT_255_1_234
10
4.6472042
20
57.557
11
4.6472042
21
58.7264211
0
LINE
8
DEFAULT_255_1_234
10
4.6472042
20
58.7264211
11
4.8022167
21
58.7264211
0
LINE
8
DEFAULT_255_1_234
10
4.8022167
20
58.7264211
11
5.3925495
21
57.8212442
0
LINE
8
DEFAULT_255_1_234
10
5.3925495
20
57.8212442
11
5.3925495
21
58.7264211
0
LINE
8
DEFAULT_255_1_234
10
5.3925495
20
58.7264211
11
5.5459557
21
58.7264211
0
LINE
8
DEFAULT_255_1_234
10
6.5475135
20
57.6782792
11
6.5475135
21
57.557
0
LINE
8
DEFAULT_255_1_234
10
6.5475135
20
57.557
11
5.7812856
21
57.557
0
LINE
8
DEFAULT_255_1_234
10
5.7812856
20
57.557
11
5.7812856
21
57.6638221
0
LINE
8
DEFAULT_255_1_234
10
5.7812856
20
57.6638221
11
6.1860853
21
58.1135995
0
LINE
8
DEFAULT_255_1_234
10
5.9073839
20
58.3818595
11
5.7587968
21
58.3818595
0
LINE
8
DEFAULT_255_1_234
10
6.2736312
20
58.0180218
11
5.9603934
21
57.6782792
0
LINE
8
DEFAULT_255_1_234
10
5.9603934
20
57.6782792
11
6.5475135
21
57.6782792
0
ARC
8
DEFAULT_255_1_234
10
4.8370686
20
59.3065527
40
1.8008286
50
318.5132453
51
320.7828378
0
ARC
8
DEFAULT_255_1_234
10
5.365766
20
58.8762426
40
1.1191493
50
320.7372736
51
323.9737074
0
ARC
8
DEFAULT_255_1_234
10
5.7577517
20
58.5922361
40
0.6350923
50
323.8961724
51
328.6421089
0
ARC
8
DEFAULT_255_1_234
10
5.9624112
20
58.4660031
40
0.3946393
50
328.8299013
51
331.789948
0
ARC
8
DEFAULT_255_1_234
10
6.0621291
20
58.4145509
40
0.2824501
50
331.4255242
51
352.9364833
0
ARC
8
DEFAULT_255_1_234
10
6.0757791
20
58.4114976
40
0.2685315
50
353.2248685
51
0.0169286
0
ARC
8
DEFAULT_255_1_234
10
6.0967668
20
58.413795
40
0.2475536
50
359.4866256
51
15.9339782
0
ARC
8
DEFAULT_255_1_234
10
6.1474653
20
58.4274286
40
0.1950618
50
16.1714718
51
43.5284424
0
ARC
8
DEFAULT_255_1_234
10
6.1551962
20
58.4351573
40
0.184134
50
43.4415429
51
83.1661404
0
ARC
8
DEFAULT_255_1_234
10
6.141788
20
58.3614771
40
0.258926
50
82.160215
51
90.1505798
0
ARC
8
DEFAULT_255_1_234
10
6.1386308
20
58.3077865
40
0.3126255
50
89.5460705
51
102.5418777
0
ARC
8
DEFAULT_255_1_234
10
6.1143394
20
58.4108665
40
0.2067346
50
102.1739365
51
129.2061916
0
ARC
8
DEFAULT_255_1_234
10
6.1064465
20
58.4233094
40
0.1921118
50
129.7279328
51
135.7542026
0
ARC
8
DEFAULT_255_1_234
10
6.1185993
20
58.4136045
40
0.2075944
50
136.175737
51
166.3674722
0
ARC
8
DEFAULT_255_1_234
10
6.2192912
20
58.3866182
40
0.3118201
50
165.9092917
51
178.8683903
0
ARC
8
DEFAULT_255_1_234
10
6.3057774
20
58.3819179
40
0.3983935
50
178.438168
51
180.0083905
0
ARC
8
DEFAULT_255_1_234
10
6.1656376
20
58.3858231
40
0.4068601
50
163.2878735
51
180.5581814
0
ARC
8
DEFAULT_255_1_234
10
6.0854637
20
58.407884
40
0.3237344
50
133.454115
51
162.9470031
0
ARC
8
DEFAULT_255_1_234
10
6.1033178
20
58.3889
40
0.349795
50
100.7869394
51
133.4384016
0
ARC
8
DEFAULT_255_1_234
10
6.138095
20
58.2340319
40
0.5084616
50
89.6605301
51
101.3704185
0
ARC
8
DEFAULT_255_1_234
10
6.1447289
20
58.2401496
40
0.502348
50
78.2171172
51
90.4130393
0
ARC
8
DEFAULT_255_1_234
10
6.1802367
20
58.4025637
40
0.3361092
50
55.9268222
51
78.4888551
0
ARC
8
DEFAULT_255_1_234
10
6.1998807
20
58.4364324
40
0.2970617
50
47.9292255
51
55.4054003
0
ARC
8
DEFAULT_255_1_234
10
6.2100368
20
58.4467502
40
0.2825983
50
4.3347696
51
48.0560701
0
ARC
8
DEFAULT_255_1_234
10
6.1004761
20
58.4297601
40
0.393225
50
359.925209
51
5.5967654
0
ARC
8
DEFAULT_255_1_234
10
6.1433653
20
58.4353816
40
0.3503892
50
337.8914096
51
358.9967724
0
ARC
8
DEFAULT_255_1_234
10
5.8720065
20
58.5400706
40
0.6412172
50
326.9135351
51
338.3505194
0
ARC
8
DEFAULT_255_1_234
10
5.4734369
20
58.7955284
40
1.1146189
50
319.6472867
51
327.095818
0
ARC
8
DEFAULT_255_1_234
10
5.0901372
20
59.1117
40
1.6114559
50
317.2586784
51
319.9046139
0
LINE
8
DEFAULT_255_1_234
10
7.4711634
20
57.6782792
11
7.4711634
21
57.557
0
LINE
8
DEFAULT_255_1_234
10
7.4711634
20
57.557
11
6.7049355
21
57.557
0
LINE
8
DEFAULT_255_1_234
10
6.7049355
20
57.557
11
6.7049355
21
57.6638221
0
LINE
8
DEFAULT_255_1_234
10
6.7049355
20
57.6638221
11
7.1097352
21
58.1135995
0
LINE
8
DEFAULT_255_1_234
10
6.8310338
20
58.3818595
11
6.6824467
21
58.3818595
0
LINE
8
DEFAULT_255_1_234
10
7.1972811
20
58.0180218
11
6.8840433
21
57.6782792
0
LINE
8
DEFAULT_255_1_234
10
6.8840433
20
57.6782792
11
7.4711634
21
57.6782792
0
ARC
8
DEFAULT_255_1_234
10
5.7607185
20
59.3065527
40
1.8008286
50
318.5132453
51
320.7828378
0
ARC
8
DEFAULT_255_1_234
10
6.2894159
20
58.8762426
40
1.1191493
50
320.7372736
51
323.9737074
0
ARC
8
DEFAULT_255_1_234
10
6.6814016
20
58.5922361
40
0.6350923
50
323.8961724
51
328.6421089
0
ARC
8
DEFAULT_255_1_234
10
6.8860611
20
58.4660031
40
0.3946393
50
328.8299013
51
331.789948
0
ARC
8
DEFAULT_255_1_234
10
6.985779
20
58.4145509
40
0.2824501
50
331.4255242
51
352.9364833
0
ARC
8
DEFAULT_255_1_234
10
6.999429
20
58.4114976
40
0.2685315
50
353.2248685
51
0.0169286
0
ARC
8
DEFAULT_255_1_234
10
7.0204167
20
58.413795
40
0.2475536
50
359.4866256
51
15.9339782
0
ARC
8
DEFAULT_255_1_234
10
7.0711152
20
58.4274286
40
0.1950618
50
16.1714718
51
43.5284424
0
ARC
8
DEFAULT_255_1_234
10
7.0788461
20
58.4351573
40
0.184134
50
43.4415429
51
83.1661404
0
ARC
8
DEFAULT_255_1_234
10
7.0654379
20
58.3614771
40
0.258926
50
82.160215
51
90.1505798
0
ARC
8
DEFAULT_255_1_234
10
7.0622807
20
58.3077865
40
0.3126255
50
89.5460705
51
102.5418777
0
ARC
8
DEFAULT_255_1_234
10
7.0379893
20
58.4108665
40
0.2067346
50
102.1739365
51
129.2061916
0
ARC
8
DEFAULT_255_1_234
10
7.0300964
20
58.4233094
40
0.1921118
50
129.7279328
51
135.7542026
0
ARC
8
DEFAULT_255_1_234
10
7.0422492
20
58.4136045
40
0.2075944
50
136.175737
51
166.3674722
0
ARC
8
DEFAULT_255_1_234
10
7.1429411
20
58.3866182
40
0.3118201
50
165.9092917
51
178.8683903
0
ARC
8
DEFAULT_255_1_234
10
7.2294273
20
58.3819179
40
0.3983935
50
178.438168
51
180.0083905
0
ARC
8
DEFAULT_255_1_234
10
7.0892875
20
58.3858231
40
0.4068601
50
163.2878735
51
180.5581814
0
ARC
8
DEFAULT_255_1_234
10
7.0091136
20
58.407884
40
0.3237344
50
133.454115
51
162.9470031
0
ARC
8
DEFAULT_255_1_234
10
7.0269677
20
58.3889
40
0.349795
50
100.7869394
51
133.4384016
0
ARC
8
DEFAULT_255_1_234
10
7.0617449
20
58.2340319
40
0.5084616
50
89.6605301
51
101.3704185
0
ARC
8
DEFAULT_255_1_234
10
7.0683788
20
58.2401496
40
0.502348
50
78.2171172
51
90.4130393
0
ARC
8
DEFAULT_255_1_234
10
7.1038866
20
58.4025637
40
0.3361092
50
55.9268222
51
78.4888551
0
ARC
8
DEFAULT_255_1_234
10
7.1235306
20
58.4364324
40
0.2970617
50
47.9292255
51
55.4054003
0
ARC
8
DEFAULT_255_1_234
10
7.1336867
20
58.4467502
40
0.2825983
50
4.3347696
51
48.0560701
0
ARC
8
DEFAULT_255_1_234
10
7.024126
20
58.4297601
40
0.393225
50
359.925209
51
5.5967654
0
ARC
8
DEFAULT_255_1_234
10
7.0670152
20
58.4353816
40
0.3503892
50
337.8914096
51
358.9967724
0
ARC
8
DEFAULT_255_1_234
10
6.7956564
20
58.5400706
40
0.6412172
50
326.9135351
51
338.3505194
0
ARC
8
DEFAULT_255_1_234
10
6.3970868
20
58.7955284
40
1.1146189
50
319.6472867
51
327.095818
0
ARC
8
DEFAULT_255_1_234
10
6.0137871
20
59.1117
40
1.6114559
50
317.2586784
51
319.9046139
0
LINE
8
DEFAULT_255_1_234
10
4.3570902
20
64.0181211
11
4.3570902
21
62.8487
0
LINE
8
DEFAULT_255_1_234
10
4.3570902
20
62.8487
11
4.2028808
21
62.8487
0
LINE
8
DEFAULT_255_1_234
10
4.2028808
20
62.8487
11
4.2028808
21
64.0181211
0
LINE
8
DEFAULT_255_1_234
10
4.2028808
20
64.0181211
11
4.3570902
21
64.0181211
0
LINE
8
DEFAULT_255_1_234
10
5.5377557
20
64.0181211
11
5.5377557
21
62.8487
0
LINE
8
DEFAULT_255_1_234
10
5.5377557
20
62.8487
11
5.3827432
21
62.8487
0
LINE
8
DEFAULT_255_1_234
10
5.3827432
20
62.8487
11
4.7940167
21
63.749861
0
LINE
8
DEFAULT_255_1_234
10
4.7940167
20
63.749861
11
4.7940167
21
62.8487
0
LINE
8
DEFAULT_255_1_234
10
4.7940167
20
62.8487
11
4.6390042
21
62.8487
0
LINE
8
DEFAULT_255_1_234
10
4.6390042
20
62.8487
11
4.6390042
21
64.0181211
0
LINE
8
DEFAULT_255_1_234
10
4.6390042
20
64.0181211
11
4.7940167
21
64.0181211
0
LINE
8
DEFAULT_255_1_234
10
4.7940167
20
64.0181211
11
5.3843495
21
63.1129442
0
LINE
8
DEFAULT_255_1_234
10
5.3843495
20
63.1129442
11
5.3843495
21
64.0181211
0
LINE
8
DEFAULT_255_1_234
10
5.3843495
20
64.0181211
11
5.5377557
21
64.0181211
0
LINE
8
DEFAULT_255_1_234
10
6.5393135
20
62.9699792
11
6.5393135
21
62.8487
0
LINE
8
DEFAULT_255_1_234
10
6.5393135
20
62.8487
11
5.7730856
21
62.8487
0
LINE
8
DEFAULT_255_1_234
10
5.7730856
20
62.8487
11
5.7730856
21
62.9555221
0
LINE
8
DEFAULT_255_1_234
10
5.7730856
20
62.9555221
11
6.1778853
21
63.4052995
0
LINE
8
DEFAULT_255_1_234
10
5.8991839
20
63.6735595
11
5.7505968
21
63.6735595
0
LINE
8
DEFAULT_255_1_234
10
6.2654312
20
63.3097218
11
5.9521934
21
62.9699792
0
LINE
8
DEFAULT_255_1_234
10
5.9521934
20
62.9699792
11
6.5393135
21
62.9699792
0
ARC
8
DEFAULT_255_1_234
10
4.8288686
20
64.5982527
40
1.8008286
50
318.5132453
51
320.7828378
0
ARC
8
DEFAULT_255_1_234
10
5.357566
20
64.1679426
40
1.1191493
50
320.7372736
51
323.9737074
0
ARC
8
DEFAULT_255_1_234
10
5.7495517
20
63.8839361
40
0.6350923
50
323.8961724
51
328.6421089
0
ARC
8
DEFAULT_255_1_234
10
5.9542112
20
63.7577031
40
0.3946393
50
328.8299013
51
331.789948
0
ARC
8
DEFAULT_255_1_234
10
6.0539291
20
63.7062509
40
0.2824501
50
331.4255242
51
352.9364833
0
ARC
8
DEFAULT_255_1_234
10
6.0675791
20
63.7031976
40
0.2685315
50
353.2248685
51
0.0169286
0
ARC
8
DEFAULT_255_1_234
10
6.0885668
20
63.705495
40
0.2475536
50
359.4866256
51
15.9339782
0
ARC
8
DEFAULT_255_1_234
10
6.1392653
20
63.7191286
40
0.1950618
50
16.1714718
51
43.5284424
0
ARC
8
DEFAULT_255_1_234
10
6.1469962
20
63.7268573
40
0.184134
50
43.4415429
51
83.1661404
0
ARC
8
DEFAULT_255_1_234
10
6.133588
20
63.6531771
40
0.258926
50
82.160215
51
90.1505798
0
ARC
8
DEFAULT_255_1_234
10
6.1304308
20
63.5994865
40
0.3126255
50
89.5460705
51
102.5418777
0
ARC
8
DEFAULT_255_1_234
10
6.1061394
20
63.7025665
40
0.2067346
50
102.1739365
51
129.2061916
0
ARC
8
DEFAULT_255_1_234
10
6.0982465
20
63.7150094
40
0.1921118
50
129.7279328
51
135.7542026
0
ARC
8
DEFAULT_255_1_234
10
6.1103993
20
63.7053045
40
0.2075944
50
136.175737
51
166.3674722
0
ARC
8
DEFAULT_255_1_234
10
6.2110912
20
63.6783182
40
0.3118201
50
165.9092917
51
178.8683903
0
ARC
8
DEFAULT_255_1_234
10
6.2975774
20
63.6736179
40
0.3983935
50
178.438168
51
180.0083905
0
ARC
8
DEFAULT_255_1_234
10
6.1574376
20
63.6775231
40
0.4068601
50
163.2878735
51
180.5581814
0
ARC
8
DEFAULT_255_1_234
10
6.0772637
20
63.699584
40
0.3237344
50
133.454115
51
162.9470031
0
ARC
8
DEFAULT_255_1_234
10
6.0951178
20
63.6806
40
0.349795
50
100.7869394
51
133.4384016
0
ARC
8
DEFAULT_255_1_234
10
6.129895
20
63.5257319
40
0.5084616
50
89.6605301
51
101.3704185
0
ARC
8
DEFAULT_255_1_234
10
6.1365289
20
63.5318496
40
0.502348
50
78.2171172
51
90.4130393
0
ARC
8
DEFAULT_255_1_234
10
6.1720367
20
63.6942637
40
0.3361092
50
55.9268222
51
78.4888551
0
ARC
8
DEFAULT_255_1_234
10
6.1916807
20
63.7281324
40
0.2970617
50
47.9292255
51
55.4054003
0
ARC
8
DEFAULT_255_1_234
10
6.2018368
20
63.7384502
40
0.2825983
50
4.3347696
51
48.0560701
0
ARC
8
DEFAULT_255_1_234
10
6.0922761
20
63.7214601
40
0.393225
50
359.925209
51
5.5967654
0
ARC
8
DEFAULT_255_1_234
10
6.1351653
20
63.7270816
40
0.3503892
50
337.8914096
51
358.9967724
0
ARC
8
DEFAULT_255_1_234
10
5.8638065
20
63.8317706
40
0.6412172
50
326.9135351
51
338.3505194
0
ARC
8
DEFAULT_255_1_234
10
5.4652369
20
64.0872284
40
1.1146189
50
319.6472867
51
327.095818
0
ARC
8
DEFAULT_255_1_234
10
5.0819372
20
64.4034
40
1.6114559
50
317.2586784
51
319.9046139
0
LINE
8
DEFAULT_255_1_234
10
7.1850652
20
64.0237433
11
7.1850652
21
62.8487
0
LINE
8
DEFAULT_255_1_234
10
7.1850652
20
62.8487
11
7.0356749
21
62.8487
0
LINE
8
DEFAULT_255_1_234
10
7.0356749
20
62.8487
11
7.0356749
21
63.8390133
0
LINE
8
DEFAULT_255_1_234
10
7.0356749
20
63.8390133
11
6.7360911
21
63.7289785
0
LINE
8
DEFAULT_255_1_234
10
6.7360911
20
63.7289785
11
6.7360911
21
63.8639117
0
LINE
8
DEFAULT_255_1_234
10
6.7360911
20
63.8639117
11
7.1617732
21
64.0237433
0
LINE
8
DEFAULT_255_1_234
10
7.1617732
20
64.0237433
11
7.1850652
21
64.0237433
0
LINE
8
DEFAULT_255_1_234
10
4.3652902
20
69.3097211
11
4.3652902
21
68.1403
0
LINE
8
DEFAULT_255_1_234
10
4.3652902
20
68.1403
11
4.2110808
21
68.1403
0
LINE
8
DEFAULT_255_1_234
10
4.2110808
20
68.1403
11
4.2110808
21
69.3097211
0
LINE
8
DEFAULT_255_1_234
10
4.2110808
20
69.3097211
11
4.3652902
21
69.3097211
0
LINE
8
DEFAULT_255_1_234
10
5.5459557
20
69.3097211
11
5.5459557
21
68.1403
0
LINE
8
DEFAULT_255_1_234
10
5.5459557
20
68.1403
11
5.3909432
21
68.1403
0
LINE
8
DEFAULT_255_1_234
10
5.3909432
20
68.1403
11
4.8022167
21
69.041461
0
LINE
8
DEFAULT_255_1_234
10
4.8022167
20
69.041461
11
4.8022167
21
68.1403
0
LINE
8
DEFAULT_255_1_234
10
4.8022167
20
68.1403
11
4.6472042
21
68.1403
0
LINE
8
DEFAULT_255_1_234
10
4.6472042
20
68.1403
11
4.6472042
21
69.3097211
0
LINE
8
DEFAULT_255_1_234
10
4.6472042
20
69.3097211
11
4.8022167
21
69.3097211
0
LINE
8
DEFAULT_255_1_234
10
4.8022167
20
69.3097211
11
5.3925495
21
68.4045442
0
LINE
8
DEFAULT_255_1_234
10
5.3925495
20
68.4045442
11
5.3925495
21
69.3097211
0
LINE
8
DEFAULT_255_1_234
10
5.3925495
20
69.3097211
11
5.5459557
21
69.3097211
0
LINE
8
DEFAULT_255_1_234
10
6.5475135
20
68.2615792
11
6.5475135
21
68.1403
0
LINE
8
DEFAULT_255_1_234
10
6.5475135
20
68.1403
11
5.7812856
21
68.1403
0
LINE
8
DEFAULT_255_1_234
10
5.7812856
20
68.1403
11
5.7812856
21
68.2471221
0
LINE
8
DEFAULT_255_1_234
10
5.7812856
20
68.2471221
11
6.1860853
21
68.6968995
0
LINE
8
DEFAULT_255_1_234
10
5.9073839
20
68.9651595
11
5.7587968
21
68.9651595
0
LINE
8
DEFAULT_255_1_234
10
6.2736312
20
68.6013218
11
5.9603934
21
68.2615792
0
LINE
8
DEFAULT_255_1_234
10
5.9603934
20
68.2615792
11
6.5475135
21
68.2615792
0
ARC
8
DEFAULT_255_1_234
10
4.8370686
20
69.8898527
40
1.8008286
50
318.5132453
51
320.7828378
0
ARC
8
DEFAULT_255_1_234
10
5.365766
20
69.4595426
40
1.1191493
50
320.7372736
51
323.9737074
0
ARC
8
DEFAULT_255_1_234
10
5.7577517
20
69.1755361
40
0.6350923
50
323.8961724
51
328.6421089
0
ARC
8
DEFAULT_255_1_234
10
5.9624112
20
69.0493031
40
0.3946393
50
328.8299013
51
331.789948
0
ARC
8
DEFAULT_255_1_234
10
6.0621291
20
68.9978509
40
0.2824501
50
331.4255242
51
352.9364833
0
ARC
8
DEFAULT_255_1_234
10
6.0757791
20
68.9947976
40
0.2685315
50
353.2248685
51
0.0169286
0
ARC
8
DEFAULT_255_1_234
10
6.0967668
20
68.997095
40
0.2475536
50
359.4866256
51
15.9339782
0
ARC
8
DEFAULT_255_1_234
10
6.1474653
20
69.0107286
40
0.1950618
50
16.1714718
51
43.5284424
0
ARC
8
DEFAULT_255_1_234
10
6.1551962
20
69.0184573
40
0.184134
50
43.4415429
51
83.1661404
0
ARC
8
DEFAULT_255_1_234
10
6.141788
20
68.9447771
40
0.258926
50
82.160215
51
90.1505798
0
ARC
8
DEFAULT_255_1_234
10
6.1386308
20
68.8910865
40
0.3126255
50
89.5460705
51
102.5418777
0
ARC
8
DEFAULT_255_1_234
10
6.1143394
20
68.9941665
40
0.2067346
50
102.1739365
51
129.2061916
0
ARC
8
DEFAULT_255_1_234
10
6.1064465
20
69.0066094
40
0.1921118
50
129.7279328
51
135.7542026
0
ARC
8
DEFAULT_255_1_234
10
6.1185993
20
68.9969045
40
0.2075944
50
136.175737
51
166.3674722
0
ARC
8
DEFAULT_255_1_234
10
6.2192912
20
68.9699182
40
0.3118201
50
165.9092917
51
178.8683903
0
ARC
8
DEFAULT_255_1_234
10
6.3057774
20
68.9652179
40
0.3983935
50
178.438168
51
180.0083905
0
ARC
8
DEFAULT_255_1_234
10
6.1656376
20
68.9691231
40
0.4068601
50
163.2878735
51
180.5581814
0
ARC
8
DEFAULT_255_1_234
10
6.0854637
20
68.991184
40
0.3237344
50
133.454115
51
162.9470031
0
ARC
8
DEFAULT_255_1_234
10
6.1033178
20
68.9722
40
0.349795
50
100.7869394
51
133.4384016
0
ARC
8
DEFAULT_255_1_234
10
6.138095
20
68.8173319
40
0.5084616
50
89.6605301
51
101.3704185
0
ARC
8
DEFAULT_255_1_234
10
6.1447289
20
68.8234496
40
0.502348
50
78.2171172
51
90.4130393
0
ARC
8
DEFAULT_255_1_234
10
6.1802367
20
68.9858637
40
0.3361092
50
55.9268222
51
78.4888551
0
ARC
8
DEFAULT_255_1_234
10
6.1998807
20
69.0197324
40
0.2970617
50
47.9292255
51
55.4054003
0
ARC
8
DEFAULT_255_1_234
10
6.2100368
20
69.0300502
40
0.2825983
50
4.3347696
51
48.0560701
0
ARC
8
DEFAULT_255_1_234
10
6.1004761
20
69.0130601
40
0.393225
50
359.925209
51
5.5967654
0
ARC
8
DEFAULT_255_1_234
10
6.1433653
20
69.0186816
40
0.3503892
50
337.8914096
51
358.9967724
0
ARC
8
DEFAULT_255_1_234
10
5.8720065
20
69.1233706
40
0.6412172
50
326.9135351
51
338.3505194
0
ARC
8
DEFAULT_255_1_234
10
5.4734369
20
69.3788284
40
1.1146189
50
319.6472867
51
327.095818
0
ARC
8
DEFAULT_255_1_234
10
5.0901372
20
69.695
40
1.6114559
50
317.2586784
51
319.9046139
0
LINE
8
DEFAULT_255_1_234
10
7.4382333
20
68.8318327
11
7.4382333
21
68.6390709
0
LINE
8
DEFAULT_255_1_234
10
6.7001165
20
68.6189916
11
6.7001165
21
68.8173755
0
LINE
8
DEFAULT_255_1_234
10
7.2896461
20
68.5989123
11
7.2896461
21
68.8422739
0
LINE
8
DEFAULT_255_1_234
10
6.8487037
20
68.8535184
11
6.8487037
21
68.6157789
0
ARC
8
DEFAULT_255_1_234
10
6.2135222
20
68.6341805
40
1.2247208
50
353.8441951
51
0.2287902
0
ARC
8
DEFAULT_255_1_234
10
6.6774726
20
68.5823806
40
0.7578929
50
344.4934747
51
353.9765454
0
ARC
8
DEFAULT_255_1_234
10
6.9767316
20
68.4972981
40
0.4467846
50
329.2803592
51
344.7472793
0
ARC
8
DEFAULT_255_1_234
10
7.0760141
20
68.4428018
40
0.3336173
50
324.9352394
51
328.6160465
0
ARC
8
DEFAULT_255_1_234
10
7.113725
20
68.4164427
40
0.2876076
50
280.580143
51
324.9173126
0
ARC
8
DEFAULT_255_1_234
10
7.0736042
20
68.5835099
40
0.4592847
50
269.5977311
51
281.6734359
0
ARC
8
DEFAULT_255_1_234
10
7.0663948
20
68.5715173
40
0.4472986
50
256.6228859
51
270.51044
0
ARC
8
DEFAULT_255_1_234
10
7.0261926
20
68.4166877
40
0.2873874
50
215.8618325
51
257.2788573
0
ARC
8
DEFAULT_255_1_234
10
7.1282957
20
68.4851977
40
0.4102928
50
197.9693508
51
215.2623606
0
ARC
8
DEFAULT_255_1_234
10
7.3768073
20
68.5690709
40
0.6725652
50
187.8816417
51
198.2346507
0
ARC
8
DEFAULT_255_1_234
10
7.7726281
20
68.6262079
40
1.0724845
50
180.8976217
51
188.0055519
0
ARC
8
DEFAULT_255_1_234
10
8.0526469
20
68.6365777
40
1.3526448
50
180.7449369
51
181.1510016
0
ARC
8
DEFAULT_255_1_234
10
7.8949198
20
68.8222042
40
1.1948131
50
173.7675579
51
180.231553
0
ARC
8
DEFAULT_255_1_234
10
7.4431345
20
68.8732666
40
0.7401564
50
164.3058563
51
173.9002247
0
ARC
8
DEFAULT_255_1_234
10
7.1519414
20
68.9571656
40
0.4371288
50
148.7922025
51
164.568378
0
ARC
8
DEFAULT_255_1_234
10
7.0567866
20
69.0102929
40
0.3282386
50
144.5883898
51
148.1176286
0
ARC
8
DEFAULT_255_1_234
10
7.0224764
20
69.0342315
40
0.2864044
50
101.6440918
51
144.514236
0
ARC
8
DEFAULT_255_1_234
10
7.0649831
20
68.8653069
40
0.4604934
50
89.5284041
51
102.5819763
0
ARC
8
DEFAULT_255_1_234
10
7.0728918
20
68.8614018
40
0.464401
50
77.0437873
51
90.5081339
0
ARC
8
DEFAULT_255_1_234
10
7.113092
20
69.0256615
40
0.2953195
50
48.2778575
51
77.4994676
0
ARC
8
DEFAULT_255_1_234
10
7.1203551
20
69.0385746
40
0.2808655
50
36.3142134
51
47.6305865
0
ARC
8
DEFAULT_255_1_234
10
7.0334858
20
68.9800515
40
0.3855453
50
18.2931786
51
35.6769206
0
ARC
8
DEFAULT_255_1_234
10
6.7791617
20
68.8927593
40
0.654423
50
8.024666
51
18.5605216
0
ARC
8
DEFAULT_255_1_234
10
6.3628537
20
68.8312792
40
1.0752407
50
1.1274072
51
8.1718305
0
ARC
8
DEFAULT_255_1_234
10
6.0392728
20
68.8185885
40
1.3990231
50
0.5424119
51
1.3863029
0
ARC
8
DEFAULT_255_1_234
10
6.2214106
20
68.8458342
40
1.0682415
50
359.8090433
51
4.9407866
0
ARC
8
DEFAULT_255_1_234
10
6.642412
20
68.8834113
40
0.6455691
50
4.8362157
51
12.2904523
0
ARC
8
DEFAULT_255_1_234
10
6.9179234
20
68.9447965
40
0.3633074
50
12.0805627
51
23.8173984
0
ARC
8
DEFAULT_255_1_234
10
7.035294
20
68.9944919
40
0.2358723
50
24.2871213
51
31.3935614
0
ARC
8
DEFAULT_255_1_234
10
7.0877637
20
69.0288233
40
0.1732111
50
30.7407893
51
82.4657128
0
ARC
8
DEFAULT_255_1_234
10
7.0697771
20
68.9404691
40
0.263235
50
81.1060089
51
90.2184952
0
ARC
8
DEFAULT_255_1_234
10
7.066207
20
68.9662924
40
0.2374236
50
89.3806855
51
105.6762551
0
ARC
8
DEFAULT_255_1_234
10
7.0478701
20
69.0329567
40
0.1682847
50
105.7981136
51
149.7388061
0
ARC
8
DEFAULT_255_1_234
10
7.1542779
20
68.968995
40
0.2924306
50
149.4208916
51
163.6286378
0
ARC
8
DEFAULT_255_1_234
10
7.3633667
20
68.905225
40
0.5110213
50
163.3763315
51
172.1410975
0
ARC
8
DEFAULT_255_1_234
10
7.6934386
20
68.8579518
40
0.8444586
50
172.0259487
51
178.0703232
0
ARC
8
DEFAULT_255_1_234
10
7.9964476
20
68.8435906
40
1.1477868
50
177.8631668
51
179.5044149
0
ARC
8
DEFAULT_255_1_234
10
7.889188
20
68.6121389
40
1.0404907
50
179.7995573
51
185.2460446
0
ARC
8
DEFAULT_255_1_234
10
7.4848919
20
68.5738513
40
0.6343885
50
185.1411642
51
193.0079639
0
ARC
8
DEFAULT_255_1_234
10
7.2205392
20
68.5113641
40
0.3627568
50
192.7897626
51
205.2507664
0
ARC
8
DEFAULT_255_1_234
10
7.1158939
20
68.4646415
40
0.2481908
50
205.8005384
51
211.2537509
0
ARC
8
DEFAULT_255_1_234
10
7.0635379
20
68.429558
40
0.1852521
50
210.3789793
51
238.4008143
0
ARC
8
DEFAULT_255_1_234
10
7.0615901
20
68.4342376
40
0.1882621
50
239.6520629
51
265.9793761
0
ARC
8
DEFAULT_255_1_234
10
7.0701101
20
68.5014427
40
0.2559272
50
265.1315437
51
270.060332
0
ARC
8
DEFAULT_255_1_234
10
7.072988
20
68.4690534
40
0.2235528
50
269.3314664
51
287.2178029
0
ARC
8
DEFAULT_255_1_234
10
7.0867732
20
68.4187279
40
0.1714108
50
287.7958004
51
329.080874
0
ARC
8
DEFAULT_255_1_234
10
6.9910189
20
68.478493
40
0.2842745
50
328.6634704
51
343.3325132
0
ARC
8
DEFAULT_255_1_234
10
6.7737209
20
68.5461863
40
0.5118644
50
343.0499468
51
351.9393422
0
ARC
8
DEFAULT_255_1_234
10
6.4270509
20
68.5972949
40
0.8622784
50
351.8069023
51
357.7959224
0
ARC
8
DEFAULT_255_1_234
10
6.1035065
20
68.6140721
40
1.1862365
50
357.5871873
51
359.2677531
0
LINE
8
DEFAULT_255_1_234
10
4.3652902
20
74.6014211
11
4.3652902
21
73.432
0
LINE
8
DEFAULT_255_1_234
10
4.3652902
20
73.432
11
4.2110808
21
73.432
0
LINE
8
DEFAULT_255_1_234
10
4.2110808
20
73.432
11
4.2110808
21
74.6014211
0
LINE
8
DEFAULT_255_1_234
10
4.2110808
20
74.6014211
11
4.3652902
21
74.6014211
0
LINE
8
DEFAULT_255_1_234
10
5.5459557
20
74.6014211
11
5.5459557
21
73.432
0
LINE
8
DEFAULT_255_1_234
10
5.5459557
20
73.432
11
5.3909432
21
73.432
0
LINE
8
DEFAULT_255_1_234
10
5.3909432
20
73.432
11
4.8022167
21
74.333161
0
LINE
8
DEFAULT_255_1_234
10
4.8022167
20
74.333161
11
4.8022167
21
73.432
0
LINE
8
DEFAULT_255_1_234
10
4.8022167
20
73.432
11
4.6472042
21
73.432
0
LINE
8
DEFAULT_255_1_234
10
4.6472042
20
73.432
11
4.6472042
21
74.6014211
0
LINE
8
DEFAULT_255_1_234
10
4.6472042
20
74.6014211
11
4.8022167
21
74.6014211
0
LINE
8
DEFAULT_255_1_234
10
4.8022167
20
74.6014211
11
5.3925495
21
73.6962442
0
LINE
8
DEFAULT_255_1_234
10
5.3925495
20
73.6962442
11
5.3925495
21
74.6014211
0
LINE
8
DEFAULT_255_1_234
10
5.3925495
20
74.6014211
11
5.5459557
21
74.6014211
0
LINE
8
DEFAULT_255_1_234
10
6.2696153
20
74.6070433
11
6.2696153
21
73.432
0
LINE
8
DEFAULT_255_1_234
10
6.2696153
20
73.432
11
6.120225
21
73.432
0
LINE
8
DEFAULT_255_1_234
10
6.120225
20
73.432
11
6.120225
21
74.4223133
0
LINE
8
DEFAULT_255_1_234
10
6.120225
20
74.4223133
11
5.8206412
21
74.3122785
0
LINE
8
DEFAULT_255_1_234
10
5.8206412
20
74.3122785
11
5.8206412
21
74.4472117
0
LINE
8
DEFAULT_255_1_234
10
5.8206412
20
74.4472117
11
6.2463233
21
74.6070433
0
LINE
8
DEFAULT_255_1_234
10
6.2463233
20
74.6070433
11
6.2696153
21
74.6070433
0
LINE
8
DEFAULT_255_1_234
10
7.4237761
20
74.1339739
11
7.4237761
21
74.0906025
0
LINE
8
DEFAULT_255_1_234
10
6.8816338
20
73.4311968
11
6.8527195
21
73.4311968
0
LINE
8
DEFAULT_255_1_234
10
6.8527195
20
73.4311968
11
6.8527195
21
73.5564919
0
LINE
8
DEFAULT_255_1_234
10
6.8527195
20
73.5564919
11
6.8840433
21
73.5564919
0
LINE
8
DEFAULT_255_1_234
10
7.275189
20
74.1050597
11
7.275189
21
74.1644945
0
ARC
8
DEFAULT_255_1_234
10
6.9958159
20
74.1796403
40
0.3635579
50
297.4037347
51
320.016758
0
ARC
8
DEFAULT_255_1_234
10
7.0248108
20
74.123924
40
0.3007486
50
270.2633101
51
297.3851877
0
ARC
8
DEFAULT_255_1_234
10
7.0214064
20
74.1702904
40
0.3471448
50
269.9966443
51
270.7900392
0
ARC
8
DEFAULT_255_1_234
10
7.0188545
20
74.1701143
40
0.3469779
50
254.5999133
51
270.4180344
0
ARC
8
DEFAULT_255_1_234
10
7.0045905
20
74.1136647
40
0.2887697
50
236.4717942
51
254.3541279
0
ARC
8
DEFAULT_255_1_234
10
7.0202122
20
74.1346711
40
0.3149125
50
208.4727207
51
236.2134933
0
ARC
8
DEFAULT_255_1_234
10
7.0840897
20
74.1737455
40
0.3897115
50
204.3447514
51
209.0453999
0
ARC
8
DEFAULT_255_1_234
10
7.1520473
20
74.2025656
40
0.4635101
50
183.9375985
51
204.1276318
0
ARC
8
DEFAULT_255_1_234
10
7.2428724
20
74.2123482
40
0.5548037
50
179.9652252
51
184.3013875
0
ARC
8
DEFAULT_255_1_234
10
7.2188771
20
74.2156507
40
0.5308164
50
166.7585989
51
180.3201225
0
ARC
8
DEFAULT_255_1_234
10
7.1342384
20
74.2340488
40
0.4442163
50
154.6955053
51
166.5679793
0
ARC
8
DEFAULT_255_1_234
10
7.0489254
20
74.277021
40
0.3487299
50
136.3324195
51
155.0871442
0
ARC
8
DEFAULT_255_1_234
10
7.0208327
20
74.3010954
40
0.3117924
50
121.236733
51
135.9680508
0
ARC
8
DEFAULT_255_1_234
10
7.0348825
20
74.2750743
40
0.3413302
50
96.845628
51
120.9881519
0
ARC
8
DEFAULT_255_1_234
10
7.0494407
20
74.1815515
40
0.4359341
50
89.8870174
51
97.2802754
0
ARC
8
DEFAULT_255_1_234
10
7.0546845
20
74.2453095
40
0.3722009
50
70.6505584
51
90.6749113
0
ARC
8
DEFAULT_255_1_234
10
7.0678124
20
74.2966361
40
0.3194571
50
36.7492984
51
69.8219918
0
ARC
8
DEFAULT_255_1_234
10
6.9679289
20
74.2187993
40
0.4460685
50
15.39587
51
37.0840084
0
ARC
8
DEFAULT_255_1_234
10
6.7549722
20
74.1567242
40
0.6678714
50
3.9488873
51
15.6798563
0
ARC
8
DEFAULT_255_1_234
10
6.514835
20
74.1350964
40
0.9089418
50
359.929245
51
4.2665314
0
ARC
8
DEFAULT_255_1_234
10
6.0542787
20
74.0839513
40
1.3695135
50
352.8366322
51
0.2782669
0
ARC
8
DEFAULT_255_1_234
10
6.5830466
20
74.0152629
40
0.8363105
50
341.8359505
51
352.9884176
0
ARC
8
DEFAULT_255_1_234
10
6.9049185
20
73.90677
40
0.4966642
50
322.8578092
51
342.1527901
0
ARC
8
DEFAULT_255_1_234
10
6.9913141
20
73.8478384
40
0.3922466
50
319.334325
51
322.0998941
0
ARC
8
DEFAULT_255_1_234
10
6.9603478
20
73.8789209
40
0.4360033
50
285.9541367
51
318.8878087
0
ARC
8
DEFAULT_255_1_234
10
6.8876739
20
74.10996
40
0.678149
50
272.9281676
51
286.4922826
0
ARC
8
DEFAULT_255_1_234
10
6.8686857
20
74.3350587
40
0.9039547
50
270.8207226
51
273.4012994
0
ARC
8
DEFAULT_255_1_234
10
6.8775708
20
74.1531666
40
0.5967098
50
270.6214993
51
281.4062806
0
ARC
8
DEFAULT_255_1_234
10
6.9205689
20
73.9475833
40
0.3866861
50
281.1852553
51
299.0621114
0
ARC
8
DEFAULT_255_1_234
10
6.957926
20
73.8754798
40
0.3055236
50
299.5067782
51
313.1200873
0
ARC
8
DEFAULT_255_1_234
10
6.9601227
20
73.8675554
40
0.2982623
50
313.8526205
51
338.5989322
0
ARC
8
DEFAULT_255_1_234
10
6.7977301
20
73.9342781
40
0.4738131
50
338.2523585
51
351.2430902
0
ARC
8
DEFAULT_255_1_234
10
6.5566597
20
73.9752447
40
0.7183203
50
350.9409515
51
357.6691871
0
ARC
8
DEFAULT_255_1_234
10
7.0457027
20
74.1754764
40
0.2294452
50
269.9447023
51
306.8248917
0
ARC
8
DEFAULT_255_1_234
10
7.0219942
20
74.2177898
40
0.2775994
50
305.5072438
51
327.0773448
0
ARC
8
DEFAULT_255_1_234
10
7.0338383
20
74.2083025
40
0.2625056
50
327.4104943
51
336.840169
0
ARC
8
DEFAULT_255_1_234
10
6.7244448
20
74.1677302
40
0.5507537
50
359.6633817
51
10.117533
0
ARC
8
DEFAULT_255_1_234
10
6.8998246
20
74.2001777
40
0.372403
50
9.9430141
51
26.7700076
0
ARC
8
DEFAULT_255_1_234
10
6.9595458
20
74.2277187
40
0.3066865
50
27.2015464
51
34.6829435
0
ARC
8
DEFAULT_255_1_234
10
7.0084939
20
74.2644977
40
0.245519
50
34.1250343
51
50.3070065
0
ARC
8
DEFAULT_255_1_234
10
7.0531618
20
74.3179385
40
0.1758693
50
50.3851167
51
90.6705993
0
ARC
8
DEFAULT_255_1_234
10
7.0484851
20
74.2874799
40
0.2063326
50
89.272901
51
111.9140407
0
ARC
8
DEFAULT_255_1_234
10
7.0465379
20
74.301544
40
0.1925887
50
112.9382311
51
142.5320782
0
ARC
8
DEFAULT_255_1_234
10
7.1011559
20
74.2571969
40
0.2629232
50
142.1021256
51
166.3835592
0
ARC
8
DEFAULT_255_1_234
10
7.2192864
20
74.2266915
40
0.3849193
50
166.1100289
51
178.665427
0
ARC
8
DEFAULT_255_1_234
10
7.3240454
20
74.2208117
40
0.4897989
50
178.2632126
51
180.0111093
0
ARC
8
DEFAULT_255_1_234
10
7.2438574
20
74.2179728
40
0.40962
50
179.6161962
51
191.8787166
0
ARC
8
DEFAULT_255_1_234
10
7.1218413
20
74.1909896
40
0.2846655
50
191.6191692
51
215.2972286
0
ARC
8
DEFAULT_255_1_234
10
7.1021604
20
74.1794918
40
0.2619665
50
215.7320102
51
216.5355409
0
ARC
8
DEFAULT_255_1_234
10
7.0482691
20
74.1362647
40
0.1929497
50
215.7486685
51
239.9727502
0
ARC
8
DEFAULT_255_1_234
10
7.0412606
20
74.1311894
40
0.1850822
50
241.0650169
51
269.2810483
0
ARC
8
DEFAULT_255_1_234
10
7.0454521
20
74.1802371
40
0.2342059
50
268.4062526
51
270.0071348
0
LINE
8
DEFAULT_255_1_234
10
4.3652902
20
79.8931211
11
4.3652902
21
78.7237
0
LINE
8
DEFAULT_255_1_234
10
4.3652902
20
78.7237
11
4.2110808
21
78.7237
0
LINE
8
DEFAULT_255_1_234
10
4.2110808
20
78.7237
11
4.2110808
21
79.8931211
0
LINE
8
DEFAULT_255_1_234
10
4.2110808
20
79.8931211
11
4.3652902
21
79.8931211
0
LINE
8
DEFAULT_255_1_234
10
5.5459557
20
79.8931211
11
5.5459557
21
78.7237
0
LINE
8
DEFAULT_255_1_234
10
5.5459557
20
78.7237
11
5.3909432
21
78.7237
0
LINE
8
DEFAULT_255_1_234
10
5.3909432
20
78.7237
11
4.8022167
21
79.624861
0
LINE
8
DEFAULT_255_1_234
10
4.8022167
20
79.624861
11
4.8022167
21
78.7237
0
LINE
8
DEFAULT_255_1_234
10
4.8022167
20
78.7237
11
4.6472042
21
78.7237
0
LINE
8
DEFAULT_255_1_234
10
4.6472042
20
78.7237
11
4.6472042
21
79.8931211
0
LINE
8
DEFAULT_255_1_234
10
4.6472042
20
79.8931211
11
4.8022167
21
79.8931211
0
LINE
8
DEFAULT_255_1_234
10
4.8022167
20
79.8931211
11
5.3925495
21
78.9879442
0
LINE
8
DEFAULT_255_1_234
10
5.3925495
20
78.9879442
11
5.3925495
21
79.8931211
0
LINE
8
DEFAULT_255_1_234
10
5.3925495
20
79.8931211
11
5.5459557
21
79.8931211
0
LINE
8
DEFAULT_255_1_234
10
6.2696153
20
79.8987433
11
6.2696153
21
78.7237
0
LINE
8
DEFAULT_255_1_234
10
6.2696153
20
78.7237
11
6.120225
21
78.7237
0
LINE
8
DEFAULT_255_1_234
10
6.120225
20
78.7237
11
6.120225
21
79.7140133
0
LINE
8
DEFAULT_255_1_234
10
6.120225
20
79.7140133
11
5.8206412
21
79.6039785
0
LINE
8
DEFAULT_255_1_234
10
5.8206412
20
79.6039785
11
5.8206412
21
79.7389117
0
LINE
8
DEFAULT_255_1_234
10
5.8206412
20
79.7389117
11
6.2463233
21
79.8987433
0
LINE
8
DEFAULT_255_1_234
10
6.2463233
20
79.8987433
11
6.2696153
21
79.8987433
0
ARC
8
DEFAULT_255_1_234
10
7.1319139
20
79.5853703
40
0.2822356
50
338.8763615
51
0.5166041
0
ARC
8
DEFAULT_255_1_234
10
7.1487793
20
79.5808208
40
0.2648703
50
325.8412414
51
338.4795939
0
ARC
8
DEFAULT_255_1_234
10
7.1097161
20
79.6079042
40
0.3124019
50
296.7586019
51
325.753654
0
ARC
8
DEFAULT_255_1_234
10
7.080927
20
79.6563789
40
0.368668
50
296.0902311
51
297.3618122
0
ARC
8
DEFAULT_255_1_234
10
7.1066727
20
79.0009041
40
0.3518806
50
47.9009248
51
67.1946869
0
ARC
8
DEFAULT_255_1_234
10
7.1262969
20
79.0255395
40
0.320451
50
35.236241
51
47.551371
0
ARC
8
DEFAULT_255_1_234
10
7.1524587
20
79.0429993
40
0.2890103
50
359.2759738
51
35.4014081
0
ARC
8
DEFAULT_255_1_234
10
7.0779618
20
79.0356826
40
0.3635026
50
343.1294516
51
0.5776525
0
ARC
8
DEFAULT_255_1_234
10
7.1504163
20
79.015733
40
0.2883832
50
310.8497458
51
342.744803
0
ARC
8
DEFAULT_255_1_234
10
7.1086276
20
79.0634294
40
0.3517954
50
281.5473923
51
310.9169905
0
ARC
8
DEFAULT_255_1_234
10
7.0729726
20
79.2187084
40
0.5110832
50
269.6192722
51
281.9789957
0
ARC
8
DEFAULT_255_1_234
10
7.0657515
20
79.2187828
40
0.5111606
50
257.4584469
51
270.4287458
0
ARC
8
DEFAULT_255_1_234
10
7.0276658
20
79.0584344
40
0.3463762
50
228.7553743
51
257.8484423
0
ARC
8
DEFAULT_255_1_234
10
6.9966856
20
79.0211442
40
0.297916
50
184.0104442
51
228.5071787
0
ARC
8
DEFAULT_255_1_234
10
7.11298
20
79.0388512
40
0.4152734
50
179.9315461
51
185.3254504
0
ARC
8
DEFAULT_255_1_234
10
6.9953446
20
79.0425992
40
0.2976554
50
145.6795913
51
180.6259649
0
ARC
8
DEFAULT_255_1_234
10
7.0116795
20
79.0311929
40
0.3175776
50
115.5537925
51
145.6416199
0
ARC
8
DEFAULT_255_1_234
10
7.0457726
20
78.9701028
40
0.3874232
50
113.2437915
51
116.2054627
0
ARC
8
DEFAULT_255_1_234
10
7.0304938
20
79.609958
40
0.3154751
50
222.9548379
51
244.1372485
0
ARC
8
DEFAULT_255_1_234
10
7.0183013
20
79.5962834
40
0.2972382
50
213.3439227
51
222.6271327
0
ARC
8
DEFAULT_255_1_234
10
6.9990948
20
79.5832308
40
0.274019
50
180.4316517
51
213.2713999
0
ARC
8
DEFAULT_255_1_234
10
7.0565949
20
79.587911
40
0.33158
50
179.9992944
51
181.1655061
0
ARC
8
DEFAULT_255_1_234
10
7.0975366
20
79.5913561
40
0.3725376
50
164.6186108
51
180.5292368
0
ARC
8
DEFAULT_255_1_234
10
7.0077229
20
79.6155101
40
0.2795349
50
132.2454369
51
164.5092287
0
ARC
8
DEFAULT_255_1_234
10
7.0364333
20
79.5830028
40
0.3229019
50
100.7052766
51
132.1387266
0
ARC
8
DEFAULT_255_1_234
10
7.0669305
20
79.4452086
40
0.4639835
50
89.6732617
51
101.2449487
0
ARC
8
DEFAULT_255_1_234
10
7.0731503
20
79.462699
40
0.4464999
50
76.2876631
51
90.4586123
0
ARC
8
DEFAULT_255_1_234
10
7.1037735
20
79.584922
40
0.3205023
50
47.8240157
51
76.4266918
0
ARC
8
DEFAULT_255_1_234
10
7.1260285
20
79.610959
40
0.2862661
50
6.9168658
51
47.6261438
0
ARC
8
DEFAULT_255_1_234
10
7.0073688
20
79.589037
40
0.4067708
50
359.8419705
51
7.9694496
0
ARC
8
DEFAULT_255_1_234
10
7.0415585
20
79.0449925
40
0.2513121
50
359.4454068
51
16.9256425
0
ARC
8
DEFAULT_255_1_234
10
7.0884396
20
79.0579033
40
0.2027071
50
17.292259
51
45.462717
0
ARC
8
DEFAULT_255_1_234
10
7.0830332
20
79.0532434
40
0.2098212
50
45.3028762
51
83.1921472
0
ARC
8
DEFAULT_255_1_234
10
7.0687016
20
78.9730895
40
0.2911472
50
82.2614531
51
90.143954
0
ARC
8
DEFAULT_255_1_234
10
7.0656136
20
78.996395
40
0.2678513
50
89.4959189
51
104.8579811
0
ARC
8
DEFAULT_255_1_234
10
7.0479395
20
79.063389
40
0.1985654
50
104.8855873
51
135.2448349
0
ARC
8
DEFAULT_255_1_234
10
7.0529168
20
79.0589336
40
0.2052373
50
135.3398955
51
172.104394
0
ARC
8
DEFAULT_255_1_234
10
7.1336226
20
79.0434925
40
0.2873299
50
171.2651929
51
180.1859362
0
ARC
8
DEFAULT_255_1_234
10
7.1166927
20
79.0402733
40
0.2704083
50
179.515471
51
193.6466734
0
ARC
8
DEFAULT_255_1_234
10
7.0350696
20
79.0194777
40
0.1861855
50
193.3540587
51
225.8256931
0
ARC
8
DEFAULT_255_1_234
10
7.0391454
20
79.0265524
40
0.1941102
50
226.418029
51
255.8553723
0
ARC
8
DEFAULT_255_1_234
10
7.0647886
20
79.1201998
40
0.2911917
50
255.4655572
51
268.7985967
0
ARC
8
DEFAULT_255_1_234
10
7.0695078
20
79.2040491
40
0.3751331
50
268.3464808
51
270.0104874
0
ARC
8
DEFAULT_255_1_234
10
7.0718466
20
79.1356138
40
0.3067064
50
269.575914
51
282.0823146
0
ARC
8
DEFAULT_255_1_234
10
7.0943375
20
79.0361803
40
0.2047712
50
281.7522535
51
306.6056425
0
ARC
8
DEFAULT_255_1_234
10
7.1041801
20
79.0200487
40
0.1859604
50
307.1350025
51
314.0277951
0
ARC
8
DEFAULT_255_1_234
10
7.1005886
20
79.0226766
40
0.1903475
50
314.2553419
51
350.169324
0
ARC
8
DEFAULT_255_1_234
10
7.0154354
20
79.0411409
40
0.2774269
50
349.4145679
51
0.2930737
0
ARC
8
DEFAULT_255_1_234
10
7.0674787
20
79.5570353
40
0.2300764
50
89.477591
51
105.729794
0
ARC
8
DEFAULT_255_1_234
10
7.0538701
20
79.6075637
40
0.1777519
50
105.922966
51
135.1662921
0
ARC
8
DEFAULT_255_1_234
10
7.0559203
20
79.6061419
40
0.1802087
50
135.3053131
51
168.9882338
0
ARC
8
DEFAULT_255_1_234
10
7.1386776
20
79.5871721
40
0.2650806
50
168.3802067
51
180.3602358
0
ARC
8
DEFAULT_255_1_234
10
7.1158355
20
79.5834041
40
0.2422425
50
179.5029707
51
194.9126783
0
ARC
8
DEFAULT_255_1_234
10
7.0573016
20
79.568011
40
0.1817188
50
194.9722181
51
224.1943972
0
ARC
8
DEFAULT_255_1_234
10
7.0544883
20
79.5657169
40
0.1781027
50
224.2961434
51
262.0157375
0
ARC
8
DEFAULT_255_1_234
10
7.0687126
20
79.6388661
40
0.2525492
50
261.1250369
51
270.1959853
0
ARC
8
DEFAULT_255_1_234
10
7.0716881
20
79.6201339
40
0.233825
50
269.4825617
51
285.0988277
0
ARC
8
DEFAULT_255_1_234
10
7.087104
20
79.562299
40
0.1739712
50
285.1585659
51
315.9484648
0
ARC
8
DEFAULT_255_1_234
10
7.0782052
20
79.5704886
40
0.1860616
50
316.0412958
51
351.9162715
0
ARC
8
DEFAULT_255_1_234
10
7.0049007
20
79.5846245
40
0.2606517
50
351.1056823
51
0.1936567
0
ARC
8
DEFAULT_255_1_234
10
7.0311836
20
79.5876369
40
0.234377
50
359.4789506
51
16.0679113
0
ARC
8
DEFAULT_255_1_234
10
7.0787795
20
79.600481
40
0.1850875
50
16.3251951
51
44.791304
0
ARC
8
DEFAULT_255_1_234
10
7.0770076
20
79.6005339
40
0.186312
50
44.3958661
51
88.2498933
0
ARC
8
DEFAULT_255_1_234
10
7.069663
20
79.5394154
40
0.2476868
50
86.9833827
51
90.0200148
0
LINE
8
DEFAULT_255_1_234
10
4.3652902
20
85.1847211
11
4.3652902
21
84.0153
0
LINE
8
DEFAULT_255_1_234
10
4.3652902
20
84.0153
11
4.2110808
21
84.0153
0
LINE
8
DEFAULT_255_1_234
10
4.2110808
20
84.0153
11
4.2110808
21
85.1847211
0
LINE
8
DEFAULT_255_1_234
10
4.2110808
20
85.1847211
11
4.3652902
21
85.1847211
0
LINE
8
DEFAULT_255_1_234
10
5.5459557
20
85.1847211
11
5.5459557
21
84.0153
0
LINE
8
DEFAULT_255_1_234
10
5.5459557
20
84.0153
11
5.3909432
21
84.0153
0
LINE
8
DEFAULT_255_1_234
10
5.3909432
20
84.0153
11
4.8022167
21
84.916461
0
LINE
8
DEFAULT_255_1_234
10
4.8022167
20
84.916461
11
4.8022167
21
84.0153
0
LINE
8
DEFAULT_255_1_234
10
4.8022167
20
84.0153
11
4.6472042
21
84.0153
0
LINE
8
DEFAULT_255_1_234
10
4.6472042
20
84.0153
11
4.6472042
21
85.1847211
0
LINE
8
DEFAULT_255_1_234
10
4.6472042
20
85.1847211
11
4.8022167
21
85.1847211
0
LINE
8
DEFAULT_255_1_234
10
4.8022167
20
85.1847211
11
5.3925495
21
84.2795442
0
LINE
8
DEFAULT_255_1_234
10
5.3925495
20
84.2795442
11
5.3925495
21
85.1847211
0
LINE
8
DEFAULT_255_1_234
10
5.3925495
20
85.1847211
11
5.5459557
21
85.1847211
0
LINE
8
DEFAULT_255_1_234
10
6.2696153
20
85.1903433
11
6.2696153
21
84.0153
0
LINE
8
DEFAULT_255_1_234
10
6.2696153
20
84.0153
11
6.120225
21
84.0153
0
LINE
8
DEFAULT_255_1_234
10
6.120225
20
84.0153
11
6.120225
21
85.0056133
0
LINE
8
DEFAULT_255_1_234
10
6.120225
20
85.0056133
11
5.8206412
21
84.8955785
0
LINE
8
DEFAULT_255_1_234
10
5.8206412
20
84.8955785
11
5.8206412
21
85.0305117
0
LINE
8
DEFAULT_255_1_234
10
5.8206412
20
85.0305117
11
6.2463233
21
85.1903433
0
LINE
8
DEFAULT_255_1_234
10
6.2463233
20
85.1903433
11
6.2696153
21
85.1903433
0
LINE
8
DEFAULT_255_1_234
10
7.4599189
20
85.1847211
11
7.4599189
21
85.101191
0
LINE
8
DEFAULT_255_1_234
10
7.4599189
20
85.101191
11
6.9756051
21
84.0153
0
LINE
8
DEFAULT_255_1_234
10
6.9756051
20
84.0153
11
6.8197894
21
84.0153
0
LINE
8
DEFAULT_255_1_234
10
6.8197894
20
84.0153
11
7.3024969
21
85.0626387
0
LINE
8
DEFAULT_255_1_234
10
7.3024969
20
85.0626387
11
6.6695959
21
85.0626387
0
LINE
8
DEFAULT_255_1_234
10
6.6695959
20
85.0626387
11
6.6695959
21
85.1847211
0
LINE
8
DEFAULT_255_1_234
10
6.6695959
20
85.1847211
11
7.4599189
21
85.1847211
0
LINE
8
DEFAULT_255_1_234
10
4.3652902
20
90.4764211
11
4.3652902
21
89.307
0
LINE
8
DEFAULT_255_1_234
10
4.3652902
20
89.307
11
4.2110808
21
89.307
0
LINE
8
DEFAULT_255_1_234
10
4.2110808
20
89.307
11
4.2110808
21
90.4764211
0
LINE
8
DEFAULT_255_1_234
10
4.2110808
20
90.4764211
11
4.3652902
21
90.4764211
0
LINE
8
DEFAULT_255_1_234
10
5.5459557
20
90.4764211
11
5.5459557
21
89.307
0
LINE
8
DEFAULT_255_1_234
10
5.5459557
20
89.307
11
5.3909432
21
89.307
0
LINE
8
DEFAULT_255_1_234
10
5.3909432
20
89.307
11
4.8022167
21
90.208161
0
LINE
8
DEFAULT_255_1_234
10
4.8022167
20
90.208161
11
4.8022167
21
89.307
0
LINE
8
DEFAULT_255_1_234
10
4.8022167
20
89.307
11
4.6472042
21
89.307
0
LINE
8
DEFAULT_255_1_234
10
4.6472042
20
89.307
11
4.6472042
21
90.4764211
0
LINE
8
DEFAULT_255_1_234
10
4.6472042
20
90.4764211
11
4.8022167
21
90.4764211
0
LINE
8
DEFAULT_255_1_234
10
4.8022167
20
90.4764211
11
5.3925495
21
89.5712442
0
LINE
8
DEFAULT_255_1_234
10
5.3925495
20
89.5712442
11
5.3925495
21
90.4764211
0
LINE
8
DEFAULT_255_1_234
10
5.3925495
20
90.4764211
11
5.5459557
21
90.4764211
0
LINE
8
DEFAULT_255_1_234
10
6.2696153
20
90.4820433
11
6.2696153
21
89.307
0
LINE
8
DEFAULT_255_1_234
10
6.2696153
20
89.307
11
6.120225
21
89.307
0
LINE
8
DEFAULT_255_1_234
10
6.120225
20
89.307
11
6.120225
21
90.2973133
0
LINE
8
DEFAULT_255_1_234
10
6.120225
20
90.2973133
11
5.8206412
21
90.1872785
0
LINE
8
DEFAULT_255_1_234
10
5.8206412
20
90.1872785
11
5.8206412
21
90.3222117
0
LINE
8
DEFAULT_255_1_234
10
5.8206412
20
90.3222117
11
6.2463233
21
90.4820433
0
LINE
8
DEFAULT_255_1_234
10
6.2463233
20
90.4820433
11
6.2696153
21
90.4820433
0
LINE
8
DEFAULT_255_1_234
10
7.261535
20
90.4772243
11
7.2880397
21
90.4772243
0
LINE
8
DEFAULT_255_1_234
10
7.2880397
20
90.4772243
11
7.2880397
21
90.351126
0
LINE
8
DEFAULT_255_1_234
10
7.2880397
20
90.351126
11
7.2607318
21
90.351126
0
LINE
8
DEFAULT_255_1_234
10
6.7137705
20
89.7519583
11
6.7137705
21
89.8089836
0
LINE
8
DEFAULT_255_1_234
10
6.8631608
20
89.7897075
11
6.8631608
21
89.7350917
0
ARC
8
DEFAULT_255_1_234
10
7.2659666
20
89.8513455
40
0.4998079
50
90.6001036
51
104.514704
0
ARC
8
DEFAULT_255_1_234
10
7.2271182
20
89.9958131
40
0.3502176
50
104.2855254
51
133.862935
0
ARC
8
DEFAULT_255_1_234
10
7.2434939
20
89.984983
40
0.3693984
50
134.5302688
51
161.6210873
0
ARC
8
DEFAULT_255_1_234
10
7.4088128
20
89.9266895
40
0.5446739
50
161.2849839
51
174.2076652
0
ARC
8
DEFAULT_255_1_234
10
7.5495065
20
89.9072787
40
0.6866274
50
173.7810589
51
174.9254635
0
ARC
8
DEFAULT_255_1_234
10
7.0944897
20
89.7689839
40
0.3033419
50
95.8330959
51
138.9954921
0
ARC
8
DEFAULT_255_1_234
10
7.1168253
20
89.6411375
40
0.4328947
50
89.8753725
51
97.0544009
0
ARC
8
DEFAULT_255_1_234
10
7.1215719
20
89.7246748
40
0.3493769
50
71.6407809
51
90.6240094
0
ARC
8
DEFAULT_255_1_234
10
7.1366292
20
89.7801082
40
0.2920396
50
39.6367836
51
71.019018
0
ARC
8
DEFAULT_255_1_234
10
7.0729765
20
89.7250998
40
0.3761538
50
10.658731
51
39.9043955
0
ARC
8
DEFAULT_255_1_234
10
6.9181848
20
89.6914686
40
0.5345136
50
359.682601
51
11.132623
0
ARC
8
DEFAULT_255_1_234
10
6.9141979
20
89.684401
40
0.5385081
50
347.2486944
51
0.4369317
0
ARC
8
DEFAULT_255_1_234
10
7.0809456
20
89.6442807
40
0.3670249
50
318.1409698
51
347.6118597
0
ARC
8
DEFAULT_255_1_234
10
7.1134449
20
89.6175702
40
0.3250007
50
275.6342139
51
317.8248465
0
ARC
8
DEFAULT_255_1_234
10
7.0913561
20
89.7475219
40
0.4565864
50
269.8874292
51
276.7917694
0
ARC
8
DEFAULT_255_1_234
10
7.0858631
20
89.6449743
40
0.3540676
50
246.9140195
51
270.7437342
0
ARC
8
DEFAULT_255_1_234
10
7.0865021
20
89.6307384
40
0.3412781
50
218.1665114
51
245.878116
0
ARC
8
DEFAULT_255_1_234
10
7.1744482
20
89.7043279
40
0.455911
50
191.4115814
51
218.6077802
0
ARC
8
DEFAULT_255_1_234
10
7.3682571
20
89.7477833
40
0.6545001
50
179.6345085
51
191.7836486
0
ARC
8
DEFAULT_255_1_234
10
7.9264908
20
89.8156697
40
1.2127388
50
171.4525249
51
180.3158839
0
ARC
8
DEFAULT_255_1_234
10
7.4869784
20
89.8840608
40
0.7679464
50
157.9802646
51
171.6246686
0
ARC
8
DEFAULT_255_1_234
10
7.2655805
20
89.9723421
40
0.5296008
50
141.4298019
51
157.854097
0
ARC
8
DEFAULT_255_1_234
10
7.2014126
20
90.0177381
40
0.4511509
50
102.8715806
51
140.8564722
0
ARC
8
DEFAULT_255_1_234
10
7.2661741
20
89.7737552
40
0.7034845
50
90.3778349
51
103.5869322
0
ARC
8
DEFAULT_255_1_234
10
7.0923517
20
89.713273
40
0.2370698
50
89.8751008
51
126.2071704
0
ARC
8
DEFAULT_255_1_234
10
7.0969307
20
89.6978303
40
0.2522934
50
124.9745049
51
144.895901
0
ARC
8
DEFAULT_255_1_234
10
7.0793498
20
89.712156
40
0.2296779
50
145.2974905
51
160.2660252
0
ARC
8
DEFAULT_255_1_234
10
7.3866036
20
89.7319071
40
0.5234525
50
179.6514266
51
190.2855912
0
ARC
8
DEFAULT_255_1_234
10
7.2172174
20
89.6999786
40
0.3510893
50
190.0945431
51
207.5098196
0
ARC
8
DEFAULT_255_1_234
10
7.1606443
20
89.6730623
40
0.288489
50
207.9583163
51
216.3251085
0
ARC
8
DEFAULT_255_1_234
10
7.1266551
20
89.6451105
40
0.2445587
50
215.7661442
51
232.5456785
0
ARC
8
DEFAULT_255_1_234
10
7.0883534
20
89.5964482
40
0.1826382
50
232.8005391
51
270.6605633
0
ARC
8
DEFAULT_255_1_234
10
7.0929235
20
89.6328612
40
0.2190529
50
269.35537
51
288.4744281
0
ARC
8
DEFAULT_255_1_234
10
7.1022132
20
89.5979118
40
0.1829749
50
289.1833337
51
322.9683818
0
ARC
8
DEFAULT_255_1_234
10
7.0410654
20
89.6461391
40
0.2608399
50
322.6007884
51
346.5182367
0
ARC
8
DEFAULT_255_1_234
10
6.925325
20
89.6756616
40
0.3802777
50
346.2582162
51
358.7741648
0
ARC
8
DEFAULT_255_1_234
10
6.8234919
20
89.6811965
40
0.4822176
50
358.3755224
51
0.0098023
0
ARC
8
DEFAULT_255_1_234
10
6.8991106
20
89.6839657
40
0.4066078
50
359.6214041
51
11.2839074
0
ARC
8
DEFAULT_255_1_234
10
7.0268253
20
89.7106066
40
0.2761514
50
11.0482309
51
31.8146458
0
ARC
8
DEFAULT_255_1_234
10
7.0577296
20
89.7273584
40
0.2410679
50
32.3035391
51
38.082671
0
ARC
8
DEFAULT_255_1_234
10
7.0997956
20
89.7654662
40
0.1844966
50
36.825067
51
85.7415724
0
ARC
8
DEFAULT_255_1_234
10
7.0930789
20
89.7154301
40
0.2349122
50
85.0140713
51
90.0513278
0
LINE
8
DEFAULT_255_1_234
10
4.3652902
20
95.7681211
11
4.3652902
21
94.5987
0
LINE
8
DEFAULT_255_1_234
10
4.3652902
20
94.5987
11
4.2110808
21
94.5987
0
LINE
8
DEFAULT_255_1_234
10
4.2110808
20
94.5987
11
4.2110808
21
95.7681211
0
LINE
8
DEFAULT_255_1_234
10
4.2110808
20
95.7681211
11
4.3652902
21
95.7681211
0
LINE
8
DEFAULT_255_1_234
10
5.5459557
20
95.7681211
11
5.5459557
21
94.5987
0
LINE
8
DEFAULT_255_1_234
10
5.5459557
20
94.5987
11
5.3909432
21
94.5987
0
LINE
8
DEFAULT_255_1_234
10
5.3909432
20
94.5987
11
4.8022167
21
95.499861
0
LINE
8
DEFAULT_255_1_234
10
4.8022167
20
95.499861
11
4.8022167
21
94.5987
0
LINE
8
DEFAULT_255_1_234
10
4.8022167
20
94.5987
11
4.6472042
21
94.5987
0
LINE
8
DEFAULT_255_1_234
10
4.6472042
20
94.5987
11
4.6472042
21
95.7681211
0
LINE
8
DEFAULT_255_1_234
10
4.6472042
20
95.7681211
11
4.8022167
21
95.7681211
0
LINE
8
DEFAULT_255_1_234
10
4.8022167
20
95.7681211
11
5.3925495
21
94.8629442
0
LINE
8
DEFAULT_255_1_234
10
5.3925495
20
94.8629442
11
5.3925495
21
95.7681211
0
LINE
8
DEFAULT_255_1_234
10
5.3925495
20
95.7681211
11
5.5459557
21
95.7681211
0
LINE
8
DEFAULT_255_1_234
10
6.2696153
20
95.7737433
11
6.2696153
21
94.5987
0
LINE
8
DEFAULT_255_1_234
10
6.2696153
20
94.5987
11
6.120225
21
94.5987
0
LINE
8
DEFAULT_255_1_234
10
6.120225
20
94.5987
11
6.120225
21
95.5890133
0
LINE
8
DEFAULT_255_1_234
10
6.120225
20
95.5890133
11
5.8206412
21
95.4789785
0
LINE
8
DEFAULT_255_1_234
10
5.8206412
20
95.4789785
11
5.8206412
21
95.6139117
0
LINE
8
DEFAULT_255_1_234
10
5.8206412
20
95.6139117
11
6.2463233
21
95.7737433
0
LINE
8
DEFAULT_255_1_234
10
6.2463233
20
95.7737433
11
6.2696153
21
95.7737433
0
LINE
8
DEFAULT_255_1_234
10
6.892075
20
95.1544963
11
6.7732053
21
95.1850169
0
LINE
8
DEFAULT_255_1_234
10
6.7732053
20
95.1850169
11
6.8326402
21
95.7681211
0
LINE
8
DEFAULT_255_1_234
10
6.8326402
20
95.7681211
11
7.4318079
21
95.7681211
0
LINE
8
DEFAULT_255_1_234
10
7.4318079
20
95.7681211
11
7.4318079
21
95.6307784
0
LINE
8
DEFAULT_255_1_234
10
7.4318079
20
95.6307784
11
6.9587385
21
95.6307784
0
LINE
8
DEFAULT_255_1_234
10
6.9587385
20
95.6307784
11
6.9233988
21
95.3119184
0
LINE
8
DEFAULT_255_1_234
10
6.7314403
20
94.9063156
11
6.8719957
21
94.9063156
0
LINE
8
DEFAULT_255_1_234
10
6.9314306
20
95.1866232
11
6.892075
21
95.1544963
0
ARC
8
DEFAULT_255_1_234
10
7.1088772
20
94.993923
40
0.3681349
50
93.7182161
51
120.2538958
0
ARC
8
DEFAULT_255_1_234
10
7.1183035
20
94.9131394
40
0.449379
50
89.9660152
51
94.2496022
0
ARC
8
DEFAULT_255_1_234
10
7.1223769
20
94.9720549
40
0.390482
50
73.8043271
51
90.5585896
0
ARC
8
DEFAULT_255_1_234
10
7.1458666
20
95.0578602
40
0.3015334
50
41.3071453
51
73.5430202
0
ARC
8
DEFAULT_255_1_234
10
7.1042493
20
95.0220324
40
0.3564457
50
13.5075983
51
41.2174222
0
ARC
8
DEFAULT_255_1_234
10
6.9400697
20
94.9790486
40
0.5261351
50
1.1331335
51
13.8829381
0
ARC
8
DEFAULT_255_1_234
10
6.7989066
20
94.9714665
40
0.6674378
50
359.9919444
51
1.544251
0
ARC
8
DEFAULT_255_1_234
10
6.9265892
20
94.967328
40
0.5397702
50
347.8572367
51
0.4293338
0
ARC
8
DEFAULT_255_1_234
10
7.101621
20
94.9276736
40
0.3603188
50
323.673004
51
348.1672506
0
ARC
8
DEFAULT_255_1_234
10
7.1310718
20
94.9097168
40
0.3259678
50
316.8171152
51
323.1492751
0
ARC
8
DEFAULT_255_1_234
10
7.1371907
20
94.906046
40
0.3189975
50
281.8396411
51
316.5457803
0
ARC
8
DEFAULT_255_1_234
10
7.0996171
20
95.0615762
40
0.4789527
50
269.5770101
51
282.4214771
0
ARC
8
DEFAULT_255_1_234
10
7.0924983
20
95.0402125
40
0.45759
50
256.2427136
51
270.4486331
0
ARC
8
DEFAULT_255_1_234
10
7.0625885
20
94.9202229
40
0.3339303
50
228.9023911
51
256.3314342
0
ARC
8
DEFAULT_255_1_234
10
7.0552117
20
94.9085746
40
0.32031
50
193.753695
51
228.5271154
0
ARC
8
DEFAULT_255_1_234
10
7.1790071
20
94.94488
40
0.4492253
50
184.924711
51
194.497588
0
ARC
8
DEFAULT_255_1_234
10
7.1982638
20
94.9484591
40
0.3289787
50
187.3600538
51
198.6732863
0
ARC
8
DEFAULT_255_1_234
10
7.0932932
20
94.9120674
40
0.217884
50
198.4451669
51
217.794479
0
ARC
8
DEFAULT_255_1_234
10
7.0637107
20
94.8911085
40
0.1816698
50
218.2887171
51
228.5612368
0
ARC
8
DEFAULT_255_1_234
10
7.0734894
20
94.9042963
40
0.1980329
50
228.9654866
51
258.1234728
0
ARC
8
DEFAULT_255_1_234
10
7.0940604
20
94.9923833
40
0.2884748
50
257.7258293
51
270.401361
0
ARC
8
DEFAULT_255_1_234
10
7.0985491
20
94.9478821
40
0.2439788
50
269.4204404
51
286.4209037
0
ARC
8
DEFAULT_255_1_234
10
7.1133978
20
94.8939657
40
0.1880666
50
286.7251356
51
320.600362
0
ARC
8
DEFAULT_255_1_234
10
7.0750803
20
94.9250595
40
0.2374121
50
320.6712579
51
344.5441685
0
ARC
8
DEFAULT_255_1_234
10
6.9594129
20
94.9590045
40
0.3579479
50
344.2412205
51
356.7357071
0
ARC
8
DEFAULT_255_1_234
10
6.8345278
20
94.9693444
40
0.4832297
50
356.3548756
51
0.0500261
0
ARC
8
DEFAULT_255_1_234
10
6.9681787
20
94.972465
40
0.3495889
50
359.5576869
51
12.953486
0
ARC
8
DEFAULT_255_1_234
10
7.0736684
20
94.9980434
40
0.2410532
50
12.6490276
51
41.6081334
0
ARC
8
DEFAULT_255_1_234
10
7.0967055
20
95.0176321
40
0.2108218
50
41.7850273
51
85.9892764
0
ARC
8
DEFAULT_255_1_234
10
7.0843792
20
94.9363462
40
0.2928454
50
84.6957577
51
90.0676183
0
ARC
8
DEFAULT_255_1_234
10
7.0820276
20
94.8694716
40
0.3597255
50
89.6804936
51
99.1614436
0
ARC
8
DEFAULT_255_1_234
10
7.0614907
20
94.9922131
40
0.235281
50
98.9830931
51
113.8908934
0
ARC
8
DEFAULT_255_1_234
10
7.0385317
20
95.0463587
40
0.176479
50
114.1950727
51
127.3641004
0
LINE
8
DEFAULT_255_1_234
10
4.4710902
20
101.0597211
11
4.4710902
21
99.8903
0
LINE
8
DEFAULT_255_1_234
10
4.4710902
20
99.8903
11
4.3168808
21
99.8903
0
LINE
8
DEFAULT_255_1_234
10
4.3168808
20
99.8903
11
4.3168808
21
101.0597211
0
LINE
8
DEFAULT_255_1_234
10
4.3168808
20
101.0597211
11
4.4710902
21
101.0597211
0
LINE
8
DEFAULT_255_1_234
10
5.6517557
20
101.0597211
11
5.6517557
21
99.8903
0
LINE
8
DEFAULT_255_1_234
10
5.6517557
20
99.8903
11
5.4967432
21
99.8903
0
LINE
8
DEFAULT_255_1_234
10
5.4967432
20
99.8903
11
4.9080167
21
100.791461
0
LINE
8
DEFAULT_255_1_234
10
4.9080167
20
100.791461
11
4.9080167
21
99.8903
0
LINE
8
DEFAULT_255_1_234
10
4.9080167
20
99.8903
11
4.7530042
21
99.8903
0
LINE
8
DEFAULT_255_1_234
10
4.7530042
20
99.8903
11
4.7530042
21
101.0597211
0
LINE
8
DEFAULT_255_1_234
10
4.7530042
20
101.0597211
11
4.9080167
21
101.0597211
0
LINE
8
DEFAULT_255_1_234
10
4.9080167
20
101.0597211
11
5.4983495
21
100.1545442
0
LINE
8
DEFAULT_255_1_234
10
5.4983495
20
100.1545442
11
5.4983495
21
101.0597211
0
LINE
8
DEFAULT_255_1_234
10
5.4983495
20
101.0597211
11
5.6517557
21
101.0597211
0
LINE
8
DEFAULT_255_1_234
10
6.3754153
20
101.0653433
11
6.3754153
21
99.8903
0
LINE
8
DEFAULT_255_1_234
10
6.3754153
20
99.8903
11
6.226025
21
99.8903
0
LINE
8
DEFAULT_255_1_234
10
6.226025
20
99.8903
11
6.226025
21
100.8806133
0
LINE
8
DEFAULT_255_1_234
10
6.226025
20
100.8806133
11
5.9264412
21
100.7705785
0
LINE
8
DEFAULT_255_1_234
10
5.9264412
20
100.7705785
11
5.9264412
21
100.9055117
0
LINE
8
DEFAULT_255_1_234
10
5.9264412
20
100.9055117
11
6.3521233
21
101.0653433
0
LINE
8
DEFAULT_255_1_234
10
6.3521233
20
101.0653433
11
6.3754153
21
101.0653433
0
LINE
8
DEFAULT_255_1_234
10
7.4380143
20
101.0597211
11
7.4380143
21
100.283052
0
LINE
8
DEFAULT_255_1_234
10
7.4380143
20
100.283052
11
7.6002554
21
100.283052
0
LINE
8
DEFAULT_255_1_234
10
7.6002554
20
100.283052
11
7.6002554
21
100.1617728
0
LINE
8
DEFAULT_255_1_234
10
7.6002554
20
100.1617728
11
7.4380143
21
100.1617728
0
LINE
8
DEFAULT_255_1_234
10
7.4380143
20
100.1617728
11
7.4380143
21
99.8903
0
LINE
8
DEFAULT_255_1_234
10
7.4380143
20
99.8903
11
7.288624
21
99.8903
0
LINE
8
DEFAULT_255_1_234
10
7.288624
20
99.8903
11
7.288624
21
100.1617728
0
LINE
8
DEFAULT_255_1_234
10
7.288624
20
100.1617728
11
6.7561197
21
100.1617728
0
LINE
8
DEFAULT_255_1_234
10
6.7561197
20
100.1617728
11
6.7561197
21
100.2493187
0
LINE
8
DEFAULT_255_1_234
10
6.7561197
20
100.2493187
11
7.2797891
21
101.0597211
0
LINE
8
DEFAULT_255_1_234
10
7.2797891
20
101.0597211
11
7.4380143
21
101.0597211
0
LINE
8
DEFAULT_255_1_234
10
7.2709542
20
100.8243912
11
6.9247862
21
100.283052
0
LINE
8
DEFAULT_255_1_234
10
6.9247862
20
100.283052
11
7.288624
21
100.283052
0
LINE
8
DEFAULT_255_1_234
10
7.288624
20
100.283052
11
7.288624
21
100.8565181
0
LINE
8
DEFAULT_255_1_234
10
7.288624
20
100.8565181
11
7.2709542
21
100.8243912
0
LINE
8
DEFAULT_255_1_234
10
4.3652902
20
106.3514211
11
4.3652902
21
105.182
0
LINE
8
DEFAULT_255_1_234
10
4.3652902
20
105.182
11
4.2110808
21
105.182
0
LINE
8
DEFAULT_255_1_234
10
4.2110808
20
105.182
11
4.2110808
21
106.3514211
0
LINE
8
DEFAULT_255_1_234
10
4.2110808
20
106.3514211
11
4.3652902
21
106.3514211
0
LINE
8
DEFAULT_255_1_234
10
5.5459557
20
106.3514211
11
5.5459557
21
105.182
0
LINE
8
DEFAULT_255_1_234
10
5.5459557
20
105.182
11
5.3909432
21
105.182
0
LINE
8
DEFAULT_255_1_234
10
5.3909432
20
105.182
11
4.8022167
21
106.083161
0
LINE
8
DEFAULT_255_1_234
10
4.8022167
20
106.083161
11
4.8022167
21
105.182
0
LINE
8
DEFAULT_255_1_234
10
4.8022167
20
105.182
11
4.6472042
21
105.182
0
LINE
8
DEFAULT_255_1_234
10
4.6472042
20
105.182
11
4.6472042
21
106.3514211
0
LINE
8
DEFAULT_255_1_234
10
4.6472042
20
106.3514211
11
4.8022167
21
106.3514211
0
LINE
8
DEFAULT_255_1_234
10
4.8022167
20
106.3514211
11
5.3925495
21
105.4462442
0
LINE
8
DEFAULT_255_1_234
10
5.3925495
20
105.4462442
11
5.3925495
21
106.3514211
0
LINE
8
DEFAULT_255_1_234
10
5.3925495
20
106.3514211
11
5.5459557
21
106.3514211
0
LINE
8
DEFAULT_255_1_234
10
6.2696153
20
106.3570433
11
6.2696153
21
105.182
0
LINE
8
DEFAULT_255_1_234
10
6.2696153
20
105.182
11
6.120225
21
105.182
0
LINE
8
DEFAULT_255_1_234
10
6.120225
20
105.182
11
6.120225
21
106.1723133
0
LINE
8
DEFAULT_255_1_234
10
6.120225
20
106.1723133
11
5.8206412
21
106.0622785
0
LINE
8
DEFAULT_255_1_234
10
5.8206412
20
106.0622785
11
5.8206412
21
106.1972117
0
LINE
8
DEFAULT_255_1_234
10
5.8206412
20
106.1972117
11
6.2463233
21
106.3570433
0
LINE
8
DEFAULT_255_1_234
10
6.2463233
20
106.3570433
11
6.2696153
21
106.3570433
0
LINE
8
DEFAULT_255_1_234
10
6.9209893
20
105.7177169
11
6.9209893
21
105.8389962
0
LINE
8
DEFAULT_255_1_234
10
6.9209893
20
105.8389962
11
7.0326305
21
105.8389962
0
LINE
8
DEFAULT_255_1_234
10
6.8422783
20
106.0446087
11
6.6936911
21
106.0446087
0
LINE
8
DEFAULT_255_1_234
10
6.6832499
20
105.4904188
11
6.8326402
21
105.4904188
0
LINE
8
DEFAULT_255_1_234
10
7.0326305
20
105.7177169
11
6.9209893
21
105.7177169
0
ARC
8
DEFAULT_255_1_234
10
7.0297171
20
106.1782713
40
0.3392876
50
270.4919872
51
281.8951556
0
ARC
8
DEFAULT_255_1_234
10
7.0538433
20
106.0680702
40
0.2264817
50
281.6691735
51
301.2943132
0
ARC
8
DEFAULT_255_1_234
10
7.0708643
20
106.0369304
40
0.1910381
50
301.7833094
51
311.7545298
0
ARC
8
DEFAULT_255_1_234
10
7.0800219
20
106.0267748
40
0.1773635
50
311.7323931
51
354.2802411
0
ARC
8
DEFAULT_255_1_234
10
7.0073844
20
106.0392722
40
0.2509385
50
353.0937916
51
0.1181479
0
ARC
8
DEFAULT_255_1_234
10
6.9612629
20
106.0440386
40
0.2970898
50
359.1805295
51
15.0453146
0
ARC
8
DEFAULT_255_1_234
10
7.0958466
20
106.0832992
40
0.1569564
50
13.9577229
51
77.6713066
0
ARC
8
DEFAULT_255_1_234
10
7.0571995
20
105.9447949
40
0.3006298
50
76.1116566
51
90.7026153
0
ARC
8
DEFAULT_255_1_234
10
7.0512833
20
105.9721545
40
0.2732568
50
89.5324876
51
103.531937
0
ARC
8
DEFAULT_255_1_234
10
7.0312278
20
106.0520884
40
0.1908508
50
103.2931773
51
133.5619022
0
ARC
8
DEFAULT_255_1_234
10
7.0267766
20
106.0580375
40
0.1834746
50
133.8349307
51
173.5344437
0
ARC
8
DEFAULT_255_1_234
10
7.0990809
20
106.0452213
40
0.2568033
50
172.5096846
51
180.1366907
0
ARC
8
DEFAULT_255_1_234
10
7.0039703
20
106.0486622
40
0.3103056
50
155.3484492
51
180.7484736
0
ARC
8
DEFAULT_255_1_234
10
6.9990792
20
106.0457846
40
0.3070957
50
131.5744599
51
154.4798489
0
ARC
8
DEFAULT_255_1_234
10
7.0303939
20
106.014131
40
0.3515643
50
96.9875458
51
131.9690667
0
ARC
8
DEFAULT_255_1_234
10
7.0523419
20
105.8895636
40
0.4779224
50
89.8596053
51
97.7825159
0
ARC
8
DEFAULT_255_1_234
10
7.0571482
20
105.8633616
40
0.5041361
50
78.3655447
51
90.4131539
0
ARC
8
DEFAULT_255_1_234
10
7.09294
20
106.0292887
40
0.3344039
50
56.6229102
51
78.638727
0
ARC
8
DEFAULT_255_1_234
10
7.1144344
20
106.0668805
40
0.2912001
50
47.0253525
51
56.0854072
0
ARC
8
DEFAULT_255_1_234
10
7.1164124
20
106.0708223
40
0.2869704
50
10.9208013
51
46.7778124
0
ARC
8
DEFAULT_255_1_234
10
6.980019
20
106.0392857
40
0.426899
50
359.6364486
51
11.6087304
0
ARC
8
DEFAULT_255_1_234
10
7.1635035
20
106.0377752
40
0.243409
50
332.3549906
51
359.7179418
0
ARC
8
DEFAULT_255_1_234
10
7.0984636
20
106.0686142
40
0.3153459
50
325.2333722
51
332.8745602
0
ARC
8
DEFAULT_255_1_234
10
7.113726
20
106.0579828
40
0.2967456
50
292.9802137
51
325.2392345
0
ARC
8
DEFAULT_255_1_234
10
7.0862634
20
106.1113863
40
0.3566604
50
292.5402179
51
293.6924929
0
ARC
8
DEFAULT_255_1_234
10
7.1255229
20
105.4659091
40
0.3307468
50
57.6435486
51
72.8625112
0
ARC
8
DEFAULT_255_1_234
10
7.1609729
20
105.5233549
40
0.2632492
50
36.7248896
51
57.4697979
0
ARC
8
DEFAULT_255_1_234
10
7.1598362
20
105.524622
40
0.2634081
50
8.0545065
51
36.356114
0
ARC
8
DEFAULT_255_1_234
10
7.0735547
20
105.5091174
40
0.3510261
50
359.8320645
51
8.5869982
0
ARC
8
DEFAULT_255_1_234
10
7.0360323
20
105.5043101
40
0.3885653
50
343.9829931
51
0.5571613
0
ARC
8
DEFAULT_255_1_234
10
7.1246521
20
105.4800438
40
0.2966924
50
311.6359546
51
343.7651759
0
ARC
8
DEFAULT_255_1_234
10
7.086809
20
105.5227102
40
0.3537231
50
279.7829875
51
311.6255694
0
ARC
8
DEFAULT_255_1_234
10
7.0566866
20
105.666428
40
0.5004971
50
269.7286406
51
280.3856417
0
ARC
8
DEFAULT_255_1_234
10
7.0504939
20
105.6622996
40
0.4963778
50
256.6828919
51
270.4412052
0
ARC
8
DEFAULT_255_1_234
10
7.0166234
20
105.5238394
40
0.3538406
50
229.4223008
51
256.8556159
0
ARC
8
DEFAULT_255_1_234
10
6.9751627
20
105.4771736
40
0.2914296
50
181.818294
51
229.6455059
0
ARC
8
DEFAULT_255_1_234
10
7.0791583
20
105.4902496
40
0.3959084
50
179.9755256
51
183.2323064
0
ARC
8
DEFAULT_255_1_234
10
7.0619329
20
105.4882037
40
0.2293034
50
179.4465117
51
196.2869258
0
ARC
8
DEFAULT_255_1_234
10
7.0131737
20
105.4748651
40
0.1787621
50
196.5661473
51
227.705904
0
ARC
8
DEFAULT_255_1_234
10
7.0295832
20
105.4932155
40
0.2033784
50
227.7652068
51
257.8762805
0
ARC
8
DEFAULT_255_1_234
10
7.0520802
20
105.5875156
40
0.3003081
50
257.4584385
51
270.426602
0
ARC
8
DEFAULT_255_1_234
10
7.0566368
20
105.6164996
40
0.329292
50
269.5962073
51
280.8789248
0
ARC
8
DEFAULT_255_1_234
10
7.0795897
20
105.5018685
40
0.2123908
50
280.6346389
51
299.8595945
0
ARC
8
DEFAULT_255_1_234
10
7.0986804
20
105.4656212
40
0.171457
50
300.3576302
51
314.5517981
0
ARC
8
DEFAULT_255_1_234
10
7.0903864
20
105.4716919
40
0.1816095
50
315.0728369
51
345.0431014
0
ARC
8
DEFAULT_255_1_234
10
6.9980678
20
105.4985841
40
0.2777492
50
344.5986631
51
357.9269593
0
ARC
8
DEFAULT_255_1_234
10
6.9085005
20
105.5047276
40
0.3674917
50
357.4748886
51
0.0231117
0
ARC
8
DEFAULT_255_1_234
10
7.0108114
20
105.5071679
40
0.2651907
50
359.5047933
51
13.4239635
0
ARC
8
DEFAULT_255_1_234
10
7.0974758
20
105.5293478
40
0.1757509
50
12.9498199
51
48.7551375
0
ARC
8
DEFAULT_255_1_234
10
7.0792492
20
105.50444
40
0.2065134
50
49.5088623
51
72.1836453
0
ARC
8
DEFAULT_255_1_234
10
7.0434644
20
105.3982291
40
0.3185836
50
71.9010081
51
84.3554254
0
ARC
8
DEFAULT_255_1_234
10
7.0273276
20
105.2621326
40
0.4556151
50
84.0193428
51
89.333121
0
LINE
8
DEFAULT_255_1_234
10
4.3652902
20
111.6431211
11
4.3652902
21
110.4737
0
LINE
8
DEFAULT_255_1_234
10
4.3652902
20
110.4737
11
4.2110808
21
110.4737
0
LINE
8
DEFAULT_255_1_234
10
4.2110808
20
110.4737
11
4.2110808
21
111.6431211
0
LINE
8
DEFAULT_255_1_234
10
4.2110808
20
111.6431211
11
4.3652902
21
111.6431211
0
LINE
8
DEFAULT_255_1_234
10
5.5459557
20
111.6431211
11
5.5459557
21
110.4737
0
LINE
8
DEFAULT_255_1_234
10
5.5459557
20
110.4737
11
5.3909432
21
110.4737
0
LINE
8
DEFAULT_255_1_234
10
5.3909432
20
110.4737
11
4.8022167
21
111.374861
0
LINE
8
DEFAULT_255_1_234
10
4.8022167
20
111.374861
11
4.8022167
21
110.4737
0
LINE
8
DEFAULT_255_1_234
10
4.8022167
20
110.4737
11
4.6472042
21
110.4737
0
LINE
8
DEFAULT_255_1_234
10
4.6472042
20
110.4737
11
4.6472042
21
111.6431211
0
LINE
8
DEFAULT_255_1_234
10
4.6472042
20
111.6431211
11
4.8022167
21
111.6431211
0
LINE
8
DEFAULT_255_1_234
10
4.8022167
20
111.6431211
11
5.3925495
21
110.7379442
0
LINE
8
DEFAULT_255_1_234
10
5.3925495
20
110.7379442
11
5.3925495
21
111.6431211
0
LINE
8
DEFAULT_255_1_234
10
5.3925495
20
111.6431211
11
5.5459557
21
111.6431211
0
LINE
8
DEFAULT_255_1_234
10
6.2696153
20
111.6487433
11
6.2696153
21
110.4737
0
LINE
8
DEFAULT_255_1_234
10
6.2696153
20
110.4737
11
6.120225
21
110.4737
0
LINE
8
DEFAULT_255_1_234
10
6.120225
20
110.4737
11
6.120225
21
111.4640133
0
LINE
8
DEFAULT_255_1_234
10
6.120225
20
111.4640133
11
5.8206412
21
111.3539785
0
LINE
8
DEFAULT_255_1_234
10
5.8206412
20
111.3539785
11
5.8206412
21
111.4889117
0
LINE
8
DEFAULT_255_1_234
10
5.8206412
20
111.4889117
11
6.2463233
21
111.6487433
0
LINE
8
DEFAULT_255_1_234
10
6.2463233
20
111.6487433
11
6.2696153
21
111.6487433
0
LINE
8
DEFAULT_255_1_234
10
7.4711634
20
110.5949792
11
7.4711634
21
110.4737
0
LINE
8
DEFAULT_255_1_234
10
7.4711634
20
110.4737
11
6.7049355
21
110.4737
0
LINE
8
DEFAULT_255_1_234
10
6.7049355
20
110.4737
11
6.7049355
21
110.5805221
0
LINE
8
DEFAULT_255_1_234
10
6.7049355
20
110.5805221
11
7.1097352
21
111.0302995
0
LINE
8
DEFAULT_255_1_234
10
6.8310338
20
111.2985595
11
6.6824467
21
111.2985595
0
LINE
8
DEFAULT_255_1_234
10
7.1972811
20
110.9347218
11
6.8840433
21
110.5949792
0
LINE
8
DEFAULT_255_1_234
10
6.8840433
20
110.5949792
11
7.4711634
21
110.5949792
0
ARC
8
DEFAULT_255_1_234
10
5.7607185
20
112.2232527
40
1.8008286
50
318.5132453
51
320.7828378
0
ARC
8
DEFAULT_255_1_234
10
6.2894159
20
111.7929426
40
1.1191493
50
320.7372736
51
323.9737074
0
ARC
8
DEFAULT_255_1_234
10
6.6814016
20
111.5089361
40
0.6350923
50
323.8961724
51
328.6421089
0
ARC
8
DEFAULT_255_1_234
10
6.8860611
20
111.3827031
40
0.3946393
50
328.8299013
51
331.789948
0
ARC
8
DEFAULT_255_1_234
10
6.985779
20
111.3312509
40
0.2824501
50
331.4255242
51
352.9364833
0
ARC
8
DEFAULT_255_1_234
10
6.999429
20
111.3281976
40
0.2685315
50
353.2248685
51
0.0169286
0
ARC
8
DEFAULT_255_1_234
10
7.0204167
20
111.330495
40
0.2475536
50
359.4866256
51
15.9339782
0
ARC
8
DEFAULT_255_1_234
10
7.0711152
20
111.3441286
40
0.1950618
50
16.1714718
51
43.5284424
0
ARC
8
DEFAULT_255_1_234
10
7.0788461
20
111.3518573
40
0.184134
50
43.4415429
51
83.1661404
0
ARC
8
DEFAULT_255_1_234
10
7.0654379
20
111.2781771
40
0.258926
50
82.160215
51
90.1505798
0
ARC
8
DEFAULT_255_1_234
10
7.0622807
20
111.2244865
40
0.3126255
50
89.5460705
51
102.5418777
0
ARC
8
DEFAULT_255_1_234
10
7.0379893
20
111.3275665
40
0.2067346
50
102.1739365
51
129.2061916
0
ARC
8
DEFAULT_255_1_234
10
7.0300964
20
111.3400094
40
0.1921118
50
129.7279328
51
135.7542026
0
ARC
8
DEFAULT_255_1_234
10
7.0422492
20
111.3303045
40
0.2075944
50
136.175737
51
166.3674722
0
ARC
8
DEFAULT_255_1_234
10
7.1429411
20
111.3033182
40
0.3118201
50
165.9092917
51
178.8683903
0
ARC
8
DEFAULT_255_1_234
10
7.2294273
20
111.2986179
40
0.3983935
50
178.438168
51
180.0083905
0
ARC
8
DEFAULT_255_1_234
10
7.0892875
20
111.3025231
40
0.4068601
50
163.2878735
51
180.5581814
0
ARC
8
DEFAULT_255_1_234
10
7.0091136
20
111.324584
40
0.3237344
50
133.454115
51
162.9470031
0
ARC
8
DEFAULT_255_1_234
10
7.0269677
20
111.3056
40
0.349795
50
100.7869394
51
133.4384016
0
ARC
8
DEFAULT_255_1_234
10
7.0617449
20
111.1507319
40
0.5084616
50
89.6605301
51
101.3704185
0
ARC
8
DEFAULT_255_1_234
10
7.0683788
20
111.1568496
40
0.502348
50
78.2171172
51
90.4130393
0
ARC
8
DEFAULT_255_1_234
10
7.1038866
20
111.3192637
40
0.3361092
50
55.9268222
51
78.4888551
0
ARC
8
DEFAULT_255_1_234
10
7.1235306
20
111.3531324
40
0.2970617
50
47.9292255
51
55.4054003
0
ARC
8
DEFAULT_255_1_234
10
7.1336867
20
111.3634502
40
0.2825983
50
4.3347696
51
48.0560701
0
ARC
8
DEFAULT_255_1_234
10
7.024126
20
111.3464601
40
0.393225
50
359.925209
51
5.5967654
0
ARC
8
DEFAULT_255_1_234
10
7.0670152
20
111.3520816
40
0.3503892
50
337.8914096
51
358.9967724
0
ARC
8
DEFAULT_255_1_234
10
6.7956564
20
111.4567706
40
0.6412172
50
326.9135351
51
338.3505194
0
ARC
8
DEFAULT_255_1_234
10
6.3970868
20
111.7122284
40
1.1146189
50
319.6472867
51
327.095818
0
ARC
8
DEFAULT_255_1_234
10
6.0137871
20
112.0284
40
1.6114559
50
317.2586784
51
319.9046139
0
LINE
8
DEFAULT_255_1_234
10
4.3570902
20
116.9347211
11
4.3570902
21
115.7653
0
LINE
8
DEFAULT_255_1_234
10
4.3570902
20
115.7653
11
4.2028808
21
115.7653
0
LINE
8
DEFAULT_255_1_234
10
4.2028808
20
115.7653
11
4.2028808
21
116.9347211
0
LINE
8
DEFAULT_255_1_234
10
4.2028808
20
116.9347211
11
4.3570902
21
116.9347211
0
LINE
8
DEFAULT_255_1_234
10
5.5377557
20
116.9347211
11
5.5377557
21
115.7653
0
LINE
8
DEFAULT_255_1_234
10
5.5377557
20
115.7653
11
5.3827432
21
115.7653
0
LINE
8
DEFAULT_255_1_234
10
5.3827432
20
115.7653
11
4.7940167
21
116.666461
0
LINE
8
DEFAULT_255_1_234
10
4.7940167
20
116.666461
11
4.7940167
21
115.7653
0
LINE
8
DEFAULT_255_1_234
10
4.7940167
20
115.7653
11
4.6390042
21
115.7653
0
LINE
8
DEFAULT_255_1_234
10
4.6390042
20
115.7653
11
4.6390042
21
116.9347211
0
LINE
8
DEFAULT_255_1_234
10
4.6390042
20
116.9347211
11
4.7940167
21
116.9347211
0
LINE
8
DEFAULT_255_1_234
10
4.7940167
20
116.9347211
11
5.3843495
21
116.0295442
0
LINE
8
DEFAULT_255_1_234
10
5.3843495
20
116.0295442
11
5.3843495
21
116.9347211
0
LINE
8
DEFAULT_255_1_234
10
5.3843495
20
116.9347211
11
5.5377557
21
116.9347211
0
LINE
8
DEFAULT_255_1_234
10
6.2614153
20
116.9403433
11
6.2614153
21
115.7653
0
LINE
8
DEFAULT_255_1_234
10
6.2614153
20
115.7653
11
6.112025
21
115.7653
0
LINE
8
DEFAULT_255_1_234
10
6.112025
20
115.7653
11
6.112025
21
116.7556133
0
LINE
8
DEFAULT_255_1_234
10
6.112025
20
116.7556133
11
5.8124412
21
116.6455785
0
LINE
8
DEFAULT_255_1_234
10
5.8124412
20
116.6455785
11
5.8124412
21
116.7805117
0
LINE
8
DEFAULT_255_1_234
10
5.8124412
20
116.7805117
11
6.2381233
21
116.9403433
0
LINE
8
DEFAULT_255_1_234
10
6.2381233
20
116.9403433
11
6.2614153
21
116.9403433
0
LINE
8
DEFAULT_255_1_234
10
7.1850652
20
116.9403433
11
7.1850652
21
115.7653
0
LINE
8
DEFAULT_255_1_234
10
7.1850652
20
115.7653
11
7.0356749
21
115.7653
0
LINE
8
DEFAULT_255_1_234
10
7.0356749
20
115.7653
11
7.0356749
21
116.7556133
0
LINE
8
DEFAULT_255_1_234
10
7.0356749
20
116.7556133
11
6.7360911
21
116.6455785
0
LINE
8
DEFAULT_255_1_234
10
6.7360911
20
116.6455785
11
6.7360911
21
116.7805117
0
LINE
8
DEFAULT_255_1_234
10
6.7360911
20
116.7805117
11
7.1617732
21
116.9403433
0
LINE
8
DEFAULT_255_1_234
10
7.1617732
20
116.9403433
11
7.1850652
21
116.9403433
0
LINE
8
DEFAULT_255_1_234
10
4.3652902
20
122.2264211
11
4.3652902
21
121.057
0
LINE
8
DEFAULT_255_1_234
10
4.3652902
20
121.057
11
4.2110808
21
121.057
0
LINE
8
DEFAULT_255_1_234
10
4.2110808
20
121.057
11
4.2110808
21
122.2264211
0
LINE
8
DEFAULT_255_1_234
10
4.2110808
20
122.2264211
11
4.3652902
21
122.2264211
0
LINE
8
DEFAULT_255_1_234
10
5.5459557
20
122.2264211
11
5.5459557
21
121.057
0
LINE
8
DEFAULT_255_1_234
10
5.5459557
20
121.057
11
5.3909432
21
121.057
0
LINE
8
DEFAULT_255_1_234
10
5.3909432
20
121.057
11
4.8022167
21
121.958161
0
LINE
8
DEFAULT_255_1_234
10
4.8022167
20
121.958161
11
4.8022167
21
121.057
0
LINE
8
DEFAULT_255_1_234
10
4.8022167
20
121.057
11
4.6472042
21
121.057
0
LINE
8
DEFAULT_255_1_234
10
4.6472042
20
121.057
11
4.6472042
21
122.2264211
0
LINE
8
DEFAULT_255_1_234
10
4.6472042
20
122.2264211
11
4.8022167
21
122.2264211
0
LINE
8
DEFAULT_255_1_234
10
4.8022167
20
122.2264211
11
5.3925495
21
121.3212442
0
LINE
8
DEFAULT_255_1_234
10
5.3925495
20
121.3212442
11
5.3925495
21
122.2264211
0
LINE
8
DEFAULT_255_1_234
10
5.3925495
20
122.2264211
11
5.5459557
21
122.2264211
0
LINE
8
DEFAULT_255_1_234
10
6.2696153
20
122.2320433
11
6.2696153
21
121.057
0
LINE
8
DEFAULT_255_1_234
10
6.2696153
20
121.057
11
6.120225
21
121.057
0
LINE
8
DEFAULT_255_1_234
10
6.120225
20
121.057
11
6.120225
21
122.0473133
0
LINE
8
DEFAULT_255_1_234
10
6.120225
20
122.0473133
11
5.8206412
21
121.9372785
0
LINE
8
DEFAULT_255_1_234
10
5.8206412
20
121.9372785
11
5.8206412
21
122.0722117
0
LINE
8
DEFAULT_255_1_234
10
5.8206412
20
122.0722117
11
6.2463233
21
122.2320433
0
LINE
8
DEFAULT_255_1_234
10
6.2463233
20
122.2320433
11
6.2696153
21
122.2320433
0
LINE
8
DEFAULT_255_1_234
10
7.4382333
20
121.7485327
11
7.4382333
21
121.5557709
0
LINE
8
DEFAULT_255_1_234
10
6.7001165
20
121.5356916
11
6.7001165
21
121.7340755
0
LINE
8
DEFAULT_255_1_234
10
7.2896461
20
121.5156123
11
7.2896461
21
121.7589739
0
LINE
8
DEFAULT_255_1_234
10
6.8487037
20
121.7702184
11
6.8487037
21
121.5324789
0
ARC
8
DEFAULT_255_1_234
10
6.2135222
20
121.5508805
40
1.2247208
50
353.8441951
51
0.2287902
0
ARC
8
DEFAULT_255_1_234
10
6.6774726
20
121.4990806
40
0.7578929
50
344.4934747
51
353.9765454
0
ARC
8
DEFAULT_255_1_234
10
6.9767316
20
121.4139981
40
0.4467846
50
329.2803592
51
344.7472793
0
ARC
8
DEFAULT_255_1_234
10
7.0760141
20
121.3595018
40
0.3336173
50
324.9352394
51
328.6160465
0
ARC
8
DEFAULT_255_1_234
10
7.113725
20
121.3331427
40
0.2876076
50
280.580143
51
324.9173126
0
ARC
8
DEFAULT_255_1_234
10
7.0736042
20
121.5002099
40
0.4592847
50
269.5977311
51
281.6734359
0
ARC
8
DEFAULT_255_1_234
10
7.0663948
20
121.4882173
40
0.4472986
50
256.6228859
51
270.51044
0
ARC
8
DEFAULT_255_1_234
10
7.0261926
20
121.3333877
40
0.2873874
50
215.8618325
51
257.2788573
0
ARC
8
DEFAULT_255_1_234
10
7.1282957
20
121.4018977
40
0.4102928
50
197.9693508
51
215.2623606
0
ARC
8
DEFAULT_255_1_234
10
7.3768073
20
121.4857709
40
0.6725652
50
187.8816417
51
198.2346507
0
ARC
8
DEFAULT_255_1_234
10
7.7726281
20
121.5429079
40
1.0724845
50
180.8976217
51
188.0055519
0
ARC
8
DEFAULT_255_1_234
10
8.0526469
20
121.5532777
40
1.3526448
50
180.7449369
51
181.1510016
0
ARC
8
DEFAULT_255_1_234
10
7.8949198
20
121.7389042
40
1.1948131
50
173.7675579
51
180.231553
0
ARC
8
DEFAULT_255_1_234
10
7.4431345
20
121.7899666
40
0.7401564
50
164.3058563
51
173.9002247
0
ARC
8
DEFAULT_255_1_234
10
7.1519414
20
121.8738656
40
0.4371288
50
148.7922025
51
164.568378
0
ARC
8
DEFAULT_255_1_234
10
7.0567866
20
121.9269929
40
0.3282386
50
144.5883898
51
148.1176286
0
ARC
8
DEFAULT_255_1_234
10
7.0224764
20
121.9509315
40
0.2864044
50
101.6440918
51
144.514236
0
ARC
8
DEFAULT_255_1_234
10
7.0649831
20
121.7820069
40
0.4604934
50
89.5284041
51
102.5819763
0
ARC
8
DEFAULT_255_1_234
10
7.0728918
20
121.7781018
40
0.464401
50
77.0437873
51
90.5081339
0
ARC
8
DEFAULT_255_1_234
10
7.113092
20
121.9423615
40
0.2953195
50
48.2778575
51
77.4994676
0
ARC
8
DEFAULT_255_1_234
10
7.1203551
20
121.9552746
40
0.2808655
50
36.3142134
51
47.6305865
0
ARC
8
DEFAULT_255_1_234
10
7.0334858
20
121.8967515
40
0.3855453
50
18.2931786
51
35.6769206
0
ARC
8
DEFAULT_255_1_234
10
6.7791617
20
121.8094593
40
0.654423
50
8.024666
51
18.5605216
0
ARC
8
DEFAULT_255_1_234
10
6.3628537
20
121.7479792
40
1.0752407
50
1.1274072
51
8.1718305
0
ARC
8
DEFAULT_255_1_234
10
6.0392728
20
121.7352885
40
1.3990231
50
0.5424119
51
1.3863029
0
ARC
8
DEFAULT_255_1_234
10
6.2214106
20
121.7625342
40
1.0682415
50
359.8090433
51
4.9407866
0
ARC
8
DEFAULT_255_1_234
10
6.642412
20
121.8001113
40
0.6455691
50
4.8362157
51
12.2904523
0
ARC
8
DEFAULT_255_1_234
10
6.9179234
20
121.8614965
40
0.3633074
50
12.0805627
51
23.8173984
0
ARC
8
DEFAULT_255_1_234
10
7.035294
20
121.9111919
40
0.2358723
50
24.2871213
51
31.3935614
0
ARC
8
DEFAULT_255_1_234
10
7.0877637
20
121.9455233
40
0.1732111
50
30.7407893
51
82.4657128
0
ARC
8
DEFAULT_255_1_234
10
7.0697771
20
121.8571691
40
0.263235
50
81.1060089
51
90.2184952
0
ARC
8
DEFAULT_255_1_234
10
7.066207
20
121.8829924
40
0.2374236
50
89.3806855
51
105.6762551
0
ARC
8
DEFAULT_255_1_234
10
7.0478701
20
121.9496567
40
0.1682847
50
105.7981136
51
149.7388061
0
ARC
8
DEFAULT_255_1_234
10
7.1542779
20
121.885695
40
0.2924306
50
149.4208916
51
163.6286378
0
ARC
8
DEFAULT_255_1_234
10
7.3633667
20
121.821925
40
0.5110213
50
163.3763315
51
172.1410975
0
ARC
8
DEFAULT_255_1_234
10
7.6934386
20
121.7746518
40
0.8444586
50
172.0259487
51
178.0703232
0
ARC
8
DEFAULT_255_1_234
10
7.9964476
20
121.7602906
40
1.1477868
50
177.8631668
51
179.5044149
0
ARC
8
DEFAULT_255_1_234
10
7.889188
20
121.5288389
40
1.0404907
50
179.7995573
51
185.2460446
0
ARC
8
DEFAULT_255_1_234
10
7.4848919
20
121.4905513
40
0.6343885
50
185.1411642
51
193.0079639
0
ARC
8
DEFAULT_255_1_234
10
7.2205392
20
121.4280641
40
0.3627568
50
192.7897626
51
205.2507664
0
ARC
8
DEFAULT_255_1_234
10
7.1158939
20
121.3813415
40
0.2481908
50
205.8005384
51
211.2537509
0
ARC
8
DEFAULT_255_1_234
10
7.0635379
20
121.346258
40
0.1852521
50
210.3789793
51
238.4008143
0
ARC
8
DEFAULT_255_1_234
10
7.0615901
20
121.3509376
40
0.1882621
50
239.6520629
51
265.9793761
0
ARC
8
DEFAULT_255_1_234
10
7.0701101
20
121.4181427
40
0.2559272
50
265.1315437
51
270.060332
0
ARC
8
DEFAULT_255_1_234
10
7.072988
20
121.3857534
40
0.2235528
50
269.3314664
51
287.2178029
0
ARC
8
DEFAULT_255_1_234
10
7.0867732
20
121.3354279
40
0.1714108
50
287.7958004
51
329.080874
0
ARC
8
DEFAULT_255_1_234
10
6.9910189
20
121.395193
40
0.2842745
50
328.6634704
51
343.3325132
0
ARC
8
DEFAULT_255_1_234
10
6.7737209
20
121.4628863
40
0.5118644
50
343.0499468
51
351.9393422
0
ARC
8
DEFAULT_255_1_234
10
6.4270509
20
121.5139949
40
0.8622784
50
351.8069023
51
357.7959224
0
ARC
8
DEFAULT_255_1_234
10
6.1035065
20
121.5307721
40
1.1862365
50
357.5871873
51
359.2677531
0
LINE
8
DEFAULT_255_1_234
10
4.3082902
20
127.5181211
11
4.3082902
21
126.3487
0
LINE
8
DEFAULT_255_1_234
10
4.3082902
20
126.3487
11
4.1540808
21
126.3487
0
LINE
8
DEFAULT_255_1_234
10
4.1540808
20
126.3487
11
4.1540808
21
127.5181211
0
LINE
8
DEFAULT_255_1_234
10
4.1540808
20
127.5181211
11
4.3082902
21
127.5181211
0
LINE
8
DEFAULT_255_1_234
10
5.4889557
20
127.5181211
11
5.4889557
21
126.3487
0
LINE
8
DEFAULT_255_1_234
10
5.4889557
20
126.3487
11
5.3339432
21
126.3487
0
LINE
8
DEFAULT_255_1_234
10
5.3339432
20
126.3487
11
4.7452167
21
127.249861
0
LINE
8
DEFAULT_255_1_234
10
4.7452167
20
127.249861
11
4.7452167
21
126.3487
0
LINE
8
DEFAULT_255_1_234
10
4.7452167
20
126.3487
11
4.5902042
21
126.3487
0
LINE
8
DEFAULT_255_1_234
10
4.5902042
20
126.3487
11
4.5902042
21
127.5181211
0
LINE
8
DEFAULT_255_1_234
10
4.5902042
20
127.5181211
11
4.7452167
21
127.5181211
0
LINE
8
DEFAULT_255_1_234
10
4.7452167
20
127.5181211
11
5.3355495
21
126.6129442
0
LINE
8
DEFAULT_255_1_234
10
5.3355495
20
126.6129442
11
5.3355495
21
127.5181211
0
LINE
8
DEFAULT_255_1_234
10
5.3355495
20
127.5181211
11
5.4889557
21
127.5181211
0
LINE
8
DEFAULT_255_1_234
10
6.4431262
20
127.0506739
11
6.4431262
21
127.0073025
0
LINE
8
DEFAULT_255_1_234
10
5.9009839
20
126.3478968
11
5.8720696
21
126.3478968
0
LINE
8
DEFAULT_255_1_234
10
5.8720696
20
126.3478968
11
5.8720696
21
126.4731919
0
LINE
8
DEFAULT_255_1_234
10
5.8720696
20
126.4731919
11
5.9033934
21
126.4731919
0
LINE
8
DEFAULT_255_1_234
10
6.2945391
20
127.0217597
11
6.2945391
21
127.0811945
0
ARC
8
DEFAULT_255_1_234
10
6.015166
20
127.0963403
40
0.3635579
50
297.4037347
51
320.016758
0
ARC
8
DEFAULT_255_1_234
10
6.0441609
20
127.040624
40
0.3007486
50
270.2633101
51
297.3851877
0
ARC
8
DEFAULT_255_1_234
10
6.0407565
20
127.0869904
40
0.3471448
50
269.9966443
51
270.7900392
0
ARC
8
DEFAULT_255_1_234
10
6.0382046
20
127.0868143
40
0.3469779
50
254.5999133
51
270.4180344
0
ARC
8
DEFAULT_255_1_234
10
6.0239406
20
127.0303647
40
0.2887697
50
236.4717942
51
254.3541279
0
ARC
8
DEFAULT_255_1_234
10
6.0395623
20
127.0513711
40
0.3149125
50
208.4727207
51
236.2134933
0
ARC
8
DEFAULT_255_1_234
10
6.1034398
20
127.0904455
40
0.3897115
50
204.3447514
51
209.0453999
0
ARC
8
DEFAULT_255_1_234
10
6.1713974
20
127.1192656
40
0.4635101
50
183.9375985
51
204.1276318
0
ARC
8
DEFAULT_255_1_234
10
6.2622225
20
127.1290482
40
0.5548037
50
179.9652252
51
184.3013875
0
ARC
8
DEFAULT_255_1_234
10
6.2382272
20
127.1323507
40
0.5308164
50
166.7585989
51
180.3201225
0
ARC
8
DEFAULT_255_1_234
10
6.1535885
20
127.1507488
40
0.4442163
50
154.6955053
51
166.5679793
0
ARC
8
DEFAULT_255_1_234
10
6.0682755
20
127.193721
40
0.3487299
50
136.3324195
51
155.0871442
0
ARC
8
DEFAULT_255_1_234
10
6.0401828
20
127.2177954
40
0.3117924
50
121.236733
51
135.9680508
0
ARC
8
DEFAULT_255_1_234
10
6.0542326
20
127.1917743
40
0.3413302
50
96.845628
51
120.9881519
0
ARC
8
DEFAULT_255_1_234
10
6.0687908
20
127.0982515
40
0.4359341
50
89.8870174
51
97.2802754
0
ARC
8
DEFAULT_255_1_234
10
6.0740346
20
127.1620095
40
0.3722009
50
70.6505584
51
90.6749113
0
ARC
8
DEFAULT_255_1_234
10
6.0871625
20
127.2133361
40
0.3194571
50
36.7492984
51
69.8219918
0
ARC
8
DEFAULT_255_1_234
10
5.987279
20
127.1354993
40
0.4460685
50
15.39587
51
37.0840084
0
ARC
8
DEFAULT_255_1_234
10
5.7743223
20
127.0734242
40
0.6678714
50
3.9488873
51
15.6798563
0
ARC
8
DEFAULT_255_1_234
10
5.5341851
20
127.0517964
40
0.9089418
50
359.929245
51
4.2665314
0
ARC
8
DEFAULT_255_1_234
10
5.0736288
20
127.0006513
40
1.3695135
50
352.8366322
51
0.2782669
0
ARC
8
DEFAULT_255_1_234
10
5.6023967
20
126.9319629
40
0.8363105
50
341.8359505
51
352.9884176
0
ARC
8
DEFAULT_255_1_234
10
5.9242686
20
126.82347
40
0.4966642
50
322.8578092
51
342.1527901
0
ARC
8
DEFAULT_255_1_234
10
6.0106642
20
126.7645384
40
0.3922466
50
319.334325
51
322.0998941
0
ARC
8
DEFAULT_255_1_234
10
5.9796979
20
126.7956209
40
0.4360033
50
285.9541367
51
318.8878087
0
ARC
8
DEFAULT_255_1_234
10
5.907024
20
127.02666
40
0.678149
50
272.9281676
51
286.4922826
0
ARC
8
DEFAULT_255_1_234
10
5.8880358
20
127.2517587
40
0.9039547
50
270.8207226
51
273.4012994
0
ARC
8
DEFAULT_255_1_234
10
5.8969209
20
127.0698666
40
0.5967098
50
270.6214993
51
281.4062806
0
ARC
8
DEFAULT_255_1_234
10
5.939919
20
126.8642833
40
0.3866861
50
281.1852553
51
299.0621114
0
ARC
8
DEFAULT_255_1_234
10
5.9772761
20
126.7921798
40
0.3055236
50
299.5067782
51
313.1200873
0
ARC
8
DEFAULT_255_1_234
10
5.9794728
20
126.7842554
40
0.2982623
50
313.8526205
51
338.5989322
0
ARC
8
DEFAULT_255_1_234
10
5.8170802
20
126.8509781
40
0.4738131
50
338.2523585
51
351.2430902
0
ARC
8
DEFAULT_255_1_234
10
5.5760098
20
126.8919447
40
0.7183203
50
350.9409515
51
357.6691871
0
ARC
8
DEFAULT_255_1_234
10
6.0650528
20
127.0921764
40
0.2294452
50
269.9447023
51
306.8248917
0
ARC
8
DEFAULT_255_1_234
10
6.0413443
20
127.1344898
40
0.2775994
50
305.5072438
51
327.0773448
0
ARC
8
DEFAULT_255_1_234
10
6.0531884
20
127.1250025
40
0.2625056
50
327.4104943
51
336.840169
0
ARC
8
DEFAULT_255_1_234
10
5.7437949
20
127.0844302
40
0.5507537
50
359.6633817
51
10.117533
0
ARC
8
DEFAULT_255_1_234
10
5.9191747
20
127.1168777
40
0.372403
50
9.9430141
51
26.7700076
0
ARC
8
DEFAULT_255_1_234
10
5.9788959
20
127.1444187
40
0.3066865
50
27.2015464
51
34.6829435
0
ARC
8
DEFAULT_255_1_234
10
6.027844
20
127.1811977
40
0.245519
50
34.1250343
51
50.3070065
0
ARC
8
DEFAULT_255_1_234
10
6.0725119
20
127.2346385
40
0.1758693
50
50.3851167
51
90.6705993
0
ARC
8
DEFAULT_255_1_234
10
6.0678352
20
127.2041799
40
0.2063326
50
89.272901
51
111.9140407
0
ARC
8
DEFAULT_255_1_234
10
6.065888
20
127.218244
40
0.1925887
50
112.9382311
51
142.5320782
0
ARC
8
DEFAULT_255_1_234
10
6.120506
20
127.1738969
40
0.2629232
50
142.1021256
51
166.3835592
0
ARC
8
DEFAULT_255_1_234
10
6.2386365
20
127.1433915
40
0.3849193
50
166.1100289
51
178.665427
0
ARC
8
DEFAULT_255_1_234
10
6.3433955
20
127.1375117
40
0.4897989
50
178.2632126
51
180.0111093
0
ARC
8
DEFAULT_255_1_234
10
6.2632075
20
127.1346728
40
0.40962
50
179.6161962
51
191.8787166
0
ARC
8
DEFAULT_255_1_234
10
6.1411914
20
127.1076896
40
0.2846655
50
191.6191692
51
215.2972286
0
ARC
8
DEFAULT_255_1_234
10
6.1215105
20
127.0961918
40
0.2619665
50
215.7320102
51
216.5355409
0
ARC
8
DEFAULT_255_1_234
10
6.0676191
20
127.0529647
40
0.1929497
50
215.7486685
51
239.9727502
0
ARC
8
DEFAULT_255_1_234
10
6.0606107
20
127.0478894
40
0.1850822
50
241.0650169
51
269.2810483
0
ARC
8
DEFAULT_255_1_234
10
6.0648022
20
127.0969371
40
0.2342059
50
268.4062526
51
270.0071348
0
LINE
8
DEFAULT_255_1_234
10
4.3082902
20
132.8097211
11
4.3082902
21
131.6403
0
LINE
8
DEFAULT_255_1_234
10
4.3082902
20
131.6403
11
4.1540808
21
131.6403
0
LINE
8
DEFAULT_255_1_234
10
4.1540808
20
131.6403
11
4.1540808
21
132.8097211
0
LINE
8
DEFAULT_255_1_234
10
4.1540808
20
132.8097211
11
4.3082902
21
132.8097211
0
LINE
8
DEFAULT_255_1_234
10
5.4889557
20
132.8097211
11
5.4889557
21
131.6403
0
LINE
8
DEFAULT_255_1_234
10
5.4889557
20
131.6403
11
5.3339432
21
131.6403
0
LINE
8
DEFAULT_255_1_234
10
5.3339432
20
131.6403
11
4.7452167
21
132.541461
0
LINE
8
DEFAULT_255_1_234
10
4.7452167
20
132.541461
11
4.7452167
21
131.6403
0
LINE
8
DEFAULT_255_1_234
10
4.7452167
20
131.6403
11
4.5902042
21
131.6403
0
LINE
8
DEFAULT_255_1_234
10
4.5902042
20
131.6403
11
4.5902042
21
132.8097211
0
LINE
8
DEFAULT_255_1_234
10
4.5902042
20
132.8097211
11
4.7452167
21
132.8097211
0
LINE
8
DEFAULT_255_1_234
10
4.7452167
20
132.8097211
11
5.3355495
21
131.9045442
0
LINE
8
DEFAULT_255_1_234
10
5.3355495
20
131.9045442
11
5.3355495
21
132.8097211
0
LINE
8
DEFAULT_255_1_234
10
5.3355495
20
132.8097211
11
5.4889557
21
132.8097211
0
ARC
8
DEFAULT_255_1_234
10
6.151264
20
132.5019703
40
0.2822356
50
338.8763615
51
0.5166041
0
ARC
8
DEFAULT_255_1_234
10
6.1681294
20
132.4974208
40
0.2648703
50
325.8412414
51
338.4795939
0
ARC
8
DEFAULT_255_1_234
10
6.1290662
20
132.5245042
40
0.3124019
50
296.7586019
51
325.753654
0
ARC
8
DEFAULT_255_1_234
10
6.100277
20
132.5729789
40
0.368668
50
296.0902311
51
297.3618122
0
ARC
8
DEFAULT_255_1_234
10
6.1260228
20
131.9175041
40
0.3518806
50
47.9009248
51
67.1946869
0
ARC
8
DEFAULT_255_1_234
10
6.145647
20
131.9421395
40
0.320451
50
35.236241
51
47.551371
0
ARC
8
DEFAULT_255_1_234
10
6.1718088
20
131.9595993
40
0.2890103
50
359.2759738
51
35.4014081
0
ARC
8
DEFAULT_255_1_234
10
6.0973119
20
131.9522826
40
0.3635026
50
343.1294516
51
0.5776525
0
ARC
8
DEFAULT_255_1_234
10
6.1697664
20
131.932333
40
0.2883832
50
310.8497458
51
342.744803
0
ARC
8
DEFAULT_255_1_234
10
6.1279777
20
131.9800294
40
0.3517954
50
281.5473923
51
310.9169905
0
ARC
8
DEFAULT_255_1_234
10
6.0923227
20
132.1353084
40
0.5110832
50
269.6192722
51
281.9789957
0
ARC
8
DEFAULT_255_1_234
10
6.0851016
20
132.1353828
40
0.5111606
50
257.4584469
51
270.4287458
0
ARC
8
DEFAULT_255_1_234
10
6.0470159
20
131.9750344
40
0.3463762
50
228.7553743
51
257.8484423
0
ARC
8
DEFAULT_255_1_234
10
6.0160357
20
131.9377442
40
0.297916
50
184.0104442
51
228.5071787
0
ARC
8
DEFAULT_255_1_234
10
6.1323301
20
131.9554512
40
0.4152734
50
179.9315461
51
185.3254504
0
ARC
8
DEFAULT_255_1_234
10
6.0146947
20
131.9591992
40
0.2976554
50
145.6795913
51
180.6259649
0
ARC
8
DEFAULT_255_1_234
10
6.0310296
20
131.9477929
40
0.3175776
50
115.5537925
51
145.6416199
0
ARC
8
DEFAULT_255_1_234
10
6.0651227
20
131.8867028
40
0.3874232
50
113.2437915
51
116.2054627
0
ARC
8
DEFAULT_255_1_234
10
6.0498439
20
132.526558
40
0.3154751
50
222.9548379
51
244.1372485
0
ARC
8
DEFAULT_255_1_234
10
6.0376514
20
132.5128834
40
0.2972382
50
213.3439227
51
222.6271327
0
ARC
8
DEFAULT_255_1_234
10
6.0184449
20
132.4998308
40
0.274019
50
180.4316517
51
213.2713999
0
ARC
8
DEFAULT_255_1_234
10
6.075945
20
132.504511
40
0.33158
50
179.9992944
51
181.1655061
0
ARC
8
DEFAULT_255_1_234
10
6.1168867
20
132.5079561
40
0.3725376
50
164.6186108
51
180.5292368
0
ARC
8
DEFAULT_255_1_234
10
6.027073
20
132.5321101
40
0.2795349
50
132.2454369
51
164.5092287
0
ARC
8
DEFAULT_255_1_234
10
6.0557834
20
132.4996028
40
0.3229019
50
100.7052766
51
132.1387266
0
ARC
8
DEFAULT_255_1_234
10
6.0862806
20
132.3618086
40
0.4639835
50
89.6732617
51
101.2449487
0
ARC
8
DEFAULT_255_1_234
10
6.0925004
20
132.379299
40
0.4464999
50
76.2876631
51
90.4586123
0
ARC
8
DEFAULT_255_1_234
10
6.1231236
20
132.501522
40
0.3205023
50
47.8240157
51
76.4266918
0
ARC
8
DEFAULT_255_1_234
10
6.1453786
20
132.527559
40
0.2862661
50
6.9168658
51
47.6261438
0
ARC
8
DEFAULT_255_1_234
10
6.0267189
20
132.505637
40
0.4067708
50
359.8419705
51
7.9694496
0
ARC
8
DEFAULT_255_1_234
10
6.0609086
20
131.9615925
40
0.2513121
50
359.4454068
51
16.9256425
0
ARC
8
DEFAULT_255_1_234
10
6.1077897
20
131.9745033
40
0.2027071
50
17.292259
51
45.462717
0
ARC
8
DEFAULT_255_1_234
10
6.1023833
20
131.9698434
40
0.2098212
50
45.3028762
51
83.1921472
0
ARC
8
DEFAULT_255_1_234
10
6.0880517
20
131.8896895
40
0.2911472
50
82.2614531
51
90.143954
0
ARC
8
DEFAULT_255_1_234
10
6.0849637
20
131.912995
40
0.2678513
50
89.4959189
51
104.8579811
0
ARC
8
DEFAULT_255_1_234
10
6.0672896
20
131.979989
40
0.1985654
50
104.8855873
51
135.2448349
0
ARC
8
DEFAULT_255_1_234
10
6.0722669
20
131.9755336
40
0.2052373
50
135.3398955
51
172.104394
0
ARC
8
DEFAULT_255_1_234
10
6.1529727
20
131.9600925
40
0.2873299
50
171.2651929
51
180.1859362
0
ARC
8
DEFAULT_255_1_234
10
6.1360428
20
131.9568733
40
0.2704083
50
179.515471
51
193.6466734
0
ARC
8
DEFAULT_255_1_234
10
6.0544197
20
131.9360777
40
0.1861855
50
193.3540587
51
225.8256931
0
ARC
8
DEFAULT_255_1_234
10
6.0584955
20
131.9431524
40
0.1941102
50
226.418029
51
255.8553723
0
ARC
8
DEFAULT_255_1_234
10
6.0841387
20
132.0367998
40
0.2911917
50
255.4655572
51
268.7985967
0
ARC
8
DEFAULT_255_1_234
10
6.0888579
20
132.1206491
40
0.3751331
50
268.3464808
51
270.0104874
0
ARC
8
DEFAULT_255_1_234
10
6.0911967
20
132.0522138
40
0.3067064
50
269.575914
51
282.0823146
0
ARC
8
DEFAULT_255_1_234
10
6.1136876
20
131.9527803
40
0.2047712
50
281.7522535
51
306.6056425
0
ARC
8
DEFAULT_255_1_234
10
6.1235302
20
131.9366487
40
0.1859604
50
307.1350025
51
314.0277951
0
ARC
8
DEFAULT_255_1_234
10
6.1199386
20
131.9392766
40
0.1903475
50
314.2553419
51
350.169324
0
ARC
8
DEFAULT_255_1_234
10
6.0347855
20
131.9577409
40
0.2774269
50
349.4145679
51
0.2930737
0
ARC
8
DEFAULT_255_1_234
10
6.0868288
20
132.4736353
40
0.2300764
50
89.477591
51
105.729794
0
ARC
8
DEFAULT_255_1_234
10
6.0732202
20
132.5241637
40
0.1777519
50
105.922966
51
135.1662921
0
ARC
8
DEFAULT_255_1_234
10
6.0752704
20
132.5227419
40
0.1802087
50
135.3053131
51
168.9882338
0
ARC
8
DEFAULT_255_1_234
10
6.1580277
20
132.5037721
40
0.2650806
50
168.3802067
51
180.3602358
0
ARC
8
DEFAULT_255_1_234
10
6.1351856
20
132.5000041
40
0.2422425
50
179.5029707
51
194.9126783
0
ARC
8
DEFAULT_255_1_234
10
6.0766517
20
132.484611
40
0.1817188
50
194.9722181
51
224.1943972
0
ARC
8
DEFAULT_255_1_234
10
6.0738384
20
132.4823169
40
0.1781027
50
224.2961434
51
262.0157375
0
ARC
8
DEFAULT_255_1_234
10
6.0880627
20
132.5554661
40
0.2525492
50
261.1250369
51
270.1959853
0
ARC
8
DEFAULT_255_1_234
10
6.0910382
20
132.5367339
40
0.233825
50
269.4825617
51
285.0988277
0
ARC
8
DEFAULT_255_1_234
10
6.1064541
20
132.478899
40
0.1739712
50
285.1585659
51
315.9484648
0
ARC
8
DEFAULT_255_1_234
10
6.0975553
20
132.4870886
40
0.1860616
50
316.0412958
51
351.9162715
0
ARC
8
DEFAULT_255_1_234
10
6.0242508
20
132.5012245
40
0.2606517
50
351.1056823
51
0.1936567
0
ARC
8
DEFAULT_255_1_234
10
6.0505337
20
132.5042369
40
0.234377
50
359.4789506
51
16.0679113
0
ARC
8
DEFAULT_255_1_234
10
6.0981296
20
132.517081
40
0.1850875
50
16.3251951
51
44.791304
0
ARC
8
DEFAULT_255_1_234
10
6.0963577
20
132.5171339
40
0.186312
50
44.3958661
51
88.2498933
0
ARC
8
DEFAULT_255_1_234
10
6.0890131
20
132.4560154
40
0.2476868
50
86.9833827
51
90.0200148
0
LINE
8
DEFAULT_255_1_234
10
4.3082902
20
138.1014211
11
4.3082902
21
136.932
0
LINE
8
DEFAULT_255_1_234
10
4.3082902
20
136.932
11
4.1540808
21
136.932
0
LINE
8
DEFAULT_255_1_234
10
4.1540808
20
136.932
11
4.1540808
21
138.1014211
0
LINE
8
DEFAULT_255_1_234
10
4.1540808
20
138.1014211
11
4.3082902
21
138.1014211
0
LINE
8
DEFAULT_255_1_234
10
5.4889557
20
138.1014211
11
5.4889557
21
136.932
0
LINE
8
DEFAULT_255_1_234
10
5.4889557
20
136.932
11
5.3339432
21
136.932
0
LINE
8
DEFAULT_255_1_234
10
5.3339432
20
136.932
11
4.7452167
21
137.833161
0
LINE
8
DEFAULT_255_1_234
10
4.7452167
20
137.833161
11
4.7452167
21
136.932
0
LINE
8
DEFAULT_255_1_234
10
4.7452167
20
136.932
11
4.5902042
21
136.932
0
LINE
8
DEFAULT_255_1_234
10
4.5902042
20
136.932
11
4.5902042
21
138.1014211
0
LINE
8
DEFAULT_255_1_234
10
4.5902042
20
138.1014211
11
4.7452167
21
138.1014211
0
LINE
8
DEFAULT_255_1_234
10
4.7452167
20
138.1014211
11
5.3355495
21
137.1962442
0
LINE
8
DEFAULT_255_1_234
10
5.3355495
20
137.1962442
11
5.3355495
21
138.1014211
0
LINE
8
DEFAULT_255_1_234
10
5.3355495
20
138.1014211
11
5.4889557
21
138.1014211
0
LINE
8
DEFAULT_255_1_234
10
6.479269
20
138.1014211
11
6.479269
21
138.017891
0
LINE
8
DEFAULT_255_1_234
10
6.479269
20
138.017891
11
5.9949552
21
136.932
0
LINE
8
DEFAULT_255_1_234
10
5.9949552
20
136.932
11
5.8391395
21
136.932
0
LINE
8
DEFAULT_255_1_234
10
5.8391395
20
136.932
11
6.321847
21
137.9793387
0
LINE
8
DEFAULT_255_1_234
10
6.321847
20
137.9793387
11
5.688946
21
137.9793387
0
LINE
8
DEFAULT_255_1_234
10
5.688946
20
137.9793387
11
5.688946
21
138.1014211
0
LINE
8
DEFAULT_255_1_234
10
5.688946
20
138.1014211
11
6.479269
21
138.1014211
0
LINE
8
DEFAULT_255_1_234
10
4.3082902
20
143.3931211
11
4.3082902
21
142.2237
0
LINE
8
DEFAULT_255_1_234
10
4.3082902
20
142.2237
11
4.1540808
21
142.2237
0
LINE
8
DEFAULT_255_1_234
10
4.1540808
20
142.2237
11
4.1540808
21
143.3931211
0
LINE
8
DEFAULT_255_1_234
10
4.1540808
20
143.3931211
11
4.3082902
21
143.3931211
0
LINE
8
DEFAULT_255_1_234
10
5.4889557
20
143.3931211
11
5.4889557
21
142.2237
0
LINE
8
DEFAULT_255_1_234
10
5.4889557
20
142.2237
11
5.3339432
21
142.2237
0
LINE
8
DEFAULT_255_1_234
10
5.3339432
20
142.2237
11
4.7452167
21
143.124861
0
LINE
8
DEFAULT_255_1_234
10
4.7452167
20
143.124861
11
4.7452167
21
142.2237
0
LINE
8
DEFAULT_255_1_234
10
4.7452167
20
142.2237
11
4.5902042
21
142.2237
0
LINE
8
DEFAULT_255_1_234
10
4.5902042
20
142.2237
11
4.5902042
21
143.3931211
0
LINE
8
DEFAULT_255_1_234
10
4.5902042
20
143.3931211
11
4.7452167
21
143.3931211
0
LINE
8
DEFAULT_255_1_234
10
4.7452167
20
143.3931211
11
5.3355495
21
142.4879442
0
LINE
8
DEFAULT_255_1_234
10
5.3355495
20
142.4879442
11
5.3355495
21
143.3931211
0
LINE
8
DEFAULT_255_1_234
10
5.3355495
20
143.3931211
11
5.4889557
21
143.3931211
0
LINE
8
DEFAULT_255_1_234
10
6.2808851
20
143.3939243
11
6.3073898
21
143.3939243
0
LINE
8
DEFAULT_255_1_234
10
6.3073898
20
143.3939243
11
6.3073898
21
143.267826
0
LINE
8
DEFAULT_255_1_234
10
6.3073898
20
143.267826
11
6.2800819
21
143.267826
0
LINE
8
DEFAULT_255_1_234
10
5.7331206
20
142.6686583
11
5.7331206
21
142.7256836
0
LINE
8
DEFAULT_255_1_234
10
5.8825109
20
142.7064075
11
5.8825109
21
142.6517917
0
ARC
8
DEFAULT_255_1_234
10
6.2853167
20
142.7680455
40
0.4998079
50
90.6001036
51
104.514704
0
ARC
8
DEFAULT_255_1_234
10
6.2464683
20
142.9125131
40
0.3502176
50
104.2855254
51
133.862935
0
ARC
8
DEFAULT_255_1_234
10
6.262844
20
142.901683
40
0.3693984
50
134.5302688
51
161.6210873
0
ARC
8
DEFAULT_255_1_234
10
6.4281629
20
142.8433895
40
0.5446739
50
161.2849839
51
174.2076652
0
ARC
8
DEFAULT_255_1_234
10
6.5688566
20
142.8239787
40
0.6866274
50
173.7810589
51
174.9254635
0
ARC
8
DEFAULT_255_1_234
10
6.1138398
20
142.6856839
40
0.3033419
50
95.8330959
51
138.9954921
0
ARC
8
DEFAULT_255_1_234
10
6.1361754
20
142.5578375
40
0.4328947
50
89.8753725
51
97.0544009
0
ARC
8
DEFAULT_255_1_234
10
6.140922
20
142.6413748
40
0.3493769
50
71.6407809
51
90.6240094
0
ARC
8
DEFAULT_255_1_234
10
6.1559793
20
142.6968082
40
0.2920396
50
39.6367836
51
71.019018
0
ARC
8
DEFAULT_255_1_234
10
6.0923266
20
142.6417998
40
0.3761538
50
10.658731
51
39.9043955
0
ARC
8
DEFAULT_255_1_234
10
5.9375349
20
142.6081686
40
0.5345136
50
359.682601
51
11.132623
0
ARC
8
DEFAULT_255_1_234
10
5.933548
20
142.601101
40
0.5385081
50
347.2486944
51
0.4369317
0
ARC
8
DEFAULT_255_1_234
10
6.1002957
20
142.5609807
40
0.3670249
50
318.1409698
51
347.6118597
0
ARC
8
DEFAULT_255_1_234
10
6.132795
20
142.5342702
40
0.3250007
50
275.6342139
51
317.8248465
0
ARC
8
DEFAULT_255_1_234
10
6.1107062
20
142.6642219
40
0.4565864
50
269.8874292
51
276.7917694
0
ARC
8
DEFAULT_255_1_234
10
6.1052132
20
142.5616743
40
0.3540676
50
246.9140195
51
270.7437342
0
ARC
8
DEFAULT_255_1_234
10
6.1058522
20
142.5474384
40
0.3412781
50
218.1665114
51
245.878116
0
ARC
8
DEFAULT_255_1_234
10
6.1937983
20
142.6210279
40
0.455911
50
191.4115814
51
218.6077802
0
ARC
8
DEFAULT_255_1_234
10
6.3876072
20
142.6644833
40
0.6545001
50
179.6345085
51
191.7836486
0
ARC
8
DEFAULT_255_1_234
10
6.9458409
20
142.7323697
40
1.2127388
50
171.4525249
51
180.3158839
0
ARC
8
DEFAULT_255_1_234
10
6.5063285
20
142.8007608
40
0.7679464
50
157.9802646
51
171.6246686
0
ARC
8
DEFAULT_255_1_234
10
6.2849306
20
142.8890421
40
0.5296008
50
141.4298019
51
157.854097
0
ARC
8
DEFAULT_255_1_234
10
6.2207627
20
142.9344381
40
0.4511509
50
102.8715806
51
140.8564722
0
ARC
8
DEFAULT_255_1_234
10
6.2855242
20
142.6904552
40
0.7034845
50
90.3778349
51
103.5869322
0
ARC
8
DEFAULT_255_1_234
10
6.1117018
20
142.629973
40
0.2370698
50
89.8751008
51
126.2071704
0
ARC
8
DEFAULT_255_1_234
10
6.1162808
20
142.6145303
40
0.2522934
50
124.9745049
51
144.895901
0
ARC
8
DEFAULT_255_1_234
10
6.0986999
20
142.628856
40
0.2296779
50
145.2974905
51
160.2660252
0
ARC
8
DEFAULT_255_1_234
10
6.4059537
20
142.6486071
40
0.5234525
50
179.6514266
51
190.2855912
0
ARC
8
DEFAULT_255_1_234
10
6.2365675
20
142.6166786
40
0.3510893
50
190.0945431
51
207.5098196
0
ARC
8
DEFAULT_255_1_234
10
6.1799944
20
142.5897623
40
0.288489
50
207.9583163
51
216.3251085
0
ARC
8
DEFAULT_255_1_234
10
6.1460052
20
142.5618105
40
0.2445587
50
215.7661442
51
232.5456785
0
ARC
8
DEFAULT_255_1_234
10
6.1077035
20
142.5131482
40
0.1826382
50
232.8005391
51
270.6605633
0
ARC
8
DEFAULT_255_1_234
10
6.1122736
20
142.5495612
40
0.2190529
50
269.35537
51
288.4744281
0
ARC
8
DEFAULT_255_1_234
10
6.1215633
20
142.5146118
40
0.1829749
50
289.1833337
51
322.9683818
0
ARC
8
DEFAULT_255_1_234
10
6.0604155
20
142.5628391
40
0.2608399
50
322.6007884
51
346.5182367
0
ARC
8
DEFAULT_255_1_234
10
5.9446751
20
142.5923616
40
0.3802777
50
346.2582162
51
358.7741648
0
ARC
8
DEFAULT_255_1_234
10
5.842842
20
142.5978965
40
0.4822176
50
358.3755224
51
0.0098023
0
ARC
8
DEFAULT_255_1_234
10
5.9184607
20
142.6006657
40
0.4066078
50
359.6214041
51
11.2839074
0
ARC
8
DEFAULT_255_1_234
10
6.0461754
20
142.6273066
40
0.2761514
50
11.0482309
51
31.8146458
0
ARC
8
DEFAULT_255_1_234
10
6.0770797
20
142.6440584
40
0.2410679
50
32.3035391
51
38.082671
0
ARC
8
DEFAULT_255_1_234
10
6.1191457
20
142.6821662
40
0.1844966
50
36.825067
51
85.7415724
0
ARC
8
DEFAULT_255_1_234
10
6.112429
20
142.6321301
40
0.2349122
50
85.0140713
51
90.0513278
0
LINE
8
DEFAULT_255_1_234
10
4.3082902
20
148.6847211
11
4.3082902
21
147.5153
0
LINE
8
DEFAULT_255_1_234
10
4.3082902
20
147.5153
11
4.1540808
21
147.5153
0
LINE
8
DEFAULT_255_1_234
10
4.1540808
20
147.5153
11
4.1540808
21
148.6847211
0
LINE
8
DEFAULT_255_1_234
10
4.1540808
20
148.6847211
11
4.3082902
21
148.6847211
0
LINE
8
DEFAULT_255_1_234
10
5.4889557
20
148.6847211
11
5.4889557
21
147.5153
0
LINE
8
DEFAULT_255_1_234
10
5.4889557
20
147.5153
11
5.3339432
21
147.5153
0
LINE
8
DEFAULT_255_1_234
10
5.3339432
20
147.5153
11
4.7452167
21
148.416461
0
LINE
8
DEFAULT_255_1_234
10
4.7452167
20
148.416461
11
4.7452167
21
147.5153
0
LINE
8
DEFAULT_255_1_234
10
4.7452167
20
147.5153
11
4.5902042
21
147.5153
0
LINE
8
DEFAULT_255_1_234
10
4.5902042
20
147.5153
11
4.5902042
21
148.6847211
0
LINE
8
DEFAULT_255_1_234
10
4.5902042
20
148.6847211
11
4.7452167
21
148.6847211
0
LINE
8
DEFAULT_255_1_234
10
4.7452167
20
148.6847211
11
5.3355495
21
147.7795442
0
LINE
8
DEFAULT_255_1_234
10
5.3355495
20
147.7795442
11
5.3355495
21
148.6847211
0
LINE
8
DEFAULT_255_1_234
10
5.3355495
20
148.6847211
11
5.4889557
21
148.6847211
0
LINE
8
DEFAULT_255_1_234
10
5.9114251
20
148.0710963
11
5.7925554
21
148.1016169
0
LINE
8
DEFAULT_255_1_234
10
5.7925554
20
148.1016169
11
5.8519903
21
148.6847211
0
LINE
8
DEFAULT_255_1_234
10
5.8519903
20
148.6847211
11
6.451158
21
148.6847211
0
LINE
8
DEFAULT_255_1_234
10
6.451158
20
148.6847211
11
6.451158
21
148.5473784
0
LINE
8
DEFAULT_255_1_234
10
6.451158
20
148.5473784
11
5.9780886
21
148.5473784
0
LINE
8
DEFAULT_255_1_234
10
5.9780886
20
148.5473784
11
5.9427489
21
148.2285184
0
LINE
8
DEFAULT_255_1_234
10
5.7507904
20
147.8229156
11
5.8913458
21
147.8229156
0
LINE
8
DEFAULT_255_1_234
10
5.9507807
20
148.1032232
11
5.9114251
21
148.0710963
0
ARC
8
DEFAULT_255_1_234
10
6.1282273
20
147.910523
40
0.3681349
50
93.7182161
51
120.2538958
0
ARC
8
DEFAULT_255_1_234
10
6.1376536
20
147.8297394
40
0.449379
50
89.9660152
51
94.2496022
0
ARC
8
DEFAULT_255_1_234
10
6.141727
20
147.8886549
40
0.390482
50
73.8043271
51
90.5585896
0
ARC
8
DEFAULT_255_1_234
10
6.1652167
20
147.9744602
40
0.3015334
50
41.3071453
51
73.5430202
0
ARC
8
DEFAULT_255_1_234
10
6.1235994
20
147.9386324
40
0.3564457
50
13.5075983
51
41.2174222
0
ARC
8
DEFAULT_255_1_234
10
5.9594198
20
147.8956486
40
0.5261351
50
1.1331335
51
13.8829381
0
ARC
8
DEFAULT_255_1_234
10
5.8182567
20
147.8880665
40
0.6674378
50
359.9919444
51
1.544251
0
ARC
8
DEFAULT_255_1_234
10
5.9459393
20
147.883928
40
0.5397702
50
347.8572367
51
0.4293338
0
ARC
8
DEFAULT_255_1_234
10
6.1209711
20
147.8442736
40
0.3603188
50
323.673004
51
348.1672506
0
ARC
8
DEFAULT_255_1_234
10
6.1504219
20
147.8263168
40
0.3259678
50
316.8171152
51
323.1492751
0
ARC
8
DEFAULT_255_1_234
10
6.1565408
20
147.822646
40
0.3189975
50
281.8396411
51
316.5457803
0
ARC
8
DEFAULT_255_1_234
10
6.1189672
20
147.9781762
40
0.4789527
50
269.5770101
51
282.4214771
0
ARC
8
DEFAULT_255_1_234
10
6.1118483
20
147.9568125
40
0.45759
50
256.2427136
51
270.4486331
0
ARC
8
DEFAULT_255_1_234
10
6.0819386
20
147.8368229
40
0.3339303
50
228.9023911
51
256.3314342
0
ARC
8
DEFAULT_255_1_234
10
6.0745618
20
147.8251746
40
0.32031
50
193.753695
51
228.5271154
0
ARC
8
DEFAULT_255_1_234
10
6.1983572
20
147.86148
40
0.4492253
50
184.924711
51
194.497588
0
ARC
8
DEFAULT_255_1_234
10
6.2176139
20
147.8650591
40
0.3289787
50
187.3600538
51
198.6732863
0
ARC
8
DEFAULT_255_1_234
10
6.1126433
20
147.8286674
40
0.217884
50
198.4451669
51
217.794479
0
ARC
8
DEFAULT_255_1_234
10
6.0830608
20
147.8077085
40
0.1816698
50
218.2887171
51
228.5612368
0
ARC
8
DEFAULT_255_1_234
10
6.0928395
20
147.8208963
40
0.1980329
50
228.9654866
51
258.1234728
0
ARC
8
DEFAULT_255_1_234
10
6.1134105
20
147.9089833
40
0.2884748
50
257.7258293
51
270.401361
0
ARC
8
DEFAULT_255_1_234
10
6.1178992
20
147.8644821
40
0.2439788
50
269.4204404
51
286.4209037
0
ARC
8
DEFAULT_255_1_234
10
6.1327479
20
147.8105657
40
0.1880666
50
286.7251356
51
320.600362
0
ARC
8
DEFAULT_255_1_234
10
6.0944304
20
147.8416595
40
0.2374121
50
320.6712579
51
344.5441685
0
ARC
8
DEFAULT_255_1_234
10
5.978763
20
147.8756045
40
0.3579479
50
344.2412205
51
356.7357071
0
ARC
8
DEFAULT_255_1_234
10
5.8538779
20
147.8859444
40
0.4832297
50
356.3548756
51
0.0500261
0
ARC
8
DEFAULT_255_1_234
10
5.9875288
20
147.889065
40
0.3495889
50
359.5576869
51
12.953486
0
ARC
8
DEFAULT_255_1_234
10
6.0930185
20
147.9146434
40
0.2410532
50
12.6490276
51
41.6081334
0
ARC
8
DEFAULT_255_1_234
10
6.1160556
20
147.9342321
40
0.2108218
50
41.7850273
51
85.9892764
0
ARC
8
DEFAULT_255_1_234
10
6.1037293
20
147.8529462
40
0.2928454
50
84.6957577
51
90.0676183
0
ARC
8
DEFAULT_255_1_234
10
6.1013777
20
147.7860716
40
0.3597255
50
89.6804936
51
99.1614436
0
ARC
8
DEFAULT_255_1_234
10
6.0808408
20
147.9088131
40
0.235281
50
98.9830931
51
113.8908934
0
ARC
8
DEFAULT_255_1_234
10
6.0578818
20
147.9629587
40
0.176479
50
114.1950727
51
127.3641004
0
LINE
8
DEFAULT_255_1_234
10
4.4140902
20
153.9764211
11
4.4140902
21
152.807
0
LINE
8
DEFAULT_255_1_234
10
4.4140902
20
152.807
11
4.2598808
21
152.807
0
LINE
8
DEFAULT_255_1_234
10
4.2598808
20
152.807
11
4.2598808
21
153.9764211
0
LINE
8
DEFAULT_255_1_234
10
4.2598808
20
153.9764211
11
4.4140902
21
153.9764211
0
LINE
8
DEFAULT_255_1_234
10
5.5947557
20
153.9764211
11
5.5947557
21
152.807
0
LINE
8
DEFAULT_255_1_234
10
5.5947557
20
152.807
11
5.4397432
21
152.807
0
LINE
8
DEFAULT_255_1_234
10
5.4397432
20
152.807
11
4.8510167
21
153.708161
0
LINE
8
DEFAULT_255_1_234
10
4.8510167
20
153.708161
11
4.8510167
21
152.807
0
LINE
8
DEFAULT_255_1_234
10
4.8510167
20
152.807
11
4.6960042
21
152.807
0
LINE
8
DEFAULT_255_1_234
10
4.6960042
20
152.807
11
4.6960042
21
153.9764211
0
LINE
8
DEFAULT_255_1_234
10
4.6960042
20
153.9764211
11
4.8510167
21
153.9764211
0
LINE
8
DEFAULT_255_1_234
10
4.8510167
20
153.9764211
11
5.4413495
21
153.0712442
0
LINE
8
DEFAULT_255_1_234
10
5.4413495
20
153.0712442
11
5.4413495
21
153.9764211
0
LINE
8
DEFAULT_255_1_234
10
5.4413495
20
153.9764211
11
5.5947557
21
153.9764211
0
LINE
8
DEFAULT_255_1_234
10
6.4573644
20
153.9764211
11
6.4573644
21
153.199752
0
LINE
8
DEFAULT_255_1_234
10
6.4573644
20
153.199752
11
6.6196055
21
153.199752
0
LINE
8
DEFAULT_255_1_234
10
6.6196055
20
153.199752
11
6.6196055
21
153.0784728
0
LINE
8
DEFAULT_255_1_234
10
6.6196055
20
153.0784728
11
6.4573644
21
153.0784728
0
LINE
8
DEFAULT_255_1_234
10
6.4573644
20
153.0784728
11
6.4573644
21
152.807
0
LINE
8
DEFAULT_255_1_234
10
6.4573644
20
152.807
11
6.3079741
21
152.807
0
LINE
8
DEFAULT_255_1_234
10
6.3079741
20
152.807
11
6.3079741
21
153.0784728
0
LINE
8
DEFAULT_255_1_234
10
6.3079741
20
153.0784728
11
5.7754698
21
153.0784728
0
LINE
8
DEFAULT_255_1_234
10
5.7754698
20
153.0784728
11
5.7754698
21
153.1660187
0
LINE
8
DEFAULT_255_1_234
10
5.7754698
20
153.1660187
11
6.2991392
21
153.9764211
0
LINE
8
DEFAULT_255_1_234
10
6.2991392
20
153.9764211
11
6.4573644
21
153.9764211
0
LINE
8
DEFAULT_255_1_234
10
6.2903042
20
153.7410912
11
5.9441363
21
153.199752
0
LINE
8
DEFAULT_255_1_234
10
5.9441363
20
153.199752
11
6.3079741
21
153.199752
0
LINE
8
DEFAULT_255_1_234
10
6.3079741
20
153.199752
11
6.3079741
21
153.7732181
0
LINE
8
DEFAULT_255_1_234
10
6.3079741
20
153.7732181
11
6.2903042
21
153.7410912
0
LINE
8
DEFAULT_255_1_234
10
4.3082902
20
159.2681211
11
4.3082902
21
158.0987
0
LINE
8
DEFAULT_255_1_234
10
4.3082902
20
158.0987
11
4.1540808
21
158.0987
0
LINE
8
DEFAULT_255_1_234
10
4.1540808
20
158.0987
11
4.1540808
21
159.2681211
0
LINE
8
DEFAULT_255_1_234
10
4.1540808
20
159.2681211
11
4.3082902
21
159.2681211
0
LINE
8
DEFAULT_255_1_234
10
5.4889557
20
159.2681211
11
5.4889557
21
158.0987
0
LINE
8
DEFAULT_255_1_234
10
5.4889557
20
158.0987
11
5.3339432
21
158.0987
0
LINE
8
DEFAULT_255_1_234
10
5.3339432
20
158.0987
11
4.7452167
21
158.999861
0
LINE
8
DEFAULT_255_1_234
10
4.7452167
20
158.999861
11
4.7452167
21
158.0987
0
LINE
8
DEFAULT_255_1_234
10
4.7452167
20
158.0987
11
4.5902042
21
158.0987
0
LINE
8
DEFAULT_255_1_234
10
4.5902042
20
158.0987
11
4.5902042
21
159.2681211
0
LINE
8
DEFAULT_255_1_234
10
4.5902042
20
159.2681211
11
4.7452167
21
159.2681211
0
LINE
8
DEFAULT_255_1_234
10
4.7452167
20
159.2681211
11
5.3355495
21
158.3629442
0
LINE
8
DEFAULT_255_1_234
10
5.3355495
20
158.3629442
11
5.3355495
21
159.2681211
0
LINE
8
DEFAULT_255_1_234
10
5.3355495
20
159.2681211
11
5.4889557
21
159.2681211
0
LINE
8
DEFAULT_255_1_234
10
5.9403394
20
158.6344169
11
5.9403394
21
158.7556962
0
LINE
8
DEFAULT_255_1_234
10
5.9403394
20
158.7556962
11
6.0519806
21
158.7556962
0
LINE
8
DEFAULT_255_1_234
10
5.8616284
20
158.9613087
11
5.7130412
21
158.9613087
0
LINE
8
DEFAULT_255_1_234
10
5.7026
20
158.4071188
11
5.8519903
21
158.4071188
0
LINE
8
DEFAULT_255_1_234
10
6.0519806
20
158.6344169
11
5.9403394
21
158.6344169
0
ARC
8
DEFAULT_255_1_234
10
6.0490672
20
159.0949713
40
0.3392876
50
270.4919872
51
281.8951556
0
ARC
8
DEFAULT_255_1_234
10
6.0731934
20
158.9847702
40
0.2264817
50
281.6691735
51
301.2943132
0
ARC
8
DEFAULT_255_1_234
10
6.0902144
20
158.9536304
40
0.1910381
50
301.7833094
51
311.7545298
0
ARC
8
DEFAULT_255_1_234
10
6.099372
20
158.9434748
40
0.1773635
50
311.7323931
51
354.2802411
0
ARC
8
DEFAULT_255_1_234
10
6.0267345
20
158.9559722
40
0.2509385
50
353.0937916
51
0.1181479
0
ARC
8
DEFAULT_255_1_234
10
5.980613
20
158.9607386
40
0.2970898
50
359.1805295
51
15.0453146
0
ARC
8
DEFAULT_255_1_234
10
6.1151967
20
158.9999992
40
0.1569564
50
13.9577229
51
77.6713066
0
ARC
8
DEFAULT_255_1_234
10
6.0765496
20
158.8614949
40
0.3006298
50
76.1116566
51
90.7026153
0
ARC
8
DEFAULT_255_1_234
10
6.0706334
20
158.8888545
40
0.2732568
50
89.5324876
51
103.531937
0
ARC
8
DEFAULT_255_1_234
10
6.0505779
20
158.9687884
40
0.1908508
50
103.2931773
51
133.5619022
0
ARC
8
DEFAULT_255_1_234
10
6.0461267
20
158.9747375
40
0.1834746
50
133.8349307
51
173.5344437
0
ARC
8
DEFAULT_255_1_234
10
6.118431
20
158.9619213
40
0.2568033
50
172.5096846
51
180.1366907
0
ARC
8
DEFAULT_255_1_234
10
6.0233204
20
158.9653622
40
0.3103056
50
155.3484492
51
180.7484736
0
ARC
8
DEFAULT_255_1_234
10
6.0184293
20
158.9624846
40
0.3070957
50
131.5744599
51
154.4798489
0
ARC
8
DEFAULT_255_1_234
10
6.049744
20
158.930831
40
0.3515643
50
96.9875458
51
131.9690667
0
ARC
8
DEFAULT_255_1_234
10
6.071692
20
158.8062636
40
0.4779224
50
89.8596053
51
97.7825159
0
ARC
8
DEFAULT_255_1_234
10
6.0764983
20
158.7800616
40
0.5041361
50
78.3655447
51
90.4131539
0
ARC
8
DEFAULT_255_1_234
10
6.1122901
20
158.9459887
40
0.3344039
50
56.6229102
51
78.638727
0
ARC
8
DEFAULT_255_1_234
10
6.1337845
20
158.9835805
40
0.2912001
50
47.0253525
51
56.0854072
0
ARC
8
DEFAULT_255_1_234
10
6.1357625
20
158.9875223
40
0.2869704
50
10.9208013
51
46.7778124
0
ARC
8
DEFAULT_255_1_234
10
5.9993691
20
158.9559857
40
0.426899
50
359.6364486
51
11.6087304
0
ARC
8
DEFAULT_255_1_234
10
6.1828536
20
158.9544752
40
0.243409
50
332.3549906
51
359.7179418
0
ARC
8
DEFAULT_255_1_234
10
6.1178137
20
158.9853142
40
0.3153459
50
325.2333722
51
332.8745602
0
ARC
8
DEFAULT_255_1_234
10
6.1330761
20
158.9746828
40
0.2967456
50
292.9802137
51
325.2392345
0
ARC
8
DEFAULT_255_1_234
10
6.1056135
20
159.0280863
40
0.3566604
50
292.5402179
51
293.6924929
0
ARC
8
DEFAULT_255_1_234
10
6.144873
20
158.3826091
40
0.3307468
50
57.6435486
51
72.8625112
0
ARC
8
DEFAULT_255_1_234
10
6.180323
20
158.4400549
40
0.2632492
50
36.7248896
51
57.4697979
0
ARC
8
DEFAULT_255_1_234
10
6.1791863
20
158.441322
40
0.2634081
50
8.0545065
51
36.356114
0
ARC
8
DEFAULT_255_1_234
10
6.0929048
20
158.4258174
40
0.3510261
50
359.8320645
51
8.5869982
0
ARC
8
DEFAULT_255_1_234
10
6.0553824
20
158.4210101
40
0.3885653
50
343.9829931
51
0.5571613
0
ARC
8
DEFAULT_255_1_234
10
6.1440022
20
158.3967438
40
0.2966924
50
311.6359546
51
343.7651759
0
ARC
8
DEFAULT_255_1_234
10
6.1061591
20
158.4394102
40
0.3537231
50
279.7829875
51
311.6255694
0
ARC
8
DEFAULT_255_1_234
10
6.0760367
20
158.583128
40
0.5004971
50
269.7286406
51
280.3856417
0
ARC
8
DEFAULT_255_1_234
10
6.0698439
20
158.5789996
40
0.4963778
50
256.6828919
51
270.4412052
0
ARC
8
DEFAULT_255_1_234
10
6.0359735
20
158.4405394
40
0.3538406
50
229.4223008
51
256.8556159
0
ARC
8
DEFAULT_255_1_234
10
5.9945128
20
158.3938736
40
0.2914296
50
181.818294
51
229.6455059
0
ARC
8
DEFAULT_255_1_234
10
6.0985084
20
158.4069496
40
0.3959084
50
179.9755256
51
183.2323064
0
ARC
8
DEFAULT_255_1_234
10
6.081283
20
158.4049037
40
0.2293034
50
179.4465117
51
196.2869258
0
ARC
8
DEFAULT_255_1_234
10
6.0325238
20
158.3915651
40
0.1787621
50
196.5661473
51
227.705904
0
ARC
8
DEFAULT_255_1_234
10
6.0489333
20
158.4099155
40
0.2033784
50
227.7652068
51
257.8762805
0
ARC
8
DEFAULT_255_1_234
10
6.0714303
20
158.5042156
40
0.3003081
50
257.4584385
51
270.426602
0
ARC
8
DEFAULT_255_1_234
10
6.0759869
20
158.5331996
40
0.329292
50
269.5962073
51
280.8789248
0
ARC
8
DEFAULT_255_1_234
10
6.0989398
20
158.4185685
40
0.2123908
50
280.6346389
51
299.8595945
0
ARC
8
DEFAULT_255_1_234
10
6.1180305
20
158.3823212
40
0.171457
50
300.3576302
51
314.5517981
0
ARC
8
DEFAULT_255_1_234
10
6.1097365
20
158.3883919
40
0.1816095
50
315.0728369
51
345.0431014
0
ARC
8
DEFAULT_255_1_234
10
6.0174179
20
158.4152841
40
0.2777492
50
344.5986631
51
357.9269593
0
ARC
8
DEFAULT_255_1_234
10
5.9278506
20
158.4214276
40
0.3674917
50
357.4748886
51
0.0231117
0
ARC
8
DEFAULT_255_1_234
10
6.0301615
20
158.4238679
40
0.2651907
50
359.5047933
51
13.4239635
0
ARC
8
DEFAULT_255_1_234
10
6.1168259
20
158.4460478
40
0.1757509
50
12.9498199
51
48.7551375
0
ARC
8
DEFAULT_255_1_234
10
6.0985993
20
158.42114
40
0.2065134
50
49.5088623
51
72.1836453
0
ARC
8
DEFAULT_255_1_234
10
6.0628145
20
158.3149291
40
0.3185836
50
71.9010081
51
84.3554254
0
ARC
8
DEFAULT_255_1_234
10
6.0466777
20
158.1788326
40
0.4556151
50
84.0193428
51
89.333121
0
LINE
8
DEFAULT_255_1_234
10
4.3082902
20
164.5597211
11
4.3082902
21
163.3903
0
LINE
8
DEFAULT_255_1_234
10
4.3082902
20
163.3903
11
4.1540808
21
163.3903
0
LINE
8
DEFAULT_255_1_234
10
4.1540808
20
163.3903
11
4.1540808
21
164.5597211
0
LINE
8
DEFAULT_255_1_234
10
4.1540808
20
164.5597211
11
4.3082902
21
164.5597211
0
LINE
8
DEFAULT_255_1_234
10
5.4889557
20
164.5597211
11
5.4889557
21
163.3903
0
LINE
8
DEFAULT_255_1_234
10
5.4889557
20
163.3903
11
5.3339432
21
163.3903
0
LINE
8
DEFAULT_255_1_234
10
5.3339432
20
163.3903
11
4.7452167
21
164.291461
0
LINE
8
DEFAULT_255_1_234
10
4.7452167
20
164.291461
11
4.7452167
21
163.3903
0
LINE
8
DEFAULT_255_1_234
10
4.7452167
20
163.3903
11
4.5902042
21
163.3903
0
LINE
8
DEFAULT_255_1_234
10
4.5902042
20
163.3903
11
4.5902042
21
164.5597211
0
LINE
8
DEFAULT_255_1_234
10
4.5902042
20
164.5597211
11
4.7452167
21
164.5597211
0
LINE
8
DEFAULT_255_1_234
10
4.7452167
20
164.5597211
11
5.3355495
21
163.6545442
0
LINE
8
DEFAULT_255_1_234
10
5.3355495
20
163.6545442
11
5.3355495
21
164.5597211
0
LINE
8
DEFAULT_255_1_234
10
5.3355495
20
164.5597211
11
5.4889557
21
164.5597211
0
LINE
8
DEFAULT_255_1_234
10
6.4905135
20
163.5115792
11
6.4905135
21
163.3903
0
LINE
8
DEFAULT_255_1_234
10
6.4905135
20
163.3903
11
5.7242856
21
163.3903
0
LINE
8
DEFAULT_255_1_234
10
5.7242856
20
163.3903
11
5.7242856
21
163.4971221
0
LINE
8
DEFAULT_255_1_234
10
5.7242856
20
163.4971221
11
6.1290853
21
163.9468995
0
LINE
8
DEFAULT_255_1_234
10
5.8503839
20
164.2151595
11
5.7017968
21
164.2151595
0
LINE
8
DEFAULT_255_1_234
10
6.2166312
20
163.8513218
11
5.9033934
21
163.5115792
0
LINE
8
DEFAULT_255_1_234
10
5.9033934
20
163.5115792
11
6.4905135
21
163.5115792
0
ARC
8
DEFAULT_255_1_234
10
4.7800686
20
165.1398527
40
1.8008286
50
318.5132453
51
320.7828378
0
ARC
8
DEFAULT_255_1_234
10
5.308766
20
164.7095426
40
1.1191493
50
320.7372736
51
323.9737074
0
ARC
8
DEFAULT_255_1_234
10
5.7007517
20
164.4255361
40
0.6350923
50
323.8961724
51
328.6421089
0
ARC
8
DEFAULT_255_1_234
10
5.9054112
20
164.2993031
40
0.3946393
50
328.8299013
51
331.789948
0
ARC
8
DEFAULT_255_1_234
10
6.0051291
20
164.2478509
40
0.2824501
50
331.4255242
51
352.9364833
0
ARC
8
DEFAULT_255_1_234
10
6.0187791
20
164.2447976
40
0.2685315
50
353.2248685
51
0.0169286
0
ARC
8
DEFAULT_255_1_234
10
6.0397668
20
164.247095
40
0.2475536
50
359.4866256
51
15.9339782
0
ARC
8
DEFAULT_255_1_234
10
6.0904653
20
164.2607286
40
0.1950618
50
16.1714718
51
43.5284424
0
ARC
8
DEFAULT_255_1_234
10
6.0981962
20
164.2684573
40
0.184134
50
43.4415429
51
83.1661404
0
ARC
8
DEFAULT_255_1_234
10
6.084788
20
164.1947771
40
0.258926
50
82.160215
51
90.1505798
0
ARC
8
DEFAULT_255_1_234
10
6.0816308
20
164.1410865
40
0.3126255
50
89.5460705
51
102.5418777
0
ARC
8
DEFAULT_255_1_234
10
6.0573394
20
164.2441665
40
0.2067346
50
102.1739365
51
129.2061916
0
ARC
8
DEFAULT_255_1_234
10
6.0494465
20
164.2566094
40
0.1921118
50
129.7279328
51
135.7542026
0
ARC
8
DEFAULT_255_1_234
10
6.0615993
20
164.2469045
40
0.2075944
50
136.175737
51
166.3674722
0
ARC
8
DEFAULT_255_1_234
10
6.1622912
20
164.2199182
40
0.3118201
50
165.9092917
51
178.8683903
0
ARC
8
DEFAULT_255_1_234
10
6.2487774
20
164.2152179
40
0.3983935
50
178.438168
51
180.0083905
0
ARC
8
DEFAULT_255_1_234
10
6.1086376
20
164.2191231
40
0.4068601
50
163.2878735
51
180.5581814
0
ARC
8
DEFAULT_255_1_234
10
6.0284637
20
164.241184
40
0.3237344
50
133.454115
51
162.9470031
0
ARC
8
DEFAULT_255_1_234
10
6.0463178
20
164.2222
40
0.349795
50
100.7869394
51
133.4384016
0
ARC
8
DEFAULT_255_1_234
10
6.081095
20
164.0673319
40
0.5084616
50
89.6605301
51
101.3704185
0
ARC
8
DEFAULT_255_1_234
10
6.0877289
20
164.0734496
40
0.502348
50
78.2171172
51
90.4130393
0
ARC
8
DEFAULT_255_1_234
10
6.1232367
20
164.2358637
40
0.3361092
50
55.9268222
51
78.4888551
0
ARC
8
DEFAULT_255_1_234
10
6.1428807
20
164.2697324
40
0.2970617
50
47.9292255
51
55.4054003
0
ARC
8
DEFAULT_255_1_234
10
6.1530368
20
164.2800502
40
0.2825983
50
4.3347696
51
48.0560701
0
ARC
8
DEFAULT_255_1_234
10
6.0434761
20
164.2630601
40
0.393225
50
359.925209
51
5.5967654
0
ARC
8
DEFAULT_255_1_234
10
6.0863653
20
164.2686816
40
0.3503892
50
337.8914096
51
358.9967724
0
ARC
8
DEFAULT_255_1_234
10
5.8150065
20
164.3733706
40
0.6412172
50
326.9135351
51
338.3505194
0
ARC
8
DEFAULT_255_1_234
10
5.4164369
20
164.6288284
40
1.1146189
50
319.6472867
51
327.095818
0
ARC
8
DEFAULT_255_1_234
10
5.0331372
20
164.945
40
1.6114559
50
317.2586784
51
319.9046139
0
LINE
8
DEFAULT_255_1_234
10
4.2991902
20
169.8514211
11
4.2991902
21
168.682
0
LINE
8
DEFAULT_255_1_234
10
4.2991902
20
168.682
11
4.1449808
21
168.682
0
LINE
8
DEFAULT_255_1_234
10
4.1449808
20
168.682
11
4.1449808
21
169.8514211
0
LINE
8
DEFAULT_255_1_234
10
4.1449808
20
169.8514211
11
4.2991902
21
169.8514211
0
LINE
8
DEFAULT_255_1_234
10
5.4798557
20
169.8514211
11
5.4798557
21
168.682
0
LINE
8
DEFAULT_255_1_234
10
5.4798557
20
168.682
11
5.3248432
21
168.682
0
LINE
8
DEFAULT_255_1_234
10
5.3248432
20
168.682
11
4.7361167
21
169.583161
0
LINE
8
DEFAULT_255_1_234
10
4.7361167
20
169.583161
11
4.7361167
21
168.682
0
LINE
8
DEFAULT_255_1_234
10
4.7361167
20
168.682
11
4.5811042
21
168.682
0
LINE
8
DEFAULT_255_1_234
10
4.5811042
20
168.682
11
4.5811042
21
169.8514211
0
LINE
8
DEFAULT_255_1_234
10
4.5811042
20
169.8514211
11
4.7361167
21
169.8514211
0
LINE
8
DEFAULT_255_1_234
10
4.7361167
20
169.8514211
11
5.3264495
21
168.9462442
0
LINE
8
DEFAULT_255_1_234
10
5.3264495
20
168.9462442
11
5.3264495
21
169.8514211
0
LINE
8
DEFAULT_255_1_234
10
5.3264495
20
169.8514211
11
5.4798557
21
169.8514211
0
LINE
8
DEFAULT_255_1_234
10
6.2035153
20
169.8570433
11
6.2035153
21
168.682
0
LINE
8
DEFAULT_255_1_234
10
6.2035153
20
168.682
11
6.054125
21
168.682
0
LINE
8
DEFAULT_255_1_234
10
6.054125
20
168.682
11
6.054125
21
169.6723133
0
LINE
8
DEFAULT_255_1_234
10
6.054125
20
169.6723133
11
5.7545412
21
169.5622785
0
LINE
8
DEFAULT_255_1_234
10
5.7545412
20
169.5622785
11
5.7545412
21
169.6972117
0
LINE
8
DEFAULT_255_1_234
10
5.7545412
20
169.6972117
11
6.1802233
21
169.8570433
0
LINE
8
DEFAULT_255_1_234
10
6.1802233
20
169.8570433
11
6.2035153
21
169.8570433
0
LINE
8
DEFAULT_255_1_234
10
23.1654817
20
174.6652327
11
23.1654817
21
174.4724709
0
LINE
8
DEFAULT_255_1_234
10
22.427365
20
174.4523916
11
22.427365
21
174.6507755
0
LINE
8
DEFAULT_255_1_234
10
23.0168946
20
174.4323123
11
23.0168946
21
174.6756739
0
LINE
8
DEFAULT_255_1_234
10
22.5759521
20
174.6869184
11
22.5759521
21
174.4491789
0
ARC
8
DEFAULT_255_1_234
10
21.9407707
20
174.4675805
40
1.2247208
50
353.8441951
51
0.2287902
0
ARC
8
DEFAULT_255_1_234
10
22.4047211
20
174.4157806
40
0.7578929
50
344.4934747
51
353.9765454
0
ARC
8
DEFAULT_255_1_234
10
22.7039801
20
174.3306981
40
0.4467846
50
329.2803592
51
344.7472793
0
ARC
8
DEFAULT_255_1_234
10
22.8032626
20
174.2762018
40
0.3336173
50
324.9352394
51
328.6160465
0
ARC
8
DEFAULT_255_1_234
10
22.8409734
20
174.2498427
40
0.2876076
50
280.580143
51
324.9173126
0
ARC
8
DEFAULT_255_1_234
10
22.8008527
20
174.4169099
40
0.4592847
50
269.5977311
51
281.6734359
0
ARC
8
DEFAULT_255_1_234
10
22.7936433
20
174.4049173
40
0.4472986
50
256.6228859
51
270.51044
0
ARC
8
DEFAULT_255_1_234
10
22.753441
20
174.2500877
40
0.2873874
50
215.8618325
51
257.2788573
0
ARC
8
DEFAULT_255_1_234
10
22.8555442
20
174.3185977
40
0.4102928
50
197.9693508
51
215.2623606
0
ARC
8
DEFAULT_255_1_234
10
23.1040558
20
174.4024709
40
0.6725652
50
187.8816417
51
198.2346507
0
ARC
8
DEFAULT_255_1_234
10
23.4998766
20
174.4596079
40
1.0724845
50
180.8976217
51
188.0055519
0
ARC
8
DEFAULT_255_1_234
10
23.7798954
20
174.4699777
40
1.3526448
50
180.7449369
51
181.1510016
0
ARC
8
DEFAULT_255_1_234
10
23.6221683
20
174.6556042
40
1.1948131
50
173.7675579
51
180.231553
0
ARC
8
DEFAULT_255_1_234
10
23.170383
20
174.7066666
40
0.7401564
50
164.3058563
51
173.9002247
0
ARC
8
DEFAULT_255_1_234
10
22.8791899
20
174.7905656
40
0.4371288
50
148.7922025
51
164.568378
0
ARC
8
DEFAULT_255_1_234
10
22.7840351
20
174.8436929
40
0.3282386
50
144.5883898
51
148.1176286
0
ARC
8
DEFAULT_255_1_234
10
22.7497249
20
174.8676315
40
0.2864044
50
101.6440918
51
144.514236
0
ARC
8
DEFAULT_255_1_234
10
22.7922315
20
174.6987069
40
0.4604934
50
89.5284041
51
102.5819763
0
ARC
8
DEFAULT_255_1_234
10
22.8001403
20
174.6948018
40
0.464401
50
77.0437873
51
90.5081339
0
ARC
8
DEFAULT_255_1_234
10
22.8403405
20
174.8590615
40
0.2953195
50
48.2778575
51
77.4994676
0
ARC
8
DEFAULT_255_1_234
10
22.8476036
20
174.8719746
40
0.2808655
50
36.3142134
51
47.6305865
0
ARC
8
DEFAULT_255_1_234
10
22.7607343
20
174.8134515
40
0.3855453
50
18.2931786
51
35.6769206
0
ARC
8
DEFAULT_255_1_234
10
22.5064102
20
174.7261593
40
0.654423
50
8.024666
51
18.5605216
0
ARC
8
DEFAULT_255_1_234
10
22.0901022
20
174.6646792
40
1.0752407
50
1.1274072
51
8.1718305
0
ARC
8
DEFAULT_255_1_234
10
21.7665213
20
174.6519885
40
1.3990231
50
0.5424119
51
1.3863029
0
ARC
8
DEFAULT_255_1_234
10
21.948659
20
174.6792342
40
1.0682415
50
359.8090433
51
4.9407866
0
ARC
8
DEFAULT_255_1_234
10
22.3696604
20
174.7168113
40
0.6455691
50
4.8362157
51
12.2904523
0
ARC
8
DEFAULT_255_1_234
10
22.6451719
20
174.7781965
40
0.3633074
50
12.0805627
51
23.8173984
0
ARC
8
DEFAULT_255_1_234
10
22.7625425
20
174.8278919
40
0.2358723
50
24.2871213
51
31.3935614
0
ARC
8
DEFAULT_255_1_234
10
22.8150122
20
174.8622233
40
0.1732111
50
30.7407893
51
82.4657128
0
ARC
8
DEFAULT_255_1_234
10
22.7970256
20
174.7738691
40
0.263235
50
81.1060089
51
90.2184952
0
ARC
8
DEFAULT_255_1_234
10
22.7934555
20
174.7996924
40
0.2374236
50
89.3806855
51
105.6762551
0
ARC
8
DEFAULT_255_1_234
10
22.7751186
20
174.8663567
40
0.1682847
50
105.7981136
51
149.7388061
0
ARC
8
DEFAULT_255_1_234
10
22.8815264
20
174.802395
40
0.2924306
50
149.4208916
51
163.6286378
0
ARC
8
DEFAULT_255_1_234
10
23.0906152
20
174.738625
40
0.5110213
50
163.3763315
51
172.1410975
0
ARC
8
DEFAULT_255_1_234
10
23.4206871
20
174.6913518
40
0.8444586
50
172.0259487
51
178.0703232
0
ARC
8
DEFAULT_255_1_234
10
23.723696
20
174.6769906
40
1.1477868
50
177.8631668
51
179.5044149
0
ARC
8
DEFAULT_255_1_234
10
23.6164365
20
174.4455389
40
1.0404907
50
179.7995573
51
185.2460446
0
ARC
8
DEFAULT_255_1_234
10
23.2121404
20
174.4072513
40
0.6343885
50
185.1411642
51
193.0079639
0
ARC
8
DEFAULT_255_1_234
10
22.9477877
20
174.3447641
40
0.3627568
50
192.7897626
51
205.2507664
0
ARC
8
DEFAULT_255_1_234
10
22.8431424
20
174.2980415
40
0.2481908
50
205.8005384
51
211.2537509
0
ARC
8
DEFAULT_255_1_234
10
22.7907864
20
174.262958
40
0.1852521
50
210.3789793
51
238.4008143
0
ARC
8
DEFAULT_255_1_234
10
22.7888386
20
174.2676376
40
0.1882621
50
239.6520629
51
265.9793761
0
ARC
8
DEFAULT_255_1_234
10
22.7973586
20
174.3348427
40
0.2559272
50
265.1315437
51
270.060332
0
ARC
8
DEFAULT_255_1_234
10
22.8002365
20
174.3024534
40
0.2235528
50
269.3314664
51
287.2178029
0
ARC
8
DEFAULT_255_1_234
10
22.8140217
20
174.2521279
40
0.1714108
50
287.7958004
51
329.080874
0
ARC
8
DEFAULT_255_1_234
10
22.7182674
20
174.311893
40
0.2842745
50
328.6634704
51
343.3325132
0
ARC
8
DEFAULT_255_1_234
10
22.5009694
20
174.3795863
40
0.5118644
50
343.0499468
51
351.9393422
0
ARC
8
DEFAULT_255_1_234
10
22.1542994
20
174.4306949
40
0.8622784
50
351.8069023
51
357.7959224
0
ARC
8
DEFAULT_255_1_234
10
21.830755
20
174.4474721
40
1.1862365
50
357.5871873
51
359.2677531
0
LINE
8
DEFAULT_255_1_234
10
23.4490021
20
175.1431211
11
23.7815161
21
174.1785093
0
LINE
8
DEFAULT_255_1_234
10
23.7815161
20
174.1785093
11
24.1156364
21
175.1431211
0
LINE
8
DEFAULT_255_1_234
10
24.1156364
20
175.1431211
11
24.2843029
21
175.1431211
0
LINE
8
DEFAULT_255_1_234
10
24.2843029
20
175.1431211
11
23.850589
21
173.9737
0
LINE
8
DEFAULT_255_1_234
10
23.850589
20
173.9737
11
23.7140495
21
173.9737
0
LINE
8
DEFAULT_255_1_234
10
23.7140495
20
173.9737
11
23.2811388
21
175.1431211
0
LINE
8
DEFAULT_255_1_234
10
23.2811388
20
175.1431211
11
23.4490021
21
175.1431211
0
ENDSEC
0
EOF