0
SECTION
2
HEADER
9
$MEASUREMENT
70
1
0
ENDSEC
0
SECTION
2
TABLES
0
TABLE
2
LTYPE
0
LTYPE
72
65
70
64
2
CONTINUOUS
3
______
73
0
40
0
0
ENDTAB
0
TABLE
2
LAYER
0
LAYER
2
DEFAULT_255_2_778
70
0
62
255
6
CONTINUOUS
0
ENDTAB
0
ENDSEC
0
SECTION
2
ENTITIES
0
ARC
8
DEFAULT_255_2_778
10
8.8793621
20
8.1276615
40
8.5605336
50
170.0226703
51
180.0278649
0
ARC
8
DEFAULT_255_2_778
10
8.7224583
20
8.1536388
40
8.4015022
50
157.3230669
51
170.011755
0
ARC
8
DEFAULT_255_2_778
10
8.7505036
20
8.137764
40
8.4335006
50
134.6443899
51
157.2970119
0
ARC
8
DEFAULT_255_2_778
10
8.762976
20
8.1313135
40
8.4468555
50
113.0400103
51
134.6738357
0
ARC
8
DEFAULT_255_2_778
10
8.7538175
20
8.1453797
40
8.4303275
50
100.227161
51
113.0201462
0
ARC
8
DEFAULT_255_2_778
10
8.7806091
20
7.9886664
40
8.5893079
50
90.2934972
51
100.21743
0
ARC
8
DEFAULT_255_2_778
10
8.7855131
20
7.8372242
40
8.7407741
50
89.999892
51
90.3205575
0
ARC
8
DEFAULT_255_2_778
10
8.7897207
20
7.9813673
40
8.596632
50
80.0509584
51
90.0279338
0
ARC
8
DEFAULT_255_2_778
10
8.8167175
20
8.1439183
40
8.4318613
50
67.3828276
51
80.04081
0
ARC
8
DEFAULT_255_2_778
10
8.8088661
20
8.1327084
40
8.4452288
50
46.0235566
51
67.3629047
0
ARC
8
DEFAULT_255_2_778
10
8.8189827
20
8.1368539
40
8.4352223
50
22.880149
51
46.0534548
0
ARC
8
DEFAULT_255_2_778
10
8.8489777
20
8.1537866
40
8.4010047
50
10.0647296
51
22.8532899
0
ARC
8
DEFAULT_255_2_778
10
8.6930502
20
8.1277815
40
8.5590774
50
0.0114594
51
10.0537172
0
ARC
8
DEFAULT_255_2_778
10
8.2676657
20
8.1231987
40
8.9844639
50
0.00191
51
0.0401418
0
ARC
8
DEFAULT_255_2_778
10
8.6916229
20
8.1193316
40
8.5605077
50
350.0226628
51
0.0278878
0
ARC
8
DEFAULT_255_2_778
10
8.8484723
20
8.0933591
40
8.4015305
50
337.323137
51
350.0117796
0
ARC
8
DEFAULT_255_2_778
10
8.8204082
20
8.1092418
40
8.4335493
50
314.6446357
51
337.2970815
0
ARC
8
DEFAULT_255_2_778
10
8.8079966
20
8.1156278
40
8.4468157
50
293.0403339
51
314.6740955
0
ARC
8
DEFAULT_255_2_778
10
8.8172179
20
8.1014218
40
8.4301346
50
280.2273548
51
293.0204482
0
ARC
8
DEFAULT_255_2_778
10
8.7904482
20
8.2580158
40
8.5889936
50
270.293513
51
280.2176178
0
ARC
8
DEFAULT_255_2_778
10
8.7855462
20
8.4093362
40
8.740338
50
269.999891
51
270.3205657
0
ARC
8
DEFAULT_255_2_778
10
8.7813379
20
8.2655533
40
8.5965561
50
260.0506756
51
270.027937
0
ARC
8
DEFAULT_255_2_778
10
8.7543584
20
8.103094
40
8.4318786
50
247.3823305
51
260.0405134
0
ARC
8
DEFAULT_255_2_778
10
8.7622883
20
8.1144873
40
8.445446
50
226.0232619
51
247.3623963
0
ARC
8
DEFAULT_255_2_778
10
8.7521817
20
8.1103673
40
8.4354645
50
202.8804891
51
226.0532297
0
ARC
8
DEFAULT_255_2_778
10
8.7218398
20
8.093285
40
8.4008692
50
190.0650537
51
202.853611
0
ARC
8
DEFAULT_255_2_778
10
8.8773654
20
8.1192204
40
8.558534
50
180.0114941
51
190.054045
0
ARC
8
DEFAULT_255_2_778
10
9.3019509
20
8.1237975
40
8.9831215
50
180.001909
51
180.0401449
0
LINE
8
DEFAULT_255_2_778
10
0.3188295
20
8.1234982
11
0.3188295
21
8.1234982
0
ARC
8
DEFAULT_255_2_778
10
5.6317614
20
4.4700308
40
0.8314445
50
1.3215186
51
39.5367803
0
ARC
8
DEFAULT_255_2_778
10
5.8803926
20
4.4886943
40
0.5825924
50
359.9832178
51
0.0503482
0
ARC
8
DEFAULT_255_2_778
10
5.6827509
20
4.4885835
40
0.7802342
50
310.3661177
51
359.9956071
0
ARC
8
DEFAULT_255_2_778
10
5.6881068
20
4.4867919
40
0.4795808
50
307.1436085
51
0.0022237
0
ARC
8
DEFAULT_255_2_778
10
5.7128503
20
4.4868674
40
0.4548371
50
359.9928417
51
0.1938573
0
ARC
8
DEFAULT_255_2_778
10
5.6696234
20
4.4903527
40
0.4980652
50
359.7760954
51
359.9939236
0
ARC
8
DEFAULT_255_2_778
10
5.6907661
20
4.4905576
40
0.4769225
50
359.969034
51
44.8326508
0
ARC
8
DEFAULT_255_2_778
10
5.689609
20
4.4899182
40
0.478194
50
44.7892353
51
89.7153421
0
ARC
8
DEFAULT_255_2_778
10
5.6902201
20
4.5105128
40
0.4575969
50
89.7790495
51
90.0062903
0
ARC
8
DEFAULT_255_2_778
10
5.6922593
20
4.494718
40
0.4733965
50
90.2528886
51
135.4524147
0
ARC
8
DEFAULT_255_2_778
10
5.6956425
20
4.4895163
40
0.4794584
50
135.2930221
51
180.0416065
0
ARC
8
DEFAULT_255_2_778
10
5.942192
20
4.489359
40
0.7260079
50
180.0150626
51
180.075184
0
ARC
8
DEFAULT_255_2_778
10
5.7005706
20
4.488622
40
0.4843858
50
180.0255103
51
232.2146251
0
ARC
8
DEFAULT_255_2_778
10
5.6996461
20
4.4923646
40
0.7818739
50
180.3267054
51
229.7621075
0
ARC
8
DEFAULT_255_2_778
10
5.7027796
20
4.5016367
40
0.7851149
50
140.7854953
51
181.0020609
0
ARC
8
DEFAULT_255_2_778
10
5.373528
20
8.7352873
40
0.2801626
50
91.0109842
51
174.8765617
0
ARC
8
DEFAULT_255_2_778
10
12.2058613
20
8.7259647
40
0.2883229
50
6.5805096
51
87.9679625
0
ARC
8
DEFAULT_255_2_778
10
11.7966223
20
4.4678599
40
0.8727077
50
1.6117523
51
37.14299
0
ARC
8
DEFAULT_255_2_778
10
11.8885769
20
4.4939654
40
0.7804094
50
310.3719555
51
359.8855323
0
ARC
8
DEFAULT_255_2_778
10
11.8917791
20
4.4892765
40
0.4788162
50
307.5785989
51
359.9912417
0
ARC
8
DEFAULT_255_2_778
10
11.8954569
20
4.4892324
40
0.4751386
50
359.9964964
51
0.382734
0
ARC
8
DEFAULT_255_2_778
10
11.8725234
20
4.4943527
40
0.4980652
50
359.7760954
51
359.9939236
0
ARC
8
DEFAULT_255_2_778
10
11.8936661
20
4.4945576
40
0.4769225
50
359.969034
51
44.8326508
0
ARC
8
DEFAULT_255_2_778
10
11.8926497
20
4.4939153
40
0.4780962
50
44.8013575
51
89.7321422
0
ARC
8
DEFAULT_255_2_778
10
11.8927565
20
4.5192357
40
0.4527756
50
89.7306823
51
90.0052546
0
ARC
8
DEFAULT_255_2_778
10
11.8950332
20
4.4986927
40
0.4733244
50
90.2806153
51
135.4395163
0
ARC
8
DEFAULT_255_2_778
10
11.8972845
20
4.4940295
40
0.4782036
50
135.2306883
51
179.9689499
0
ARC
8
DEFAULT_255_2_778
10
11.9112699
20
4.4943411
40
0.4921888
50
180.0061127
51
180.2252367
0
ARC
8
DEFAULT_255_2_778
10
11.9331201
20
4.4916046
40
0.514036
50
179.9106422
51
179.9821278
0
ARC
8
DEFAULT_255_2_778
10
11.9008596
20
4.4917793
40
0.4817753
50
180.0017023
51
232.7262124
0
ARC
8
DEFAULT_255_2_778
10
11.9040484
20
4.4912528
40
0.7801654
50
180.0036279
51
229.6363562
0
ARC
8
DEFAULT_255_2_778
10
11.8487926
20
4.4912885
40
0.7249097
50
179.8721357
51
180.0067274
0
ARC
8
DEFAULT_255_2_778
10
11.8778385
20
4.4830735
40
0.7540178
50
148.3443361
51
179.2528125
0
ARC
8
DEFAULT_255_2_778
10
12.7185424
20
4.021101
40
1.712761
50
145.0201762
51
149.9493649
0
ARC
8
DEFAULT_255_2_778
10
8.8573991
20
11.1213833
40
1.9231266
50
72.6112255
51
90.1106622
0
ARC
8
DEFAULT_255_2_778
10
8.9527007
20
11.4100696
40
1.6191591
50
55.5752511
51
72.7765216
0
ARC
8
DEFAULT_255_2_778
10
9.1377148
20
11.6912605
40
1.2826363
50
46.2122564
51
55.291534
0
ARC
8
DEFAULT_255_2_778
10
9.045864
20
11.5840804
40
1.7880623
50
48.2850862
51
66.5487179
0
ARC
8
DEFAULT_255_2_778
10
8.8870482
20
11.2309756
40
2.17521
50
66.4124692
51
82.6971688
0
ARC
8
DEFAULT_255_2_778
10
8.8555997
20
11.0355672
40
2.3730395
50
82.5437478
51
90.0269206
0
ARC
8
DEFAULT_255_2_778
10
8.8496587
20
11.1008974
40
2.307714
50
89.8801779
51
105.9794975
0
ARC
8
DEFAULT_255_2_778
10
8.7596704
20
11.4005892
40
1.994833
50
105.8643806
51
122.8616197
0
ARC
8
DEFAULT_255_2_778
10
8.5884292
20
11.6772142
40
1.6695667
50
123.0764565
51
132.0224534
0
ARC
8
DEFAULT_255_2_778
10
8.6451173
20
11.6044219
40
1.3973043
50
115.0989103
51
133.6240196
0
ARC
8
DEFAULT_255_2_778
10
8.827928
20
11.2296825
40
1.8142167
50
98.0920564
51
115.3070787
0
ARC
8
DEFAULT_255_2_778
10
8.8553871
20
11.082194
40
1.9641124
50
89.9854837
51
98.2794719
0
ARC
8
DEFAULT_255_2_778
10
8.8862611
20
11.320009
40
2.4947153
50
72.9441565
51
90.2176415
0
ARC
8
DEFAULT_255_2_778
10
9.030451
20
11.7741256
40
2.0182849
50
53.1278696
51
73.0762834
0
ARC
8
DEFAULT_255_2_778
10
9.2829408
20
12.1247146
40
1.5863422
50
43.2131699
51
52.8252571
0
ARC
8
DEFAULT_255_2_778
10
9.1698572
20
11.9960612
40
2.1191327
50
45.7153784
51
62.8077947
0
ARC
8
DEFAULT_255_2_778
10
8.95201
20
11.5836839
40
2.5854901
50
62.6898236
51
77.5723442
0
ARC
8
DEFAULT_255_2_778
10
8.8808448
20
11.2813705
40
2.8960385
50
77.4845446
51
90.0803245
0
ARC
8
DEFAULT_255_2_778
10
8.8715702
20
11.2945255
40
2.8828855
50
89.8963642
51
103.8413126
0
ARC
8
DEFAULT_255_2_778
10
8.7869586
20
11.6244587
40
2.5422929
50
103.7686618
51
118.7654156
0
ARC
8
DEFAULT_255_2_778
10
8.5580669
20
12.0336138
40
2.0734838
50
118.6617855
51
135.6250658
0
ARC
8
DEFAULT_255_2_778
10
8.4626313
20
12.1324277
40
1.5747874
50
127.1329523
51
138.3300977
0
ARC
8
DEFAULT_255_2_778
10
8.7288676
20
11.7612202
40
2.0314801
50
106.3681763
51
126.7992355
0
ARC
8
DEFAULT_255_2_778
10
8.8684178
20
11.3141637
40
2.4997565
50
89.8082237
51
106.5494772
0
ARC
8
DEFAULT_255_2_778
10
8.8586722
20
11.317685
40
3.2368251
50
77.2132037
51
90.0882845
0
ARC
8
DEFAULT_255_2_778
10
8.9451545
20
11.6842369
40
2.8602248
50
63.9060597
51
77.2775243
0
ARC
8
DEFAULT_255_2_778
10
9.1825426
20
12.1606462
40
2.327963
50
49.1802913
51
63.995801
0
ARC
8
DEFAULT_255_2_778
10
9.4226557
20
12.4531417
40
1.9496766
50
43.3339472
51
48.9014522
0
ARC
8
DEFAULT_255_2_778
10
9.2392361
20
12.252928
40
2.57955
50
45.440235
51
60.8332368
0
ARC
8
DEFAULT_255_2_778
10
8.9788432
20
11.7970127
40
3.1045653
50
60.7375543
51
73.9695632
0
ARC
8
DEFAULT_255_2_778
10
8.8692268
20
11.4261063
40
3.4913207
50
73.9214962
51
86.825222
0
ARC
8
DEFAULT_255_2_778
10
8.8539762
20
11.2506574
40
3.667349
50
86.7391305
51
90.0045533
0
ARC
8
DEFAULT_255_2_778
10
8.847734
20
11.3110084
40
3.6070028
50
89.9054741
51
102.634019
0
ARC
8
DEFAULT_255_2_778
10
8.7555021
20
11.7106847
40
3.1968317
50
102.5877712
51
115.7544076
0
ARC
8
DEFAULT_255_2_778
10
8.5154969
20
12.1972568
40
2.6543118
50
115.6520558
51
131.3833129
0
ARC
8
DEFAULT_255_2_778
10
8.2960967
20
12.4638315
40
2.3092852
50
131.6714702
51
135.267323
0
ARC
8
DEFAULT_255_2_778
10
8.4104085
20
12.3181088
40
2.1343709
50
120.6197289
51
136.4261797
0
ARC
8
DEFAULT_255_2_778
10
8.6995306
20
11.8392122
40
2.6937586
50
107.1051293
51
120.7237112
0
ARC
8
DEFAULT_255_2_778
10
8.8324156
20
11.4202203
40
3.1333045
50
94.1679947
51
107.1740807
0
ARC
8
DEFAULT_255_2_778
10
8.8531756
20
11.2187713
40
3.335735
50
89.9912538
51
94.2721441
0
ARC
8
DEFAULT_255_2_778
10
7.079683
20
11.9723703
40
0.2572584
50
90.7568632
51
181.2392926
0
ARC
8
DEFAULT_255_2_778
10
7.075818
20
9.6743761
40
0.2533702
50
179.0207572
51
270.1055522
0
ARC
8
DEFAULT_255_2_778
10
10.5586918
20
9.687636
40
0.2666425
50
269.4397856
51
358.0808296
0
ARC
8
DEFAULT_255_2_778
10
10.5548581
20
11.9570747
40
0.2704344
50
1.6170935
51
89.7401034
0
ARC
8
DEFAULT_255_2_778
10
7.925478
20
11.0093352
40
0.4588423
50
270.0034246
51
270.4378966
0
ARC
8
DEFAULT_255_2_778
10
7.925524
20
10.9975483
40
0.4470554
50
202.8279565
51
269.9976182
0
ARC
8
DEFAULT_255_2_778
10
7.9249606
20
10.9975908
40
0.4465526
50
183.2103091
51
202.8610368
0
ARC
8
DEFAULT_255_2_778
10
7.925452
20
10.9975872
40
0.4470431
50
180.0005154
51
183.2063199
0
ARC
8
DEFAULT_255_2_778
10
7.925291
20
10.9977305
40
0.4468821
50
135.2203405
51
180.0188851
0
ARC
8
DEFAULT_255_2_778
10
7.92504
20
10.9973341
40
0.4469834
50
89.9864215
51
135.1616129
0
ARC
8
DEFAULT_255_2_778
10
7.9251459
20
10.9977655
40
0.4465519
50
86.6317495
51
89.999991
0
ARC
8
DEFAULT_255_2_778
10
7.9251317
20
10.997985
40
0.4463338
50
67.5210402
51
86.6282719
0
ARC
8
DEFAULT_255_2_778
10
7.9251648
20
10.9972287
40
0.44702
50
359.9905558
51
67.5620279
0
LINE
8
DEFAULT_255_2_778
10
8.3721848
20
10.9971551
11
8.3721848
21
10.9969063
0
ARC
8
DEFAULT_255_2_778
10
7.9249843
20
10.9976896
40
0.4472012
50
270.5125512
51
359.8996404
0
ARC
8
DEFAULT_255_2_778
10
9.710878
20
11.0093352
40
0.4588423
50
270.0034246
51
270.4378966
0
ARC
8
DEFAULT_255_2_778
10
9.710924
20
10.9975483
40
0.4470554
50
202.8279565
51
269.9976182
0
ARC
8
DEFAULT_255_2_778
10
9.7103606
20
10.9975908
40
0.4465526
50
183.2103091
51
202.8610368
0
ARC
8
DEFAULT_255_2_778
10
9.710852
20
10.9975872
40
0.4470431
50
180.0005154
51
183.2063199
0
ARC
8
DEFAULT_255_2_778
10
9.710691
20
10.9977305
40
0.4468821
50
135.2203405
51
180.0188851
0
ARC
8
DEFAULT_255_2_778
10
9.710719
20
10.9975696
40
0.4470153
50
89.9870916
51
135.2082299
0
ARC
8
DEFAULT_255_2_778
10
9.7108232
20
10.9980351
40
0.4465497
50
86.6313066
51
90.0004458
0
ARC
8
DEFAULT_255_2_778
10
9.7108021
20
10.9982113
40
0.4463751
50
67.533007
51
86.6272725
0
ARC
8
DEFAULT_255_2_778
10
9.7106695
20
10.9973566
40
0.4472154
50
0.0059754
51
67.5591576
0
ARC
8
DEFAULT_255_2_778
10
9.8492673
20
10.997279
40
0.3086178
50
359.9308012
51
0.0230649
0
ARC
8
DEFAULT_255_2_778
10
9.7106189
20
10.9977545
40
0.4472667
50
270.5208518
51
359.8913371
0
ARC
8
DEFAULT_255_2_778
10
7.9345962
20
10.9967912
40
0.2282886
50
270.323397
51
0.0288817
0
ARC
8
DEFAULT_255_2_778
10
7.9369853
20
10.9961052
40
0.2276016
50
179.9849537
51
269.7229646
0
ARC
8
DEFAULT_255_2_778
10
7.9384781
20
10.9962267
40
0.2290946
50
179.8300287
51
180.0154182
0
ARC
8
DEFAULT_255_2_778
10
7.9395177
20
10.9964014
40
0.2301335
50
90.904526
51
179.8743001
0
ARC
8
DEFAULT_255_2_778
10
7.9343997
20
10.9980233
40
0.2284878
50
359.7198931
51
89.6275945
0
ARC
8
DEFAULT_255_2_778
10
9.7155501
20
10.9961699
40
0.2276666
50
180.0010481
51
269.7067125
0
ARC
8
DEFAULT_255_2_778
10
9.7165102
20
10.9962273
40
0.2286266
50
179.8298452
51
180.0154349
0
ARC
8
DEFAULT_255_2_778
10
9.7180728
20
10.9963382
40
0.2301888
50
90.7686706
51
179.8586034
0
ARC
8
DEFAULT_255_2_778
10
9.7149178
20
10.9978393
40
0.228667
50
0.016782
51
89.983218
0
ARC
8
DEFAULT_255_2_778
10
9.7149178
20
10.9979733
40
0.228667
50
270.016782
51
359.983218
0
LINE
8
DEFAULT_255_2_778
10
6.2729848
20
7.4226063
11
6.2729848
21
4.9993063
0
LINE
8
DEFAULT_255_2_778
10
6.1880848
20
3.8941063
11
5.9776848
21
4.1045063
0
LINE
8
DEFAULT_255_2_778
10
5.4037848
20
4.1058063
11
5.1945848
21
3.8955063
0
LINE
8
DEFAULT_255_2_778
10
5.0944848
20
4.9980063
11
5.0944848
21
8.7603063
0
LINE
8
DEFAULT_255_2_778
10
5.3685848
20
9.0154063
11
12.2160848
21
9.0141063
0
LINE
8
DEFAULT_255_2_778
10
12.4922848
20
8.7590063
11
12.4922848
21
4.9948063
0
LINE
8
DEFAULT_255_2_778
10
12.3940848
20
3.8994063
11
12.1837848
21
4.1098063
0
LINE
8
DEFAULT_255_2_778
10
11.6090848
20
4.1084063
11
11.3987848
21
3.8968063
0
LINE
8
DEFAULT_255_2_778
10
11.3151848
20
5.0030063
11
11.3151848
21
7.4070063
0
LINE
8
DEFAULT_255_2_778
10
11.3151848
20
7.4070063
11
10.9814848
21
7.4070063
0
LINE
8
DEFAULT_255_2_778
10
10.9814848
20
7.4070063
11
10.9814848
21
2.3196063
0
LINE
8
DEFAULT_255_2_778
10
10.9814848
20
2.3196063
11
11.1777848
21
2.1889063
0
LINE
8
DEFAULT_255_2_778
10
11.1777848
20
2.1889063
11
11.1777848
21
1.7706063
0
LINE
8
DEFAULT_255_2_778
10
11.1777848
20
1.7706063
11
8.8820848
21
1.7706063
0
LINE
8
DEFAULT_255_2_778
10
8.8820848
20
1.7706063
11
8.8820848
21
2.1889063
0
LINE
8
DEFAULT_255_2_778
10
8.8820848
20
2.1889063
11
9.1370848
21
2.3146063
0
LINE
8
DEFAULT_255_2_778
10
9.1370848
20
2.3146063
11
9.1370848
21
3.8870063
0
LINE
8
DEFAULT_255_2_778
10
9.1370848
20
3.8870063
11
8.4700848
21
3.8870063
0
LINE
8
DEFAULT_255_2_778
10
8.4700848
20
3.8870063
11
8.4705848
21
2.3196063
0
LINE
8
DEFAULT_255_2_778
10
8.4705848
20
2.3196063
11
8.7065848
21
2.1889063
0
LINE
8
DEFAULT_255_2_778
10
8.7065848
20
2.1889063
11
8.7065848
21
1.7706063
0
LINE
8
DEFAULT_255_2_778
10
8.7065848
20
1.7706063
11
6.3827848
21
1.7706063
0
LINE
8
DEFAULT_255_2_778
10
6.3827848
20
1.7706063
11
6.3827848
21
2.1889063
0
LINE
8
DEFAULT_255_2_778
10
6.3827848
20
2.1889063
11
6.6187848
21
2.3191063
0
LINE
8
DEFAULT_255_2_778
10
6.6187848
20
2.3191063
11
6.6187848
21
7.4208063
0
LINE
8
DEFAULT_255_2_778
10
6.6187848
20
7.4208063
11
6.2655848
21
7.4208063
0
LINE
8
DEFAULT_255_2_778
10
6.2655848
20
7.4208063
11
6.2729848
21
7.4226063
0
LINE
8
DEFAULT_255_2_778
10
10.0252848
20
12.6172063
11
10.2356848
21
12.9188063
0
LINE
8
DEFAULT_255_2_778
10
7.4707848
20
12.9175063
11
7.6810848
21
12.6159063
0
LINE
8
DEFAULT_255_2_778
10
8.8558848
20
13.0463063
11
8.8536848
21
13.0445063
0
LINE
8
DEFAULT_255_2_778
10
10.4390848
20
13.2109063
11
10.6494848
21
13.5131063
0
LINE
8
DEFAULT_255_2_778
10
7.0759848
20
13.4837063
11
7.2862848
21
13.1794063
0
LINE
8
DEFAULT_255_2_778
10
8.8767848
20
13.8139063
11
8.8767848
21
13.8147063
0
LINE
8
DEFAULT_255_2_778
10
10.8407848
20
13.7911063
11
11.0491848
21
14.0909063
0
LINE
8
DEFAULT_255_2_778
10
6.6555848
20
14.0891063
11
6.8640848
21
13.7893063
0
LINE
8
DEFAULT_255_2_778
10
8.8536848
20
14.5545063
11
8.8536848
21
14.5545063
0
LINE
8
DEFAULT_255_2_778
10
10.5562848
20
12.2296063
11
7.0762848
21
12.2296063
0
LINE
8
DEFAULT_255_2_778
10
6.8224848
20
11.9668063
11
6.8224848
21
9.6787063
0
LINE
8
DEFAULT_255_2_778
10
7.0762848
20
9.4210063
11
10.5560848
21
9.4210063
0
LINE
8
DEFAULT_255_2_778
10
10.8251848
20
9.6787063
11
10.8251848
21
11.9647063
0
LINE
8
DEFAULT_255_2_778
10
10.5560848
20
12.2275063
11
10.5562848
21
12.2296063
0
LINE
8
DEFAULT_255_2_778
10
7.9289848
20
10.5505063
11
7.9289848
21
10.5505063
0
LINE
8
DEFAULT_255_2_778
10
9.7146848
20
10.5505063
11
9.7143848
21
10.5505063
0
LINE
8
DEFAULT_255_2_778
10
8.1628848
20
10.9969063
11
8.1628848
21
10.9969063
0
LINE
8
DEFAULT_255_2_778
10
9.7149848
20
10.7693063
11
9.7143848
21
10.7685063
0
ENDSEC
0
EOF