0
SECTION
2
HEADER
9
$MEASUREMENT
70
1
0
ENDSEC
0
SECTION
2
TABLES
0
TABLE
2
LTYPE
0
LTYPE
72
65
70
64
2
CONTINUOUS
3
______
73
0
40
0
0
ENDTAB
0
TABLE
2
LAYER
0
LAYER
2
DEFAULT_255_2_778
70
0
62
255
6
CONTINUOUS
0
ENDTAB
0
ENDSEC
0
SECTION
2
ENTITIES
0
LINE
8
DEFAULT_255_2_778
10
3.7387092
20
0.1461094
11
4.2935092
21
1.9267094
0
LINE
8
DEFAULT_255_2_778
10
4.2935092
20
1.9267094
11
3.1354092
21
2.8152094
0
LINE
8
DEFAULT_255_2_778
10
3.1354092
20
2.8152094
11
0.1393092
21
-0.1205906
0
LINE
8
DEFAULT_255_2_778
10
0.1393092
20
-0.1205906
11
3.3566092
21
-0.1205906
0
LINE
8
DEFAULT_255_2_778
10
3.3566092
20
-0.1205906
11
3.7350092
21
0.1392094
0
LINE
8
DEFAULT_255_2_778
10
3.7350092
20
0.1392094
11
3.7387092
21
0.1461094
0
LINE
8
DEFAULT_255_2_778
10
7.4503092
20
2.8149094
11
6.2922092
21
1.9265094
0
LINE
8
DEFAULT_255_2_778
10
6.2922092
20
1.9265094
11
6.8478092
21
0.1397094
0
LINE
8
DEFAULT_255_2_778
10
6.8478092
20
0.1397094
11
7.2235092
21
-0.1200906
0
LINE
8
DEFAULT_255_2_778
10
7.2235092
20
-0.1200906
11
10.4459092
21
-0.1200906
0
LINE
8
DEFAULT_255_2_778
10
10.4459092
20
-0.1200906
11
7.4503092
21
2.8149094
0
LINE
8
DEFAULT_255_2_778
10
6.9111301
20
3.8285311
11
5.6887301
21
3.8317311
0
LINE
8
DEFAULT_255_2_778
10
5.6887301
20
3.8317311
11
5.2918301
21
5.0025311
0
LINE
8
DEFAULT_255_2_778
10
5.2918301
20
5.0025311
11
4.8942301
21
3.8317311
0
LINE
8
DEFAULT_255_2_778
10
4.8942301
20
3.8317311
11
3.6718301
21
3.8285311
0
LINE
8
DEFAULT_255_2_778
10
3.6718301
20
3.8285311
11
4.6470301
21
3.0745311
0
LINE
8
DEFAULT_255_2_778
10
4.6470301
20
3.0745311
11
4.2909301
21
1.9227311
0
LINE
8
DEFAULT_255_2_778
10
4.2909301
20
1.9227311
11
5.2918301
21
2.6099311
0
LINE
8
DEFAULT_255_2_778
10
5.2918301
20
2.6099311
11
6.2893301
21
1.9233311
0
LINE
8
DEFAULT_255_2_778
10
6.2893301
20
1.9233311
11
5.9300301
21
3.0750311
0
LINE
8
DEFAULT_255_2_778
10
5.9300301
20
3.0750311
11
6.9111301
21
3.8285311
0
LINE
8
DEFAULT_255_2_778
10
5.2971301
20
1.1981311
11
5.2939301
21
1.2012311
0
LINE
8
DEFAULT_255_2_778
10
5.2939301
20
1.2012311
11
3.3564301
21
-0.1203689
0
LINE
8
DEFAULT_255_2_778
10
3.3564301
20
-0.1203689
11
7.2251301
21
-0.1203689
0
LINE
8
DEFAULT_255_2_778
10
7.2251301
20
-0.1203689
11
5.2971301
21
1.1981311
0
ARC
8
DEFAULT_255_2_778
10
14.0719183
20
0.5862703
40
2.3814465
50
179.5506548
51
183.7436596
0
ARC
8
DEFAULT_255_2_778
10
12.2819683
20
0.4604048
40
0.5871627
50
182.8921174
51
196.525653
0
ARC
8
DEFAULT_255_2_778
10
11.8989083
20
0.3464585
40
0.1875147
50
196.4400597
51
271.9298555
0
ARC
8
DEFAULT_255_2_778
10
11.98345
20
0.9370925
40
0.781965
50
264.2585876
51
270.4026325
0
ARC
8
DEFAULT_255_2_778
10
12.0146312
20
1.8485275
40
1.6935756
50
269.1309694
51
269.9993384
0
ARC
8
DEFAULT_255_2_778
10
12.0146382
20
1.8419278
40
1.6869758
50
269.9990985
51
271.5120393
0
ARC
8
DEFAULT_255_2_778
10
12.0167195
20
1.7949978
40
1.6400072
50
271.4826143
51
278.0240109
0
ARC
8
DEFAULT_255_2_778
10
11.9420962
20
2.7245204
40
2.8615194
50
269.9834053
51
276.0893697
0
ARC
8
DEFAULT_255_2_778
10
11.9412679
20
2.784467
40
2.921466
50
269.6798743
51
269.9999911
0
ARC
8
DEFAULT_255_2_778
10
11.9133347
20
0.9028909
40
1.039909
50
259.114193
51
270.6397052
0
ARC
8
DEFAULT_255_2_778
10
11.806812
20
0.3778511
40
0.5042295
50
236.6316902
51
259.733598
0
ARC
8
DEFAULT_255_2_778
10
11.7724129
20
0.2874277
40
0.41033
50
184.7660094
51
233.6972572
0
ARC
8
DEFAULT_255_2_778
10
12.3234859
20
0.3892782
40
0.969562
50
179.623655
51
188.0600696
0
ARC
8
DEFAULT_255_2_778
10
14.8672038
20
0.9740605
40
1.925261
50
179.9141058
51
185.0433687
0
ARC
8
DEFAULT_255_2_778
10
14.569487
20
0.9502718
40
1.6266074
50
185.1305697
51
187.2582607
0
ARC
8
DEFAULT_255_2_778
10
13.8893649
20
0.8278871
40
0.9371447
50
185.0887879
51
214.3857846
0
ARC
8
DEFAULT_255_2_778
10
13.5175348
20
0.5962943
40
0.4998521
50
216.5495975
51
255.4477475
0
ARC
8
DEFAULT_255_2_778
10
13.555917
20
0.7467908
40
0.655165
50
255.5057599
51
270.4572086
0
ARC
8
DEFAULT_255_2_778
10
13.6095078
20
0.6502685
40
0.5607114
50
265.0519442
51
269.999331
0
ARC
8
DEFAULT_255_2_778
10
13.609427
20
0.6501762
40
0.5606191
50
270.007589
51
316.791685
0
ARC
8
DEFAULT_255_2_778
10
13.6096495
20
0.6503411
40
0.5605699
50
316.7638257
51
359.9942649
0
ARC
8
DEFAULT_255_2_778
10
13.6097772
20
0.6502762
40
0.5604423
50
0.0008988
51
6.15988
0
ARC
8
DEFAULT_255_2_778
10
13.6084188
20
0.6501327
40
0.5618081
50
6.1595637
51
8.5075756
0
ARC
8
DEFAULT_255_2_778
10
13.6791995
20
0.6609836
40
0.8311927
50
0.0009972
51
4.9875397
0
ARC
8
DEFAULT_255_2_778
10
13.6797775
20
0.6610957
40
0.8306147
50
312.8200828
51
359.9932661
0
ARC
8
DEFAULT_255_2_778
10
13.6796099
20
0.6610108
40
0.8306663
50
270.0029455
51
312.8325402
0
ARC
8
DEFAULT_255_2_778
10
13.6796558
20
0.660346
40
0.8300016
50
264.2491264
51
269.9997814
0
ARC
8
DEFAULT_255_2_778
10
13.6797937
20
0.661731
40
0.8313932
50
260.6656145
51
264.2492355
0
ARC
8
DEFAULT_255_2_778
10
13.5447762
20
1.5761196
40
1.7347729
50
268.7748029
51
270.0055735
0
ARC
8
DEFAULT_255_2_778
10
13.4682942
20
0.7756977
40
0.9347846
50
226.5531856
51
272.4149813
0
ARC
8
DEFAULT_255_2_778
10
13.3985536
20
0.6307097
40
0.7831012
50
201.493055
51
222.9604083
0
ARC
8
DEFAULT_255_2_778
10
13.7318018
20
0.7644879
40
1.1421931
50
188.2754224
51
201.6123024
0
ARC
8
DEFAULT_255_2_778
10
14.3250568
20
0.8558922
40
1.7424342
50
179.7088406
51
188.4419538
0
ARC
8
DEFAULT_255_2_778
10
14.9311347
20
1.5473246
40
2.3485183
50
172.6963343
51
180.2824628
0
ARC
8
DEFAULT_255_2_778
10
14.025619
20
1.6682243
40
1.4349881
50
160.8234619
51
172.8880757
0
ARC
8
DEFAULT_255_2_778
10
13.4860764
20
1.8619958
40
0.8617534
50
138.3556782
51
161.2084567
0
ARC
8
DEFAULT_255_2_778
10
13.4035195
20
1.910122
40
0.7683124
50
101.743711
51
136.9464329
0
ARC
8
DEFAULT_255_2_778
10
13.5325211
20
1.3834545
40
1.310351
50
89.4567492
51
102.5791775
0
ARC
8
DEFAULT_255_2_778
10
13.5559873
20
1.118082
40
1.5757034
50
80.7461027
51
90.4015247
0
ARC
8
DEFAULT_255_2_778
10
13.6619341
20
1.7453379
40
0.9395809
50
65.256195
51
80.971675
0
ARC
8
DEFAULT_255_2_778
10
13.7444709
20
1.9625331
40
0.7079597
50
12.2025192
51
63.9651924
0
ARC
8
DEFAULT_255_2_778
10
12.5992679
20
1.6325606
40
1.8987396
50
3.4117222
51
14.6311306
0
ARC
8
DEFAULT_255_2_778
10
7.8622102
20
1.3322697
40
6.6452963
50
359.4683801
51
3.5656555
0
ARC
8
DEFAULT_255_2_778
10
-54.2871908
20
1.2111649
40
68.7944369
50
359.989824
51
0.0495109
0
ARC
8
DEFAULT_255_2_778
10
10.7866929
20
1.4709353
40
3.3968266
50
359.6206722
51
4.8416069
0
ARC
8
DEFAULT_255_2_778
10
12.7923585
20
1.6481125
40
1.3833825
50
4.5407549
51
15.5431315
0
ARC
8
DEFAULT_255_2_778
10
13.5697229
20
1.8749662
40
0.5737501
50
14.5192957
51
42.86627
0
ARC
8
DEFAULT_255_2_778
10
13.6603302
20
1.9318996
40
0.4690316
50
45.2991844
51
79.0267842
0
ARC
8
DEFAULT_255_2_778
10
13.5728905
20
1.5545381
40
0.8562523
50
78.0892562
51
90.5785211
0
ARC
8
DEFAULT_255_2_778
10
13.5529665
20
1.6177324
40
0.7930945
50
89.185176
51
104.8108598
0
ARC
8
DEFAULT_255_2_778
10
13.4754732
20
1.9236743
40
0.4775193
50
105.2055
51
164.9879674
0
ARC
8
DEFAULT_255_2_778
10
14.2006066
20
1.6672733
40
1.2457558
50
162.2353891
51
174.6291123
0
ARC
8
DEFAULT_255_2_778
10
15.995402
20
1.4803514
40
3.0502215
50
174.2890429
51
180.1723715
0
ARC
8
DEFAULT_255_2_778
10
18.1269344
20
1.4485938
40
5.1817894
50
179.7503163
51
180.0016265
0
ARC
8
DEFAULT_255_2_778
10
15.119104
20
1.8965884
40
1.2087688
50
357.3141964
51
359.9657123
0
ARC
8
DEFAULT_255_2_778
10
15.5779539
20
1.9114556
40
0.7500807
50
358.8090051
51
18.1283179
0
ARC
8
DEFAULT_255_2_778
10
15.9258542
20
2.0274902
40
0.3833511
50
17.8253659
51
78.7009782
0
ARC
8
DEFAULT_255_2_778
10
15.8490049
20
1.7354862
40
0.684993
50
77.1828532
51
90.5570745
0
ARC
8
DEFAULT_255_2_778
10
15.8355619
20
1.9658214
40
0.4546759
50
89.1451942
51
90.0011368
0
ARC
8
DEFAULT_255_2_778
10
15.8356479
20
1.9680808
40
0.4524165
50
90.0120375
51
163.0672366
0
ARC
8
DEFAULT_255_2_778
10
19.0733667
20
1.3370621
40
3.7489425
50
168.2602496
51
180.0032738
0
ARC
8
DEFAULT_255_2_778
10
19.0816628
20
1.3368645
40
3.7572386
50
180.0002526
51
181.5757361
0
ARC
8
DEFAULT_255_2_778
10
30.733937
20
1.2088151
40
15.4081119
50
179.9080342
51
180.4793564
0
ARC
8
DEFAULT_255_2_778
10
20.7886144
20
1.1256187
40
5.4624412
50
180.4794784
51
182.1448801
0
ARC
8
DEFAULT_255_2_778
10
17.456181
20
0.9669836
40
2.126674
50
181.2341462
51
192.5780403
0
ARC
8
DEFAULT_255_2_778
10
16.1227049
20
0.668572
40
0.7602166
50
192.513239
51
212.690328
0
ARC
8
DEFAULT_255_2_778
10
15.8090871
20
0.4686638
40
0.3883068
50
212.858723
51
263.7446366
0
ARC
8
DEFAULT_255_2_778
10
15.8317419
20
0.6051724
40
0.5265267
50
262.9125811
51
270.1200346
0
ARC
8
DEFAULT_255_2_778
10
15.8435351
20
0.7875764
40
0.7090102
50
269.1360892
51
284.3528536
0
ARC
8
DEFAULT_255_2_778
10
15.9323608
20
0.4572454
40
0.3669941
50
283.7023438
51
318.3796074
0
ARC
8
DEFAULT_255_2_778
10
15.7880033
20
0.5398428
40
0.5308695
50
322.0662309
51
353.5615631
0
ARC
8
DEFAULT_255_2_778
10
14.4500794
20
0.7673482
40
1.8873988
50
351.2525427
51
357.4065823
0
ARC
8
DEFAULT_255_2_778
10
15.9345836
20
0.5465325
40
0.7342562
50
5.2226111
51
10.6275318
0
ARC
8
DEFAULT_255_2_778
10
15.9361182
20
0.5466819
40
0.7327145
50
0.0002357
51
5.2218991
0
ARC
8
DEFAULT_255_2_778
10
15.9381245
20
0.5464188
40
0.7307084
50
319.0535602
51
0.0208693
0
ARC
8
DEFAULT_255_2_778
10
15.9381876
20
0.5454145
40
0.7300029
50
270.1641923
51
319.1098568
0
ARC
8
DEFAULT_255_2_778
10
15.940276
20
0.5297759
40
0.7143612
50
267.4059854
51
270.0002832
0
ARC
8
DEFAULT_255_2_778
10
15.8981955
20
1.2068351
40
1.3907225
50
259.9600348
51
270.4016692
0
ARC
8
DEFAULT_255_2_778
10
15.8052425
20
0.6986509
40
0.8741204
50
243.5625166
51
260.1524289
0
ARC
8
DEFAULT_255_2_778
10
15.7647982
20
0.5651831
40
0.7369694
50
191.6002693
51
241.757907
0
ARC
8
DEFAULT_255_2_778
10
17.1097261
20
0.9218586
40
2.1276126
50
181.3755367
51
193.7268144
0
ARC
8
DEFAULT_255_2_778
10
21.0421414
20
1.1125403
40
6.0642357
50
180.2112382
51
182.2847493
0
ARC
8
DEFAULT_255_2_778
10
36.8976545
20
1.2075923
40
21.920022
50
179.938955
51
180.3068933
0
ARC
8
DEFAULT_255_2_778
10
18.621704
20
1.3672684
40
3.646608
50
181.5436334
51
182.1423964
0
ARC
8
DEFAULT_255_2_778
10
18.6173288
20
1.3671221
40
3.6422304
50
180.0000922
51
181.5431868
0
ARC
8
DEFAULT_255_2_778
10
18.6130991
20
1.3672434
40
3.6380007
50
167.7564333
51
180.0020017
0
ARC
8
DEFAULT_255_2_778
10
15.8080373
20
1.8824568
40
0.7927629
50
90.0666266
51
161.138173
0
ARC
8
DEFAULT_255_2_778
10
15.8070537
20
1.8797831
40
0.7954359
50
84.3442421
51
89.995552
0
ARC
8
DEFAULT_255_2_778
10
15.9534081
20
1.9620526
40
0.7125427
50
90.0013383
51
95.4732524
0
ARC
8
DEFAULT_255_2_778
10
15.9532546
20
1.962232
40
0.7123633
50
42.2875271
51
89.9889969
0
ARC
8
DEFAULT_255_2_778
10
15.9531571
20
1.9628052
40
0.71205
50
359.9977047
51
42.2481304
0
ARC
8
DEFAULT_255_2_778
10
15.9535695
20
1.9627754
40
0.7116375
50
354.7642501
51
0.0000986
0
ARC
8
DEFAULT_255_2_778
10
15.9524519
20
1.9628893
40
0.7127608
50
349.0539287
51
354.7633326
0
ARC
8
DEFAULT_255_2_778
10
18.2277488
20
1.8878437
40
0.7962802
50
91.7634313
51
149.4866133
0
ARC
8
DEFAULT_255_2_778
10
18.2107924
20
1.5893405
40
1.0944322
50
79.4093644
51
90.3951268
0
ARC
8
DEFAULT_255_2_778
10
18.2820853
20
1.9602644
40
0.7167266
50
62.8309203
51
79.5617384
0
ARC
8
DEFAULT_255_2_778
10
18.3522767
20
2.1024379
40
0.5581949
50
31.8655974
51
62.5771584
0
ARC
8
DEFAULT_255_2_778
10
18.1081274
20
1.970402
40
0.8354217
50
7.2369913
51
30.7162907
0
ARC
8
DEFAULT_255_2_778
10
17.3590717
20
1.846719
40
1.5943428
50
1.1820036
51
8.2553641
0
ARC
8
DEFAULT_255_2_778
10
16.5543672
20
1.8188191
40
2.3994781
50
359.9696182
51
1.4516937
0
ARC
8
DEFAULT_255_2_778
10
17.8074715
20
1.8447542
40
0.8260401
50
358.292922
51
25.1912213
0
ARC
8
DEFAULT_255_2_778
10
18.1734449
20
2.009275
40
0.4249029
50
26.1216395
51
78.1946291
0
ARC
8
DEFAULT_255_2_778
10
18.1302536
20
1.8305181
40
0.6087419
50
77.6575382
51
90.3773011
0
ARC
8
DEFAULT_255_2_778
10
18.1262331
20
1.7975526
40
0.6416941
50
89.9989393
51
90.9148582
0
ARC
8
DEFAULT_255_2_778
10
18.1127945
20
1.9133372
40
0.5258374
50
89.6520901
51
137.4581074
0
ARC
8
DEFAULT_255_2_778
10
18.2070882
20
1.8410416
40
0.6442781
50
138.3908947
51
159.716774
0
ARC
8
DEFAULT_255_2_778
10
18.5589637
20
1.7064978
40
1.0209838
50
159.4799936
51
172.8132629
0
ARC
8
DEFAULT_255_2_778
10
19.0997709
20
1.6307304
40
1.5670388
50
172.5384816
51
180.233406
0
ARC
8
DEFAULT_255_2_778
10
20.3533979
20
1.1867787
40
1.3581854
50
259.4597289
51
270.5082196
0
ARC
8
DEFAULT_255_2_778
10
20.2375151
20
0.5944826
40
0.7547059
50
239.1204726
51
259.8834139
0
ARC
8
DEFAULT_255_2_778
10
20.1724602
20
0.4542817
40
0.6012065
50
194.321226
51
237.583767
0
ARC
8
DEFAULT_255_2_778
10
20.7276249
20
0.6262636
40
1.1820236
50
182.5850257
51
195.7422507
0
ARC
8
DEFAULT_255_2_778
10
21.3547404
20
0.6733863
40
1.8107237
50
179.9427599
51
183.1796181
0
ARC
8
DEFAULT_255_2_778
10
21.6039442
20
0.6751369
40
2.0599267
50
179.3627632
51
179.9983787
0
ARC
8
DEFAULT_255_2_778
10
21.2158274
20
0.6744688
40
1.3511882
50
179.0001498
51
190.8787131
0
ARC
8
DEFAULT_255_2_778
10
20.2901823
20
0.4690099
40
0.4043089
50
187.0398185
51
250.2043728
0
ARC
8
DEFAULT_255_2_778
10
20.3508205
20
0.6880452
40
0.6311691
50
251.7591214
51
269.0264319
0
ARC
8
DEFAULT_255_2_778
10
20.3714569
20
1.001198
40
0.9447513
50
268.097738
51
270.0174721
0
ARC
8
DEFAULT_255_2_778
10
20.4180409
20
0.4804483
40
0.4265216
50
263.7686638
51
269.9983959
0
ARC
8
DEFAULT_255_2_778
10
20.4180008
20
0.4800653
40
0.4261386
50
270.0037893
51
315.9817355
0
ARC
8
DEFAULT_255_2_778
10
20.4169862
20
0.480691
40
0.4273033
50
316.0159423
51
0.0309394
0
ARC
8
DEFAULT_255_2_778
10
20.4147666
20
0.4809074
40
0.4295228
50
0.0019093
51
6.5434083
0
ARC
8
DEFAULT_255_2_778
10
20.413727
20
0.4807958
40
0.4305684
50
6.5424019
51
8.0574382
0
ARC
8
DEFAULT_255_2_778
10
20.3143898
20
0.5453264
40
0.5256718
50
359.5444297
51
16.3590794
0
ARC
8
DEFAULT_255_2_778
10
20.2898923
20
0.5152916
40
0.5580676
50
18.6100366
51
57.313416
0
ARC
8
DEFAULT_255_2_778
10
19.6026063
20
-0.4402834
40
1.7346017
50
55.2520407
51
63.2030662
0
ARC
8
DEFAULT_255_2_778
10
17.54416
20
-4.3464681
40
6.149784
50
62.4915752
51
63.2733125
0
ARC
8
DEFAULT_255_2_778
10
40.4884225
20
41.2532528
40
44.8969962
50
243.1672825
51
243.2922637
0
ARC
8
DEFAULT_255_2_778
10
20.9148183
20
2.698104
40
1.6590638
50
229.1023188
51
245.3359103
0
ARC
8
DEFAULT_255_2_778
10
20.2921488
20
1.948938
40
0.6854029
50
200.0431463
51
227.4449781
0
ARC
8
DEFAULT_255_2_778
10
20.3442007
20
1.9601019
40
0.7381649
50
185.1188613
51
199.4724909
0
ARC
8
DEFAULT_255_2_778
10
20.525847
20
1.9803599
40
0.9209028
50
179.9261612
51
185.3658868
0
ARC
8
DEFAULT_255_2_778
10
20.4444635
20
1.9920598
40
0.8395843
50
163.9659783
51
180.7174603
0
ARC
8
DEFAULT_255_2_778
10
20.1913415
20
2.0574359
40
0.5782953
50
103.4917488
51
163.2643535
0
ARC
8
DEFAULT_255_2_778
10
20.3997518
20
1.4107003
40
1.2568732
50
90.8374399
51
105.8524945
0
ARC
8
DEFAULT_255_2_778
10
20.4321732
20
0.8444896
40
1.8236571
50
89.988319
51
91.5959701
0
ARC
8
DEFAULT_255_2_778
10
20.4424642
20
1.7469875
40
0.9212126
50
75.2685539
51
90.6169454
0
ARC
8
DEFAULT_255_2_778
10
20.5272483
20
2.0593697
40
0.5975447
50
46.6655036
51
75.5142005
0
ARC
8
DEFAULT_255_2_778
10
20.4127296
20
1.9873826
40
0.7292825
50
5.8967619
51
44.001626
0
ARC
8
DEFAULT_255_2_778
10
19.8353857
20
1.877095
40
1.3158672
50
359.8019569
51
8.0913816
0
ARC
8
DEFAULT_255_2_778
10
19.6245861
20
1.8369188
40
1.206685
50
1.6919311
51
12.2980655
0
ARC
8
DEFAULT_255_2_778
10
20.412871
20
2.0214978
40
0.3973691
50
10.5039551
51
46.0870521
0
ARC
8
DEFAULT_255_2_778
10
20.4467579
20
2.022919
40
0.3735778
50
49.6823059
51
80.4745421
0
ARC
8
DEFAULT_255_2_778
10
20.3611281
20
1.613147
40
0.7920451
50
79.2709015
51
90.6136716
0
ARC
8
DEFAULT_255_2_778
10
20.324137
20
2.0143433
40
0.3918418
50
85.8278335
51
89.9998204
0
ARC
8
DEFAULT_255_2_778
10
20.3242047
20
2.0140127
40
0.3921723
50
90.0097003
51
133.3805117
0
ARC
8
DEFAULT_255_2_778
10
20.3243349
20
2.0145733
40
0.3918545
50
133.4506481
51
179.9994391
0
ARC
8
DEFAULT_255_2_778
10
20.3251921
20
2.0145805
40
0.3927118
50
180.0004996
51
181.0408629
0
ARC
8
DEFAULT_255_2_778
10
20.4120914
20
2.0034026
40
0.4795634
50
179.5168287
51
197.4562459
0
ARC
8
DEFAULT_255_2_778
10
20.4450023
20
2.0344516
40
0.5206473
50
199.6298181
51
236.3383148
0
ARC
8
DEFAULT_255_2_778
10
21.0623243
20
2.8787985
40
1.5662623
50
234.6626135
51
243.5284095
0
ARC
8
DEFAULT_255_2_778
10
22.8134469
20
6.2300718
40
5.3472506
50
242.7388656
51
243.6718249
0
ARC
8
DEFAULT_255_2_778
10
4.5576027
20
-30.7444413
40
35.8885428
50
63.5372726
51
63.730101
0
ARC
8
DEFAULT_255_2_778
10
19.9060557
20
-0.0458455
40
1.5680696
50
48.1371335
51
65.7498588
0
ARC
8
DEFAULT_255_2_778
10
20.4759474
20
0.6243867
40
0.6889799
50
20.4558019
51
46.236077
0
ARC
8
DEFAULT_255_2_778
10
20.4196025
20
0.6101394
40
0.7467781
50
5.5642994
51
19.9691513
0
ARC
8
DEFAULT_255_2_778
10
20.2320423
20
0.5880553
40
0.9356036
50
359.9137379
51
5.7966245
0
ARC
8
DEFAULT_255_2_778
10
20.4519666
20
0.5396197
40
0.7172218
50
359.9996788
51
3.7594879
0
ARC
8
DEFAULT_255_2_778
10
20.4576862
20
0.5379164
40
0.7115042
50
313.2111195
51
0.1368368
0
ARC
8
DEFAULT_255_2_778
10
20.44825
20
0.5552422
40
0.7306097
50
269.9987369
51
312.8201578
0
ARC
8
DEFAULT_255_2_778
10
20.4482521
20
0.5562265
40
0.7315939
50
263.467559
51
269.9985781
0
ARC
8
DEFAULT_255_2_778
10
20.4485534
20
0.5591766
40
0.7345591
50
263.2916071
51
263.470388
0
ARC
8
DEFAULT_255_2_778
10
24.6451664
20
0.5862879
40
2.3777946
50
179.5503887
51
183.7498421
0
ARC
8
DEFAULT_255_2_778
10
22.8585636
20
0.4604535
40
0.586852
50
182.8984125
51
196.5396172
0
ARC
8
DEFAULT_255_2_778
10
22.4759081
20
0.3465469
40
0.1876029
50
196.4602642
51
271.9278149
0
ARC
8
DEFAULT_255_2_778
10
22.5604514
20
0.9372042
40
0.7820767
50
264.2590131
51
270.4024665
0
ARC
8
DEFAULT_255_2_778
10
22.5916311
20
1.8485209
40
1.693569
50
269.1309687
51
269.9993378
0
ARC
8
DEFAULT_255_2_778
10
22.5916346
20
1.8418978
40
1.6869458
50
269.9992193
51
271.4083548
0
ARC
8
DEFAULT_255_2_778
10
22.5937624
20
1.7928456
40
1.6378563
50
271.3761168
51
278.0295725
0
ARC
8
DEFAULT_255_2_778
10
22.5190883
20
2.7227887
40
2.8597877
50
269.9835375
51
276.0912142
0
ARC
8
DEFAULT_255_2_778
10
22.5182675
20
2.7843331
40
2.9213321
50
269.6798666
51
269.9999834
0
ARC
8
DEFAULT_255_2_778
10
22.4903276
20
0.9031935
40
1.0402117
50
259.1157644
51
270.639912
0
ARC
8
DEFAULT_255_2_778
10
22.3837492
20
0.3778094
40
0.5041837
50
236.6309665
51
259.7357186
0
ARC
8
DEFAULT_255_2_778
10
22.3493605
20
0.2873714
40
0.4102791
50
184.7587144
51
233.6936585
0
ARC
8
DEFAULT_255_2_778
10
22.9009931
20
0.3892731
40
0.9700691
50
179.6235512
51
188.0555241
0
ARC
8
DEFAULT_255_2_778
10
23.9511929
20
0.7101933
40
0.8832908
50
270.0095983
51
326.264317
0
ARC
8
DEFAULT_255_2_778
10
23.9513455
20
0.7123895
40
0.885487
50
267.0869723
51
269.9997031
0
ARC
8
DEFAULT_255_2_778
10
23.8722285
20
0.5563824
40
0.7291343
50
270.0001678
51
272.6818697
0
ARC
8
DEFAULT_255_2_778
10
23.8722726
20
0.5554659
40
0.7282179
50
223.0296674
51
269.9966964
0
ARC
8
DEFAULT_255_2_778
10
23.8719953
20
0.5548704
40
0.727609
50
180.0073576
51
223.0102936
0
ARC
8
DEFAULT_255_2_778
10
23.8716706
20
0.554765
40
0.7272841
50
173.573686
51
179.9990586
0
ARC
8
DEFAULT_255_2_778
10
23.8726549
20
0.5546322
40
0.728277
50
173.3042904
51
173.571971
0
ARC
8
DEFAULT_255_2_778
10
24.326848
20
0.6466608
40
1.1775245
50
169.7739223
51
180.3461588
0
ARC
8
DEFAULT_255_2_778
10
23.9620178
20
0.7142143
40
0.8064985
50
153.8827999
51
169.895481
0
ARC
8
DEFAULT_255_2_778
10
23.8853943
20
0.7297197
40
0.7311413
50
106.8199111
51
152.3303529
0
ARC
8
DEFAULT_255_2_778
10
24.2456817
20
-0.3126318
40
1.8336647
50
94.2804583
51
108.1715904
0
ARC
8
DEFAULT_255_2_778
10
24.5590593
20
-3.5166791
40
5.0526974
50
92.2878923
51
95.1123396
0
ARC
8
DEFAULT_255_2_778
10
25.4524233
20
-23.7166494
40
25.2723762
50
92.2364918
51
92.4834464
0
ARC
8
DEFAULT_255_2_778
10
23.9834528
20
13.9606638
40
12.4335625
50
272.2250787
51
272.7175187
0
ARC
8
DEFAULT_255_2_778
10
24.3667923
20
5.8766516
40
4.3404666
50
272.7223989
51
273.8892367
0
ARC
8
DEFAULT_255_2_778
10
24.4538129
20
4.5416831
40
3.0026724
50
273.9603706
51
274.1927639
0
ARC
8
DEFAULT_255_2_778
10
23.3966488
20
1.7929431
40
1.2768272
50
359.1789485
51
10.7006852
0
ARC
8
DEFAULT_255_2_778
10
24.1611898
20
1.9486031
40
0.4968001
50
9.4325936
51
41.0186117
0
ARC
8
DEFAULT_255_2_778
10
24.2328128
20
1.9827307
40
0.4208999
50
43.9135334
51
77.4521925
0
ARC
8
DEFAULT_255_2_778
10
24.130178
20
1.5771233
40
0.839204
50
76.6285412
51
90.7942551
0
ARC
8
DEFAULT_255_2_778
10
24.0503922
20
1.9498015
40
0.4713979
50
81.6872795
51
84.1556425
0
ARC
8
DEFAULT_255_2_778
10
24.0504341
20
1.9503046
40
0.4708931
50
84.1544717
51
89.999208
0
ARC
8
DEFAULT_255_2_778
10
24.0504851
20
1.9501217
40
0.4710761
50
90.0054221
51
131.3695214
0
ARC
8
DEFAULT_255_2_778
10
24.0504804
20
1.950202
40
0.4710126
50
131.3755397
51
180.0134899
0
ARC
8
DEFAULT_255_2_778
10
24.0503771
20
1.9500733
40
0.4709093
50
179.9978339
51
181.0374901
0
ARC
8
DEFAULT_255_2_778
10
24.0674937
20
1.910785
40
0.8383133
50
158.7774535
51
177.8970729
0
ARC
8
DEFAULT_255_2_778
10
23.9485042
20
1.9306661
40
0.7206147
50
100.5106371
51
156.8258761
0
ARC
8
DEFAULT_255_2_778
10
24.1335656
20
1.300024
40
1.3760618
50
89.5678249
51
103.297943
0
ARC
8
DEFAULT_255_2_778
10
24.1503698
20
0.1966414
40
2.4794136
50
87.8827073
51
90.148469
0
ARC
8
DEFAULT_255_2_778
10
24.1879938
20
1.1811296
40
1.4942079
50
82.5263211
51
87.9297226
0
ARC
8
DEFAULT_255_2_778
10
24.2407537
20
1.5902733
40
1.081678
50
76.1998287
51
82.4783325
0
ARC
8
DEFAULT_255_2_778
10
24.3605345
20
2.0015362
40
0.6539686
50
43.7987123
51
77.7965074
0
ARC
8
DEFAULT_255_2_778
10
24.406857
20
2.0697725
40
0.5735634
50
20.9345037
51
42.0812483
0
ARC
8
DEFAULT_255_2_778
10
24.2172765
20
1.9968059
40
0.7767007
50
7.3605132
51
20.9649567
0
ARC
8
DEFAULT_255_2_778
10
23.9009807
20
1.9517454
40
1.0961708
50
359.8014441
51
7.5783594
0
ARC
8
DEFAULT_255_2_778
10
31.0203246
20
0.4972325
40
6.0235636
50
179.3530388
51
179.9999866
0
ARC
8
DEFAULT_255_2_778
10
31.0209567
20
0.4973226
40
6.0241958
50
180.0008436
51
185.9251811
0
ARC
8
DEFAULT_255_2_778
10
24.4685422
20
7.1344371
40
5.8530297
50
271.2942052
51
271.9063129
0
ARC
8
DEFAULT_255_2_778
10
24.2062389
20
18.6925683
40
17.4141367
50
271.0850369
51
271.2980937
0
ARC
8
DEFAULT_255_2_778
10
24.6734764
20
-7.4351379
40
8.717776
50
90.9035798
51
92.1346787
0
ARC
8
DEFAULT_255_2_778
10
24.4975
20
-2.4037562
40
3.6833492
50
92.3144599
51
93.391288
0
ARC
8
DEFAULT_255_2_778
10
24.3295654
20
-0.2388943
40
1.5128621
50
91.8921605
51
107.8866789
0
ARC
8
DEFAULT_255_2_778
10
24.0140263
20
0.7029867
40
0.5197092
50
106.6735763
51
159.0482082
0
ARC
8
DEFAULT_255_2_778
10
24.1515892
20
0.6667853
40
0.6613006
50
160.3810598
51
176.7908998
0
ARC
8
DEFAULT_255_2_778
10
24.3983747
20
0.6438255
40
0.90903
50
176.2167723
51
180.0490868
0
ARC
8
DEFAULT_255_2_778
10
23.9830366
20
0.5755456
40
0.4982848
50
172.2143808
51
173.9605311
0
ARC
8
DEFAULT_255_2_778
10
23.9815101
20
0.5757084
40
0.4967498
50
173.9606738
51
179.9994797
0
ARC
8
DEFAULT_255_2_778
10
23.9822746
20
0.5758487
40
0.4975144
50
180.015641
51
221.1838506
0
ARC
8
DEFAULT_255_2_778
10
23.982312
20
0.5759646
40
0.4976189
50
221.1910648
51
269.9992382
0
ARC
8
DEFAULT_255_2_778
10
23.9825654
20
0.4160302
40
0.3376847
50
269.9558866
51
270.1322829
0
ARC
8
DEFAULT_255_2_778
10
23.9568801
20
0.7842828
40
0.706432
50
272.1469578
51
359.2103236
0
ARC
8
DEFAULT_255_2_778
10
26.7557887
20
1.8503509
40
0.8334753
50
90.0055667
51
150.5731946
0
ARC
8
DEFAULT_255_2_778
10
26.7556997
20
1.8467246
40
0.8371016
50
87.8677543
51
89.9994528
0
ARC
8
DEFAULT_255_2_778
10
26.6569886
20
1.7345566
40
0.6412755
50
78.316987
51
84.7749011
0
ARC
8
DEFAULT_255_2_778
10
26.6571143
20
1.7357311
40
0.6400945
50
84.7765263
51
89.9997087
0
ARC
8
DEFAULT_255_2_778
10
26.6571176
20
1.7352625
40
0.6405629
50
90.0000081
51
132.5381706
0
ARC
8
DEFAULT_255_2_778
10
26.6590601
20
1.7337894
40
0.6429619
50
132.5769574
51
179.9953012
0
ARC
8
DEFAULT_255_2_778
10
26.6597398
20
1.7338627
40
0.6436416
50
180.0018364
51
186.5854539
0
ARC
8
DEFAULT_255_2_778
10
27.8847013
20
1.1834696
40
1.3577763
50
259.4581384
51
270.5082309
0
ARC
8
DEFAULT_255_2_778
10
27.768854
20
0.5914392
40
0.7545643
50
239.1172259
51
259.881671
0
ARC
8
DEFAULT_255_2_778
10
27.7038761
20
0.4513733
40
0.6012214
50
194.3200501
51
237.5800408
0
ARC
8
DEFAULT_255_2_778
10
28.2591043
20
0.6233687
40
1.1821031
50
182.5851071
51
195.7414273
0
ARC
8
DEFAULT_255_2_778
10
28.88614
20
0.6704861
40
1.8107233
50
179.9427598
51
183.1796181
0
ARC
8
DEFAULT_255_2_778
10
29.1353955
20
0.6722368
40
2.0599779
50
179.3627743
51
179.9983787
0
ARC
8
DEFAULT_255_2_778
10
28.7469917
20
0.6715656
40
1.3510525
50
178.9999151
51
190.8796836
0
ARC
8
DEFAULT_255_2_778
10
27.8214844
20
0.4661298
40
0.4043113
50
187.0426128
51
250.2117603
0
ARC
8
DEFAULT_255_2_778
10
27.8822127
20
0.6854067
40
0.6314306
50
251.7629349
51
269.0268615
0
ARC
8
DEFAULT_255_2_778
10
27.9028569
20
0.9987529
40
0.9452062
50
268.0982007
51
270.0174648
0
ARC
8
DEFAULT_255_2_778
10
27.9494734
20
0.4775011
40
0.4264782
50
263.7636457
51
269.9983611
0
ARC
8
DEFAULT_255_2_778
10
27.9494913
20
0.4767052
40
0.4256822
50
269.9959416
51
316.0084487
0
ARC
8
DEFAULT_255_2_778
10
27.9486523
20
0.4777867
40
0.4270369
50
315.9822402
51
0.0325772
0
ARC
8
DEFAULT_255_2_778
10
27.9463061
20
0.4780188
40
0.4293829
50
0.0014216
51
6.5440143
0
ARC
8
DEFAULT_255_2_778
10
27.9451271
20
0.4778958
40
0.4305683
50
6.5424019
51
8.0574382
0
ARC
8
DEFAULT_255_2_778
10
27.8457898
20
0.5424264
40
0.5256718
50
359.5444297
51
16.3590794
0
ARC
8
DEFAULT_255_2_778
10
27.8212923
20
0.5123916
40
0.5580676
50
18.6100366
51
57.313416
0
ARC
8
DEFAULT_255_2_778
10
27.1340063
20
-0.4431834
40
1.7346017
50
55.2520407
51
63.2030662
0
ARC
8
DEFAULT_255_2_778
10
25.07556
20
-4.3493681
40
6.149784
50
62.4915752
51
63.2733125
0
ARC
8
DEFAULT_255_2_778
10
48.0198225
20
41.2503528
40
44.8969962
50
243.1672825
51
243.2922637
0
ARC
8
DEFAULT_255_2_778
10
28.4462183
20
2.695204
40
1.6590638
50
229.1023188
51
245.3359103
0
ARC
8
DEFAULT_255_2_778
10
27.8235488
20
1.946038
40
0.6854029
50
200.0431463
51
227.4449781
0
ARC
8
DEFAULT_255_2_778
10
27.8756007
20
1.9572019
40
0.7381649
50
185.1188613
51
199.4724909
0
ARC
8
DEFAULT_255_2_778
10
28.057247
20
1.9774599
40
0.9209028
50
179.9261612
51
185.3658868
0
ARC
8
DEFAULT_255_2_778
10
27.9758635
20
1.9891598
40
0.8395843
50
163.9659783
51
180.7174603
0
ARC
8
DEFAULT_255_2_778
10
27.7227415
20
2.0545359
40
0.5782953
50
103.4917488
51
163.2643535
0
ARC
8
DEFAULT_255_2_778
10
27.9311518
20
1.4078003
40
1.2568732
50
90.8374399
51
105.8524945
0
ARC
8
DEFAULT_255_2_778
10
27.9635732
20
0.8415896
40
1.8236571
50
89.988319
51
91.5959701
0
ARC
8
DEFAULT_255_2_778
10
27.9738674
20
1.7441723
40
0.9211279
50
75.267859
51
90.617203
0
ARC
8
DEFAULT_255_2_778
10
28.0586709
20
2.0566114
40
0.5974
50
46.6604147
51
75.5135999
0
ARC
8
DEFAULT_255_2_778
10
27.944032
20
1.9845483
40
0.7292797
50
5.8915936
51
43.9946615
0
ARC
8
DEFAULT_255_2_778
10
27.3660699
20
1.8741965
40
1.316483
50
359.8019856
51
8.0875067
0
ARC
8
DEFAULT_255_2_778
10
27.1555627
20
1.8340111
40
1.2068085
50
1.6921226
51
12.2971602
0
ARC
8
DEFAULT_255_2_778
10
27.9439295
20
2.0185977
40
0.3974113
50
10.5028452
51
46.0807683
0
ARC
8
DEFAULT_255_2_778
10
27.9779132
20
2.0201268
40
0.3734721
50
49.6758424
51
80.4711789
0
ARC
8
DEFAULT_255_2_778
10
27.8923249
20
1.610645
40
0.7916471
50
79.2681966
51
90.6137524
0
ARC
8
DEFAULT_255_2_778
10
27.855312
20
2.0106793
40
0.3926056
50
85.8323048
51
89.9992575
0
ARC
8
DEFAULT_255_2_778
10
27.8553028
20
2.0113841
40
0.3919009
50
89.9979072
51
133.4176066
0
ARC
8
DEFAULT_255_2_778
10
27.855048
20
2.0117397
40
0.3914677
50
133.4262888
51
180.0091563
0
ARC
8
DEFAULT_255_2_778
10
27.856292
20
2.0116805
40
0.3927118
50
180.0004997
51
181.040863
0
ARC
8
DEFAULT_255_2_778
10
27.9431914
20
2.0005026
40
0.4795634
50
179.5168287
51
197.4562459
0
ARC
8
DEFAULT_255_2_778
10
27.9761023
20
2.0315516
40
0.5206473
50
199.6298181
51
236.3383148
0
ARC
8
DEFAULT_255_2_778
10
28.5934243
20
2.8758985
40
1.5662623
50
234.6626135
51
243.5284095
0
ARC
8
DEFAULT_255_2_778
10
30.3445469
20
6.2271718
40
5.3472506
50
242.7388656
51
243.6718249
0
ARC
8
DEFAULT_255_2_778
10
12.0887027
20
-30.7473413
40
35.8885428
50
63.5372726
51
63.730101
0
ARC
8
DEFAULT_255_2_778
10
27.4371557
20
-0.0487455
40
1.5680696
50
48.1371335
51
65.7498588
0
ARC
8
DEFAULT_255_2_778
10
28.0070474
20
0.6214867
40
0.6889799
50
20.4558019
51
46.236077
0
ARC
8
DEFAULT_255_2_778
10
27.9507025
20
0.6072394
40
0.7467781
50
5.5642994
51
19.9691513
0
ARC
8
DEFAULT_255_2_778
10
27.7631423
20
0.5851553
40
0.9356036
50
359.9137379
51
5.7966245
0
ARC
8
DEFAULT_255_2_778
10
27.9830666
20
0.5367197
40
0.7172218
50
359.9996788
51
3.7594879
0
ARC
8
DEFAULT_255_2_778
10
27.9887862
20
0.5350164
40
0.7115042
50
313.2111195
51
0.1368368
0
ARC
8
DEFAULT_255_2_778
10
27.97935
20
0.5523422
40
0.7306097
50
269.9987369
51
312.8201578
0
ARC
8
DEFAULT_255_2_778
10
27.9793521
20
0.5533265
40
0.7315939
50
263.467559
51
269.9985781
0
ARC
8
DEFAULT_255_2_778
10
27.9796534
20
0.5562767
40
0.7345591
50
263.2916071
51
263.470388
0
LINE
8
DEFAULT_255_2_778
10
10.930645
20
2.3691467
11
10.930645
21
2.6289467
0
LINE
8
DEFAULT_255_2_778
10
10.930645
20
2.6289467
11
11.369845
21
2.6289467
0
LINE
8
DEFAULT_255_2_778
10
11.369845
20
2.6289467
11
11.369845
21
3.1935467
0
LINE
8
DEFAULT_255_2_778
10
11.369845
20
3.1935467
11
11.690545
21
3.3346467
0
LINE
8
DEFAULT_255_2_778
10
11.690545
20
3.3346467
11
11.690545
21
2.6289467
0
LINE
8
DEFAULT_255_2_778
10
11.690545
20
2.6289467
11
12.245345
21
2.6289467
0
LINE
8
DEFAULT_255_2_778
10
12.245345
20
2.6289467
11
12.245345
21
2.3691467
0
LINE
8
DEFAULT_255_2_778
10
12.245345
20
2.3691467
11
11.690545
21
2.3691467
0
LINE
8
DEFAULT_255_2_778
10
11.690545
20
2.3691467
11
11.690545
21
0.6049467
0
LINE
8
DEFAULT_255_2_778
10
12.245645
20
0.1710467
11
12.245645
21
-0.1208533
0
LINE
8
DEFAULT_255_2_778
10
11.353945
20
0.3956467
11
11.353945
21
2.3559467
0
LINE
8
DEFAULT_255_2_778
10
11.353945
20
2.3559467
11
10.914745
21
2.3559467
0
LINE
8
DEFAULT_255_2_778
10
10.914745
20
2.3559467
11
10.930645
21
2.3691467
0
LINE
8
DEFAULT_255_2_778
10
12.941945
20
1.1885467
11
12.941945
21
0.9769467
0
LINE
8
DEFAULT_255_2_778
10
14.164045
20
0.7332467
11
14.507245
21
0.7332467
0
LINE
8
DEFAULT_255_2_778
10
12.582645
20
0.8647467
11
12.582645
21
1.5357467
0
LINE
8
DEFAULT_255_2_778
10
14.507245
20
1.1989467
11
12.941745
21
1.1989467
0
LINE
8
DEFAULT_255_2_778
10
12.941745
20
1.1989467
11
12.941945
21
1.1885467
0
LINE
8
DEFAULT_255_2_778
10
12.945145
20
1.4484467
11
14.186545
21
1.4484467
0
LINE
8
DEFAULT_255_2_778
10
14.186545
20
1.4484467
11
14.183445
21
1.4484467
0
LINE
8
DEFAULT_255_2_778
10
16.335545
20
0.6819467
11
16.656245
21
0.6819467
0
LINE
8
DEFAULT_255_2_778
10
16.652245
20
1.8275467
11
16.331545
21
1.8275467
0
LINE
8
DEFAULT_255_2_778
10
16.331545
20
1.8275467
11
16.326545
21
1.8399467
0
LINE
8
DEFAULT_255_2_778
10
17.221645
20
-0.1232533
11
17.221645
21
3.8095467
0
LINE
8
DEFAULT_255_2_778
10
17.221645
20
3.8095467
11
17.541745
21
3.8095467
0
LINE
8
DEFAULT_255_2_778
10
17.541745
20
3.8095467
11
17.541745
21
2.2921467
0
LINE
8
DEFAULT_255_2_778
10
18.953845
20
1.8175467
11
18.953845
21
-0.1046533
0
LINE
8
DEFAULT_255_2_778
10
18.953845
20
-0.1046533
11
18.633145
21
-0.1046533
0
LINE
8
DEFAULT_255_2_778
10
18.633145
20
-0.1046533
11
18.633145
21
1.8201467
0
LINE
8
DEFAULT_255_2_778
10
17.532745
20
1.6243467
11
17.532745
21
-0.1208533
0
LINE
8
DEFAULT_255_2_778
10
17.532745
20
-0.1208533
11
17.212045
21
-0.1208533
0
LINE
8
DEFAULT_255_2_778
10
17.212045
20
-0.1208533
11
17.221645
21
-0.1232533
0
LINE
8
DEFAULT_255_2_778
10
19.544145
20
0.6980467
11
19.864845
21
0.6980467
0
LINE
8
DEFAULT_255_2_778
10
21.151245
20
1.8725467
11
20.830745
21
1.8725467
0
LINE
8
DEFAULT_255_2_778
10
20.362745
20
-0.1703533
11
20.365445
21
-0.1713533
0
LINE
8
DEFAULT_255_2_778
10
21.507345
20
2.3691467
11
21.507345
21
2.6289467
0
LINE
8
DEFAULT_255_2_778
10
21.507345
20
2.6289467
11
21.946545
21
2.6289467
0
LINE
8
DEFAULT_255_2_778
10
21.946545
20
2.6289467
11
21.946545
21
3.1935467
0
LINE
8
DEFAULT_255_2_778
10
21.946545
20
3.1935467
11
22.267245
21
3.3346467
0
LINE
8
DEFAULT_255_2_778
10
22.267245
20
3.3346467
11
22.267245
21
2.6289467
0
LINE
8
DEFAULT_255_2_778
10
22.267245
20
2.6289467
11
22.822045
21
2.6289467
0
LINE
8
DEFAULT_255_2_778
10
22.822045
20
2.6289467
11
22.822045
21
2.3691467
0
LINE
8
DEFAULT_255_2_778
10
22.822045
20
2.3691467
11
22.267445
21
2.3691467
0
LINE
8
DEFAULT_255_2_778
10
22.267445
20
2.3691467
11
22.267445
21
0.6049467
0
LINE
8
DEFAULT_255_2_778
10
22.822545
20
0.1710467
11
22.822545
21
-0.1208533
0
LINE
8
DEFAULT_255_2_778
10
21.930945
20
0.3956467
11
21.930945
21
2.3559467
0
LINE
8
DEFAULT_255_2_778
10
21.930945
20
2.3559467
11
21.491745
21
2.3559467
0
LINE
8
DEFAULT_255_2_778
10
21.491745
20
2.3559467
11
21.507345
21
2.3691467
0
LINE
8
DEFAULT_255_2_778
10
24.673345
20
1.5470467
11
24.673345
21
1.7746467
0
LINE
8
DEFAULT_255_2_778
10
23.579545
20
1.9415467
11
23.229745
21
1.9415467
0
LINE
8
DEFAULT_255_2_778
10
24.997145
20
1.9479467
11
24.997145
21
0.5652467
0
LINE
8
DEFAULT_255_2_778
10
25.028945
20
-0.1245533
11
24.685745
21
-0.1245533
0
LINE
8
DEFAULT_255_2_778
10
24.685745
20
-0.1245533
11
24.685745
21
0.2122467
0
LINE
8
DEFAULT_255_2_778
10
24.685745
20
0.2122467
11
24.685745
21
0.2196467
0
LINE
8
DEFAULT_255_2_778
10
24.663245
20
0.7745467
11
24.663245
21
1.2772467
0
LINE
8
DEFAULT_255_2_778
10
24.663245
20
1.2772467
11
24.663245
21
1.2846467
0
LINE
8
DEFAULT_255_2_778
10
26.786845
20
2.6832467
11
26.786845
21
2.3625467
0
LINE
8
DEFAULT_255_2_778
10
26.020345
20
1.6600467
11
26.020345
21
-0.1232533
0
LINE
8
DEFAULT_255_2_778
10
26.020345
20
-0.1232533
11
25.699645
21
-0.1232533
0
LINE
8
DEFAULT_255_2_778
10
25.699645
20
-0.1232533
11
25.699645
21
2.6284467
0
LINE
8
DEFAULT_255_2_778
10
25.699645
20
2.6284467
11
26.020345
21
2.6284467
0
LINE
8
DEFAULT_255_2_778
10
26.020345
20
2.6284467
11
26.020345
21
2.2596467
0
LINE
8
DEFAULT_255_2_778
10
26.020345
20
2.2596467
11
26.029845
21
2.2598467
0
LINE
8
DEFAULT_255_2_778
10
27.075545
20
0.6951467
11
27.396145
21
0.6951467
0
LINE
8
DEFAULT_255_2_778
10
28.682545
20
1.8696467
11
28.361845
21
1.8696467
0
LINE
8
DEFAULT_255_2_778
10
27.893845
20
-0.1732533
11
27.896745
21
-0.1742533
0
ENDSEC
0
EOF