0
SECTION
2
HEADER
9
$MEASUREMENT
70
1
0
ENDSEC
0
SECTION
2
TABLES
0
TABLE
2
LTYPE
0
LTYPE
72
65
70
64
2
CONTINUOUS
3
______
73
0
40
0
0
ENDTAB
0
TABLE
2
LAYER
0
LAYER
2
DEFAULT_255_2_778
70
0
62
255
6
CONTINUOUS
0
ENDTAB
0
ENDSEC
0
SECTION
2
ENTITIES
0
ARC
8
DEFAULT_255_2_778
10
5.8398211
20
2.740456
40
3.4641548
50
157.7668839
51
166.1881004
0
ARC
8
DEFAULT_255_2_778
10
4.9945806
20
3.0898487
40
2.549557
50
145.7571168
51
157.8477282
0
ARC
8
DEFAULT_255_2_778
10
4.5058715
20
3.4308088
40
1.953714
50
106.5249031
51
145.9583041
0
ARC
8
DEFAULT_255_2_778
10
4.7044518
20
2.8135336
40
2.6020182
50
95.0978005
51
106.8509148
0
ARC
8
DEFAULT_255_2_778
10
4.7822764
20
2.0769359
40
3.3426392
50
89.9150338
51
95.3046155
0
ARC
8
DEFAULT_255_2_778
10
4.7915976
20
2.0306311
40
3.3889432
50
85.1091885
51
90.0737855
0
ARC
8
DEFAULT_255_2_778
10
4.8368794
20
2.5555279
40
2.8620971
50
79.2063293
51
85.1165096
0
ARC
8
DEFAULT_255_2_778
10
4.9057248
20
2.9182076
40
2.4929411
50
72.4404703
51
79.1996034
0
ARC
8
DEFAULT_255_2_778
10
4.9635724
20
3.104182
40
2.2981803
50
64.4935307
51
72.4166434
0
ARC
8
DEFAULT_255_2_778
10
4.933791
20
3.0495559
40
2.3603088
50
55.6852377
51
64.4120632
0
ARC
8
DEFAULT_255_2_778
10
4.5325519
20
2.4801595
40
3.0568153
50
47.4445395
51
55.4900449
0
ARC
8
DEFAULT_255_2_778
10
3.1466689
20
0.9398364
40
5.1287727
50
45.4424759
51
47.6774938
0
LINE
8
DEFAULT_255_2_778
10
6.7451439
20
4.5943248
11
6.7458407
21
4.5936409
0
LINE
8
DEFAULT_255_2_778
10
6.7458407
20
4.5936409
11
6.7465359
21
4.5929583
0
LINE
8
DEFAULT_255_2_778
10
6.7465359
20
4.5929583
11
6.7472296
21
4.5922771
0
LINE
8
DEFAULT_255_2_778
10
6.7472296
20
4.5922771
11
6.7479217
21
4.5915973
0
ARC
8
DEFAULT_255_2_778
10
4.1121694
20
1.9087223
40
3.7609849
50
45.4855005
51
45.5076233
0
LINE
8
DEFAULT_255_2_778
10
6.7489575
20
4.5905794
11
6.7496457
21
4.5899029
0
LINE
8
DEFAULT_255_2_778
10
6.7496457
20
4.5899029
11
6.7503325
21
4.5892276
0
LINE
8
DEFAULT_255_2_778
10
6.7503325
20
4.5892276
11
6.7510177
21
4.5885537
0
LINE
8
DEFAULT_255_2_778
10
6.7510177
20
4.5885537
11
6.7517014
21
4.5878811
0
ARC
8
DEFAULT_255_2_778
10
5.6071284
20
3.423868
40
1.6324747
50
45.4488753
51
45.4824656
0
LINE
8
DEFAULT_255_2_778
10
6.7523835
20
4.5872099
11
6.7530642
21
4.5865399
0
LINE
8
DEFAULT_255_2_778
10
6.7530642
20
4.5865399
11
6.7537433
21
4.5858713
0
LINE
8
DEFAULT_255_2_778
10
6.7537433
20
4.5858713
11
6.7544209
21
4.5852039
0
LINE
8
DEFAULT_255_2_778
10
6.7544209
20
4.5852039
11
6.7550971
21
4.5845379
0
ARC
8
DEFAULT_255_2_778
10
4.2329856
20
2.0244884
40
3.5937306
50
45.4050535
51
45.4277022
0
LINE
8
DEFAULT_255_2_778
10
6.7561089
20
4.5835408
11
6.7567813
21
4.5828781
0
LINE
8
DEFAULT_255_2_778
10
6.7567813
20
4.5828781
11
6.7581229
21
4.5815552
0
LINE
8
DEFAULT_255_2_778
10
6.7581229
20
4.5815552
11
6.7587908
21
4.5808963
0
LINE
8
DEFAULT_255_2_778
10
6.7587908
20
4.5808963
11
6.7594573
21
4.5802387
0
ARC
8
DEFAULT_255_2_778
10
4.3051464
20
2.0925188
40
3.4946233
50
45.364349
51
45.3873251
0
LINE
8
DEFAULT_255_2_778
10
6.7604547
20
4.5792543
11
6.7611174
21
4.5786
0
LINE
8
DEFAULT_255_2_778
10
6.7611174
20
4.5786
11
6.7624399
21
4.5772939
0
LINE
8
DEFAULT_255_2_778
10
6.7624399
20
4.5772939
11
6.7630982
21
4.5766434
0
LINE
8
DEFAULT_255_2_778
10
6.7630982
20
4.5766434
11
6.7637552
21
4.5759942
0
LINE
8
DEFAULT_255_2_778
10
6.7637552
20
4.5759942
11
6.7650659
21
4.5746983
0
ARC
8
DEFAULT_255_2_778
10
5.7125522
20
3.5094603
40
1.4975037
50
45.3091354
51
45.3442516
0
LINE
8
DEFAULT_255_2_778
10
6.7657185
20
4.574053
11
6.7670207
21
4.5727648
0
LINE
8
DEFAULT_255_2_778
10
6.7670207
20
4.5727648
11
6.768317
21
4.5714816
0
ARC
8
DEFAULT_255_2_778
10
5.7373539
20
3.5298733
40
1.4655487
50
45.2587751
51
45.2942837
0
LINE
8
DEFAULT_255_2_778
10
6.7689625
20
4.5708426
11
6.7696065
21
4.5702048
0
ARC
8
DEFAULT_255_2_778
10
4.4694012
20
2.2473539
40
3.2690336
50
45.2568786
51
45.2806567
0
LINE
8
DEFAULT_255_2_778
10
6.7705703
20
4.5692501
11
6.7718511
21
4.5679808
0
LINE
8
DEFAULT_255_2_778
10
6.7718511
20
4.5679808
11
6.7731263
21
4.5667166
0
LINE
8
DEFAULT_255_2_778
10
6.7731263
20
4.5667166
11
6.7743958
21
4.5654573
0
LINE
8
DEFAULT_255_2_778
10
6.7743958
20
4.5654573
11
6.7756599
21
4.5642031
0
LINE
8
DEFAULT_255_2_778
10
6.7756599
20
4.5642031
11
6.7762892
21
4.5635784
0
LINE
8
DEFAULT_255_2_778
10
6.7762892
20
4.5635784
11
6.7769171
21
4.562955
0
LINE
8
DEFAULT_255_2_778
10
6.7769171
20
4.562955
11
6.7775437
21
4.5623328
0
LINE
8
DEFAULT_255_2_778
10
6.7775437
20
4.5623328
11
6.7781689
21
4.5617119
0
ARC
8
DEFAULT_255_2_778
10
5.8120734
20
3.5884438
40
1.3713464
50
45.1751643
51
45.2119033
0
ARC
8
DEFAULT_255_2_778
10
10.6048596
20
8.4100398
40
5.4270789
50
225.1708098
51
225.1893367
0
LINE
8
DEFAULT_255_2_778
10
6.7800375
20
4.5598551
11
6.7806572
21
4.5592391
0
LINE
8
DEFAULT_255_2_778
10
6.7806572
20
4.5592391
11
6.7812756
21
4.5586243
0
LINE
8
DEFAULT_255_2_778
10
6.7812756
20
4.5586243
11
6.7825095
21
4.5573971
0
LINE
8
DEFAULT_255_2_778
10
6.7825095
20
4.5573971
11
6.7831239
21
4.5567859
0
ARC
8
DEFAULT_255_2_778
10
3.9209789
20
1.6801638
40
4.057934
50
45.1231723
51
45.1445391
0
LINE
8
DEFAULT_255_2_778
10
6.7841966
20
4.5557184
11
6.7854178
21
4.5545028
0
LINE
8
DEFAULT_255_2_778
10
6.7854178
20
4.5545028
11
6.7860258
21
4.5538973
0
LINE
8
DEFAULT_255_2_778
10
6.7860258
20
4.5538973
11
6.7872391
21
4.5526889
0
LINE
8
DEFAULT_255_2_778
10
6.7872391
20
4.5526889
11
6.788447
21
4.5514852
0
LINE
8
DEFAULT_255_2_778
10
6.788447
20
4.5514852
11
6.7896498
21
4.5502864
0
LINE
8
DEFAULT_255_2_778
10
6.7896498
20
4.5502864
11
6.7902486
21
4.5496893
0
LINE
8
DEFAULT_255_2_778
10
6.7902486
20
4.5496893
11
6.7908461
21
4.5490934
0
ARC
8
DEFAULT_255_2_778
10
5.9046547
20
3.66022
40
1.2551618
50
45.0481286
51
45.0865691
0
LINE
8
DEFAULT_255_2_778
10
6.7914423
20
4.5484987
11
6.7926321
21
4.5473117
0
LINE
8
DEFAULT_255_2_778
10
6.7926321
20
4.5473117
11
6.7932244
21
4.5467206
0
LINE
8
DEFAULT_255_2_778
10
6.7932244
20
4.5467206
11
6.7944064
21
4.5455407
0
LINE
8
DEFAULT_255_2_778
10
6.7944064
20
4.5455407
11
6.794995
21
4.544953
0
LINE
8
DEFAULT_255_2_778
10
6.794995
20
4.544953
11
6.7961693
21
4.5437802
0
LINE
8
DEFAULT_255_2_778
10
6.7961693
20
4.5437802
11
6.7973386
21
4.542612
0
ARC
8
DEFAULT_255_2_778
10
5.9509924
20
3.6948104
40
1.1979438
50
45.0098551
51
45.0492201
0
LINE
8
DEFAULT_255_2_778
10
6.7979208
20
4.5420302
11
6.7985017
21
4.5414495
0
LINE
8
DEFAULT_255_2_778
10
6.7985017
20
4.5414495
11
6.7996609
21
4.5402906
0
LINE
8
DEFAULT_255_2_778
10
6.7996609
20
4.5402906
11
6.8002381
21
4.5397135
0
LINE
8
DEFAULT_255_2_778
10
6.8002381
20
4.5397135
11
6.800814
21
4.5391374
0
LINE
8
DEFAULT_255_2_778
10
6.800814
20
4.5391374
11
6.8019632
21
4.5379877
0
ARC
8
DEFAULT_255_2_778
10
4.959733
20
2.6961864
40
2.6050038
50
44.9666252
51
44.9933303
0
LINE
8
DEFAULT_255_2_778
10
6.8028215
20
4.5371289
11
6.8033918
21
4.5365581
0
LINE
8
DEFAULT_255_2_778
10
6.8033918
20
4.5365581
11
6.8045299
21
4.5354187
0
LINE
8
DEFAULT_255_2_778
10
6.8045299
20
4.5354187
11
6.8056632
21
4.5342838
0
LINE
8
DEFAULT_255_2_778
10
6.8056632
20
4.5342838
11
6.8067915
21
4.5331535
0
ARC
8
DEFAULT_255_2_778
10
9.9758087
20
7.6948543
40
4.4764966
50
224.933784
51
224.9541413
0
ARC
8
DEFAULT_255_2_778
10
6.0240086
20
3.7495189
40
1.1076233
50
44.9079069
51
44.9488762
0
ARC
8
DEFAULT_255_2_778
10
6.0278692
20
3.7522565
40
1.1029568
50
44.9077091
51
44.9487665
0
ARC
8
DEFAULT_255_2_778
10
6.0317181
20
3.7549848
40
1.0983051
50
44.9075105
51
44.9486563
0
ARC
8
DEFAULT_255_2_778
10
9.9158478
20
7.627135
40
4.3862197
50
224.9125082
51
224.93307
0
LINE
8
DEFAULT_255_2_778
10
6.8107012
20
4.5292345
11
6.8118079
21
4.5281243
0
LINE
8
DEFAULT_255_2_778
10
6.8118079
20
4.5281243
11
6.8129099
21
4.5270187
0
LINE
8
DEFAULT_255_2_778
10
6.8129099
20
4.5270187
11
6.8140072
21
4.5259174
0
LINE
8
DEFAULT_255_2_778
10
6.8140072
20
4.5259174
11
6.8145536
21
4.525369
0
LINE
8
DEFAULT_255_2_778
10
6.8145536
20
4.525369
11
6.8150988
21
4.5248216
0
LINE
8
DEFAULT_255_2_778
10
6.8150988
20
4.5248216
11
6.8161867
21
4.5237292
0
LINE
8
DEFAULT_255_2_778
10
6.8161867
20
4.5237292
11
6.81727
21
4.5226411
0
ARC
8
DEFAULT_255_2_778
10
3.8956091
20
1.6133828
40
4.1230918
50
44.8568819
51
44.8781299
0
ARC
8
DEFAULT_255_2_778
10
9.7317255
20
7.4192853
40
4.1090865
50
224.8457059
51
224.8669381
0
ARC
8
DEFAULT_255_2_778
10
3.9454721
20
1.6609611
40
4.0541866
50
44.8343303
51
44.855761
0
ARC
8
DEFAULT_255_2_778
10
3.9701734
20
1.683458
40
4.0208084
50
44.8336476
51
44.8551668
0
LINE
8
DEFAULT_255_2_778
10
6.8215571
20
4.5183322
11
6.8226175
21
4.5172658
0
LINE
8
DEFAULT_255_2_778
10
6.8226175
20
4.5172658
11
6.8247289
21
4.5151416
0
LINE
8
DEFAULT_255_2_778
10
6.8247289
20
4.5151416
11
6.8257757
21
4.514088
0
ARC
8
DEFAULT_255_2_778
10
9.5795141
20
7.2484151
40
3.8806726
50
224.7973468
51
224.8191858
0
LINE
8
DEFAULT_255_2_778
10
6.8268182
20
4.5130386
11
6.8278562
21
4.5119934
0
ARC
8
DEFAULT_255_2_778
10
9.537637
20
7.201478
40
3.8178841
50
224.7846222
51
224.8066373
0
LINE
8
DEFAULT_255_2_778
10
6.8288898
20
4.5109524
11
6.8299191
21
4.5099156
0
ARC
8
DEFAULT_255_2_778
10
9.4962889
20
7.1551195
40
3.7558795
50
224.7716849
51
224.793879
0
ARC
8
DEFAULT_255_2_778
10
4.2074127
20
1.9042296
40
3.6969089
50
44.7706634
51
44.7931185
0
ARC
8
DEFAULT_255_2_778
10
4.2299719
20
1.9256739
40
3.6657908
50
44.758486
51
44.7810383
0
ARC
8
DEFAULT_255_2_778
10
9.4354937
20
7.0874131
40
3.6650351
50
224.7575791
51
224.7800429
0
LINE
8
DEFAULT_255_2_778
10
6.8339926
20
4.50581
11
6.8360076
21
4.5037779
0
LINE
8
DEFAULT_255_2_778
10
6.8360076
20
4.5037779
11
6.8370067
21
4.50277
0
LINE
8
DEFAULT_255_2_778
10
6.8370067
20
4.50277
11
6.8380016
21
4.5017661
0
ARC
8
DEFAULT_255_2_778
10
9.3375079
20
6.9777816
40
3.5182645
50
224.7294925
51
224.7524145
0
LINE
8
DEFAULT_255_2_778
10
6.8389923
20
4.5007663
11
6.8399788
21
4.4997705
0
ARC
8
DEFAULT_255_2_778
10
9.2996883
20
6.9351852
40
3.4614182
50
224.7156396
51
224.7387463
0
LINE
8
DEFAULT_255_2_778
10
6.8409612
20
4.4987787
11
6.8429174
21
4.4968033
0
LINE
8
DEFAULT_255_2_778
10
6.8429174
20
4.4968033
11
6.8448571
21
4.4948438
0
LINE
8
DEFAULT_255_2_778
10
6.8448571
20
4.4948438
11
6.8467805
21
4.4929001
0
ARC
8
DEFAULT_255_2_778
10
4.5484211
20
2.2179055
40
3.2338918
50
44.683256
51
44.7072831
0
LINE
8
DEFAULT_255_2_778
10
6.8477343
20
4.491936
11
6.848684
21
4.4909759
0
ARC
8
DEFAULT_255_2_778
10
4.5877437
20
2.2541482
40
3.1804479
50
44.6686075
51
44.6928376
0
ARC
8
DEFAULT_255_2_778
10
4.607462
20
2.2718647
40
3.1539701
50
44.6672076
51
44.6915407
0
LINE
8
DEFAULT_255_2_778
10
6.8505717
20
4.4890671
11
6.8524471
21
4.4871701
0
LINE
8
DEFAULT_255_2_778
10
6.8524471
20
4.4871701
11
6.8543069
21
4.4852883
0
ARC
8
DEFAULT_255_2_778
10
703.8795441
20
691.1849315
40
978.4684876
50
224.5724569
51
224.5821623
0
ARC
8
DEFAULT_255_2_778
10
12.8360614
20
10.1461229
40
8.2340038
50
224.5742349
51
225.695905
0
ARC
8
DEFAULT_255_2_778
10
9.2184759
20
6.4161494
40
3.0379571
50
225.3873133
51
230.9283653
0
ARC
8
DEFAULT_255_2_778
10
8.1335755
20
5.0442205
40
1.2892401
50
229.9308938
51
253.439292
0
ARC
8
DEFAULT_255_2_778
10
8.0485079
20
4.8266968
40
1.0566733
50
254.4987464
51
255.9417565
0
ARC
8
DEFAULT_255_2_778
10
8.1740303
20
5.3179491
40
1.5637046
50
255.85258
51
263.2649158
0
ARC
8
DEFAULT_255_2_778
10
8.1523358
20
5.1425328
40
1.3869551
50
263.3050755
51
269.9528973
0
ARC
8
DEFAULT_255_2_778
10
8.1484086
20
5.0604115
40
1.3048364
50
270.1223767
51
303.3887722
0
ARC
8
DEFAULT_255_2_778
10
7.874613
20
5.5018308
40
1.8241326
50
302.9391857
51
314.9314786
0
ARC
8
DEFAULT_255_2_778
10
7.3529764
20
6.0302205
40
2.5666215
50
314.8447027
51
323.259019
0
ARC
8
DEFAULT_255_2_778
10
6.0433139
20
5.3204846
40
3.4661818
50
337.7925559
51
346.2202073
0
ARC
8
DEFAULT_255_2_778
10
6.8939081
20
4.9693266
40
2.5459619
50
325.7612208
51
337.8739815
0
ARC
8
DEFAULT_255_2_778
10
7.3826724
20
4.6286727
40
1.9502452
50
286.4682254
51
325.9556713
0
ARC
8
DEFAULT_255_2_778
10
7.1818858
20
5.253634
40
2.6065337
50
275.0770032
51
286.8063805
0
ARC
8
DEFAULT_255_2_778
10
7.1036107
20
5.997044
40
3.3539763
50
269.9149722
51
275.2850795
0
ARC
8
DEFAULT_255_2_778
10
7.0942694
20
6.0320408
40
3.388972
50
265.1092087
51
270.0737782
0
ARC
8
DEFAULT_255_2_778
10
7.0489919
20
5.5071922
40
2.8621744
50
259.2064561
51
265.116531
0
ARC
8
DEFAULT_255_2_778
10
6.9801541
20
5.1445481
40
2.4930548
50
252.440802
51
259.1997305
0
ARC
8
DEFAULT_255_2_778
10
6.9223153
20
4.9585932
40
2.2983152
50
244.4941332
51
252.4169431
0
ARC
8
DEFAULT_255_2_778
10
6.9520992
20
5.0132245
40
2.3604495
50
235.6861462
51
244.4126532
0
ARC
8
DEFAULT_255_2_778
10
7.3532916
20
5.5825739
40
3.0568907
50
227.4455037
51
235.4909783
0
ARC
8
DEFAULT_255_2_778
10
8.7387524
20
7.1224793
40
5.1282552
50
225.4431334
51
227.6784114
0
ARC
8
DEFAULT_255_2_778
10
7.8222944
20
6.2016811
40
3.8291405
50
225.5256365
51
225.5475557
0
LINE
8
DEFAULT_255_2_778
10
5.1396367
20
3.4693444
11
5.1389421
21
3.4700265
0
LINE
8
DEFAULT_255_2_778
10
5.1389421
20
3.4700265
11
5.1382489
21
3.4707072
0
LINE
8
DEFAULT_255_2_778
10
5.1382489
20
3.4707072
11
5.1375574
21
3.4713867
0
LINE
8
DEFAULT_255_2_778
10
5.1375574
20
3.4713867
11
5.1368673
21
3.4720648
0
LINE
8
DEFAULT_255_2_778
10
5.1368673
20
3.4720648
11
5.1354905
21
3.4734183
0
ARC
8
DEFAULT_255_2_778
10
6.2903343
20
4.6484806
40
1.6475545
50
225.4637566
51
225.4971898
0
LINE
8
DEFAULT_255_2_778
10
5.1348051
20
3.4740924
11
5.1341212
21
3.4747652
0
LINE
8
DEFAULT_255_2_778
10
5.1341212
20
3.4747652
11
5.1334388
21
3.4754367
0
LINE
8
DEFAULT_255_2_778
10
5.1334388
20
3.4754367
11
5.1327579
21
3.4761068
0
ARC
8
DEFAULT_255_2_778
10
7.688261
20
6.0728772
40
3.6433244
50
225.4364141
51
225.4589023
0
LINE
8
DEFAULT_255_2_778
10
5.131739
20
3.4771101
11
5.1303849
21
3.4784439
0
LINE
8
DEFAULT_255_2_778
10
5.1303849
20
3.4784439
11
5.1290369
21
3.4797724
0
LINE
8
DEFAULT_255_2_778
10
5.1290369
20
3.4797724
11
5.1283658
21
3.480434
0
LINE
8
DEFAULT_255_2_778
10
5.1283658
20
3.480434
11
5.1276962
21
3.4810944
0
LINE
8
DEFAULT_255_2_778
10
5.1276962
20
3.4810944
11
5.1270281
21
3.4817535
0
LINE
8
DEFAULT_255_2_778
10
5.1270281
20
3.4817535
11
5.1263614
21
3.4824112
0
LINE
8
DEFAULT_255_2_778
10
5.1263614
20
3.4824112
11
5.1256962
21
3.4830677
0
LINE
8
DEFAULT_255_2_778
10
5.1256962
20
3.4830677
11
5.1250325
21
3.4837229
0
ARC
8
DEFAULT_255_2_778
10
6.2074314
20
4.5803553
40
1.5408406
50
225.339647
51
225.3742536
0
LINE
8
DEFAULT_255_2_778
10
5.1243703
20
3.4843768
11
5.1237095
21
3.4850294
0
LINE
8
DEFAULT_255_2_778
10
5.1237095
20
3.4850294
11
5.1230502
21
3.4856807
0
LINE
8
DEFAULT_255_2_778
10
5.1230502
20
3.4856807
11
5.1223923
21
3.4863308
0
LINE
8
DEFAULT_255_2_778
10
5.1223923
20
3.4863308
11
5.1217359
21
3.4869795
0
ARC
8
DEFAULT_255_2_778
10
6.1818004
20
4.5598121
40
1.508213
50
225.3079959
51
225.3429834
0
LINE
8
DEFAULT_255_2_778
10
5.121081
20
3.487627
11
5.1204274
21
3.4882732
0
LINE
8
DEFAULT_255_2_778
10
5.1204274
20
3.4882732
11
5.1191234
21
3.4895631
0
LINE
8
DEFAULT_255_2_778
10
5.1191234
20
3.4895631
11
5.1184742
21
3.4902055
0
ARC
8
DEFAULT_255_2_778
10
6.1565543
20
4.5396184
40
1.4761022
50
225.2756766
51
225.3110534
0
LINE
8
DEFAULT_255_2_778
10
5.1178265
20
3.4908466
11
5.1171801
21
3.4914865
0
LINE
8
DEFAULT_255_2_778
10
5.1171801
20
3.4914865
11
5.1165352
21
3.4921251
0
LINE
8
DEFAULT_255_2_778
10
5.1165352
20
3.4921251
11
5.1158917
21
3.4927624
0
LINE
8
DEFAULT_255_2_778
10
5.1158917
20
3.4927624
11
5.1146076
21
3.4940346
0
LINE
8
DEFAULT_255_2_778
10
5.1146076
20
3.4940346
11
5.1133292
21
3.4953017
0
LINE
8
DEFAULT_255_2_778
10
5.1133292
20
3.4953017
11
5.1120564
21
3.4965638
0
LINE
8
DEFAULT_255_2_778
10
5.1120564
20
3.4965638
11
5.1107892
21
3.497821
0
LINE
8
DEFAULT_255_2_778
10
5.1107892
20
3.497821
11
5.1101583
21
3.4984471
0
LINE
8
DEFAULT_255_2_778
10
5.1101583
20
3.4984471
11
5.1095288
21
3.4990719
0
LINE
8
DEFAULT_255_2_778
10
5.1095288
20
3.4990719
11
5.1089006
21
3.4996955
0
LINE
8
DEFAULT_255_2_778
10
5.1089006
20
3.4996955
11
5.1082739
21
3.5003179
0
ARC
8
DEFAULT_255_2_778
10
6.0791932
20
4.4784271
40
1.3781807
50
225.1747145
51
225.2113595
0
LINE
8
DEFAULT_255_2_778
10
5.1076485
20
3.5009391
11
5.1070244
21
3.501559
0
LINE
8
DEFAULT_255_2_778
10
5.1070244
20
3.501559
11
5.1057792
21
3.5027964
0
LINE
8
DEFAULT_255_2_778
10
5.1057792
20
3.5027964
11
5.1051593
21
3.5034126
0
ARC
8
DEFAULT_255_2_778
10
7.244436
20
5.6561411
40
3.0349209
50
225.1548721
51
225.1795735
0
ARC
8
DEFAULT_255_2_778
10
6.0491606
20
4.4551202
40
1.3404788
50
225.1398186
51
225.1769869
0
LINE
8
DEFAULT_255_2_778
10
5.1036149
20
3.5049483
11
5.1029996
21
3.5055603
0
LINE
8
DEFAULT_255_2_778
10
5.1029996
20
3.5055603
11
5.101772
21
3.5067818
0
LINE
8
DEFAULT_255_2_778
10
5.101772
20
3.5067818
11
5.1011608
21
3.5073902
0
LINE
8
DEFAULT_255_2_778
10
5.1011608
20
3.5073902
11
5.0999412
21
3.5086044
0
LINE
8
DEFAULT_255_2_778
10
5.0999412
20
3.5086044
11
5.0993339
21
3.5092091
0
LINE
8
DEFAULT_255_2_778
10
5.0993339
20
3.5092091
11
5.098728
21
3.5098127
0
ARC
8
DEFAULT_255_2_778
10
6.0088963
20
4.4239095
40
1.2899533
50
225.0854785
51
225.1233848
0
LINE
8
DEFAULT_255_2_778
10
5.0981234
20
3.510415
11
5.096917
21
3.5116172
0
LINE
8
DEFAULT_255_2_778
10
5.096917
20
3.5116172
11
5.0957158
21
3.5128147
0
LINE
8
DEFAULT_255_2_778
10
5.0957158
20
3.5128147
11
5.0945199
21
3.5140074
0
LINE
8
DEFAULT_255_2_778
10
5.0945199
20
3.5140074
11
5.0933291
21
3.5151954
0
LINE
8
DEFAULT_255_2_778
10
5.0933291
20
3.5151954
11
5.0921435
21
3.5163786
0
LINE
8
DEFAULT_255_2_778
10
5.0921435
20
3.5163786
11
5.0915532
21
3.5169679
0
LINE
8
DEFAULT_255_2_778
10
5.0915532
20
3.5169679
11
5.0903752
21
3.518144
0
LINE
8
DEFAULT_255_2_778
10
5.0903752
20
3.518144
11
5.0892024
21
3.5193155
0
LINE
8
DEFAULT_255_2_778
10
5.0892024
20
3.5193155
11
5.0886185
21
3.519899
0
LINE
8
DEFAULT_255_2_778
10
5.0886185
20
3.519899
11
5.0874532
21
3.5210635
0
LINE
8
DEFAULT_255_2_778
10
5.0874532
20
3.5210635
11
5.086873
21
3.5216434
0
LINE
8
DEFAULT_255_2_778
10
5.086873
20
3.5216434
11
5.0862941
21
3.5222222
0
LINE
8
DEFAULT_255_2_778
10
5.0862941
20
3.5222222
11
5.0851389
21
3.5233774
0
LINE
8
DEFAULT_255_2_778
10
5.0851389
20
3.5233774
11
5.0845637
21
3.5239528
0
LINE
8
DEFAULT_255_2_778
10
5.0845637
20
3.5239528
11
5.0839898
21
3.5245269
0
LINE
8
DEFAULT_255_2_778
10
5.0839898
20
3.5245269
11
5.0828445
21
3.525673
0
LINE
8
DEFAULT_255_2_778
10
5.0828445
20
3.525673
11
5.0817042
21
3.5268144
0
ARC
8
DEFAULT_255_2_778
10
5.8882953
20
4.3331219
40
1.1404915
50
224.9495603
51
224.9899237
0
LINE
8
DEFAULT_255_2_778
10
5.0811364
20
3.5273829
11
5.0805699
21
3.5279502
0
ARC
8
DEFAULT_255_2_778
10
4.2787341
20
2.7280959
40
1.1325668
50
44.9291213
51
44.9695987
0
LINE
8
DEFAULT_255_2_778
10
5.0800045
20
3.5285164
11
5.0794404
21
3.5290815
0
LINE
8
DEFAULT_255_2_778
10
5.0794404
20
3.5290815
11
5.0788775
21
3.5296454
0
LINE
8
DEFAULT_255_2_778
10
5.0788775
20
3.5296454
11
5.0783158
21
3.5302083
0
LINE
8
DEFAULT_255_2_778
10
5.0783158
20
3.5302083
11
5.0771949
21
3.5313316
0
LINE
8
DEFAULT_255_2_778
10
5.0771949
20
3.5313316
11
5.0760788
21
3.5324505
0
LINE
8
DEFAULT_255_2_778
10
5.0760788
20
3.5324505
11
5.0749676
21
3.5335648
0
LINE
8
DEFAULT_255_2_778
10
5.0749676
20
3.5335648
11
5.0744142
21
3.5341198
0
LINE
8
DEFAULT_255_2_778
10
5.0744142
20
3.5341198
11
5.0738621
21
3.5346737
0
LINE
8
DEFAULT_255_2_778
10
5.0738621
20
3.5346737
11
5.0733112
21
3.5352264
0
LINE
8
DEFAULT_255_2_778
10
5.0733112
20
3.5352264
11
5.0727614
21
3.5357781
0
ARC
8
DEFAULT_255_2_778
10
3.3674214
20
1.8374561
40
2.4067575
50
44.8818617
51
44.9096144
0
LINE
8
DEFAULT_255_2_778
10
5.0719386
20
3.5366039
11
5.070845
21
3.5377016
0
LINE
8
DEFAULT_255_2_778
10
5.070845
20
3.5377016
11
5.0697561
21
3.538795
0
LINE
8
DEFAULT_255_2_778
10
5.0697561
20
3.538795
11
5.0686719
21
3.539884
0
ARC
8
DEFAULT_255_2_778
10
2.1271934
20
0.6130453
40
4.1495398
50
44.8570635
51
44.8781939
0
ARC
8
DEFAULT_255_2_778
10
7.970471
20
6.4304132
40
4.0958021
50
224.8457954
51
224.8671145
0
LINE
8
DEFAULT_255_2_778
10
5.0665173
20
3.5420488
11
5.0654469
21
3.5431248
0
ARC
8
DEFAULT_255_2_778
10
7.9203158
20
6.3836076
40
4.0272347
50
224.8337721
51
224.8552752
0
ARC
8
DEFAULT_255_2_778
10
7.8957373
20
6.3612262
40
3.9940249
50
224.8330848
51
224.854677
0
LINE
8
DEFAULT_255_2_778
10
5.0633197
20
3.5452637
11
5.0622629
21
3.5463267
0
LINE
8
DEFAULT_255_2_778
10
5.0622629
20
3.5463267
11
5.0601587
21
3.5484441
0
ARC
8
DEFAULT_255_2_778
10
7.7994179
20
6.2704918
40
3.8617463
50
224.7974668
51
224.8194313
0
ARC
8
DEFAULT_255_2_778
10
7.7755908
20
6.2488297
40
3.8295757
50
224.7966118
51
224.8186694
0
ARC
8
DEFAULT_255_2_778
10
7.7524326
20
6.2267965
40
3.7976179
50
224.7847505
51
224.8069018
0
ARC
8
DEFAULT_255_2_778
10
7.7288985
20
6.2054138
40
3.7658517
50
224.7838343
51
224.8060802
0
ARC
8
DEFAULT_255_2_778
10
7.7060274
20
6.1836631
40
3.7342966
50
224.7718218
51
224.794163
0
ARC
8
DEFAULT_255_2_778
10
7.682783
20
6.1625566
40
3.7029303
50
224.7708424
51
224.7932799
0
LINE
8
DEFAULT_255_2_778
10
5.0539646
20
3.5546827
11
5.0519308
21
3.5567329
0
LINE
8
DEFAULT_255_2_778
10
5.0519308
20
3.5567329
11
5.0499141
21
3.5587666
0
LINE
8
DEFAULT_255_2_778
10
5.0499141
20
3.5587666
11
5.0489141
21
3.5597754
0
ARC
8
DEFAULT_255_2_778
10
7.5497424
20
6.0391995
40
3.5216027
50
224.7307408
51
224.7537548
0
ARC
8
DEFAULT_255_2_778
10
2.5443539
20
1.0807258
40
3.5239899
50
44.7297097
51
44.7526134
0
LINE
8
DEFAULT_255_2_778
10
5.0469269
20
3.5617807
11
5.0459395
21
3.5627773
0
LINE
8
DEFAULT_255_2_778
10
5.0459395
20
3.5627773
11
5.0439734
21
3.5647623
0
ARC
8
DEFAULT_255_2_778
10
2.6196484
20
1.1655422
40
3.4108076
50
44.7017982
51
44.7250739
0
LINE
8
DEFAULT_255_2_778
10
5.0429985
20
3.5657469
11
5.0410571
21
3.567708
0
ARC
8
DEFAULT_255_2_778
10
7.3816946
20
5.884766
40
3.2935303
50
224.6861369
51
224.7099444
0
LINE
8
DEFAULT_255_2_778
10
5.0400944
20
3.5686807
11
5.0381775
21
3.5706181
0
ARC
8
DEFAULT_255_2_778
10
7.3213197
20
5.8304728
40
3.2124261
50
224.6821953
51
224.7063032
0
ARC
8
DEFAULT_255_2_778
10
7.3019347
20
5.8121541
40
3.1857617
50
224.668886
51
224.6930957
0
LINE
8
DEFAULT_255_2_778
10
5.0362803
20
3.5725361
11
5.0343954
21
3.5744424
0
LINE
8
DEFAULT_255_2_778
10
5.0343954
20
3.5744424
11
5.0334607
21
3.5753879
0
LINE
8
DEFAULT_255_2_778
10
5.0334607
20
3.5753879
11
5.0325299
21
3.5763296
0
ARC
8
DEFAULT_255_2_778
10
-2460.5621544
20
-2425.8436737
40
3461.3925954
50
44.5765858
51
44.5793428
0
ARC
8
DEFAULT_255_2_778
10
-0.9619935
20
-2.0953811
40
8.2507308
50
44.5714555
51
45.6961995
0
ARC
8
DEFAULT_255_2_778
10
2.6677691
20
1.6470274
40
3.0372793
50
45.3885917
51
50.9298068
0
ARC
8
DEFAULT_255_2_778
10
3.7522927
20
3.0185591
40
1.2891078
50
49.9323106
51
73.4379279
0
ARC
8
DEFAULT_255_2_778
10
3.8374741
20
3.236486
40
1.0561217
50
74.4973177
51
75.94071
0
ARC
8
DEFAULT_255_2_778
10
3.7119972
20
2.7443389
40
1.5640096
50
75.8614725
51
83.2693446
0
ARC
8
DEFAULT_255_2_778
10
3.7336668
20
2.9196504
40
1.3873671
50
83.3095442
51
89.9528812
0
ARC
8
DEFAULT_255_2_778
10
3.7375855
20
3.0018745
40
1.3051456
50
90.1219445
51
123.3835971
0
ARC
8
DEFAULT_255_2_778
10
4.0112489
20
2.5606022
40
1.8242474
50
122.9345859
51
134.9265796
0
ARC
8
DEFAULT_255_2_778
10
4.5326734
20
2.0323365
40
2.566499
50
134.8398194
51
143.2545845
0
ARC
8
DEFAULT_255_2_778
10
3.5336568
20
-0.0387638
40
3.4698887
50
157.7576223
51
166.1651274
0
ARC
8
DEFAULT_255_2_778
10
2.6855861
20
0.3119648
40
2.5521649
50
145.760585
51
157.8387743
0
ARC
8
DEFAULT_255_2_778
10
2.1945057
20
0.6546688
40
1.9533812
50
106.5305698
51
145.9660186
0
ARC
8
DEFAULT_255_2_778
10
2.392921
20
0.0377083
40
2.6013374
50
95.0974662
51
106.8537423
0
ARC
8
DEFAULT_255_2_778
10
2.4708674
20
-0.7000471
40
3.3431224
50
89.9148925
51
95.3046425
0
ARC
8
DEFAULT_255_2_778
10
2.4802039
20
-0.7455333
40
3.3886077
50
85.1088256
51
90.0738987
0
ARC
8
DEFAULT_255_2_778
10
2.5254727
20
-0.2208605
40
2.8619857
50
79.2057653
51
85.1162042
0
ARC
8
DEFAULT_255_2_778
10
2.5943057
20
0.141725
40
2.4929246
50
72.4398061
51
79.1990816
0
ARC
8
DEFAULT_255_2_778
10
2.6521305
20
0.3276404
40
2.2982267
50
64.4926745
51
72.4158251
0
ARC
8
DEFAULT_255_2_778
10
2.6223374
20
0.272984
40
2.360388
50
55.6844494
51
64.4112919
0
ARC
8
DEFAULT_255_2_778
10
2.2211012
20
-0.2964001
40
3.0568828
50
47.4436902
51
55.4893571
0
ARC
8
DEFAULT_255_2_778
10
0.8354872
20
-1.8363854
40
5.1284092
50
45.4413951
51
47.6766648
0
ARC
8
DEFAULT_255_2_778
10
1.7514974
20
-0.9152006
40
3.8293316
50
45.5144718
51
45.5363911
0
LINE
8
DEFAULT_255_2_778
10
4.4348216
20
1.8167499
11
4.4355163
21
1.8160678
0
LINE
8
DEFAULT_255_2_778
10
4.4355163
20
1.8160678
11
4.4362094
21
1.8153869
0
LINE
8
DEFAULT_255_2_778
10
4.4362094
20
1.8153869
11
4.436901
21
1.8147075
0
LINE
8
DEFAULT_255_2_778
10
4.436901
20
1.8147075
11
4.4375911
21
1.8140293
0
LINE
8
DEFAULT_255_2_778
10
4.4375911
20
1.8140293
11
4.4382796
21
1.8133525
0
ARC
8
DEFAULT_255_2_778
10
3.2782168
20
0.6330279
40
1.6549658
50
45.4626672
51
45.4960226
0
LINE
8
DEFAULT_255_2_778
10
4.4389666
20
1.812677
11
4.439652
21
1.8120028
0
LINE
8
DEFAULT_255_2_778
10
4.439652
20
1.8120028
11
4.440336
21
1.81133
0
LINE
8
DEFAULT_255_2_778
10
4.440336
20
1.81133
11
4.4410184
21
1.8106584
0
LINE
8
DEFAULT_255_2_778
10
4.4410184
20
1.8106584
11
4.44238
21
1.809318
0
LINE
8
DEFAULT_255_2_778
10
4.44238
20
1.809318
11
4.4430579
21
1.8086504
0
LINE
8
DEFAULT_255_2_778
10
4.4430579
20
1.8086504
11
4.4437342
21
1.8079841
0
LINE
8
DEFAULT_255_2_778
10
4.4437342
20
1.8079841
11
4.4444091
21
1.8073191
0
ARC
8
DEFAULT_255_2_778
10
3.3274216
20
0.6731626
40
1.5918454
50
45.4029455
51
45.4369756
0
LINE
8
DEFAULT_255_2_778
10
4.4450824
20
1.8066554
11
4.4457543
21
1.8059931
0
LINE
8
DEFAULT_255_2_778
10
4.4457543
20
1.8059931
11
4.4464247
21
1.805332
0
LINE
8
DEFAULT_255_2_778
10
4.4464247
20
1.805332
11
4.4477623
21
1.8040124
0
LINE
8
DEFAULT_255_2_778
10
4.4477623
20
1.8040124
11
4.4484283
21
1.8033553
0
LINE
8
DEFAULT_255_2_778
10
4.4484283
20
1.8033553
11
4.4490927
21
1.8026994
0
ARC
8
DEFAULT_255_2_778
10
89.0085433
20
87.4465762
40
120.3543698
50
225.3650469
51
225.3654905
0
LINE
8
DEFAULT_255_2_778
10
4.4497557
20
1.8020448
11
4.4504173
21
1.8013915
0
LINE
8
DEFAULT_255_2_778
10
4.4504173
20
1.8013915
11
4.4517372
21
1.8000874
0
LINE
8
DEFAULT_255_2_778
10
4.4517372
20
1.8000874
11
4.4523944
21
1.799438
0
LINE
8
DEFAULT_255_2_778
10
4.4523944
20
1.799438
11
4.4530501
21
1.7987898
0
LINE
8
DEFAULT_255_2_778
10
4.4530501
20
1.7987898
11
4.4543585
21
1.797496
0
ARC
8
DEFAULT_255_2_778
10
2.0941101
20
-0.589618
40
3.3569459
50
45.3007801
51
45.3242365
0
LINE
8
DEFAULT_255_2_778
10
4.4553355
20
1.7965294
11
4.4559847
21
1.795887
0
ARC
8
DEFAULT_255_2_778
10
3.4178452
20
0.7464139
40
1.4761867
50
45.2756766
51
45.3110534
0
LINE
8
DEFAULT_255_2_778
10
4.4566325
20
1.7952458
11
4.4572788
21
1.7946059
0
LINE
8
DEFAULT_255_2_778
10
4.4572788
20
1.7946059
11
4.4579238
21
1.7939672
0
ARC
8
DEFAULT_255_2_778
10
5.4739345
20
2.8192171
40
1.443404
50
225.2593316
51
225.2952858
0
LINE
8
DEFAULT_255_2_778
10
4.4585673
20
1.7933298
11
4.4592094
21
1.7926937
0
LINE
8
DEFAULT_255_2_778
10
4.4592094
20
1.7926937
11
4.4598501
21
1.7920588
0
LINE
8
DEFAULT_255_2_778
10
4.4598501
20
1.7920588
11
4.4611286
21
1.7907915
0
LINE
8
DEFAULT_255_2_778
10
4.4611286
20
1.7907915
11
4.4624014
21
1.7895293
0
LINE
8
DEFAULT_255_2_778
10
4.4624014
20
1.7895293
11
4.4630351
21
1.7889007
0
LINE
8
DEFAULT_255_2_778
10
4.4630351
20
1.7889007
11
4.4636674
21
1.7882733
0
LINE
8
DEFAULT_255_2_778
10
4.4636674
20
1.7882733
11
4.4642984
21
1.7876471
0
LINE
8
DEFAULT_255_2_778
10
4.4642984
20
1.7876471
11
4.4655573
21
1.7863973
0
LINE
8
DEFAULT_255_2_778
10
4.4655573
20
1.7863973
11
4.4661841
21
1.7857749
0
ARC
8
DEFAULT_255_2_778
10
6.6374267
20
3.9705264
40
3.0801679
50
225.177687
51
225.2022822
0
ARC
8
DEFAULT_255_2_778
10
2.295727
20
-0.4010408
40
3.0810786
50
45.1660053
51
45.1905163
0
LINE
8
DEFAULT_255_2_778
10
4.4680572
20
1.783914
11
4.4686785
21
1.7832965
0
LINE
8
DEFAULT_255_2_778
10
4.4686785
20
1.7832965
11
4.4699183
21
1.7820639
0
LINE
8
DEFAULT_255_2_778
10
4.4699183
20
1.7820639
11
4.4711527
21
1.7808362
0
ARC
8
DEFAULT_255_2_778
10
1.5949683
20
-1.1109389
40
4.0785781
50
45.1335581
51
45.1548693
0
LINE
8
DEFAULT_255_2_778
10
4.4722281
20
1.7797662
11
4.4734524
21
1.7785476
0
LINE
8
DEFAULT_255_2_778
10
4.4734524
20
1.7785476
11
4.474062
21
1.7779407
0
LINE
8
DEFAULT_255_2_778
10
4.474062
20
1.7779407
11
4.4752783
21
1.7767294
0
LINE
8
DEFAULT_255_2_778
10
4.4752783
20
1.7767294
11
4.4758839
21
1.7761261
0
LINE
8
DEFAULT_255_2_778
10
4.4758839
20
1.7761261
11
4.4770923
21
1.774922
0
LINE
8
DEFAULT_255_2_778
10
4.4770923
20
1.774922
11
4.4782955
21
1.7737226
0
ARC
8
DEFAULT_255_2_778
10
8.0464726
20
5.3508574
40
5.0525025
50
225.0718277
51
225.0910125
0
LINE
8
DEFAULT_255_2_778
10
4.4794934
20
1.772528
11
4.4806862
21
1.7713382
0
LINE
8
DEFAULT_255_2_778
10
4.4806862
20
1.7713382
11
4.4818737
21
1.7701531
0
LINE
8
DEFAULT_255_2_778
10
4.4818737
20
1.7701531
11
4.4830562
21
1.7689727
0
LINE
8
DEFAULT_255_2_778
10
4.4830562
20
1.7689727
11
4.4836449
21
1.7683849
0
LINE
8
DEFAULT_255_2_778
10
4.4836449
20
1.7683849
11
4.4848197
21
1.7672115
0
LINE
8
DEFAULT_255_2_778
10
4.4848197
20
1.7672115
11
4.4854046
21
1.7666272
0
LINE
8
DEFAULT_255_2_778
10
4.4854046
20
1.7666272
11
4.4865717
21
1.7654608
0
LINE
8
DEFAULT_255_2_778
10
4.4865717
20
1.7654608
11
4.4871528
21
1.76488
0
ARC
8
DEFAULT_255_2_778
10
7.8482362
20
5.1253836
40
4.7528797
50
224.9950578
51
225.0148252
0
LINE
8
DEFAULT_255_2_778
10
4.4883125
20
1.7637206
11
4.4888898
21
1.7631432
0
LINE
8
DEFAULT_255_2_778
10
4.4888898
20
1.7631432
11
4.4894659
21
1.762567
0
LINE
8
DEFAULT_255_2_778
10
4.4894659
20
1.762567
11
4.4906156
21
1.7614168
0
LINE
8
DEFAULT_255_2_778
10
4.4906156
20
1.7614168
11
4.491188
21
1.760844
0
LINE
8
DEFAULT_255_2_778
10
4.491188
20
1.760844
11
4.4917591
21
1.7602724
0
LINE
8
DEFAULT_255_2_778
10
4.4917591
20
1.7602724
11
4.4928989
21
1.7591314
0
LINE
8
DEFAULT_255_2_778
10
4.4928989
20
1.7591314
11
4.4940337
21
1.7579949
0
LINE
8
DEFAULT_255_2_778
10
4.4940337
20
1.7579949
11
4.4951637
21
1.756863
0
LINE
8
DEFAULT_255_2_778
10
4.4951637
20
1.756863
11
4.4962888
21
1.7557357
0
ARC
8
DEFAULT_255_2_778
10
7.4551995
20
4.7064889
40
4.1787673
50
224.9209114
51
224.9419799
0
LINE
8
DEFAULT_255_2_778
10
4.4973741
20
1.7546479
11
4.4984898
21
1.7535294
0
LINE
8
DEFAULT_255_2_778
10
4.4984898
20
1.7535294
11
4.4996006
21
1.7524153
0
LINE
8
DEFAULT_255_2_778
10
4.4996006
20
1.7524153
11
4.5007067
21
1.7513057
0
LINE
8
DEFAULT_255_2_778
10
4.5007067
20
1.7513057
11
4.5012574
21
1.7507532
0
LINE
8
DEFAULT_255_2_778
10
4.5012574
20
1.7507532
11
4.501807
21
1.7502017
0
LINE
8
DEFAULT_255_2_778
10
4.501807
20
1.7502017
11
4.5023553
21
1.7496513
0
LINE
8
DEFAULT_255_2_778
10
4.5023553
20
1.7496513
11
4.5029025
21
1.749102
0
LINE
8
DEFAULT_255_2_778
10
4.5029025
20
1.749102
11
4.5039945
21
1.7480057
0
LINE
8
DEFAULT_255_2_778
10
4.5039945
20
1.7480057
11
4.5050818
21
1.7469138
0
ARC
8
DEFAULT_255_2_778
10
1.562009
20
-1.1837115
40
4.1533411
50
44.8574096
51
44.878579
0
LINE
8
DEFAULT_255_2_778
10
4.5061644
20
1.7458262
11
4.5072424
21
1.744743
0
ARC
8
DEFAULT_255_2_778
10
1.6126857
20
-1.1363982
40
4.0840462
50
44.8455661
51
44.866917
0
LINE
8
DEFAULT_255_2_778
10
4.5083159
20
1.7436642
11
4.5093847
21
1.7425897
0
LINE
8
DEFAULT_255_2_778
10
4.5093847
20
1.7425897
11
4.5115129
21
1.7404494
0
LINE
8
DEFAULT_255_2_778
10
4.5115129
20
1.7404494
11
4.5125682
21
1.7393877
0
LINE
8
DEFAULT_255_2_778
10
4.5125682
20
1.7393877
11
4.5136189
21
1.7383304
0
LINE
8
DEFAULT_255_2_778
10
4.5136189
20
1.7383304
11
4.5157111
21
1.7362243
0
ARC
8
DEFAULT_255_2_778
10
1.8066752
20
-0.9546617
40
3.8183429
50
44.7853295
51
44.807421
0
ARC
8
DEFAULT_255_2_778
10
1.8303054
20
-0.9331888
40
3.7864452
50
44.7844182
51
44.8066038
0
ARC
8
DEFAULT_255_2_778
10
1.8532705
20
-0.9113471
40
3.7547592
50
44.7724407
51
44.7947211
0
LINE
8
DEFAULT_255_2_778
10
4.5188101
20
1.7331029
11
4.5208583
21
1.7310388
0
ARC
8
DEFAULT_255_2_778
10
7.1418421
20
4.3300146
40
3.6911016
50
224.7584348
51
224.7808196
0
LINE
8
DEFAULT_255_2_778
10
4.5218739
20
1.730015
11
4.5228852
21
1.7289954
0
ARC
8
DEFAULT_255_2_778
10
1.9665428
20
-0.8067071
40
3.600649
50
44.7450032
51
44.7677614
0
LINE
8
DEFAULT_255_2_778
10
4.5238922
20
1.7279798
11
4.5248949
21
1.7269683
0
LINE
8
DEFAULT_255_2_778
10
4.5248949
20
1.7269683
11
4.5258934
21
1.7259609
0
LINE
8
DEFAULT_255_2_778
10
4.5258934
20
1.7259609
11
4.5268878
21
1.7249575
0
LINE
8
DEFAULT_255_2_778
10
4.5268878
20
1.7249575
11
4.5278779
21
1.7239582
0
LINE
8
DEFAULT_255_2_778
10
4.5278779
20
1.7239582
11
4.5288638
21
1.722963
0
ARC
8
DEFAULT_255_2_778
10
2.096272
20
-0.6875413
40
3.4246217
50
44.7153554
51
44.7386975
0
LINE
8
DEFAULT_255_2_778
10
4.5298456
20
1.7219717
11
4.5308232
21
1.7209844
0
LINE
8
DEFAULT_255_2_778
10
4.5308232
20
1.7209844
11
4.5317968
21
1.7200011
0
LINE
8
DEFAULT_255_2_778
10
4.5317968
20
1.7200011
11
4.5337354
21
1.7180426
0
ARC
8
DEFAULT_255_2_778
10
6.8935399
20
4.0521072
40
3.3191166
50
224.6858079
51
224.7093997
0
LINE
8
DEFAULT_255_2_778
10
4.5346967
20
1.7170711
11
4.5366109
21
1.7151362
0
LINE
8
DEFAULT_255_2_778
10
4.5366109
20
1.7151362
11
4.5385091
21
1.713217
0
LINE
8
DEFAULT_255_2_778
10
4.5385091
20
1.713217
11
4.5403913
21
1.7113132
0
ARC
8
DEFAULT_255_2_778
10
2.3371373
20
-0.4672115
40
3.0984348
50
44.6520935
51
44.6766454
0
LINE
8
DEFAULT_255_2_778
10
4.5413247
20
1.7103689
11
4.5422542
21
1.7094285
0
ARC
8
DEFAULT_255_2_778
10
1342.1414565
20
1319.5411583
40
1877.7252446
50
224.5734885
51
224.5785638
0
ARC
8
DEFAULT_255_2_778
10
10.5328404
20
7.3774173
40
8.2453196
50
224.5706578
51
225.6946476
0
ARC
8
DEFAULT_255_2_778
10
6.9067271
20
3.6389354
40
3.0372276
50
225.3868454
51
230.928297
0
ARC
8
DEFAULT_255_2_778
10
5.8221611
20
2.2674188
40
1.2890417
50
229.9305903
51
253.4376522
0
ARC
8
DEFAULT_255_2_778
10
5.7369927
20
2.0495573
40
1.0561219
50
254.4973176
51
255.94071
0
ARC
8
DEFAULT_255_2_778
10
5.8624695
20
2.5417041
40
1.5640096
50
255.8614725
51
263.2693446
0
ARC
8
DEFAULT_255_2_778
10
5.8407998
20
2.3663926
40
1.3873671
50
263.3095442
51
269.9528812
0
ARC
8
DEFAULT_255_2_778
10
5.8368811
20
2.2841686
40
1.3051456
50
270.1219445
51
303.3835971
0
ARC
8
DEFAULT_255_2_778
10
5.5632177
20
2.7254409
40
1.8242474
50
302.9345859
51
314.9265796
0
ARC
8
DEFAULT_255_2_778
10
5.0417932
20
3.2537066
40
2.566499
50
314.8398194
51
323.2545845
0
ARC
8
DEFAULT_255_2_778
10
3.7355302
20
2.5447935
40
3.4628865
50
337.7677806
51
346.1913506
0
ARC
8
DEFAULT_255_2_778
10
4.5801631
20
2.1956712
40
2.5489535
50
325.7557579
51
337.8485076
0
ARC
8
DEFAULT_255_2_778
10
5.0683439
20
1.8550928
40
1.9537618
50
286.5234273
51
325.9559937
0
ARC
8
DEFAULT_255_2_778
10
4.8696998
20
2.4725213
40
2.6022309
50
275.0977621
51
286.8501655
0
ARC
8
DEFAULT_255_2_778
10
4.7918893
20
3.2089745
40
3.3427066
50
269.9150519
51
275.3045609
0
ARC
8
DEFAULT_255_2_778
10
4.7825697
20
3.2548806
40
3.3886119
50
265.1089493
51
270.0737812
0
ARC
8
DEFAULT_255_2_778
10
4.7372969
20
2.7301101
40
2.8618924
50
259.2059082
51
265.1162636
0
ARC
8
DEFAULT_255_2_778
10
4.6684686
20
2.3675348
40
2.4928422
50
252.439992
51
259.1991835
0
ARC
8
DEFAULT_255_2_778
10
4.6106548
20
2.1816688
40
2.2981949
50
244.4932172
51
252.416137
0
ARC
8
DEFAULT_255_2_778
10
4.6404829
20
2.2363873
40
2.3604269
50
235.6853443
51
244.4117028
0
ARC
8
DEFAULT_255_2_778
10
5.0418254
20
2.8059373
40
3.0571186
50
227.4453809
51
235.4901695
0
ARC
8
DEFAULT_255_2_778
10
6.4278852
20
4.3464954
40
5.129369
50
225.4434921
51
227.6782891
0
LINE
8
DEFAULT_255_2_778
10
2.8290565
20
0.6915183
11
2.8283597
21
0.6922022
0
LINE
8
DEFAULT_255_2_778
10
2.8283597
20
0.6922022
11
2.8276645
21
0.6928847
0
LINE
8
DEFAULT_255_2_778
10
2.8276645
20
0.6928847
11
2.8269708
21
0.693566
0
ARC
8
DEFAULT_255_2_778
10
5.4740435
20
3.3889091
40
3.7778127
50
225.4955989
51
225.5176705
0
ARC
8
DEFAULT_255_2_778
10
-265.8280828
20
-272.634429
40
383.2541328
50
45.4942057
51
45.4944949
0
LINE
8
DEFAULT_255_2_778
10
2.8245531
20
0.6959416
11
2.8238663
21
0.6966169
0
LINE
8
DEFAULT_255_2_778
10
2.8238663
20
0.6966169
11
2.823181
21
0.6972908
0
LINE
8
DEFAULT_255_2_778
10
2.823181
20
0.6972908
11
2.8224973
21
0.6979634
0
ARC
8
DEFAULT_255_2_778
10
3.9671195
20
1.8620265
40
1.6325449
50
225.4488753
51
225.4824656
0
LINE
8
DEFAULT_255_2_778
10
2.8218151
20
0.6986347
11
2.8204539
21
0.6999746
0
LINE
8
DEFAULT_255_2_778
10
2.8204539
20
0.6999746
11
2.8197762
21
0.700642
0
ARC
8
DEFAULT_255_2_778
10
5.3528133
20
3.2727192
40
3.6099665
50
225.4155528
51
225.4381477
0
LINE
8
DEFAULT_255_2_778
10
2.8187621
20
0.701641
11
2.8180881
21
0.7023051
0
LINE
8
DEFAULT_255_2_778
10
2.8180881
20
0.7023051
11
2.8174157
21
0.7029679
0
LINE
8
DEFAULT_255_2_778
10
2.8174157
20
0.7029679
11
2.8167448
21
0.7036294
0
ARC
8
DEFAULT_255_2_778
10
3.9212115
20
1.8244959
40
1.573591
50
225.3880058
51
225.4222395
0
LINE
8
DEFAULT_255_2_778
10
2.8160754
20
0.7042895
11
2.8154074
21
0.7049484
0
LINE
8
DEFAULT_255_2_778
10
2.8154074
20
0.7049484
11
2.8140746
21
0.7062636
0
ARC
8
DEFAULT_255_2_778
10
1.7411429
20
-0.3800919
40
1.5268761
50
45.3561893
51
45.3911761
0
LINE
8
DEFAULT_255_2_778
10
2.8134111
20
0.7069186
11
2.812749
21
0.7075723
0
ARC
8
DEFAULT_255_2_778
10
3.8899669
20
1.7989903
40
1.53349
50
225.340475
51
225.3751654
0
LINE
8
DEFAULT_255_2_778
10
2.8120884
20
0.7082247
11
2.8114293
21
0.7088759
0
LINE
8
DEFAULT_255_2_778
10
2.8114293
20
0.7088759
11
2.810114
21
0.7101756
0
LINE
8
DEFAULT_255_2_778
10
2.810114
20
0.7101756
11
2.8088046
21
0.7114702
0
LINE
8
DEFAULT_255_2_778
10
2.8088046
20
0.7114702
11
2.8081527
21
0.7121149
0
LINE
8
DEFAULT_255_2_778
10
2.8081527
20
0.7121149
11
2.806852
21
0.7134019
0
LINE
8
DEFAULT_255_2_778
10
2.806852
20
0.7134019
11
2.8062044
21
0.7140428
0
ARC
8
DEFAULT_255_2_778
10
3.8392572
20
1.7584019
40
1.4689738
50
225.2763628
51
225.3118273
0
LINE
8
DEFAULT_255_2_778
10
2.8055582
20
0.7146825
11
2.8049134
21
0.7153209
0
LINE
8
DEFAULT_255_2_778
10
2.8049134
20
0.7153209
11
2.8042701
21
0.7159581
0
LINE
8
DEFAULT_255_2_778
10
2.8042701
20
0.7159581
11
2.8029864
21
0.7172299
0
LINE
8
DEFAULT_255_2_778
10
2.8029864
20
0.7172299
11
2.8023473
21
0.7178633
0
LINE
8
DEFAULT_255_2_778
10
2.8023473
20
0.7178633
11
2.8017096
21
0.7184954
0
LINE
8
DEFAULT_255_2_778
10
2.8017096
20
0.7184954
11
2.8010733
21
0.7191263
0
LINE
8
DEFAULT_255_2_778
10
2.8010733
20
0.7191263
11
2.8004384
21
0.7197559
0
LINE
8
DEFAULT_255_2_778
10
2.8004384
20
0.7197559
11
2.7998048
21
0.7203844
0
LINE
8
DEFAULT_255_2_778
10
2.7998048
20
0.7203844
11
2.7991727
21
0.7210115
0
LINE
8
DEFAULT_255_2_778
10
2.7991727
20
0.7210115
11
2.798542
21
0.7216374
0
ARC
8
DEFAULT_255_2_778
10
3.7812554
20
1.7122152
40
1.3953387
50
225.1919343
51
225.2283463
0
LINE
8
DEFAULT_255_2_778
10
2.7979126
20
0.7222621
11
2.7972846
21
0.7228856
0
ARC
8
DEFAULT_255_2_778
10
4.9896277
20
2.9316737
40
3.1120915
50
225.1897024
51
225.2140882
0
LINE
8
DEFAULT_255_2_778
10
2.7963448
20
0.7238189
11
2.7957202
21
0.7244392
0
LINE
8
DEFAULT_255_2_778
10
2.7957202
20
0.7244392
11
2.795097
21
0.7250584
0
LINE
8
DEFAULT_255_2_778
10
2.795097
20
0.7250584
11
2.7938535
21
0.7262942
0
LINE
8
DEFAULT_255_2_778
10
2.7938535
20
0.7262942
11
2.7932344
21
0.7269096
0
LINE
8
DEFAULT_255_2_778
10
2.7932344
20
0.7269096
11
2.7926166
21
0.7275239
0
LINE
8
DEFAULT_255_2_778
10
2.7926166
20
0.7275239
11
2.7920002
21
0.7281369
0
LINE
8
DEFAULT_255_2_778
10
2.7920002
20
0.7281369
11
2.7907702
21
0.7293605
0
LINE
8
DEFAULT_255_2_778
10
2.7907702
20
0.7293605
11
2.7901578
21
0.7299699
0
LINE
8
DEFAULT_255_2_778
10
2.7901578
20
0.7299699
11
2.7889358
21
0.7311862
0
LINE
8
DEFAULT_255_2_778
10
2.7889358
20
0.7311862
11
2.7883274
21
0.731792
0
LINE
8
DEFAULT_255_2_778
10
2.7883274
20
0.731792
11
2.7871134
21
0.7330011
0
LINE
8
DEFAULT_255_2_778
10
2.7871134
20
0.7330011
11
2.7859047
21
0.7342054
0
ARC
8
DEFAULT_255_2_778
10
5.5485365
20
3.5068392
40
3.9140302
50
225.0817673
51
225.1035319
0
LINE
8
DEFAULT_255_2_778
10
2.7848516
20
0.735255
11
2.7842521
21
0.7358527
0
ARC
8
DEFAULT_255_2_778
10
3.6759573
20
1.6308473
40
1.2633897
50
225.0671748
51
225.1054868
0
LINE
8
DEFAULT_255_2_778
10
2.7836539
20
0.7364491
11
2.7824602
21
0.7376397
0
LINE
8
DEFAULT_255_2_778
10
2.7824602
20
0.7376397
11
2.7818658
21
0.7382327
0
LINE
8
DEFAULT_255_2_778
10
2.7818658
20
0.7382327
11
2.7806799
21
0.7394162
0
LINE
8
DEFAULT_255_2_778
10
2.7806799
20
0.7394162
11
2.779499
21
0.740595
0
LINE
8
DEFAULT_255_2_778
10
2.779499
20
0.740595
11
2.7789111
21
0.741182
0
LINE
8
DEFAULT_255_2_778
10
2.7789111
20
0.741182
11
2.7777379
21
0.7423538
0
LINE
8
DEFAULT_255_2_778
10
2.7777379
20
0.7423538
11
2.7771538
21
0.7429373
0
LINE
8
DEFAULT_255_2_778
10
2.7771538
20
0.7429373
11
2.7759882
21
0.7441021
0
LINE
8
DEFAULT_255_2_778
10
2.7759882
20
0.7441021
11
2.7754079
21
0.7446822
0
ARC
8
DEFAULT_255_2_778
10
-0.5764976
20
-2.6066443
40
4.7399008
50
44.995051
51
45.0148457
0
ARC
8
DEFAULT_255_2_778
10
3.6052674
20
1.5771458
40
1.1754401
50
224.9701898
51
225.0099371
0
LINE
8
DEFAULT_255_2_778
10
2.7736733
20
0.7464166
11
2.7730979
21
0.746992
0
ARC
8
DEFAULT_255_2_778
10
-0.525792
20
-2.5490266
40
4.663305
50
44.9750546
51
44.9950079
0
LINE
8
DEFAULT_255_2_778
10
2.7719498
20
0.7481406
11
2.7708067
21
0.7492846
0
LINE
8
DEFAULT_255_2_778
10
2.7708067
20
0.7492846
11
2.7702375
21
0.7498544
0
ARC
8
DEFAULT_255_2_778
10
1.9617333
20
-0.0572288
40
1.1423933
50
44.9496023
51
44.9899089
0
LINE
8
DEFAULT_255_2_778
10
2.7696696
20
0.750423
11
2.7691029
21
0.7509904
0
LINE
8
DEFAULT_255_2_778
10
2.7691029
20
0.7509904
11
2.7685374
21
0.7515568
0
LINE
8
DEFAULT_255_2_778
10
2.7685374
20
0.7515568
11
2.7674089
21
0.7526871
0
LINE
8
DEFAULT_255_2_778
10
2.7674089
20
0.7526871
11
2.7662853
21
0.753813
0
LINE
8
DEFAULT_255_2_778
10
2.7662853
20
0.753813
11
2.7651665
21
0.7549343
0
LINE
8
DEFAULT_255_2_778
10
2.7651665
20
0.7549343
11
2.7640525
21
0.7560512
0
LINE
8
DEFAULT_255_2_778
10
2.7640525
20
0.7560512
11
2.7629433
21
0.7571636
0
LINE
8
DEFAULT_255_2_778
10
2.7629433
20
0.7571636
11
2.7618389
21
0.7582715
0
LINE
8
DEFAULT_255_2_778
10
2.7618389
20
0.7582715
11
2.7612889
21
0.7588233
0
LINE
8
DEFAULT_255_2_778
10
2.7612889
20
0.7588233
11
2.7607402
21
0.759374
0
LINE
8
DEFAULT_255_2_778
10
2.7607402
20
0.759374
11
2.7601926
21
0.7599235
0
LINE
8
DEFAULT_255_2_778
10
2.7601926
20
0.7599235
11
2.7596462
21
0.760472
0
LINE
8
DEFAULT_255_2_778
10
2.7596462
20
0.760472
11
2.7585559
21
0.7615667
0
LINE
8
DEFAULT_255_2_778
10
2.7585559
20
0.7615667
11
2.7574702
21
0.762657
0
ARC
8
DEFAULT_255_2_778
10
5.6918746
20
3.6846323
40
4.1410951
50
224.857199
51
224.8783998
0
LINE
8
DEFAULT_255_2_778
10
2.7563891
20
0.7637429
11
2.7553127
21
0.7648245
0
ARC
8
DEFAULT_255_2_778
10
5.6413103
20
3.6374265
40
4.0719559
50
224.8453361
51
224.8667188
0
LINE
8
DEFAULT_255_2_778
10
2.7542408
20
0.7659018
11
2.7521066
21
0.7680475
0
ARC
8
DEFAULT_255_2_778
10
5.5673837
20
3.5679841
40
3.9705705
50
224.8218137
51
224.8434711
0
LINE
8
DEFAULT_255_2_778
10
2.7510485
20
0.7691118
11
2.7499948
21
0.7701719
0
ARC
8
DEFAULT_255_2_778
10
-0.0373743
20
-1.9987237
40
3.9288941
50
44.8095028
51
44.8312094
0
LINE
8
DEFAULT_255_2_778
10
2.7489455
20
0.7712277
11
2.7479008
21
0.7722792
0
LINE
8
DEFAULT_255_2_778
10
2.7479008
20
0.7722792
11
2.7468605
21
0.7733265
0
LINE
8
DEFAULT_255_2_778
10
2.7468605
20
0.7733265
11
2.7458246
21
0.7743697
0
LINE
8
DEFAULT_255_2_778
10
2.7458246
20
0.7743697
11
2.7447931
21
0.7754086
0
LINE
8
DEFAULT_255_2_778
10
2.7447931
20
0.7754086
11
2.7437659
21
0.7764433
0
ARC
8
DEFAULT_255_2_778
10
0.0878757
20
-1.8583233
40
3.7410891
50
44.7712402
51
44.7934774
0
LINE
8
DEFAULT_255_2_778
10
2.7427431
20
0.7774739
11
2.7417247
21
0.7785004
0
ARC
8
DEFAULT_255_2_778
10
5.333411
20
3.3504146
40
3.6512438
50
224.7580116
51
224.7806083
0
LINE
8
DEFAULT_255_2_778
10
2.7407105
20
0.7795227
11
2.7386912
21
0.7815589
0
ARC
8
DEFAULT_255_2_778
10
5.2667177
20
3.2890611
40
3.560686
50
224.743583
51
224.7664685
0
LINE
8
DEFAULT_255_2_778
10
2.7376898
20
0.7825689
11
2.735696
21
0.7845807
0
ARC
8
DEFAULT_255_2_778
10
0.2462001
20
-1.6814715
40
3.5041408
50
44.728948
51
44.7519159
0
ARC
8
DEFAULT_255_2_778
10
0.264857
20
-1.6599258
40
3.4757232
50
44.7162144
51
44.7392747
0
ARC
8
DEFAULT_255_2_778
10
0.2839007
20
-1.6390037
40
3.4474697
50
44.7150624
51
44.7382158
0
LINE
8
DEFAULT_255_2_778
10
2.7327424
20
0.7875621
11
2.7307902
21
0.7895336
0
LINE
8
DEFAULT_255_2_778
10
2.7307902
20
0.7895336
11
2.7298222
21
0.7905115
0
LINE
8
DEFAULT_255_2_778
10
2.7298222
20
0.7905115
11
2.7288582
21
0.7914854
0
LINE
8
DEFAULT_255_2_778
10
2.7288582
20
0.7914854
11
2.7278983
21
0.7924554
0
LINE
8
DEFAULT_255_2_778
10
2.7278983
20
0.7924554
11
2.7269424
21
0.7934214
0
LINE
8
DEFAULT_255_2_778
10
2.7269424
20
0.7934214
11
2.725039
21
0.7953457
0
LINE
8
DEFAULT_255_2_778
10
2.725039
20
0.7953457
11
2.7231515
21
0.7972543
0
LINE
8
DEFAULT_255_2_778
10
2.7231515
20
0.7972543
11
2.7222155
21
0.798201
0
LINE
8
DEFAULT_255_2_778
10
2.7222155
20
0.798201
11
2.7212835
21
0.7991439
0
LINE
8
DEFAULT_255_2_778
10
2.7212835
20
0.7991439
11
2.6042279
21
0.9179323
0
ARC
8
DEFAULT_255_2_778
10
-3.2809414
20
-4.8798302
40
8.2613115
50
44.5713451
51
45.6960715
0
ARC
8
DEFAULT_255_2_778
10
0.3556751
20
-1.1304364
40
3.0380738
50
45.3888138
51
50.9296945
0
ARC
8
DEFAULT_255_2_778
10
1.4405704
20
0.2415527
40
1.2893128
50
49.9322177
51
73.4393055
0
ARC
8
DEFAULT_255_2_778
10
1.5256625
20
0.459177
40
1.0566427
50
74.4985153
51
75.9415479
0
ARC
8
DEFAULT_255_2_778
10
1.4002972
20
-0.0324611
40
1.5640096
50
75.8614725
51
83.2693446
0
ARC
8
DEFAULT_255_2_778
10
1.4219668
20
0.1428504
40
1.3873671
50
83.3095442
51
89.9528812
0
ARC
8
DEFAULT_255_2_778
10
1.4258855
20
0.2250745
40
1.3051456
50
90.1219445
51
123.3835971
0
ARC
8
DEFAULT_255_2_778
10
1.6995489
20
-0.2161978
40
1.8242474
50
122.9345859
51
134.9265796
0
ARC
8
DEFAULT_255_2_778
10
2.2209734
20
-0.7444635
40
2.566499
50
134.8398194
51
143.2545845
0
LINE
8
DEFAULT_255_2_778
10
2.4761333
20
3.5677715
11
2.4758333
21
3.5674715
0
LINE
8
DEFAULT_255_2_778
10
0.1644333
20
0.7909715
11
0.1644333
21
0.7909715
0
ARC
8
DEFAULT_255_2_778
10
12.3311454
20
2.333592
40
0.7705264
50
299.8255822
51
318.7181658
0
ARC
8
DEFAULT_255_2_778
10
12.4779501
20
2.1034382
40
0.4980099
50
273.5800066
51
298.3424421
0
ARC
8
DEFAULT_255_2_778
10
12.4360096
20
2.4449396
40
0.8417142
50
269.895571
51
274.9779398
0
ARC
8
DEFAULT_255_2_778
10
12.4311958
20
2.2926427
40
0.6894237
50
270.0035573
51
270.2725656
0
ARC
8
DEFAULT_255_2_778
10
12.4309664
20
2.2792191
40
0.676
50
254.2414406
51
270.0230699
0
ARC
8
DEFAULT_255_2_778
10
12.361892
20
2.0470188
40
0.4337809
50
231.587421
51
254.6926781
0
ARC
8
DEFAULT_255_2_778
10
12.3297022
20
1.9993013
40
0.3764172
50
204.462666
51
230.9138215
0
ARC
8
DEFAULT_255_2_778
10
12.4102011
20
2.0312666
40
0.4629461
50
178.692919
51
203.938053
0
ARC
8
DEFAULT_255_2_778
10
12.398965
20
2.0551854
40
0.4517871
50
154.3749047
51
181.6943899
0
ARC
8
DEFAULT_255_2_778
10
12.275497
20
2.1047092
40
0.3191647
50
144.6811141
51
152.8048641
0
ARC
8
DEFAULT_255_2_778
10
12.388263
20
2.0251461
40
0.4571735
50
115.3708391
51
144.7154252
0
ARC
8
DEFAULT_255_2_778
10
12.5743442
20
1.6368314
40
0.8877695
50
98.809966
51
115.4838507
0
ARC
8
DEFAULT_255_2_778
10
12.7993894
20
0.3330907
40
2.2107124
50
92.4777153
51
99.3986141
0
ARC
8
DEFAULT_255_2_778
10
12.7977899
20
0.3640075
40
2.1797553
50
92.151032
51
92.4708419
0
ARC
8
DEFAULT_255_2_778
10
12.6323514
20
2.6363075
40
0.2723148
50
357.3520393
51
27.126825
0
ARC
8
DEFAULT_255_2_778
10
12.7495983
20
2.6895075
40
0.143838
50
29.5622311
51
56.1228983
0
ARC
8
DEFAULT_255_2_778
10
12.6606787
20
2.5496622
40
0.3095349
50
56.8869418
51
91.2223789
0
ARC
8
DEFAULT_255_2_778
10
12.6417295
20
2.4877481
40
0.3715838
50
88.0959797
51
112.5128163
0
ARC
8
DEFAULT_255_2_778
10
12.577713
20
2.6547438
40
0.1928628
50
113.9398227
51
171.8974722
0
ARC
8
DEFAULT_255_2_778
10
12.5502223
20
2.6407621
40
0.5285612
50
144.339336
51
171.8682686
0
ARC
8
DEFAULT_255_2_778
10
12.4461828
20
2.7045566
40
0.4069353
50
122.1935424
51
143.0972112
0
ARC
8
DEFAULT_255_2_778
10
12.5681008
20
2.4883182
40
0.6549938
50
98.5955966
51
121.1407945
0
ARC
8
DEFAULT_255_2_778
10
12.660789
20
1.9794146
40
1.172138
50
89.6193856
51
99.35752
0
ARC
8
DEFAULT_255_2_778
10
12.6817076
20
2.1586346
40
0.9929791
50
77.6911262
51
90.757761
0
ARC
8
DEFAULT_255_2_778
10
12.755139
20
2.5324016
40
0.6122013
50
70.8788871
51
76.9482933
0
ARC
8
DEFAULT_255_2_778
10
12.811699
20
2.6628301
40
0.4705638
50
44.7865046
51
72.1837209
0
ARC
8
DEFAULT_255_2_778
10
12.8157487
20
2.6860507
40
0.4515371
50
15.9624642
51
43.057023
0
ARC
8
DEFAULT_255_2_778
10
12.4374839
20
2.5785766
40
0.8447733
50
359.2030608
51
15.9152911
0
ARC
8
DEFAULT_255_2_778
10
12.7650291
20
1.1380507
40
1.1487033
50
91.8934227
51
99.8642586
0
ARC
8
DEFAULT_255_2_778
10
12.6749891
20
1.6890386
40
0.5904633
50
100.415753
51
104.4873212
0
ARC
8
DEFAULT_255_2_778
10
12.6089606
20
1.9032295
40
0.3667108
50
102.8706613
51
121.7495252
0
ARC
8
DEFAULT_255_2_778
10
12.5104148
20
2.0767553
40
0.167465
50
124.3203094
51
126.469111
0
ARC
8
DEFAULT_255_2_778
10
12.4928469
20
2.0899112
40
0.1465788
50
124.0026254
51
158.9219158
0
ARC
8
DEFAULT_255_2_778
10
12.6143394
20
2.0564393
40
0.2722656
50
161.5451721
51
180.0387801
0
ARC
8
DEFAULT_255_2_778
10
12.6112415
20
2.056255
40
0.2691676
50
180.000002
51
180.197573
0
ARC
8
DEFAULT_255_2_778
10
12.4844776
20
2.0490173
40
0.1425418
50
177.4630076
51
229.7487204
0
ARC
8
DEFAULT_255_2_778
10
12.5207409
20
2.1121936
40
0.2145932
50
233.2603147
51
273.1613942
0
ARC
8
DEFAULT_255_2_778
10
12.5461407
20
2.3349595
40
0.4372432
50
268.2221452
51
296.5697732
0
ARC
8
DEFAULT_255_2_778
10
12.5936559
20
2.2202085
40
0.3134824
50
298.1837737
51
306.5348081
0
ARC
8
DEFAULT_255_2_778
10
12.5954389
20
2.2182462
40
0.3108444
50
306.4860568
51
331.101298
0
ARC
8
DEFAULT_255_2_778
10
12.5936696
20
2.208165
40
0.3076737
50
332.904405
51
1.8927126
0
ARC
8
DEFAULT_255_2_778
10
18.7903264
20
2.6107498
40
0.5434378
50
117.4904148
51
147.2887194
0
ARC
8
DEFAULT_255_2_778
10
18.7880884
20
2.5985264
40
0.5533004
50
89.9909906
51
116.7005347
0
ARC
8
DEFAULT_255_2_778
10
18.8008219
20
2.4904664
40
0.6614814
50
72.1528655
51
91.0954678
0
ARC
8
DEFAULT_255_2_778
10
18.8868927
20
2.7629594
40
0.3757259
50
43.4022658
51
71.9112588
0
ARC
8
DEFAULT_255_2_778
10
18.8329163
20
2.7343329
40
0.4349173
50
11.7846388
51
41.2557849
0
ARC
8
DEFAULT_255_2_778
10
18.3635587
20
2.6212683
40
0.9175932
50
359.2605829
51
12.7102414
0
ARC
8
DEFAULT_255_2_778
10
18.4060132
20
2.5677325
40
0.4812121
50
358.5703885
51
14.6667626
0
ARC
8
DEFAULT_255_2_778
10
18.7086048
20
2.6479755
40
0.1681662
50
14.3216124
51
44.8267088
0
ARC
8
DEFAULT_255_2_778
10
18.6812789
20
2.6040986
40
0.2188
50
47.9327627
51
92.8564077
0
ARC
8
DEFAULT_255_2_778
10
18.6639081
20
2.4682286
40
0.3544573
50
88.9545361
51
110.5516267
0
ARC
8
DEFAULT_255_2_778
10
18.6716924
20
2.4755936
40
0.3504328
50
112.1663035
51
132.0950158
0
ARC
8
DEFAULT_255_2_778
10
18.6812578
20
2.4937828
40
0.3438897
50
135.3108246
51
154.5746115
0
ARC
8
DEFAULT_255_2_778
10
18.6164912
20
2.5242325
40
0.2723232
50
154.5102132
51
180.0234767
0
ARC
8
DEFAULT_255_2_778
10
18.6203829
20
2.5241211
40
0.2762147
50
180.0000418
51
180.4136824
0
ARC
8
DEFAULT_255_2_778
10
20.1746353
20
2.1236881
40
0.5291288
50
270.0072949
51
326.7573132
0
ARC
8
DEFAULT_255_2_778
10
20.1747055
20
2.1253778
40
0.5308185
50
268.561022
51
269.9996959
0
ARC
8
DEFAULT_255_2_778
10
20.1482742
20
2.2586881
40
0.6640906
50
248.591615
51
271.1304148
0
ARC
8
DEFAULT_255_2_778
10
20.0872501
20
2.0829713
40
0.4782792
50
215.8696458
51
247.7140273
0
ARC
8
DEFAULT_255_2_778
10
20.3069791
20
2.2338979
40
0.7447995
50
191.7129651
51
215.3738427
0
ARC
8
DEFAULT_255_2_778
10
20.8766427
20
2.3629828
40
1.3288497
50
179.7613855
51
192.1764836
0
ARC
8
DEFAULT_255_2_778
10
21.327412
20
2.3786767
40
1.7796365
50
179.9983869
51
180.3270982
0
ARC
8
DEFAULT_255_2_778
10
20.6006698
20
2.3906404
40
1.0529617
50
179.9991014
51
180.6482797
0
ARC
8
DEFAULT_255_2_778
10
20.6019262
20
2.3906467
40
1.0542183
50
163.3942041
51
179.9994441
0
ARC
8
DEFAULT_255_2_778
10
20.2932106
20
2.4870002
40
0.7308532
50
142.0528661
51
163.7163004
0
ARC
8
DEFAULT_255_2_778
10
20.156543
20
2.5884867
40
0.560687
50
115.3399705
51
141.6429373
0
ARC
8
DEFAULT_255_2_778
10
20.1750586
20
2.5273709
40
0.6239182
50
89.1903057
51
114.4746249
0
ARC
8
DEFAULT_255_2_778
10
20.1817866
20
2.521543
40
0.6296873
50
69.5711141
51
89.809929
0
ARC
8
DEFAULT_255_2_778
10
20.2101945
20
2.6437066
40
0.5055453
50
40.9028374
51
67.7552775
0
ARC
8
DEFAULT_255_2_778
10
19.9683423
20
2.3962355
40
0.8508647
50
41.4722397
51
42.8347495
0
ARC
8
DEFAULT_255_2_778
10
19.6472036
20
2.4036673
40
0.9616686
50
359.1872813
51
9.15596
0
ARC
8
DEFAULT_255_2_778
10
20.1728702
20
2.4832029
40
0.4300741
50
9.8384888
51
17.8353
0
ARC
8
DEFAULT_255_2_778
10
20.2573572
20
2.523089
40
0.3376479
50
15.7828963
51
42.8060014
0
ARC
8
DEFAULT_255_2_778
10
20.314198
20
2.5583933
40
0.2722536
50
45.4845381
51
72.9827869
0
ARC
8
DEFAULT_255_2_778
10
20.2753863
20
2.3675917
40
0.466436
50
75.2838273
51
90.099597
0
ARC
8
DEFAULT_255_2_778
10
20.2731919
20
2.5527314
40
0.2812989
50
89.7181964
51
90.0080189
0
ARC
8
DEFAULT_255_2_778
10
20.2732807
20
2.5321806
40
0.3018496
50
90.024319
51
113.6745891
0
ARC
8
DEFAULT_255_2_778
10
20.2636899
20
2.5601999
40
0.2723485
50
114.1936599
51
141.4230892
0
ARC
8
DEFAULT_255_2_778
10
20.3535613
20
2.4944607
40
0.3836283
50
142.1172322
51
165.605915
0
ARC
8
DEFAULT_255_2_778
10
20.6864499
20
2.39956
40
0.7297161
50
164.8859726
51
179.9185759
0
ARC
8
DEFAULT_255_2_778
10
21.0534785
20
2.3819209
40
1.0969031
50
179.0244215
51
180.0049132
0
ARC
8
DEFAULT_255_2_778
10
20.8105531
20
2.3667234
40
0.8541112
50
178.9867716
51
191.5271609
0
ARC
8
DEFAULT_255_2_778
10
20.4119659
20
2.2945392
40
0.4492273
50
192.6652281
51
197.2630669
0
ARC
8
DEFAULT_255_2_778
10
20.419502
20
2.275767
40
0.4513035
50
194.7024015
51
214.8580142
0
ARC
8
DEFAULT_255_2_778
10
20.2463144
20
2.1637331
40
0.2452599
50
216.5058358
51
246.2598661
0
ARC
8
DEFAULT_255_2_778
10
20.2730895
20
2.2228666
40
0.3101698
50
246.130029
51
269.2030639
0
ARC
8
DEFAULT_255_2_778
10
20.281443
20
2.2441375
40
0.3316527
50
267.8110456
51
311.1027942
0
ARC
8
DEFAULT_255_2_778
10
20.2555149
20
2.2357286
40
0.3432781
50
315.2901823
51
342.153838
0
ARC
8
DEFAULT_255_2_778
10
20.0083771
20
2.3038917
40
0.599512
50
343.191333
51
358.4355025
0
ARC
8
DEFAULT_255_2_778
10
19.547443
20
2.3360547
40
1.0613328
50
357.3791493
51
0.047081
0
ARC
8
DEFAULT_255_2_778
10
22.7646467
20
2.4091057
40
0.927381
50
336.3863267
51
355.3501703
0
ARC
8
DEFAULT_255_2_778
10
22.9466781
20
2.3306844
40
0.7291793
50
313.4852041
51
336.3029527
0
ARC
8
DEFAULT_255_2_778
10
22.9475975
20
2.341101
40
0.7361461
50
289.1822043
51
312.8753491
0
ARC
8
DEFAULT_255_2_778
10
22.8646916
20
2.5750497
40
0.9843473
50
272.1668492
51
289.2656428
0
ARC
8
DEFAULT_255_2_778
10
22.8343405
20
2.94988
40
1.3601533
50
269.9719834
51
272.8474795
0
ARC
8
DEFAULT_255_2_778
10
22.8206291
20
2.6455548
40
1.0559086
50
252.9428906
51
270.7079418
0
ARC
8
DEFAULT_255_2_778
10
22.7580407
20
2.4101711
40
0.8125722
50
246.3882475
51
252.2935618
0
ARC
8
DEFAULT_255_2_778
10
22.7432245
20
2.3907286
40
0.7888444
50
220.4320602
51
246.8086785
0
ARC
8
DEFAULT_255_2_778
10
22.8486286
20
2.464633
40
0.9170857
50
195.9560106
51
219.6757528
0
ARC
8
DEFAULT_255_2_778
10
23.368414
20
2.622461
40
1.460259
50
180.5976171
51
196.3035991
0
ARC
8
DEFAULT_255_2_778
10
23.7620369
20
2.6437154
40
1.8541615
50
179.9965565
51
181.1275091
0
ARC
8
DEFAULT_255_2_778
10
23.373485
20
2.6578946
40
1.465677
50
166.7061192
51
180.5499402
0
ARC
8
DEFAULT_255_2_778
10
23.0254101
20
2.7298472
40
1.1104295
50
161.4980839
51
166.1894213
0
ARC
8
DEFAULT_255_2_778
10
22.8837627
20
2.7892284
40
0.9573269
50
139.2820817
51
162.1781191
0
ARC
8
DEFAULT_255_2_778
10
22.7612717
20
2.8854233
40
0.8017666
50
112.7844367
51
138.7821171
0
ARC
8
DEFAULT_255_2_778
10
22.8191078
20
2.7283058
40
0.9690511
50
90.4025556
51
112.3396226
0
ARC
8
DEFAULT_255_2_778
10
22.8395783
20
2.4310972
40
1.2665297
50
89.9956037
51
91.2341488
0
ARC
8
DEFAULT_255_2_778
10
22.8522628
20
2.5534644
40
1.1442316
50
77.1723302
51
90.6303043
0
ARC
8
DEFAULT_255_2_778
10
22.9227569
20
2.9016804
40
0.7891019
50
71.50514
51
76.5496286
0
ARC
8
DEFAULT_255_2_778
10
22.9721526
20
3.0230789
40
0.6583568
50
48.0121559
51
72.230501
0
ARC
8
DEFAULT_255_2_778
10
22.9392822
20
3.0065156
40
0.6927862
50
24.701704
51
46.9078556
0
ARC
8
DEFAULT_255_2_778
10
22.5310413
20
2.8227676
40
1.1404644
50
9.5574758
51
24.5174647
0
ARC
8
DEFAULT_255_2_778
10
22.6005907
20
2.8592979
40
0.646066
50
8.8439753
51
28.7655056
0
ARC
8
DEFAULT_255_2_778
10
22.7936081
20
2.9573093
40
0.4297584
50
29.6945927
51
40.6073462
0
ARC
8
DEFAULT_255_2_778
10
22.9002282
20
3.0331282
40
0.2996991
50
42.8705606
51
83.5173498
0
ARC
8
DEFAULT_255_2_778
10
22.8426415
20
2.7478728
40
0.5901625
50
81.0882975
51
90.3073809
0
ARC
8
DEFAULT_255_2_778
10
22.8167291
20
2.9218382
40
0.4168098
50
86.8716732
51
145.6824303
0
ARC
8
DEFAULT_255_2_778
10
23.0373556
20
2.7835446
40
0.677074
50
146.5426039
51
168.5644253
0
ARC
8
DEFAULT_255_2_778
10
23.5899752
20
2.6608485
40
1.2430957
50
168.0714883
51
179.8999825
0
ARC
8
DEFAULT_255_2_778
10
24.0369815
20
2.6440714
40
1.6902062
50
179.3577059
51
180.0015119
0
ARC
8
DEFAULT_255_2_778
10
23.5839645
20
2.6315839
40
1.2372516
50
179.4237724
51
191.7236272
0
ARC
8
DEFAULT_255_2_778
10
23.0166232
20
2.5081192
40
0.6566824
50
191.2341078
51
213.1749481
0
ARC
8
DEFAULT_255_2_778
10
22.8656509
20
2.4208865
40
0.48268
50
214.3142883
51
217.1004803
0
ARC
8
DEFAULT_255_2_778
10
22.8270058
20
2.3727068
40
0.423065
50
215.0528972
51
269.992653
0
ARC
8
DEFAULT_255_2_778
10
22.8269467
20
2.3739723
40
0.4243304
50
270.0006587
51
271.6919572
0
ARC
8
DEFAULT_255_2_778
10
22.8520568
20
2.4404486
40
0.4907831
50
268.5310521
51
290.572503
0
ARC
8
DEFAULT_255_2_778
10
22.9241907
20
2.2364277
40
0.2744573
50
291.4404719
51
317.0794599
0
ARC
8
DEFAULT_255_2_778
10
22.793557
20
2.3374898
40
0.4391964
50
319.030377
51
348.1463998
0
ARC
8
DEFAULT_255_2_778
10
22.4775138
20
2.4253335
40
0.7668335
50
346.5732871
51
353.2142534
0
ARC
8
DEFAULT_255_2_778
10
24.7568054
20
2.3157225
40
0.455233
50
182.6938594
51
206.9053829
0
ARC
8
DEFAULT_255_2_778
10
24.59716
20
2.2411682
40
0.2791905
50
208.0871909
51
230.9248987
0
ARC
8
DEFAULT_255_2_778
10
24.6543217
20
2.3330206
40
0.3867651
50
232.9285236
51
262.2911364
0
ARC
8
DEFAULT_255_2_778
10
24.7267459
20
2.7141076
40
0.7743984
50
260.763047
51
270.3869221
0
ARC
8
DEFAULT_255_2_778
10
24.7435535
20
2.514234
40
0.5746239
50
268.845474
51
285.1702693
0
ARC
8
DEFAULT_255_2_778
10
24.7938963
20
2.2961631
40
0.3510806
50
286.5540163
51
287.2789049
0
ARC
8
DEFAULT_255_2_778
10
24.8098395
20
2.269321
40
0.3207962
50
285.983739
51
308.1438472
0
ARC
8
DEFAULT_255_2_778
10
24.8834508
20
2.1710701
40
0.19808
50
308.9511877
51
338.9201443
0
ARC
8
DEFAULT_255_2_778
10
24.8004957
20
2.2005545
40
0.286098
50
339.3857836
51
0.0087051
0
ARC
8
DEFAULT_255_2_778
10
24.7969094
20
2.2005796
40
0.2896842
50
0.0036324
51
0.6422786
0
ARC
8
DEFAULT_255_2_778
10
24.8655218
20
2.2012769
40
0.2210683
50
0.6608941
51
42.7812528
0
ARC
8
DEFAULT_255_2_778
10
24.8290288
20
2.1631301
40
0.2737808
50
43.453428
51
72.4484104
0
ARC
8
DEFAULT_255_2_778
10
24.6897796
20
1.7995922
40
0.662791
50
70.4479413
51
79.4725843
0
ARC
8
DEFAULT_255_2_778
10
24.8027657
20
4.0011393
40
1.5236152
50
251.271053
51
260.4076716
0
ARC
8
DEFAULT_255_2_778
10
24.732129
20
3.774442
40
1.2862545
50
249.2240327
51
251.0084964
0
ARC
8
DEFAULT_255_2_778
10
24.4908331
20
3.1654983
40
0.6313895
50
229.1046556
51
250.095598
0
ARC
8
DEFAULT_255_2_778
10
24.3881516
20
3.0348949
40
0.4655088
50
201.5474346
51
228.1340159
0
ARC
8
DEFAULT_255_2_778
10
24.5539693
20
3.0922275
40
0.6408395
50
180.2724305
51
200.870224
0
ARC
8
DEFAULT_255_2_778
10
24.8405894
20
3.1112105
40
0.927714
50
179.9928188
51
181.3607132
0
ARC
8
DEFAULT_255_2_778
10
24.4500513
20
3.1217442
40
0.5372769
50
179.9992194
51
181.1109853
0
ARC
8
DEFAULT_255_2_778
10
24.4499409
20
3.1218297
40
0.5371664
50
153.1759925
51
180.0083463
0
ARC
8
DEFAULT_255_2_778
10
24.4296863
20
3.1228465
40
0.5186976
50
125.1752319
51
152.2665749
0
ARC
8
DEFAULT_255_2_778
10
24.562061
20
2.9198189
40
0.7609599
50
104.0770455
51
124.5158192
0
ARC
8
DEFAULT_255_2_778
10
24.6797041
20
2.4699287
40
1.2259626
50
89.4124642
51
104.2960031
0
ARC
8
DEFAULT_255_2_778
10
24.7043523
20
2.3050459
40
1.3908333
50
80.379997
51
90.4975143
0
ARC
8
DEFAULT_255_2_778
10
24.7933426
20
2.855319
40
0.8334375
50
71.4652486
51
80.0899636
0
ARC
8
DEFAULT_255_2_778
10
24.8483092
20
2.9934798
40
0.6850191
50
51.857555
51
72.1508802
0
ARC
8
DEFAULT_255_2_778
10
24.9569599
20
3.1464859
40
0.4976609
50
47.2495342
51
50.8157782
0
ARC
8
DEFAULT_255_2_778
10
24.9452753
20
3.1268536
40
0.5200306
50
21.7229639
51
47.7724861
0
ARC
8
DEFAULT_255_2_778
10
24.5671408
20
2.9778578
40
0.926459
50
7.059948
51
21.6277203
0
ARC
8
DEFAULT_255_2_778
10
24.5960764
20
2.9618284
40
0.5000746
50
9.1588983
51
30.1043979
0
ARC
8
DEFAULT_255_2_778
10
24.7951191
20
3.0714055
40
0.2729652
50
31.1620962
51
49.9732125
0
ARC
8
DEFAULT_255_2_778
10
24.770805
20
3.0180679
40
0.3298188
50
52.6991031
51
83.1164712
0
ARC
8
DEFAULT_255_2_778
10
24.7061823
20
2.6656059
40
0.6878345
50
81.2907656
51
90.3587547
0
ARC
8
DEFAULT_255_2_778
10
24.6899396
20
2.5910348
40
0.7624855
50
89.1030626
51
100.6935762
0
ARC
8
DEFAULT_255_2_778
10
24.6325299
20
2.9352433
40
0.4136691
50
101.7265265
51
104.9410731
0
ARC
8
DEFAULT_255_2_778
10
24.608126
20
2.9901192
40
0.3544819
50
103.4166312
51
123.0551177
0
ARC
8
DEFAULT_255_2_778
10
24.504629
20
3.1498245
40
0.1641739
50
123.1824863
51
155.3002103
0
ARC
8
DEFAULT_255_2_778
10
24.5464911
20
3.1363144
40
0.2079169
50
156.7384512
51
179.80368
0
ARC
8
DEFAULT_255_2_778
10
24.5632823
20
3.1235592
40
0.2251101
50
176.5701384
51
218.5379115
0
ARC
8
DEFAULT_255_2_778
10
24.5120851
20
3.0932475
40
0.1663801
50
221.3586822
51
228.6089557
0
ARC
8
DEFAULT_255_2_778
10
24.6138627
20
3.2295327
40
0.3361995
50
230.9539164
51
253.0330804
0
ARC
8
DEFAULT_255_2_778
10
24.7750292
20
3.6826656
40
0.8169346
50
251.4956491
51
258.8588393
0
ARC
8
DEFAULT_255_2_778
10
24.6204913
20
1.3915697
40
1.4617593
50
69.2897886
51
79.2607368
0
ARC
8
DEFAULT_255_2_778
10
24.8739899
20
2.0464011
40
0.7596151
50
52.0337903
51
69.7078281
0
ARC
8
DEFAULT_255_2_778
10
25.0119911
20
2.2377479
40
0.5239404
50
46.6313809
51
51.0583525
0
ARC
8
DEFAULT_255_2_778
10
25.026017
20
2.2688147
40
0.491851
50
7.0451347
51
45.3339065
0
ARC
8
DEFAULT_255_2_778
10
24.7059964
20
2.2046826
40
0.8176854
50
359.7718627
51
8.7549029
0
ARC
8
DEFAULT_255_2_778
10
24.9304162
20
2.195038
40
0.5932937
50
0.0000827
51
0.6169955
0
ARC
8
DEFAULT_255_2_778
10
24.9283393
20
2.1950951
40
0.5953705
50
336.5351635
51
359.9945828
0
ARC
8
DEFAULT_255_2_778
10
24.9763134
20
2.1820822
40
0.5462291
50
310.0620227
51
335.7834928
0
ARC
8
DEFAULT_255_2_778
10
24.8902257
20
2.2938336
40
0.6871918
50
286.4371203
51
309.5585935
0
ARC
8
DEFAULT_255_2_778
10
24.7815366
20
2.630815
40
1.0411939
50
272.4068796
51
286.9265414
0
ARC
8
DEFAULT_255_2_778
10
24.7424935
20
3.1370552
40
1.5487288
50
269.9549362
51
273.0635167
0
ARC
8
DEFAULT_255_2_778
10
24.7285026
20
3.0549936
40
1.4667224
50
259.1420452
51
270.4989633
0
ARC
8
DEFAULT_255_2_778
10
24.6039173
20
2.4341155
40
0.8335085
50
239.3482802
51
259.5130472
0
ARC
8
DEFAULT_255_2_778
10
24.5069459
20
2.2528953
40
0.6282341
50
231.09267
51
238.5304884
0
ARC
8
DEFAULT_255_2_778
10
24.5067037
20
2.2426604
40
0.6201491
50
191.89951
51
230.5161725
0
ARC
8
DEFAULT_255_2_778
10
24.9014431
20
2.3494104
40
1.0286759
50
183.1030132
51
193.1841598
0
ARC
8
DEFAULT_255_2_778
10
26.5836318
20
2.3161113
40
0.4564764
50
182.7353785
51
206.8809209
0
ARC
8
DEFAULT_255_2_778
10
26.422598
20
2.2409497
40
0.2789189
50
208.0661143
51
230.9224497
0
ARC
8
DEFAULT_255_2_778
10
26.4803701
20
2.3343765
40
0.3881175
50
232.9963647
51
262.3084973
0
ARC
8
DEFAULT_255_2_778
10
26.5526208
20
2.7128504
40
0.7731401
50
260.7560425
51
270.3745926
0
ARC
8
DEFAULT_255_2_778
10
26.5698986
20
2.513413
40
0.5738164
50
268.7794216
51
269.998809
0
ARC
8
DEFAULT_255_2_778
10
26.5700051
20
2.5088641
40
0.5692674
50
269.9880832
51
285.7341221
0
ARC
8
DEFAULT_255_2_778
10
26.6377337
20
2.2660054
40
0.3171431
50
285.8544457
51
308.2731023
0
ARC
8
DEFAULT_255_2_778
10
26.70965
20
2.1710705
40
0.1980809
50
308.9512901
51
338.9201094
0
ARC
8
DEFAULT_255_2_778
10
26.628723
20
2.1999294
40
0.2839804
50
339.3598003
51
359.9838577
0
ARC
8
DEFAULT_255_2_778
10
26.6301002
20
2.1998488
40
0.2826033
50
0.0001312
51
0.8065434
0
ARC
8
DEFAULT_255_2_778
10
26.6905945
20
2.2006466
40
0.2221037
50
0.8204135
51
42.7556317
0
ARC
8
DEFAULT_255_2_778
10
26.6542431
20
2.161978
40
0.2750711
50
43.5293898
51
72.3944513
0
ARC
8
DEFAULT_255_2_778
10
26.5159616
20
1.8010479
40
0.6613082
50
70.4328087
51
79.4735623
0
ARC
8
DEFAULT_255_2_778
10
26.6286657
20
4.0011393
40
1.5236152
50
251.271053
51
260.4076716
0
ARC
8
DEFAULT_255_2_778
10
26.558029
20
3.774442
40
1.2862545
50
249.2240327
51
251.0084964
0
ARC
8
DEFAULT_255_2_778
10
26.3167331
20
3.1654983
40
0.6313895
50
229.1046556
51
250.095598
0
ARC
8
DEFAULT_255_2_778
10
26.2171588
20
3.0378024
40
0.4697479
50
201.7246549
51
228.0884601
0
ARC
8
DEFAULT_255_2_778
10
26.3725585
20
3.0909331
40
0.6338288
50
180.1584405
51
200.9866747
0
ARC
8
DEFAULT_255_2_778
10
26.6849874
20
3.111219
40
0.9465121
50
179.9934707
51
181.3341934
0
ARC
8
DEFAULT_255_2_778
10
26.2756513
20
3.1217442
40
0.5372769
50
179.9992194
51
181.1109853
0
ARC
8
DEFAULT_255_2_778
10
26.2755409
20
3.1218297
40
0.5371664
50
153.1759925
51
180.0083463
0
ARC
8
DEFAULT_255_2_778
10
26.2820932
20
3.1056142
40
0.5504512
50
126.2668602
51
151.9774316
0
ARC
8
DEFAULT_255_2_778
10
26.3662492
20
2.9704689
40
0.7093002
50
103.3414537
51
125.2900243
0
ARC
8
DEFAULT_255_2_778
10
26.5050408
20
2.4716171
40
1.2268779
50
89.395936
51
104.2724233
0
ARC
8
DEFAULT_255_2_778
10
26.5302005
20
2.3070265
40
1.391454
50
80.3926373
51
90.5033956
0
ARC
8
DEFAULT_255_2_778
10
26.6203892
20
2.8650165
40
0.8262485
50
71.403912
51
80.1012386
0
ARC
8
DEFAULT_255_2_778
10
26.6763108
20
3.0011648
40
0.6794431
50
51.4290891
51
72.2122096
0
ARC
8
DEFAULT_255_2_778
10
26.7775961
20
3.1426175
40
0.5057807
50
47.3340289
51
50.4089767
0
ARC
8
DEFAULT_255_2_778
10
26.7780226
20
3.1344115
40
0.5115595
50
21.5033829
51
47.9920473
0
ARC
8
DEFAULT_255_2_778
10
26.383512
20
2.9776381
40
0.9360777
50
7.1671253
51
21.579961
0
ARC
8
DEFAULT_255_2_778
10
26.4217161
20
2.964628
40
0.5000196
50
9.1483572
51
30.0776762
0
ARC
8
DEFAULT_255_2_778
10
26.6220137
20
3.0748008
40
0.2715238
50
31.1425749
51
50.0744697
0
ARC
8
DEFAULT_255_2_778
10
26.596405
20
3.0206679
40
0.3298188
50
52.6991031
51
83.1164712
0
ARC
8
DEFAULT_255_2_778
10
26.5317823
20
2.6682059
40
0.6878345
50
81.2907656
51
90.3587547
0
ARC
8
DEFAULT_255_2_778
10
26.5152296
20
2.6002253
40
0.7559007
50
89.0717458
51
100.9415154
0
ARC
8
DEFAULT_255_2_778
10
26.4576891
20
2.9389084
40
0.4125264
50
102.0235251
51
104.9200683
0
ARC
8
DEFAULT_255_2_778
10
26.4329865
20
2.9938216
40
0.3532383
50
103.3414557
51
123.0432765
0
ARC
8
DEFAULT_255_2_778
10
26.3301134
20
3.1528407
40
0.163846
50
123.2091425
51
155.3691387
0
ARC
8
DEFAULT_255_2_778
10
26.3683899
20
3.1395529
40
0.2042145
50
156.4560556
51
179.9792521
0
ARC
8
DEFAULT_255_2_778
10
26.3885847
20
3.1261524
40
0.2248134
50
176.5638546
51
218.5647245
0
ARC
8
DEFAULT_255_2_778
10
26.3379112
20
3.0962046
40
0.1667225
50
221.3747372
51
228.6090565
0
ARC
8
DEFAULT_255_2_778
10
26.439728
20
3.232894
40
0.3368804
50
230.9897308
51
253.0389502
0
ARC
8
DEFAULT_255_2_778
10
26.6004135
20
3.6853515
40
0.8168213
50
251.5163047
51
258.8941356
0
ARC
8
DEFAULT_255_2_778
10
26.450277
20
1.3956497
40
1.4580026
50
69.2879877
51
79.2841605
0
ARC
8
DEFAULT_255_2_778
10
26.7021578
20
2.0462146
40
0.7604209
50
52.0494324
51
69.7035953
0
ARC
8
DEFAULT_255_2_778
10
26.8399919
20
2.237418
40
0.5249592
50
46.6614684
51
51.0781628
0
ARC
8
DEFAULT_255_2_778
10
26.8539218
20
2.269122
40
0.4924777
50
7.0176939
51
45.3085924
0
ARC
8
DEFAULT_255_2_778
10
26.534093
20
2.2051626
40
0.8180889
50
359.7733782
51
8.7271726
0
ARC
8
DEFAULT_255_2_778
10
26.7607265
20
2.1955292
40
0.5914836
50
359.9982966
51
0.6197381
0
ARC
8
DEFAULT_255_2_778
10
26.7599785
20
2.195243
40
0.5922316
50
336.4721124
51
0.0259902
0
ARC
8
DEFAULT_255_2_778
10
26.807422
20
2.1809111
40
0.5430421
50
309.9852336
51
335.8602704
0
ARC
8
DEFAULT_255_2_778
10
26.7189633
20
2.2932327
40
0.6859608
50
286.6289909
51
309.6178168
0
ARC
8
DEFAULT_255_2_778
10
26.5942707
20
2.6349192
40
1.0492653
50
287.6824287
51
287.8138066
0
ARC
8
DEFAULT_255_2_778
10
26.609486
20
2.633256
40
1.0431529
50
272.1011802
51
286.9139282
0
ARC
8
DEFAULT_255_2_778
10
26.5708996
20
3.1615577
40
1.5726315
50
269.9590432
51
272.8003704
0
ARC
8
DEFAULT_255_2_778
10
26.5569579
20
3.056451
40
1.4675801
50
259.1508755
51
270.5004144
0
ARC
8
DEFAULT_255_2_778
10
26.4318167
20
2.4331924
40
0.8319257
50
239.1357477
51
259.5360526
0
ARC
8
DEFAULT_255_2_778
10
26.335775
20
2.2546651
40
0.6294769
50
231.1220662
51
238.3033496
0
ARC
8
DEFAULT_255_2_778
10
26.3279366
20
2.2372083
40
0.6109865
50
191.2772621
51
230.666788
0
ARC
8
DEFAULT_255_2_778
10
26.7058088
20
2.3351779
40
1.0009673
50
182.3389811
51
192.5470986
0
LINE
8
DEFAULT_255_2_778
10
11.0924754
20
3.2838268
11
10.4873754
21
3.2838268
0
LINE
8
DEFAULT_255_2_778
10
10.4873754
20
3.2838268
11
10.4873754
21
3.6463268
0
LINE
8
DEFAULT_255_2_778
10
10.4873754
20
3.6463268
11
12.1198754
21
3.6463268
0
LINE
8
DEFAULT_255_2_778
10
12.1198754
20
3.6463268
11
12.1198754
21
3.2838268
0
LINE
8
DEFAULT_255_2_778
10
12.1198754
20
3.2838268
11
11.5149754
21
3.2838268
0
LINE
8
DEFAULT_255_2_778
10
11.5149754
20
3.2838268
11
11.5149754
21
1.6397268
0
LINE
8
DEFAULT_255_2_778
10
11.5149754
20
1.6397268
11
11.0924754
21
1.6397268
0
LINE
8
DEFAULT_255_2_778
10
11.0924754
20
1.6397268
11
11.0924754
21
3.2838268
0
LINE
8
DEFAULT_255_2_778
10
12.7159754
20
2.5422268
11
12.9043754
21
2.5506268
0
LINE
8
DEFAULT_255_2_778
10
12.9043754
20
2.5506268
11
12.9043754
21
2.6237268
0
LINE
8
DEFAULT_255_2_778
10
12.3867754
20
2.6819268
11
12.0269754
21
2.7155268
0
LINE
8
DEFAULT_255_2_778
10
13.2821754
20
2.5668268
11
13.2821754
21
1.6394268
0
LINE
8
DEFAULT_255_2_778
10
13.2821754
20
1.6394268
11
12.9101754
21
1.6394268
0
LINE
8
DEFAULT_255_2_778
10
12.9101754
20
1.6394268
11
12.9101754
21
1.8246268
0
LINE
8
DEFAULT_255_2_778
10
12.9101754
20
1.8246268
11
12.9101754
21
1.8252268
0
LINE
8
DEFAULT_255_2_778
10
12.9016754
20
2.2945268
11
12.7270754
21
2.2861268
0
LINE
8
DEFAULT_255_2_778
10
12.9011754
20
2.2183268
11
12.9011754
21
2.2943268
0
LINE
8
DEFAULT_255_2_778
10
12.9011754
20
2.2943268
11
12.9016754
21
2.2945268
0
LINE
8
DEFAULT_255_2_778
10
13.6017754
20
3.1068268
11
13.9959754
21
3.1068268
0
LINE
8
DEFAULT_255_2_778
10
13.9959754
20
3.1068268
11
13.9959754
21
1.6399268
0
LINE
8
DEFAULT_255_2_778
10
13.9959754
20
1.6399268
11
13.6017754
21
1.6399268
0
LINE
8
DEFAULT_255_2_778
10
13.6017754
20
1.6399268
11
13.6017754
21
3.1068268
0
LINE
8
DEFAULT_255_2_778
10
13.5964754
20
3.6465268
11
14.0012754
21
3.6465268
0
LINE
8
DEFAULT_255_2_778
10
14.0012754
20
3.6465268
11
14.0012754
21
3.2925268
0
LINE
8
DEFAULT_255_2_778
10
14.0012754
20
3.2925268
11
13.5964754
21
3.2925268
0
LINE
8
DEFAULT_255_2_778
10
13.5964754
20
3.2925268
11
13.5964754
21
3.6465268
0
LINE
8
DEFAULT_255_2_778
10
14.3330754
20
3.6465268
11
14.7273754
21
3.6465268
0
LINE
8
DEFAULT_255_2_778
10
14.7273754
20
3.6465268
11
14.7273754
21
1.6399268
0
LINE
8
DEFAULT_255_2_778
10
14.7273754
20
1.6399268
11
14.3330754
21
1.6399268
0
LINE
8
DEFAULT_255_2_778
10
14.3330754
20
1.6399268
11
14.3330754
21
3.6465268
0
LINE
8
DEFAULT_255_2_778
10
14.9037754
20
3.1068268
11
15.3313754
21
3.1068268
0
LINE
8
DEFAULT_255_2_778
10
15.3313754
20
3.1068268
11
15.5369754
21
2.1344268
0
LINE
8
DEFAULT_255_2_778
10
15.5369754
20
2.1344268
11
15.8179754
21
3.0928268
0
LINE
8
DEFAULT_255_2_778
10
15.8179754
20
3.0928268
11
16.1613754
21
3.0928268
0
LINE
8
DEFAULT_255_2_778
10
16.1613754
20
3.0928268
11
16.4259754
21
2.1315268
0
LINE
8
DEFAULT_255_2_778
10
16.4259754
20
2.1315268
11
16.6314754
21
3.1039268
0
LINE
8
DEFAULT_255_2_778
10
16.6314754
20
3.1039268
11
17.0424754
21
3.1039268
0
LINE
8
DEFAULT_255_2_778
10
17.0424754
20
3.1039268
11
16.6145754
21
1.6370268
0
LINE
8
DEFAULT_255_2_778
10
16.6145754
20
1.6370268
11
16.2317754
21
1.6370268
0
LINE
8
DEFAULT_255_2_778
10
16.2317754
20
1.6370268
11
15.9697754
21
2.6038268
0
LINE
8
DEFAULT_255_2_778
10
15.9697754
20
2.6038268
11
15.7051754
21
1.6370268
0
LINE
8
DEFAULT_255_2_778
10
15.7051754
20
1.6370268
11
15.3310754
21
1.6370268
0
LINE
8
DEFAULT_255_2_778
10
15.3310754
20
1.6370268
11
14.9035754
21
3.1039268
0
LINE
8
DEFAULT_255_2_778
10
14.9035754
20
3.1039268
11
14.9037754
21
3.1068268
0
LINE
8
DEFAULT_255_2_778
10
17.2215754
20
3.1068268
11
17.6157754
21
3.1068268
0
LINE
8
DEFAULT_255_2_778
10
17.6157754
20
3.1068268
11
17.6157754
21
1.6399268
0
LINE
8
DEFAULT_255_2_778
10
17.6157754
20
1.6399268
11
17.2215754
21
1.6399268
0
LINE
8
DEFAULT_255_2_778
10
17.2215754
20
1.6399268
11
17.2215754
21
3.1068268
0
LINE
8
DEFAULT_255_2_778
10
17.2162754
20
3.6465268
11
17.6210754
21
3.6465268
0
LINE
8
DEFAULT_255_2_778
10
17.6210754
20
3.6465268
11
17.6210754
21
3.2925268
0
LINE
8
DEFAULT_255_2_778
10
17.6210754
20
3.2925268
11
17.2162754
21
3.2925268
0
LINE
8
DEFAULT_255_2_778
10
17.2162754
20
3.2925268
11
17.2162754
21
3.6465268
0
LINE
8
DEFAULT_255_2_778
10
17.9501754
20
3.1068268
11
18.3330754
21
3.1068268
0
LINE
8
DEFAULT_255_2_778
10
18.3330754
20
3.1068268
11
18.3330754
21
2.9044268
0
LINE
8
DEFAULT_255_2_778
10
19.2810754
20
2.6094268
11
19.2810754
21
1.6399268
0
LINE
8
DEFAULT_255_2_778
10
19.2810754
20
1.6399268
11
18.8870754
21
1.6399268
0
LINE
8
DEFAULT_255_2_778
10
18.8870754
20
1.6399268
11
18.8870754
21
2.5557268
0
LINE
8
DEFAULT_255_2_778
10
18.3441754
20
2.5221268
11
18.3441754
21
1.6397268
0
LINE
8
DEFAULT_255_2_778
10
18.3441754
20
1.6397268
11
17.9472754
21
1.6397268
0
LINE
8
DEFAULT_255_2_778
10
17.9472754
20
1.6397268
11
17.9472754
21
3.1065268
0
LINE
8
DEFAULT_255_2_778
10
17.9472754
20
3.1065268
11
17.9501754
21
3.1068268
0
LINE
8
DEFAULT_255_2_778
10
20.6058754
20
2.9597268
11
20.6058754
21
3.6455268
0
LINE
8
DEFAULT_255_2_778
10
20.6058754
20
3.6455268
11
21.0000754
21
3.6455268
0
LINE
8
DEFAULT_255_2_778
10
21.0000754
20
3.6455268
11
21.0000754
21
1.6389268
0
LINE
8
DEFAULT_255_2_778
10
21.0000754
20
1.6389268
11
20.6174754
21
1.6389268
0
LINE
8
DEFAULT_255_2_778
10
20.6174754
20
1.6389268
11
20.6174754
21
1.8328268
0
LINE
8
DEFAULT_255_2_778
10
20.6174754
20
1.8328268
11
20.6171754
21
1.8336268
0
LINE
8
DEFAULT_255_2_778
10
20.6087754
20
2.3369268
11
20.6087754
21
2.3871268
0
LINE
8
DEFAULT_255_2_778
10
20.6087754
20
2.3871268
11
20.6087754
21
2.3900268
0
LINE
8
DEFAULT_255_2_778
10
23.6556754
20
3.0121268
11
23.2389754
21
2.9586268
0
LINE
8
DEFAULT_255_2_778
10
23.2389754
20
2.3347268
11
23.6889754
21
2.3339268
0
LINE
8
DEFAULT_255_2_778
10
24.8108754
20
2.4512268
11
24.5488754
21
2.4988268
0
LINE
8
DEFAULT_255_2_778
10
25.4865754
20
3.0917268
11
25.0897754
21
3.0414268
0
LINE
8
DEFAULT_255_2_778
10
24.6171754
20
2.8811268
11
24.8928754
21
2.8277268
0
LINE
8
DEFAULT_255_2_778
10
23.8742754
20
2.2937268
11
24.2991754
21
2.2937268
0
LINE
8
DEFAULT_255_2_778
10
24.2991754
20
2.2937268
11
24.3020754
21
2.2943268
0
LINE
8
DEFAULT_255_2_778
10
26.6367754
20
2.4512268
11
26.3747754
21
2.4988268
0
LINE
8
DEFAULT_255_2_778
10
27.3122754
20
3.0944268
11
26.9153754
21
3.0441268
0
LINE
8
DEFAULT_255_2_778
10
26.4430754
20
2.8838268
11
26.7213754
21
2.8282268
0
LINE
8
DEFAULT_255_2_778
10
25.7056754
20
2.2943268
11
26.1276754
21
2.2943268
0
ENDSEC
0
EOF