0
SECTION
2
HEADER
9
$MEASUREMENT
70
1
0
ENDSEC
0
SECTION
2
TABLES
0
TABLE
2
LTYPE
0
LTYPE
72
65
70
64
2
CONTINUOUS
3
______
73
0
40
0
0
ENDTAB
0
TABLE
2
LAYER
0
LAYER
2
DEFAULT_255_2_778
70
0
62
255
6
CONTINUOUS
0
ENDTAB
0
ENDSEC
0
SECTION
2
ENTITIES
0
ARC
8
DEFAULT_255_2_778
10
-0.490824
20
4.0487411
40
7.6122771
50
23.1091011
51
25.7217734
0
ARC
8
DEFAULT_255_2_778
10
2.1936806
20
5.3447647
40
4.6312987
50
25.6905421
51
29.1343749
0
ARC
8
DEFAULT_255_2_778
10
3.9978507
20
6.3566574
40
2.5627479
50
29.0116132
51
34.5105891
0
ARC
8
DEFAULT_255_2_778
10
5.0977343
20
7.1188162
40
1.2246223
50
34.2819538
51
43.3565102
0
ARC
8
DEFAULT_255_2_778
10
5.4273172
20
7.4174105
40
0.7800419
50
44.0296242
51
44.8494426
0
ARC
8
DEFAULT_255_2_778
10
5.976366
20
7.9665096
40
0.0041012
50
14.438237
51
101.889883
0
ARC
8
DEFAULT_255_2_778
10
5.9752279
20
7.9562157
40
0.0143101
50
88.8264335
51
89.9682823
0
ARC
8
DEFAULT_255_2_778
10
5.9858834
20
7.8878989
40
0.0833101
50
97.3428897
51
116.7617157
0
ARC
8
DEFAULT_255_2_778
10
6.2955171
20
7.1946007
40
0.8425262
50
114.3324608
51
119.6674331
0
ARC
8
DEFAULT_255_2_778
10
7.6916901
20
4.685169
40
3.7141733
50
119.2211823
51
121.200166
0
ARC
8
DEFAULT_255_2_778
10
10.7016182
20
-0.3217402
40
9.5561476
50
121.0853713
51
121.9300212
0
ARC
8
DEFAULT_255_2_778
10
15.9802519
20
-8.7997924
40
19.543206
50
121.9184403
51
122.4958269
0
ARC
8
DEFAULT_255_2_778
10
24.5246333
20
-22.2330701
40
35.4636127
50
122.4792231
51
122.7941814
0
ARC
8
DEFAULT_255_2_778
10
36.5732941
20
-40.9394374
40
57.7144194
50
122.790775
51
123.0118743
0
ARC
8
DEFAULT_255_2_778
10
5.7211214
20
7.8142973
40
0.9204098
50
211.2122335
51
218.8026307
0
ARC
8
DEFAULT_255_2_778
10
-2.9669558
20
1.2054716
40
9.9959643
50
34.4760722
51
37.1173578
0
ARC
8
DEFAULT_255_2_778
10
1.6811013
20
4.3934477
40
4.3596883
50
29.0355687
51
34.5160261
0
ARC
8
DEFAULT_255_2_778
10
3.1220682
20
5.2088863
40
2.7040832
50
28.682646
51
28.7479054
0
ARC
8
DEFAULT_255_2_778
10
1.642422
20
7.4018714
40
4.6428198
50
297.863725
51
320.8661987
0
ARC
8
DEFAULT_255_2_778
10
-7.0401522
20
4.9122991
40
8.574516
50
339.04298
51
345.9221416
0
ARC
8
DEFAULT_255_2_778
10
-5.8089698
20
4.4351337
40
7.2541131
50
328.8015291
51
339.0844185
0
ARC
8
DEFAULT_255_2_778
10
-5.3849719
20
4.1948366
40
6.7669745
50
327.5631064
51
328.6822476
0
ARC
8
DEFAULT_255_2_778
10
-2.1364524
20
-2.2399473
40
3.7328104
50
33.7618356
51
48.7198383
0
ARC
8
DEFAULT_255_2_778
10
-4.2611836
20
3.4784641
40
6.3726326
50
325.1234943
51
331.697015
0
ARC
8
DEFAULT_255_2_778
10
-5.5305169
20
4.166692
40
7.8165337
50
331.6668303
51
336.6216206
0
ARC
8
DEFAULT_255_2_778
10
-7.1310695
20
4.8604945
40
9.56099
50
336.6111777
51
340.7779123
0
ARC
8
DEFAULT_255_2_778
10
-9.1472259
20
5.5656403
40
11.6969006
50
340.7678557
51
344.2764849
0
ARC
8
DEFAULT_255_2_778
10
-10.7555084
20
6.0309307
40
13.3710993
50
344.2248839
51
345.2934619
0
ARC
8
DEFAULT_255_2_778
10
2.1522527
20
1.2452634
40
0.2573961
50
286.643419
51
353.3894993
0
ARC
8
DEFAULT_255_2_778
10
2.0099581
20
1.5989901
40
0.6380209
50
274.0430843
51
289.7899572
0
ARC
8
DEFAULT_255_2_778
10
1.9615084
20
2.0640834
40
1.1054818
50
269.8671006
51
274.8483718
0
ARC
8
DEFAULT_255_2_778
10
1.960704
20
2.4329434
40
1.4743398
50
266.67919
51
269.931611
0
ARC
8
DEFAULT_255_2_778
10
1.9775836
20
2.7475429
40
1.7893893
50
264.9745946
51
266.723137
0
ARC
8
DEFAULT_255_2_778
10
-1.8750706
20
0.1464563
40
3.7854728
50
0.1995002
51
12.4883667
0
ARC
8
DEFAULT_255_2_778
10
-1.5825558
20
0.15962
40
3.492935
50
355.8086905
51
0.0002786
0
ARC
8
DEFAULT_255_2_778
10
1.8772085
20
4.6443943
40
4.7401221
50
270.2880328
51
274.4082146
0
ARC
8
DEFAULT_255_2_778
10
2.0222112
20
2.8199466
40
2.9099295
50
274.3227007
51
280.3371669
0
ARC
8
DEFAULT_255_2_778
10
2.2515703
20
1.5880525
40
1.6568806
50
280.1786239
51
289.4376686
0
ARC
8
DEFAULT_255_2_778
10
2.5158288
20
0.8547914
40
0.8774874
50
289.0993512
51
304.9396364
0
ARC
8
DEFAULT_255_2_778
10
2.7632607
20
0.5170993
40
0.4590517
50
303.7621803
51
358.4187686
0
ARC
8
DEFAULT_255_2_778
10
2.5497017
20
1.6486857
40
1.7864694
50
25.4556459
51
41.2647321
0
ARC
8
DEFAULT_255_2_778
10
3.3877375
20
3.9822805
40
1.7470527
50
296.3340763
51
303.4617881
0
ARC
8
DEFAULT_255_2_778
10
3.0769661
20
4.4524878
40
2.3106782
50
303.461763
51
309.8620648
0
ARC
8
DEFAULT_255_2_778
10
2.7516067
20
4.8529538
40
2.8266167
50
309.721537
51
311.7103081
0
ARC
8
DEFAULT_255_2_778
10
3.5656253
20
2.1607479
40
3.6751817
50
344.2552564
51
348.5635928
0
ARC
8
DEFAULT_255_2_778
10
5.1514287
20
1.7093053
40
2.0263817
50
337.8881564
51
344.3738217
0
ARC
8
DEFAULT_255_2_778
10
6.1185376
20
1.3109026
40
0.9804511
50
327.1824595
51
338.1841777
0
ARC
8
DEFAULT_255_2_778
10
6.6017432
20
0.991963
40
0.4015577
50
305.3170301
51
328.060893
0
ARC
8
DEFAULT_255_2_778
10
6.719857
20
0.8295622
40
0.2007781
50
270.5098885
51
304.6056306
0
ARC
8
DEFAULT_255_2_778
10
6.7219304
20
0.8302461
40
0.2014542
50
260.1990391
51
269.9184729
0
ARC
8
DEFAULT_255_2_778
10
4.3861567
20
-0.218231
40
1.9015403
50
0.0046266
51
25.5644105
0
ARC
8
DEFAULT_255_2_778
10
4.3869173
20
-0.218068
40
1.9007797
50
356.1890645
51
359.999717
0
ARC
8
DEFAULT_255_2_778
10
4.3876604
20
-0.218135
40
1.9000338
50
355.4619498
51
356.1895913
0
ARC
8
DEFAULT_255_2_778
10
6.0503699
20
7.1319628
40
7.5039983
50
271.7668573
51
274.4985555
0
ARC
8
DEFAULT_255_2_778
10
6.2584142
20
4.5487671
40
4.9124452
50
274.4426522
51
278.4244617
0
ARC
8
DEFAULT_255_2_778
10
6.5397661
20
2.6688569
40
3.0116012
50
278.3693057
51
283.7884614
0
ARC
8
DEFAULT_255_2_778
10
6.8526016
20
1.4144937
40
1.718832
50
283.6265205
51
292.1287461
0
ARC
8
DEFAULT_255_2_778
10
7.1710107
20
0.6460973
40
0.8871117
50
291.7729681
51
306.5158335
0
ARC
8
DEFAULT_255_2_778
10
7.3825868
20
0.352063
40
0.5249245
50
307.0530234
51
319.5832598
0
ARC
8
DEFAULT_255_2_778
10
7.328271
20
0.4184854
40
0.6095358
50
318.1397166
51
328.5802334
0
ARC
8
DEFAULT_255_2_778
10
6.9577818
20
0.6483433
40
1.0455308
50
328.4149228
51
335.8208482
0
ARC
8
DEFAULT_255_2_778
10
6.6933691
20
0.7747314
40
1.338532
50
335.5212598
51
335.7341953
0
ARC
8
DEFAULT_255_2_778
10
6.4714661
20
0.8717301
40
1.5806955
50
335.8344869
51
339.7084684
0
ARC
8
DEFAULT_255_2_778
10
6.0763675
20
1.0202324
40
2.0027758
50
339.6436073
51
341.7167599
0
ARC
8
DEFAULT_255_2_778
10
-1.384152
20
3.4942611
40
9.8628109
50
341.6664617
51
343.4122267
0
ARC
8
DEFAULT_255_2_778
10
-8.6270446
20
5.6637107
40
17.4236266
50
343.3746211
51
344.4031837
0
ARC
8
DEFAULT_255_2_778
10
-18.1877911
20
8.3445111
40
27.3531019
50
344.3790446
51
344.9286268
0
ARC
8
DEFAULT_255_2_778
10
-34.4212103
20
12.7064709
40
44.1623416
50
344.9404689
51
345.5047176
0
ARC
8
DEFAULT_255_2_778
10
-69.7216985
20
21.8430956
40
80.6260538
50
345.4975632
51
345.8388063
0
ARC
8
DEFAULT_255_2_778
10
-82.6991644
20
25.1480127
40
94.017706
50
345.8208051
51
345.8307734
0
ARC
8
DEFAULT_255_2_778
10
11.4001652
20
7.5138725
40
5.7035937
50
228.6016954
51
235.1215545
0
ARC
8
DEFAULT_255_2_778
10
9.5207291
20
4.8229329
40
2.4213057
50
235.1936768
51
240.5066837
0
ARC
8
DEFAULT_255_2_778
10
8.9118531
20
3.7548348
40
1.1918632
50
240.7050033
51
246.0925271
0
ARC
8
DEFAULT_255_2_778
10
15.5504203
20
-2.8606081
40
9.0098693
50
133.4018739
51
140.7922951
0
ARC
8
DEFAULT_255_2_778
10
10.6321012
20
8.1965303
40
4.6870319
50
248.3515854
51
254.2472874
0
ARC
8
DEFAULT_255_2_778
10
10.1368585
20
6.95539
40
3.3507362
50
240.7750095
51
248.3933365
0
ARC
8
DEFAULT_255_2_778
10
9.6515817
20
6.0969534
40
2.3646431
50
229.6752061
51
240.8811909
0
ARC
8
DEFAULT_255_2_778
10
9.3100936
20
5.684604
40
1.8293006
50
220.9395522
51
229.4718405
0
ARC
8
DEFAULT_255_2_778
10
5.7329374
20
6.1953422
40
1.4924576
50
324.7431676
51
339.5721017
0
ARC
8
DEFAULT_255_2_778
10
-1.0616614
20
15.468427
40
12.338052
50
315.4534945
51
322.0104205
0
ARC
8
DEFAULT_255_2_778
10
7.9000198
20
7.8580018
40
0.1339587
50
353.971131
51
359.8123705
0
ARC
8
DEFAULT_255_2_778
10
7.9609923
20
7.8576058
40
0.0729854
50
359.966446
51
87.7926128
0
ARC
8
DEFAULT_255_2_778
10
7.8343294
20
7.3925595
40
0.5533384
50
76.4680677
51
84.9291471
0
ARC
8
DEFAULT_255_2_778
10
7.2552424
20
3.90522
40
4.0870476
50
81.161202
51
83.8815855
0
ARC
8
DEFAULT_255_2_778
10
7.0004416
20
1.5631691
40
6.4429164
50
83.848459
51
86.0725052
0
ARC
8
DEFAULT_255_2_778
10
6.8204692
20
-1.005234
40
9.0176154
50
86.0494449
51
87.8691752
0
ARC
8
DEFAULT_255_2_778
10
6.7201477
20
-3.652195
40
11.6664764
50
87.8601651
51
89.4971415
0
ARC
8
DEFAULT_255_2_778
10
14.2221131
20
1.8884817
40
6.3669393
50
108.4678912
51
110.3757735
0
ARC
8
DEFAULT_255_2_778
10
16.781322
20
-5.0444794
40
13.7571624
50
110.3140877
51
111.2755682
0
ARC
8
DEFAULT_255_2_778
10
22.5133617
20
-19.7771564
40
29.5656425
50
111.2669814
51
111.8624195
0
ARC
8
DEFAULT_255_2_778
10
37.0011064
20
-55.949567
40
68.5314967
50
111.8423087
51
112.088907
0
ARC
8
DEFAULT_255_2_778
10
88.8111116
20
-183.6561237
40
206.347465
50
112.0844173
51
112.1762457
0
ARC
8
DEFAULT_255_2_778
10
1.5090698
20
4.1368821
40
9.9731768
50
9.8665894
51
19.2639171
0
ARC
8
DEFAULT_255_2_778
10
21.1574858
20
1.6344386
40
6.3434961
50
169.1573236
51
172.103427
0
ARC
8
DEFAULT_255_2_778
10
20.2345946
20
1.7622781
40
5.4117927
50
172.1016865
51
175.3099148
0
ARC
8
DEFAULT_255_2_778
10
19.4353089
20
1.8272577
40
4.6098701
50
175.3025518
51
179.0300135
0
ARC
8
DEFAULT_255_2_778
10
19.0003516
20
1.8381634
40
4.174792
50
179.0786092
51
179.9969591
0
ARC
8
DEFAULT_255_2_778
10
18.446808
20
1.8296853
40
3.6212589
50
179.862353
51
186.7422079
0
ARC
8
DEFAULT_255_2_778
10
17.6755501
20
1.7365619
40
2.8444024
50
186.703293
51
195.7898674
0
ARC
8
DEFAULT_255_2_778
10
17.1267917
20
1.5787945
40
2.2734222
50
195.7270744
51
209.3657093
0
ARC
8
DEFAULT_255_2_778
10
16.940283
20
1.481725
40
2.0632887
50
209.5563104
51
214.4000954
0
ARC
8
DEFAULT_255_2_778
10
16.3846962
20
1.1095912
40
1.39464
50
214.6809688
51
227.2683597
0
ARC
8
DEFAULT_255_2_778
10
16.0502772
20
0.7395752
40
0.8959398
50
226.9207258
51
251.6605748
0
ARC
8
DEFAULT_255_2_778
10
16.0171586
20
0.6723742
40
0.8217959
50
252.3781563
51
270.2312158
0
ARC
8
DEFAULT_255_2_778
10
16.0189172
20
0.8151879
40
0.9646043
50
270.0925268
51
277.7225844
0
ARC
8
DEFAULT_255_2_778
10
16.1660585
20
0.19336
40
0.3344871
50
266.9973905
51
269.9993263
0
ARC
8
DEFAULT_255_2_778
10
16.16449
20
0.2129769
40
0.3541075
50
270.2531509
51
290.5085965
0
ARC
8
DEFAULT_255_2_778
10
16.1380046
20
0.2903695
40
0.4358803
50
290.2052651
51
297.1064823
0
ARC
8
DEFAULT_255_2_778
10
16.0309634
20
0.4769155
40
0.6507904
50
298.0120264
51
315.3922303
0
ARC
8
DEFAULT_255_2_778
10
15.6120016
20
0.9026109
40
1.2480379
50
314.9859363
51
324.8583661
0
ARC
8
DEFAULT_255_2_778
10
14.8456566
20
1.4507195
40
2.1902051
50
324.6726859
51
330.9646857
0
ARC
8
DEFAULT_255_2_778
10
13.6577715
20
2.1156695
40
3.5515335
50
330.8865837
51
335.359653
0
ARC
8
DEFAULT_255_2_778
10
12.0017218
20
2.8809429
40
5.3758489
50
335.3047866
51
338.4879381
0
ARC
8
DEFAULT_255_2_778
10
9.7556932
20
3.7680381
40
7.7907155
50
338.4755219
51
341.1270369
0
ARC
8
DEFAULT_255_2_778
10
6.843318
20
4.7685377
40
10.8701494
50
341.1025683
51
343.0827734
0
ARC
8
DEFAULT_255_2_778
10
4.8947085
20
5.3723953
40
12.9101559
50
343.0352834
51
343.2875168
0
ARC
8
DEFAULT_255_2_778
10
8.8274305
20
4.5063212
40
7.9091047
50
340.4993886
51
341.9859743
0
ARC
8
DEFAULT_255_2_778
10
12.0582622
20
3.3607361
40
4.4811848
50
338.5484396
51
340.51685
0
ARC
8
DEFAULT_255_2_778
10
14.1721079
20
2.5248114
40
2.2080672
50
335.0314118
51
338.6769814
0
ARC
8
DEFAULT_255_2_778
10
15.4168815
20
1.9405382
40
0.8330075
50
328.3569624
51
335.3217523
0
ARC
8
DEFAULT_255_2_778
10
15.9490846
20
1.6061374
40
0.2045634
50
310.9477644
51
329.8917891
0
ARC
8
DEFAULT_255_2_778
10
16.0556159
20
1.4830769
40
0.041798
50
273.6815849
51
311.2032207
0
ARC
8
DEFAULT_255_2_778
10
16.060659
20
1.4744976
40
0.0332162
50
208.341776
51
265.9270651
0
ARC
8
DEFAULT_255_2_778
10
16.1416896
20
1.5295779
40
0.1310649
50
197.1132089
51
212.7220982
0
ARC
8
DEFAULT_255_2_778
10
16.3153084
20
1.5890148
40
0.3145388
50
192.5940575
51
198.1545101
0
ARC
8
DEFAULT_255_2_778
10
17.4643086
20
1.8478975
40
1.4923422
50
186.9112488
51
192.6755851
0
ARC
8
DEFAULT_255_2_778
10
18.1294533
20
1.9297887
40
2.1625082
50
182.3340706
51
186.9445827
0
ARC
8
DEFAULT_255_2_778
10
18.8381292
20
1.9630619
40
2.8719548
50
179.9572702
51
182.4215348
0
ARC
8
DEFAULT_255_2_778
10
19.7599695
20
1.9582681
40
3.7938008
50
176.33319
51
179.8952541
0
ARC
8
DEFAULT_255_2_778
10
21.1648497
20
1.8705279
40
5.2014168
50
173.5481774
51
176.3583866
0
ARC
8
DEFAULT_255_2_778
10
22.8023568
20
1.6872688
40
6.8491458
50
171.2817714
51
173.5641097
0
ARC
8
DEFAULT_255_2_778
10
24.0292442
20
1.5052544
40
8.0894484
50
170.6383287
51
171.3246536
0
ARC
8
DEFAULT_255_2_778
10
9.3091423
20
1.9652598
40
0.7736189
50
326.5364481
51
347.1670734
0
ARC
8
DEFAULT_255_2_778
10
8.7569959
20
2.3168315
40
1.4281423
50
316.0377325
51
326.9842998
0
ARC
8
DEFAULT_255_2_778
10
7.9529686
20
3.0810246
40
2.5373827
50
309.2971601
51
316.22017
0
ARC
8
DEFAULT_255_2_778
10
7.4049062
20
3.7227621
40
3.3811626
50
309.218317
51
309.5969323
0
ARC
8
DEFAULT_255_2_778
10
11.7662725
20
-1.6223664
40
3.5175268
50
129.2074594
51
131.248728
0
ARC
8
DEFAULT_255_2_778
10
9.680294
20
0.7430326
40
0.3638506
50
129.8666751
51
140.79715
0
ARC
8
DEFAULT_255_2_778
10
9.4296483
20
0.9490071
40
0.03945
50
142.5216703
51
159.3303182
0
ARC
8
DEFAULT_255_2_778
10
11.8265597
20
1.7558467
40
2.5597272
50
198.0450847
51
213.0058744
0
ARC
8
DEFAULT_255_2_778
10
12.2258447
20
2.0080741
40
3.031974
50
212.8928879
51
222.202618
0
ARC
8
DEFAULT_255_2_778
10
9.9819271
20
-0.0216288
40
0.0073427
50
253.4673011
51
270.8351679
0
ARC
8
DEFAULT_255_2_778
10
9.9610665
20
0.0543766
40
0.0859443
50
284.1207777
51
311.8810293
0
ARC
8
DEFAULT_255_2_778
10
9.4646392
20
0.7275067
40
0.9219766
50
306.9178075
51
312.061663
0
ARC
8
DEFAULT_255_2_778
10
7.7306024
20
2.6787749
40
3.5323842
50
311.7401448
51
314.0104201
0
ARC
8
DEFAULT_255_2_778
10
3.6882098
20
6.8864213
40
9.3672047
50
313.9120395
51
315.0736941
0
ARC
8
DEFAULT_255_2_778
10
14.1609832
20
-3.2973335
40
5.2427028
50
135.0566201
51
137.1022617
0
ARC
8
DEFAULT_255_2_778
10
18.0889401
20
-7.1997144
40
10.7796104
50
133.9820142
51
135.1236625
0
ARC
8
DEFAULT_255_2_778
10
23.3813264
20
-12.6714879
40
18.3920751
50
133.3126442
51
134.0081838
0
ARC
8
DEFAULT_255_2_778
10
29.7533594
20
-19.4227026
40
27.6754842
50
132.862754
51
133.3234849
0
ARC
8
DEFAULT_255_2_778
10
38.8714037
20
-29.252017
40
41.0827265
50
132.397335
51
132.8586463
0
ARC
8
DEFAULT_255_2_778
10
53.3995691
20
-45.1607838
40
62.627017
50
132.0258638
51
132.3992417
0
ARC
8
DEFAULT_255_2_778
10
71.062217
20
-64.7434945
40
88.9984335
50
131.8136652
51
132.0326943
0
ARC
8
DEFAULT_255_2_778
10
93.7336303
20
-90.0944475
40
123.0081935
50
131.5828718
51
131.8116389
0
ARC
8
DEFAULT_255_2_778
10
126.8870693
20
-127.4512508
40
172.9549777
50
131.4116335
51
131.5844781
0
ARC
8
DEFAULT_255_2_778
10
154.1496844
20
-158.3393145
40
214.1535515
50
131.3662895
51
131.4156416
0
ARC
8
DEFAULT_255_2_778
10
1.0723274
20
-2.7289418
40
12.6303108
50
23.8742496
51
26.0283186
0
ARC
8
DEFAULT_255_2_778
10
8.3240541
20
5.0438348
40
1.6939269
50
199.2296081
51
212.4260893
0
ARC
8
DEFAULT_255_2_778
10
5.5339726
20
2.7878181
40
0.3662584
50
56.9838821
51
69.8786561
0
ARC
8
DEFAULT_255_2_778
10
5.6428121
20
3.0719614
40
0.0621749
50
73.981729
51
89.3314328
0
LINE
8
DEFAULT_255_2_778
10
6.8212376
20
7.9974321
11
6.4010376
21
6.5062321
0
LINE
8
DEFAULT_255_2_778
10
6.4010376
20
6.5062321
11
5.7205376
21
6.5062321
0
LINE
8
DEFAULT_255_2_778
10
5.7205376
20
6.5062321
11
5.9404376
21
6.6464321
0
LINE
8
DEFAULT_255_2_778
10
5.9404376
20
6.6464321
11
6.5106376
21
7.0364321
0
LINE
8
DEFAULT_255_2_778
10
5.1297376
20
7.4574321
11
4.9339376
21
7.3373321
0
LINE
8
DEFAULT_255_2_778
10
5.4943376
20
6.5067321
11
4.9334376
21
6.5067321
0
LINE
8
DEFAULT_255_2_778
10
4.9334376
20
6.5067321
11
4.7532376
21
5.6587321
0
LINE
8
DEFAULT_255_2_778
10
4.7532376
20
5.6587321
11
6.0142376
21
5.6587321
0
LINE
8
DEFAULT_255_2_778
10
6.0142376
20
5.6587321
11
5.8343376
21
5.3196321
0
LINE
8
DEFAULT_255_2_778
10
5.8343376
20
5.3196321
11
4.4727376
21
5.3196321
0
LINE
8
DEFAULT_255_2_778
10
4.4727376
20
5.3196321
11
4.3032376
21
4.4716321
0
LINE
8
DEFAULT_255_2_778
10
4.3032376
20
4.4716321
11
5.2437376
21
4.4716321
0
LINE
8
DEFAULT_255_2_778
10
3.8123376
20
3.2973321
11
4.6931376
21
7.5005321
0
LINE
8
DEFAULT_255_2_778
10
4.6931376
20
7.5005321
11
2.2677376
21
7.5005321
0
LINE
8
DEFAULT_255_2_778
10
2.2677376
20
7.5005321
11
1.3570376
21
3.1568321
0
LINE
8
DEFAULT_255_2_778
10
1.3570376
20
3.1568321
11
1.2768376
21
2.8266321
0
LINE
8
DEFAULT_255_2_778
10
2.1775376
20
2.6364321
11
2.7080376
21
2.6364321
0
LINE
8
DEFAULT_255_2_778
10
2.7080376
20
2.6364321
11
2.4079376
21
1.2156321
0
LINE
8
DEFAULT_255_2_778
10
3.2221376
20
0.5044321
11
3.7126376
21
2.8269321
0
LINE
8
DEFAULT_255_2_778
10
3.7126376
20
2.8269321
11
3.7425376
21
2.9867321
0
LINE
8
DEFAULT_255_2_778
10
3.7425376
20
2.9867321
11
3.8925376
21
2.8269321
0
LINE
8
DEFAULT_255_2_778
10
4.6323376
20
2.7428321
11
4.3061376
21
1.7022321
0
LINE
8
DEFAULT_255_2_778
10
4.3061376
20
1.7022321
11
7.2181376
21
1.7022321
0
LINE
8
DEFAULT_255_2_778
10
7.2181376
20
1.7022321
11
7.1678376
21
1.4320321
0
LINE
8
DEFAULT_255_2_778
10
6.6876376
20
0.6317321
11
6.8474376
21
1.4320321
0
LINE
8
DEFAULT_255_2_778
10
6.8474376
20
1.4320321
11
3.7393376
21
1.4320321
0
LINE
8
DEFAULT_255_2_778
10
3.7393376
20
1.4320321
11
3.5591376
21
0.6023321
0
LINE
8
DEFAULT_255_2_778
10
3.5591376
20
0.6023321
11
6.1015376
21
0.6023321
0
LINE
8
DEFAULT_255_2_778
10
8.4582376
20
2.1337321
11
8.5690376
21
2.5740321
0
LINE
8
DEFAULT_255_2_778
10
8.5690376
20
2.5740321
11
7.4882376
21
2.5740321
0
LINE
8
DEFAULT_255_2_778
10
7.4882376
20
2.5740321
11
7.5483376
21
2.8348321
0
LINE
8
DEFAULT_255_2_778
10
7.5483376
20
2.8348321
11
7.6284376
21
3.2354321
0
LINE
8
DEFAULT_255_2_778
10
8.4288376
20
2.6652321
11
8.5690376
21
2.8348321
0
LINE
8
DEFAULT_255_2_778
10
7.9282376
20
4.4859321
11
9.3596376
21
4.4859321
0
LINE
8
DEFAULT_255_2_778
10
9.3596376
20
4.4859321
11
9.5292376
21
5.3338321
0
LINE
8
DEFAULT_255_2_778
10
9.5292376
20
5.3338321
11
6.9516376
21
5.3338321
0
LINE
8
DEFAULT_255_2_778
10
7.1315376
20
5.6744321
11
9.2530376
21
5.6744321
0
LINE
8
DEFAULT_255_2_778
10
9.2530376
20
5.6744321
11
9.4226376
21
6.5223321
0
LINE
8
DEFAULT_255_2_778
10
9.4226376
20
6.5223321
11
8.6619376
21
6.5223321
0
LINE
8
DEFAULT_255_2_778
10
8.6619376
20
6.5223321
11
9.5525376
21
7.3227321
0
LINE
8
DEFAULT_255_2_778
10
9.5525376
20
7.3227321
11
8.6622376
21
7.8741321
0
LINE
8
DEFAULT_255_2_778
10
7.7314376
20
6.8134321
11
8.2714376
21
6.4832321
0
LINE
8
DEFAULT_255_2_778
10
8.2714376
20
6.4832321
11
7.5017376
21
6.4832321
0
LINE
8
DEFAULT_255_2_778
10
7.5017376
20
6.4832321
11
7.6126376
21
6.8335321
0
LINE
8
DEFAULT_255_2_778
10
7.6126376
20
6.8335321
11
7.7528376
21
7.1838321
0
LINE
8
DEFAULT_255_2_778
10
7.7528376
20
7.1838321
11
8.0332376
21
7.8439321
0
LINE
8
DEFAULT_255_2_778
10
6.8225376
20
8.0138321
11
6.8212376
21
7.9974321
0
LINE
8
DEFAULT_255_2_778
10
11.3347376
20
5.8458321
11
12.6759376
21
6.3260321
0
LINE
8
DEFAULT_255_2_778
10
12.6759376
20
6.3260321
11
12.2062376
21
7.9270321
0
LINE
8
DEFAULT_255_2_778
10
12.2062376
20
7.9270321
11
12.2052376
21
7.9275321
0
LINE
8
DEFAULT_255_2_778
10
13.1969376
20
7.4709321
11
12.9865376
21
6.5004321
0
LINE
8
DEFAULT_255_2_778
10
12.9865376
20
6.5004321
11
13.7869376
21
6.5004321
0
LINE
8
DEFAULT_255_2_778
10
13.7869376
20
6.5004321
11
13.4067376
21
4.6888321
0
LINE
8
DEFAULT_255_2_778
10
13.4067376
20
4.6888321
11
12.4052376
21
4.6888321
0
LINE
8
DEFAULT_255_2_778
10
12.4052376
20
4.6888321
11
12.1951376
21
3.7180321
0
LINE
8
DEFAULT_255_2_778
10
12.1951376
20
3.7180321
11
13.2064376
21
3.7180321
0
LINE
8
DEFAULT_255_2_778
10
13.2064376
20
3.7180321
11
13.0106376
21
2.8274321
0
LINE
8
DEFAULT_255_2_778
10
13.0106376
20
2.8274321
11
12.3999376
21
-0.0649679
0
LINE
8
DEFAULT_255_2_778
10
12.3999376
20
-0.0649679
11
13.5207376
21
-0.0649679
0
LINE
8
DEFAULT_255_2_778
10
13.5207376
20
-0.0649679
11
14.1208376
21
2.8274321
0
LINE
8
DEFAULT_255_2_778
10
14.1208376
20
2.8274321
11
14.3166376
21
3.7180321
0
LINE
8
DEFAULT_255_2_778
10
14.3166376
20
3.7180321
11
15.1169376
21
3.7180321
0
LINE
8
DEFAULT_255_2_778
10
15.1169376
20
3.7180321
11
14.9571376
21
2.9875321
0
LINE
8
DEFAULT_255_2_778
10
14.9571376
20
2.9875321
11
14.9272376
21
2.8277321
0
LINE
8
DEFAULT_255_2_778
10
17.2595376
20
1.6598321
11
16.3488376
21
2.0604321
0
LINE
8
DEFAULT_255_2_778
10
16.0475376
20
2.8211321
11
16.1676376
21
3.4317321
0
LINE
8
DEFAULT_255_2_778
10
16.1676376
20
3.4317321
11
17.0182376
21
7.4645321
0
LINE
8
DEFAULT_255_2_778
10
17.0182376
20
7.4645321
11
13.1969376
21
7.4709321
0
LINE
8
DEFAULT_255_2_778
10
3.0199376
20
6.6470321
11
3.5504376
21
6.6470321
0
LINE
8
DEFAULT_255_2_778
10
3.5504376
20
6.6470321
11
3.2985376
21
5.4558321
0
LINE
8
DEFAULT_255_2_778
10
3.2985376
20
5.4558321
11
2.7778376
21
5.4558321
0
LINE
8
DEFAULT_255_2_778
10
2.7778376
20
5.4558321
11
3.0199376
21
6.6470321
0
LINE
8
DEFAULT_255_2_778
10
14.8928376
20
6.5067321
11
15.7408376
21
6.5067321
0
LINE
8
DEFAULT_255_2_778
10
15.7408376
20
6.5067321
11
15.3540376
21
4.6951321
0
LINE
8
DEFAULT_255_2_778
10
15.3540376
20
4.6951321
11
14.5060376
21
4.6951321
0
LINE
8
DEFAULT_255_2_778
10
14.5060376
20
4.6951321
11
14.8928376
21
6.5067321
0
LINE
8
DEFAULT_255_2_778
10
9.8221376
20
5.3762321
11
9.6120376
21
4.3956321
0
LINE
8
DEFAULT_255_2_778
10
9.6120376
20
4.3956321
11
10.6037376
21
4.3956321
0
LINE
8
DEFAULT_255_2_778
10
10.6037376
20
4.3956321
11
10.2735376
21
2.8346321
0
LINE
8
DEFAULT_255_2_778
10
10.2735376
20
2.8346321
11
10.0634376
21
1.7934321
0
LINE
8
DEFAULT_255_2_778
10
12.4216376
20
2.8134321
11
12.4118376
21
2.8330321
0
LINE
8
DEFAULT_255_2_778
10
12.4118376
20
2.8330321
11
12.2319376
21
3.2336321
0
LINE
8
DEFAULT_255_2_778
10
12.2319376
20
3.2336321
11
11.7623376
21
2.8330321
0
LINE
8
DEFAULT_255_2_778
10
11.7623376
20
2.8330321
11
11.2717376
21
2.4221321
0
LINE
8
DEFAULT_255_2_778
10
11.2717376
20
2.4221321
11
11.3617376
21
2.8330321
0
LINE
8
DEFAULT_255_2_778
10
11.3617376
20
2.8330321
11
11.8922376
21
5.3751321
0
LINE
8
DEFAULT_255_2_778
10
11.8922376
20
5.3751321
11
9.8308376
21
5.3751321
0
LINE
8
DEFAULT_255_2_778
10
9.8308376
20
5.3751321
11
9.8221376
21
5.3762321
0
LINE
8
DEFAULT_255_2_778
10
2.5807376
20
4.6261321
11
3.1012376
21
4.6261321
0
LINE
8
DEFAULT_255_2_778
10
3.1012376
20
4.6261321
11
2.8884376
21
3.5209321
0
LINE
8
DEFAULT_255_2_778
10
2.8884376
20
3.5209321
11
2.3680376
21
3.5209321
0
LINE
8
DEFAULT_255_2_778
10
2.3680376
20
3.5209321
11
2.5807376
21
4.6261321
0
LINE
8
DEFAULT_255_2_778
10
6.4140376
20
4.4859321
11
6.7246376
21
4.4859321
0
LINE
8
DEFAULT_255_2_778
10
6.8942376
20
4.1355321
11
6.1335376
21
4.1355321
0
LINE
8
DEFAULT_255_2_778
10
6.1335376
20
4.1355321
11
6.2738376
21
4.3155321
0
LINE
8
DEFAULT_255_2_778
10
6.2738376
20
4.3155321
11
6.4140376
21
4.4859321
0
LINE
8
DEFAULT_255_2_778
10
5.3332376
20
3.3442321
11
6.5844376
21
3.3442321
0
LINE
8
DEFAULT_255_2_778
10
6.5844376
20
3.3442321
11
6.4846376
21
2.8341321
0
LINE
8
DEFAULT_255_2_778
10
6.4846376
20
2.8341321
11
6.4148376
21
2.5438321
0
LINE
8
DEFAULT_255_2_778
10
6.4148376
20
2.5438321
11
5.5536376
21
2.5438321
0
LINE
8
DEFAULT_255_2_778
10
5.5536376
20
2.5438321
11
5.6435376
21
2.8341321
0
LINE
8
DEFAULT_255_2_778
10
5.6435376
20
2.8341321
11
5.7335376
21
3.0949321
0
LINE
8
DEFAULT_255_2_778
10
5.6435376
20
3.1341321
11
5.1231376
21
3.1341321
0
LINE
8
DEFAULT_255_2_778
10
5.1231376
20
3.1341321
11
5.3332376
21
3.3442321
0
ENDSEC
0
EOF