0
SECTION
2
HEADER
9
$MEASUREMENT
70
1
0
ENDSEC
0
SECTION
2
TABLES
0
TABLE
2
LTYPE
0
LTYPE
72
65
70
64
2
CONTINUOUS
3
______
73
0
40
0
0
ENDTAB
0
TABLE
2
LAYER
0
LAYER
2
DEFAULT_255_2_778
70
0
62
255
6
CONTINUOUS
0
ENDTAB
0
ENDSEC
0
SECTION
2
ENTITIES
0
ARC
8
DEFAULT_255_2_778
10
11.1236557
20
-12.352481
40
25.6000505
50
89.1164498
51
90.0278401
0
ARC
8
DEFAULT_255_2_778
10
11.2608505
20
-3.8510634
40
17.0975292
50
87.6860566
51
89.13684
0
ARC
8
DEFAULT_255_2_778
10
11.5149232
20
2.3010066
40
10.9402188
50
85.4936429
51
87.7147349
0
ARC
8
DEFAULT_255_2_778
10
11.8401007
20
6.3795489
40
6.8487368
50
82.3313904
51
85.5247844
0
ARC
8
DEFAULT_255_2_778
10
12.1955122
20
8.9871783
40
4.2170037
50
77.6206949
51
82.3893023
0
ARC
8
DEFAULT_255_2_778
10
12.5606951
20
10.6296421
40
2.534443
50
70.3078033
51
77.7241592
0
ARC
8
DEFAULT_255_2_778
10
12.9105764
20
11.5934037
40
1.5091544
50
58.2300113
51
70.4848442
0
ARC
8
DEFAULT_255_2_778
10
13.1873205
20
12.0362582
40
0.986947
50
13.707356
51
58.3525909
0
ARC
8
DEFAULT_255_2_778
10
12.455341
20
11.8183717
40
1.7501273
50
5.4293719
51
14.9589939
0
ARC
8
DEFAULT_255_2_778
10
13.8891823
20
12.8052673
40
0.8773066
50
290.5833463
51
291.128749
0
ARC
8
DEFAULT_255_2_778
10
13.3285058
20
14.2565194
40
2.4330992
50
291.1254138
51
292.0378228
0
ARC
8
DEFAULT_255_2_778
10
12.7674131
20
15.6454979
40
3.9311264
50
292.0221788
51
293.0821369
0
ARC
8
DEFAULT_255_2_778
10
12.3245023
20
16.6867104
40
5.0626268
50
293.0735964
51
294.2564293
0
ARC
8
DEFAULT_255_2_778
10
12.0021908
20
17.4028394
40
5.8479454
50
294.2530545
51
295.6824085
0
ARC
8
DEFAULT_255_2_778
10
11.8067114
20
17.810599
40
6.3001399
50
295.6774268
51
297.2903989
0
ARC
8
DEFAULT_255_2_778
10
11.7437986
20
17.9336643
40
6.4383528
50
297.2858128
51
299.5165137
0
ARC
8
DEFAULT_255_2_778
10
11.84169
20
17.7630717
40
6.2416721
50
299.5060515
51
302.4159557
0
ARC
8
DEFAULT_255_2_778
10
12.1251756
20
17.3202805
40
5.7159118
50
302.396419
51
306.3244255
0
ARC
8
DEFAULT_255_2_778
10
12.3583106
20
16.9968947
40
5.31727
50
306.3646016
51
306.9933208
0
ARC
8
DEFAULT_255_2_778
10
12.6248519
20
16.6511442
40
4.8807356
50
306.9364744
51
311.6644944
0
ARC
8
DEFAULT_255_2_778
10
13.227648
20
15.9843866
40
3.9819211
50
311.5626177
51
319.9090268
0
ARC
8
DEFAULT_255_2_778
10
13.7821112
20
15.5098746
40
3.2521625
50
320.0136157
51
326.2541619
0
ARC
8
DEFAULT_255_2_778
10
10.7764707
20
1.3808579
40
13.5810195
50
65.138365
51
65.33443
0
ARC
8
DEFAULT_255_2_778
10
10.4562463
20
0.6576106
40
14.3719177
50
65.3775636
51
69.8748424
0
ARC
8
DEFAULT_255_2_778
10
9.9519833
20
-0.7058717
40
15.8256536
50
69.8591357
51
73.2853738
0
ARC
8
DEFAULT_255_2_778
10
9.6315736
20
-1.7630424
40
16.9303094
50
73.2758151
51
75.9369197
0
ARC
8
DEFAULT_255_2_778
10
9.4541579
20
-2.4648118
40
17.6541562
50
75.9318071
51
78.1347152
0
ARC
8
DEFAULT_255_2_778
10
9.3868893
20
-2.7795031
40
17.975955
50
78.1311222
51
79.9064152
0
ARC
8
DEFAULT_255_2_778
10
9.3988392
20
-2.7089049
40
17.9043554
50
79.90447
51
81.3293475
0
ARC
8
DEFAULT_255_2_778
10
9.459732
20
-2.307772
40
17.4986271
50
81.3284447
51
82.486609
0
ARC
8
DEFAULT_255_2_778
10
9.5466858
20
-1.648078
40
16.833227
50
82.4864288
51
83.4377721
0
ARC
8
DEFAULT_255_2_778
10
9.6445816
20
-0.7975924
40
15.9771257
50
83.4379835
51
84.2264588
0
ARC
8
DEFAULT_255_2_778
10
9.7694409
20
0.449058
40
14.7242389
50
84.2218547
51
85.1989875
0
ARC
8
DEFAULT_255_2_778
10
9.9296866
20
2.3680297
40
12.7985882
50
85.194843
51
86.1550754
0
ARC
8
DEFAULT_255_2_778
10
10.0817256
20
4.6223181
40
10.5391785
50
86.1579719
51
86.8665631
0
ARC
8
DEFAULT_255_2_778
10
10.2211452
20
7.1929966
40
7.9647225
50
86.8571676
51
87.611189
0
ARC
8
DEFAULT_255_2_778
10
10.3452745
20
10.1717752
40
4.9833587
50
87.6096287
51
88.2037143
0
ARC
8
DEFAULT_255_2_778
10
10.4388889
20
13.1885661
40
1.9651161
50
88.1746792
51
88.6870378
0
ARC
8
DEFAULT_255_2_778
10
7.0331887
20
12.758504
40
2.3955234
50
91.3460316
51
91.9741545
0
ARC
8
DEFAULT_255_2_778
10
7.1531615
20
9.1748315
40
5.9812029
50
91.9401364
51
92.6889298
0
ARC
8
DEFAULT_255_2_778
10
7.2992928
20
6.0249138
40
9.1345082
50
92.6776202
51
93.4788282
0
ARC
8
DEFAULT_255_2_778
10
7.4504797
20
3.5149552
40
11.6490158
50
93.4719653
51
94.2683674
0
ARC
8
DEFAULT_255_2_778
10
7.5914262
20
1.6152185
40
13.5539738
50
94.2648235
51
95.0538529
0
ARC
8
DEFAULT_255_2_778
10
7.7165356
20
0.1940316
40
14.9806569
50
95.0516645
51
95.8312221
0
ARC
8
DEFAULT_255_2_778
10
7.8456941
20
-1.0626496
40
16.2439577
50
95.8340908
51
97.0005308
0
ARC
8
DEFAULT_255_2_778
10
7.9699805
20
-2.0785869
40
17.2674692
50
96.9990006
51
98.330444
0
ARC
8
DEFAULT_255_2_778
10
8.0522785
20
-2.6450203
40
17.8398498
50
98.3284006
51
99.7986063
0
ARC
8
DEFAULT_255_2_778
10
8.0779121
20
-2.7972638
40
17.9942347
50
99.7965366
51
101.5528595
0
ARC
8
DEFAULT_255_2_778
10
8.0299165
20
-2.5664439
40
17.758479
50
101.5502898
51
103.5060299
0
ARC
8
DEFAULT_255_2_778
10
7.8918963
20
-1.9967335
40
17.1722894
50
103.5021969
51
105.8490314
0
ARC
8
DEFAULT_255_2_778
10
7.6359171
20
-1.1021925
40
16.241846
50
105.8421677
51
108.8055902
0
ARC
8
DEFAULT_255_2_778
10
7.2104454
20
0.1349854
40
14.9335577
50
108.7904548
51
112.8611707
0
ARC
8
DEFAULT_255_2_778
10
6.809658
20
1.1037419
40
13.8851943
50
112.8902884
51
114.6580835
0
ARC
8
DEFAULT_255_2_778
10
6.668664
20
1.4144056
40
13.5440361
50
114.6643121
51
114.8595391
0
ARC
8
DEFAULT_255_2_778
10
3.8870603
20
15.6647294
40
3.5110847
50
213.9584635
51
225.7290339
0
ARC
8
DEFAULT_255_2_778
10
4.6096135
20
16.3833532
40
4.5300603
50
225.5298974
51
231.365337
0
ARC
8
DEFAULT_255_2_778
10
4.9782694
20
16.8333081
40
5.1117153
50
231.2863994
51
233.0279824
0
ARC
8
DEFAULT_255_2_778
10
5.2911701
20
17.2558938
40
5.6375192
50
233.070343
51
237.3656301
0
ARC
8
DEFAULT_255_2_778
10
5.6006113
20
17.7338628
40
6.2069056
50
237.3394867
51
240.281469
0
ARC
8
DEFAULT_255_2_778
10
5.7130594
20
17.9284512
40
6.4316452
50
240.2708428
51
242.5464969
0
ARC
8
DEFAULT_255_2_778
10
5.6644877
20
17.8337822
40
6.3252446
50
242.5415756
51
244.1696738
0
ARC
8
DEFAULT_255_2_778
10
5.4772594
20
17.4454964
40
5.8941763
50
244.1632867
51
245.690604
0
ARC
8
DEFAULT_255_2_778
10
5.1728623
20
16.7719356
40
5.1550271
50
245.69202
51
246.7746184
0
ARC
8
DEFAULT_255_2_778
10
4.7581351
20
15.8031978
40
4.1012479
50
246.7620048
51
247.8752331
0
ARC
8
DEFAULT_255_2_778
10
4.2267268
20
14.4956145
40
2.6898058
50
247.8711944
51
248.721339
0
ARC
8
DEFAULT_255_2_778
10
3.6522163
20
13.0183047
40
1.1047173
50
248.6809916
51
249.3936737
0
ARC
8
DEFAULT_255_2_778
10
4.9317132
20
11.829578
40
1.6754528
50
162.9734167
51
174.7025461
0
ARC
8
DEFAULT_255_2_778
10
4.2730539
20
12.041478
40
0.9836639
50
119.1596638
51
163.5411384
0
ARC
8
DEFAULT_255_2_778
10
4.5946183
20
11.501992
40
1.6115589
50
108.4196863
51
119.7978257
0
ARC
8
DEFAULT_255_2_778
10
4.9330618
20
10.5154234
40
2.6545394
50
102.046481
51
108.6219988
0
ARC
8
DEFAULT_255_2_778
10
5.2753658
20
8.9364306
40
4.2702043
50
97.6351839
51
102.1165486
0
ARC
8
DEFAULT_255_2_778
10
5.624018
20
6.3674827
40
6.8627012
50
94.4518658
51
97.6705633
0
ARC
8
DEFAULT_255_2_778
10
5.9497527
20
2.269757
40
10.9733496
50
92.2892685
51
94.4867453
0
ARC
8
DEFAULT_255_2_778
10
6.1932992
20
-3.5567189
40
16.8049072
50
90.9896335
51
92.325462
0
ARC
8
DEFAULT_255_2_778
10
6.3379373
20
-11.7352865
40
24.984753
50
90.0085323
51
90.9973394
0
ARC
8
DEFAULT_255_2_778
10
8.8932567
20
-5.4049077
40
21.1764933
50
90.0001554
51
90.4381544
0
ARC
8
DEFAULT_255_2_778
10
8.8957874
20
-5.0746997
40
20.8462854
50
86.8739667
51
90.0071136
0
ARC
8
DEFAULT_255_2_778
10
8.9265579
20
-4.5133362
40
20.2840793
50
83.482181
51
86.8742835
0
ARC
8
DEFAULT_255_2_778
10
8.9853098
20
-4.0004755
40
19.7678642
50
79.6248597
51
83.4826338
0
ARC
8
DEFAULT_255_2_778
10
9.0570427
20
-3.6049416
40
19.3658789
50
75.7084589
51
79.6228695
0
ARC
8
DEFAULT_255_2_778
10
9.1128996
20
-3.3825076
40
19.1365402
50
71.7532377
51
75.7061208
0
ARC
8
DEFAULT_255_2_778
10
9.1239674
20
-3.3462025
40
19.0985952
50
67.7923053
51
71.750669
0
ARC
8
DEFAULT_255_2_778
10
9.0924547
20
-3.4244187
40
19.18292
50
66.4475843
51
67.7934641
0
ARC
8
DEFAULT_255_2_778
10
5.0700721
20
20.6633284
40
13.3749111
50
330.9089739
51
332.0697649
0
ARC
8
DEFAULT_255_2_778
10
7.5040619
20
19.3744377
40
10.6207244
50
332.0626844
51
333.402022
0
ARC
8
DEFAULT_255_2_778
10
9.7672987
20
18.2420284
40
8.0899952
50
333.3967317
51
334.8320208
0
ARC
8
DEFAULT_255_2_778
10
11.835671
20
17.2717712
40
5.8053594
50
334.8174311
51
336.4672775
0
ARC
8
DEFAULT_255_2_778
10
13.7173845
20
16.4537024
40
3.7535115
50
336.4476609
51
338.2575024
0
ARC
8
DEFAULT_255_2_778
10
15.3068958
20
15.8207772
40
2.0426231
50
338.2318571
51
340.0607771
0
ARC
8
DEFAULT_255_2_778
10
16.5731703
20
15.36272
40
0.6960484
50
339.9595301
51
341.7000369
0
ARC
8
DEFAULT_255_2_778
10
8.2918969
20
-7.4480648
40
24.2975393
50
68.4060894
51
71.3020337
0
ARC
8
DEFAULT_255_2_778
10
8.4524678
20
-6.9739799
40
23.7970001
50
71.3023092
51
74.4192043
0
ARC
8
DEFAULT_255_2_778
10
8.5529546
20
-6.6153162
40
23.4245259
50
74.420325
51
77.5059543
0
ARC
8
DEFAULT_255_2_778
10
8.6065267
20
-6.3749449
40
23.1782573
50
77.5067008
51
80.7028196
0
ARC
8
DEFAULT_255_2_778
10
8.6285354
20
-6.2429448
40
23.0444356
50
80.7037999
51
83.6590163
0
ARC
8
DEFAULT_255_2_778
10
8.6340712
20
-6.195095
40
22.996267
50
83.6595573
51
86.58958
0
ARC
8
DEFAULT_255_2_778
10
8.6339535
20
-6.1991873
40
23.000359
50
86.5898936
51
89.3704598
0
ARC
8
DEFAULT_255_2_778
10
8.6337856
20
-6.2073151
40
23.0084882
50
89.3702643
51
89.7571275
0
ARC
8
DEFAULT_255_2_778
10
8.8287574
20
-6.2086076
40
23.0097804
50
90.2426343
51
93.0811947
0
ARC
8
DEFAULT_255_2_778
10
8.8282125
20
-6.1963483
40
22.9975095
50
93.0814808
51
96.0099638
0
ARC
8
DEFAULT_255_2_778
10
8.8320769
20
-6.231506
40
23.0328787
50
96.010367
51
98.7606719
0
ARC
8
DEFAULT_255_2_778
10
8.8491802
20
-6.3400757
40
23.1427867
50
98.7615825
51
101.8441193
0
ARC
8
DEFAULT_255_2_778
10
8.8928513
20
-6.5469498
40
23.35422
50
101.8448073
51
104.820944
0
ARC
8
DEFAULT_255_2_778
10
8.9789602
20
-6.8702003
40
23.6887427
50
104.8222908
51
107.964842
0
ARC
8
DEFAULT_255_2_778
10
9.1310106
20
-7.3374052
40
24.1800669
50
107.9661116
51
111.1397327
0
ARC
8
DEFAULT_255_2_778
10
9.2527613
20
-7.6599651
40
24.5248285
50
111.1332569
51
111.5903345
0
ARC
8
DEFAULT_255_2_778
10
1.4031171
20
15.5866119
40
1.2552606
50
200.6386474
51
201.4779001
0
ARC
8
DEFAULT_255_2_778
10
3.1186125
20
16.2582151
40
3.097534
50
201.4196505
51
202.2641717
0
ARC
8
DEFAULT_255_2_778
10
4.8896301
20
16.9837644
40
5.0114108
50
202.2694136
51
203.4180783
0
ARC
8
DEFAULT_255_2_778
10
6.7465276
20
17.7872657
40
7.034696
50
203.4125047
51
204.7073935
0
ARC
8
DEFAULT_255_2_778
10
8.4556278
20
18.5727867
40
8.9156707
50
204.7024636
51
206.0935045
0
ARC
8
DEFAULT_255_2_778
10
9.9233667
20
19.2904241
40
10.5494578
50
206.0876798
51
207.469339
0
ARC
8
DEFAULT_255_2_778
10
11.1660864
20
19.9359296
40
11.9498253
50
207.4669208
51
208.9017695
0
ARC
8
DEFAULT_255_2_778
10
8.3487264
20
-3.3725739
40
19.1269422
50
109.4410466
51
113.5563894
0
ARC
8
DEFAULT_255_2_778
10
8.3396683
20
-3.3498583
40
19.1025069
50
105.3577367
51
109.4381042
0
ARC
8
DEFAULT_255_2_778
10
8.3881136
20
-3.5297779
40
19.2888323
50
101.2687852
51
105.3549582
0
ARC
8
DEFAULT_255_2_778
10
8.4590651
20
-3.8882468
40
19.6542552
50
97.4898755
51
101.2674284
0
ARC
8
DEFAULT_255_2_778
10
8.5238844
20
-4.3846247
40
20.1548473
50
93.8331884
51
97.4886327
0
ARC
8
DEFAULT_255_2_778
10
8.5614149
20
-4.9321114
40
20.7036182
50
90.9243774
51
93.8355297
0
ARC
8
DEFAULT_255_2_778
10
8.5691418
20
-5.2866381
40
21.0582236
50
89.9993285
51
90.9298365
0
ARC
8
DEFAULT_255_2_778
10
8.5693305
20
-5.4169566
40
21.1885421
50
89.5619703
51
89.9998428
0
LINE
8
DEFAULT_255_2_778
10
8.7321166
20
-0.1323336
11
11.1112166
21
13.2475664
0
LINE
8
DEFAULT_255_2_778
10
10.4839166
20
15.1531664
11
8.7284166
21
13.0152664
0
LINE
8
DEFAULT_255_2_778
10
8.7284166
20
13.0152664
11
8.7324166
21
13.0155664
0
LINE
8
DEFAULT_255_2_778
10
8.7324166
20
13.0155664
11
6.9769166
21
15.1533664
0
LINE
8
DEFAULT_255_2_778
10
6.3342166
20
13.2494664
11
8.7321166
21
-0.1323336
0
ENDSEC
0
EOF