0
SECTION
2
HEADER
9
$MEASUREMENT
70
1
0
ENDSEC
0
SECTION
2
TABLES
0
TABLE
2
LTYPE
0
LTYPE
72
65
70
64
2
CONTINUOUS
3
______
73
0
40
0
0
ENDTAB
0
TABLE
2
LAYER
0
LAYER
2
DEFAULT_255_2_778
70
0
62
255
6
CONTINUOUS
0
ENDTAB
0
ENDSEC
0
SECTION
2
ENTITIES
0
LINE
8
DEFAULT_255_2_778
10
10.2137662
20
6.5155664
11
10.2766662
21
6.7875664
0
LINE
8
DEFAULT_255_2_778
10
10.2766662
20
6.7875664
11
5.8650662
21
6.7875664
0
LINE
8
DEFAULT_255_2_778
10
5.8650662
20
6.7875664
11
5.8028662
21
6.5155664
0
LINE
8
DEFAULT_255_2_778
10
5.8028662
20
6.5155664
11
10.2137662
21
6.5155664
0
LINE
8
DEFAULT_255_2_778
10
12.7431662
20
16.8009664
11
12.5579662
21
16.8009664
0
LINE
8
DEFAULT_255_2_778
10
12.5579662
20
16.8009664
11
1.2038662
21
0.1189664
0
LINE
8
DEFAULT_255_2_778
10
1.2038662
20
0.1189664
11
0.2836662
21
0.1189664
0
LINE
8
DEFAULT_255_2_778
10
0.2836662
20
0.1189664
11
0.2214662
21
-0.1323336
0
LINE
8
DEFAULT_255_2_778
10
0.2214662
20
-0.1323336
11
3.0638662
21
-0.1323336
0
LINE
8
DEFAULT_255_2_778
10
3.0638662
20
-0.1323336
11
3.1268662
21
0.1189664
0
LINE
8
DEFAULT_255_2_778
10
3.1268662
20
0.1189664
11
1.5380662
21
0.1189664
0
LINE
8
DEFAULT_255_2_778
10
1.5380662
20
0.1189664
11
10.7150662
21
13.5994664
0
LINE
8
DEFAULT_255_2_778
10
10.7150662
20
13.5994664
11
10.7574662
21
13.5994664
0
LINE
8
DEFAULT_255_2_778
10
10.7574662
20
13.5994664
11
9.2339662
21
0.1189664
0
LINE
8
DEFAULT_255_2_778
10
9.2339662
20
0.1189664
11
7.8959662
21
0.1189664
0
LINE
8
DEFAULT_255_2_778
10
7.8959662
20
0.1189664
11
7.8329662
21
-0.1323336
0
LINE
8
DEFAULT_255_2_778
10
7.8329662
20
-0.1323336
11
11.9697662
21
-0.1323336
0
LINE
8
DEFAULT_255_2_778
10
11.9697662
20
-0.1323336
11
12.0327662
21
0.1189664
0
LINE
8
DEFAULT_255_2_778
10
12.0327662
20
0.1189664
11
10.8619662
21
0.1189664
0
LINE
8
DEFAULT_255_2_778
10
10.8619662
20
0.1189664
11
12.7431662
21
16.8009664
0
ENDSEC
0
EOF