0
SECTION
2
HEADER
9
$MEASUREMENT
70
1
0
ENDSEC
0
SECTION
2
TABLES
0
TABLE
2
LTYPE
0
LTYPE
72
65
70
64
2
CONTINUOUS
3
______
73
0
40
0
0
ENDTAB
0
TABLE
2
LAYER
0
LAYER
2
DEFAULT_255_2_778
70
0
62
255
6
CONTINUOUS
0
ENDTAB
0
ENDSEC
0
SECTION
2
ENTITIES
0
ARC
8
DEFAULT_255_2_778
10
6.6805788
20
-0.6265368
40
1.3289014
50
45.9310813
51
88.6600279
0
ARC
8
DEFAULT_255_2_778
10
6.7117431
20
-0.4817003
40
1.1837017
50
90.0042722
51
93.3457716
0
ARC
8
DEFAULT_255_2_778
10
7.2612718
20
1.0448519
40
0.4042683
50
60.4391818
51
78.4145795
0
ARC
8
DEFAULT_255_2_778
10
7.2747744
20
1.0966064
40
0.3528587
50
6.8387763
51
58.1997712
0
ARC
8
DEFAULT_255_2_778
10
6.7682879
20
0.9898947
40
0.8696469
50
359.4255374
51
9.8472406
0
ARC
8
DEFAULT_255_2_778
10
5.8531177
20
0.9910651
40
1.7848007
50
354.9124041
51
359.6825254
0
ARC
8
DEFAULT_255_2_778
10
2.6597498
20
1.2693179
40
4.9902664
50
353.3535814
51
354.9816028
0
ARC
8
DEFAULT_255_2_778
10
14.2552092
20
-0.0868911
40
6.6842357
50
173.3106035
51
174.4990453
0
ARC
8
DEFAULT_255_2_778
10
9.2027297
20
0.4012285
40
1.6082333
50
174.5535242
51
177.9293836
0
ARC
8
DEFAULT_255_2_778
10
8.5242972
20
0.4294402
40
0.9292316
50
178.1563314
51
179.9590578
0
ARC
8
DEFAULT_255_2_778
10
8.2184304
20
0.4278196
40
0.6233689
50
179.7900165
51
184.8170395
0
ARC
8
DEFAULT_255_2_778
10
7.9661777
20
0.4061366
40
0.3701866
50
184.7514491
51
192.0932166
0
ARC
8
DEFAULT_255_2_778
10
7.8832133
20
0.3900511
40
0.2856982
50
192.4246767
51
193.0204105
0
ARC
8
DEFAULT_255_2_778
10
16.1875443
20
1.0207553
40
5.75547
50
182.2504988
51
184.3113171
0
ARC
8
DEFAULT_255_2_778
10
19.099815
20
1.1342836
40
8.6699526
50
180.4156322
51
182.2444208
0
ARC
8
DEFAULT_255_2_778
10
21.8955545
20
1.1657709
40
11.4658524
50
179.9948959
51
180.471629
0
ARC
8
DEFAULT_255_2_778
10
25.7159334
20
1.1536711
40
15.286237
50
178.7041873
51
179.9508192
0
ARC
8
DEFAULT_255_2_778
10
34.8276105
20
0.9523488
40
24.4001372
50
177.9536157
51
178.7154188
0
ARC
8
DEFAULT_255_2_778
10
57.8451629
20
0.1315739
40
47.4323187
50
177.5790892
51
177.9556353
0
ARC
8
DEFAULT_255_2_778
10
52.3346088
20
0.3810168
40
41.9161496
50
177.5999594
51
177.6015789
0
LINE
8
DEFAULT_255_2_778
10
10.4552279
20
2.1363126
11
10.4552893
21
2.1377822
0
ARC
8
DEFAULT_255_2_778
10
74.5740961
20
-0.5429601
40
64.1748219
50
177.6046082
51
177.6059158
0
ARC
8
DEFAULT_255_2_778
10
74.1589033
20
-0.5183472
40
63.7589637
50
177.6098022
51
177.6111127
0
LINE
8
DEFAULT_255_2_778
10
10.4554113
20
2.1407027
11
10.455472
21
2.1421535
0
ARC
8
DEFAULT_255_2_778
10
72.9564011
20
-0.4703419
40
62.5555055
50
177.6051452
51
177.6064696
0
LINE
8
DEFAULT_255_2_778
10
10.4555324
20
2.1435981
11
10.4555926
21
2.1450366
0
ARC
8
DEFAULT_255_2_778
10
-60.1836248
20
5.1062149
40
70.7012561
50
357.5995807
51
357.6042251
0
ARC
8
DEFAULT_255_2_778
10
69.4744512
20
-0.3303494
40
59.0707481
50
177.591366
51
177.5927327
0
ARC
8
DEFAULT_255_2_778
10
69.1186445
20
-0.3077993
40
58.7143088
50
177.5973907
51
177.5987599
0
ARC
8
DEFAULT_255_2_778
10
68.76557
20
-0.2853917
40
58.3606058
50
177.6034673
51
177.6048389
0
ARC
8
DEFAULT_255_2_778
10
68.018936
20
-0.2631549
40
57.6136955
50
177.5931303
51
177.5945137
0
LINE
8
DEFAULT_255_2_778
10
10.456067
20
2.156358
11
10.4561251
21
2.157742
0
LINE
8
DEFAULT_255_2_778
10
10.4561251
20
2.157742
11
10.456183
21
2.15912
0
ARC
8
DEFAULT_255_2_778
10
66.6239731
20
-0.1979137
40
56.2172239
50
177.5956413
51
177.597041
0
ARC
8
DEFAULT_255_2_778
10
66.2836563
20
-0.1762032
40
55.8762963
50
177.601842
51
177.6032442
0
ARC
8
DEFAULT_255_2_778
10
-53.4422995
20
4.8503257
40
63.9551297
50
357.5907604
51
357.5956372
0
LINE
8
DEFAULT_255_2_778
10
10.4565266
20
2.1672973
11
10.4565828
21
2.1686345
0
LINE
8
DEFAULT_255_2_778
10
10.4565828
20
2.1686345
11
10.4566388
21
2.169966
0
ARC
8
DEFAULT_255_2_778
10
128.2483413
20
-2.780957
40
117.8957031
50
177.5922407
51
177.593208
0
ARC
8
DEFAULT_255_2_778
10
-665.4488023
20
30.6431988
40
676.5049078
50
357.5879494
51
357.5886188
0
ARC
8
DEFAULT_255_2_778
10
120.5312278
20
-2.461348
40
110.1719757
50
177.5845919
51
177.5855941
0
ARC
8
DEFAULT_255_2_778
10
118.9584508
20
-2.4000697
40
108.5980136
50
177.5809121
51
177.5819223
0
ARC
8
DEFAULT_255_2_778
10
-452.8390081
20
21.7384842
40
463.7087256
50
357.5830959
51
357.5840355
0
ARC
8
DEFAULT_255_2_778
10
-2537.4598025
20
110.2465266
40
2550.2075811
50
357.5715847
51
357.5750537
0
ARC
8
DEFAULT_255_2_778
10
-48.6100439
20
4.849663
40
59.127169
50
357.5727256
51
357.7137713
0
ARC
8
DEFAULT_255_2_778
10
4.331459
20
5.0895534
40
4.6041754
50
314.7614879
51
320.1725841
0
ARC
8
DEFAULT_255_2_778
10
-5.141947
20
14.5284269
40
17.9771373
50
314.2832444
51
315.0167384
0
ARC
8
DEFAULT_255_2_778
10
22.1722136
20
-13.4641672
40
21.1335871
50
134.3090765
51
134.9810251
0
ARC
8
DEFAULT_255_2_778
10
7.2498316
20
1.686508
40
0.2026864
50
222.2034069
51
265.367146
0
ARC
8
DEFAULT_255_2_778
10
7.6210295
20
2.124784
40
0.7757385
50
226.950558
51
227.7739422
0
ARC
8
DEFAULT_255_2_778
10
9.394006
20
3.9843252
40
3.3450145
50
225.4376037
51
226.5008918
0
ARC
8
DEFAULT_255_2_778
10
6.6507746
20
1.2157241
40
0.5525897
50
44.2110673
51
57.3671652
0
ARC
8
DEFAULT_255_2_778
10
5.1776746
20
-0.7346135
40
3.7474641
50
58.5294222
51
61.415579
0
ARC
8
DEFAULT_255_2_778
10
-7.0621719
20
-20.9600498
40
27.3881105
50
58.6148861
51
58.7792846
0
ARC
8
DEFAULT_255_2_778
10
8.2782818
20
4.0040328
40
1.9148579
50
235.7729041
51
254.4454752
0
ARC
8
DEFAULT_255_2_778
10
7.9993019
20
3.1794075
40
1.0467085
50
257.0538583
51
262.9183816
0
ARC
8
DEFAULT_255_2_778
10
10.6269361
20
1.5797841
40
2.3023395
50
128.2566926
51
134.1780699
0
ARC
8
DEFAULT_255_2_778
10
12.3407801
20
-0.2097197
40
4.7801267
50
133.962816
51
136.0146512
0
ARC
8
DEFAULT_255_2_778
10
22.8611471
20
-10.3381928
40
19.3836881
50
136.0693732
51
136.7341392
0
ARC
8
DEFAULT_255_2_778
10
5.3645466
20
6.0435512
40
4.5852367
50
311.1292485
51
317.5216601
0
ARC
8
DEFAULT_255_2_778
10
7.1553538
20
4.0421446
40
1.9000778
50
306.3949258
51
310.1509702
0
ARC
8
DEFAULT_255_2_778
10
8.6411565
20
4.6625475
40
2.1795324
50
235.0543225
51
260.5354637
0
ARC
8
DEFAULT_255_2_778
10
11.7753489
20
9.8386073
40
8.2271136
50
236.8530541
51
237.8115721
0
ARC
8
DEFAULT_255_2_778
10
4.9087812
20
5.514155
40
3.4901626
50
295.3277988
51
312.7266267
0
ARC
8
DEFAULT_255_2_778
10
4.3026668
20
2.2213018
40
2.1037367
50
359.9365784
51
3.7661316
0
ARC
8
DEFAULT_255_2_778
10
2.1788982
20
2.2642969
40
4.227747
50
355.0845074
51
359.3857464
0
LINE
8
DEFAULT_255_2_778
10
6.3910961
20
1.9020368
11
6.3909917
21
1.9006242
0
ARC
8
DEFAULT_255_2_778
10
10.6227889
20
1.5362474
40
4.2474555
50
175.0787132
51
179.3812388
0
ARC
8
DEFAULT_255_2_778
10
8.4837235
20
1.5797814
40
2.1081436
50
179.9365338
51
183.7777366
0
ARC
8
DEFAULT_255_2_778
10
5.5433713
20
2.0340324
40
1.6158505
50
315.3842034
51
323.3320263
0
ARC
8
DEFAULT_255_2_778
10
2.7618496
20
4.7262903
40
5.4868593
50
314.1025486
51
315.7722809
0
ARC
8
DEFAULT_255_2_778
10
-50.2493804
20
58.9655395
40
81.3293261
50
314.3106562
51
314.3277025
0
ARC
8
DEFAULT_255_2_778
10
8.1924589
20
-0.9992457
40
2.4047017
50
132.6545735
51
142.3425548
0
ARC
8
DEFAULT_255_2_778
10
6.761407
20
0.0956043
40
0.6029303
50
141.6281559
51
178.129749
0
ARC
8
DEFAULT_255_2_778
10
6.6603465
20
0.1154553
40
0.5015487
50
180.0198316
51
186.0166975
0
ARC
8
DEFAULT_255_2_778
10
7.8483389
20
0.050455
40
1.6868242
50
179.5778318
51
182.2735064
0
ARC
8
DEFAULT_255_2_778
10
6.4711755
20
-0.021689
40
0.3083774
50
179.0285744
51
206.7090418
0
ARC
8
DEFAULT_255_2_778
10
6.2681335
20
-0.1177686
40
0.0839918
50
210.4166911
51
271.8605898
0
ARC
8
DEFAULT_255_2_778
10
6.7085817
20
0.0128053
40
0.4874622
50
194.7460324
51
206.1088677
0
ARC
8
DEFAULT_255_2_778
10
6.7329337
20
0.0236799
40
0.5137981
50
181.2532963
51
195.2275544
0
ARC
8
DEFAULT_255_2_778
10
6.6505526
20
0.0191137
40
0.4313456
50
180.0035227
51
180.8862641
0
ARC
8
DEFAULT_255_2_778
10
6.4696958
20
0.0391299
40
0.2512892
50
119.7623427
51
184.5747364
0
ARC
8
DEFAULT_255_2_778
10
6.4745613
20
0.008006
40
0.2809472
50
104.99711
51
117.4722685
0
ARC
8
DEFAULT_255_2_778
10
6.5633281
20
-0.363417
40
0.6627704
50
94.9201915
51
104.1006024
0
ARC
8
DEFAULT_255_2_778
10
6.5593568
20
-0.3259821
40
0.6251335
50
90.0063735
51
94.851824
0
ARC
8
DEFAULT_255_2_778
10
6.509187
20
-0.5953123
40
0.8958656
50
51.662049
51
86.7941271
0
ARC
8
DEFAULT_255_2_778
10
4.4264181
20
-3.6699252
40
4.6075513
50
52.6076151
51
55.0653973
0
ARC
8
DEFAULT_255_2_778
10
21.2377497
20
18.5455393
40
23.2519411
50
232.9384659
51
233.1001433
0
ARC
8
DEFAULT_255_2_778
10
11.0524563
20
-4.6697268
40
5.9673162
50
119.7249615
51
129.2505337
0
ARC
8
DEFAULT_255_2_778
10
9.3543031
20
-1.8586505
40
2.6853445
50
116.6037045
51
117.9992854
0
ARC
8
DEFAULT_255_2_778
10
8.3960676
20
2.9462769
40
0.4580545
50
272.2762531
51
280.3765928
0
ARC
8
DEFAULT_255_2_778
10
8.6460636
20
1.4264724
40
1.0822805
50
97.3736686
51
98.902807
0
ARC
8
DEFAULT_255_2_778
10
8.5525868
20
2.1642249
40
0.338638
50
90.6071804
51
97.7085588
0
ARC
8
DEFAULT_255_2_778
10
8.5588151
20
2.4098744
40
0.0934864
50
37.42172
51
96.027677
0
ARC
8
DEFAULT_255_2_778
10
6.1992077
20
-2.8167484
40
3.9824977
50
52.2525573
51
54.6817325
0
ARC
8
DEFAULT_255_2_778
10
-27.9102127
20
-46.9683848
40
59.7751436
50
52.1345938
51
52.3080955
0
ARC
8
DEFAULT_255_2_778
10
11.8783452
20
4.1880811
40
5.0331488
50
232.0095149
51
234.751874
0
ARC
8
DEFAULT_255_2_778
10
10.1029414
20
1.6730017
40
1.9545653
50
234.7050669
51
240.6952046
0
ARC
8
DEFAULT_255_2_778
10
9.6953014
20
0.9586393
40
1.1321146
50
240.9900078
51
245.363069
0
ARC
8
DEFAULT_255_2_778
10
14.9784018
20
-4.7251814
40
6.2962488
50
130.8335675
51
132.9081163
0
ARC
8
DEFAULT_255_2_778
10
14.0474869
20
-3.6564678
40
4.8789587
50
129.9031183
51
130.7684134
0
ARC
8
DEFAULT_255_2_778
10
12.8413016
20
-2.1389901
40
2.9414922
50
114.2674082
51
130.8410034
0
ARC
8
DEFAULT_255_2_778
10
24.7620433
20
1.471938
40
13.1625328
50
180.0000184
51
184.0487964
0
ARC
8
DEFAULT_255_2_778
10
24.7618805
20
1.4719354
40
13.16237
50
175.9511785
51
180.0000067
0
ARC
8
DEFAULT_255_2_778
10
8.2333094
20
-2.7690491
40
6.1875594
50
56.6785061
51
65.4424377
0
ARC
8
DEFAULT_255_2_778
10
8.2176545
20
-2.7399037
40
6.1676128
50
65.1976347
51
65.2369588
0
ARC
8
DEFAULT_255_2_778
10
8.4355975
20
5.4189957
40
3.4843775
50
299.0009422
51
312.7559334
0
ARC
8
DEFAULT_255_2_778
10
8.2638718
20
5.7205395
40
3.8313701
50
294.998048
51
299.0607238
0
ARC
8
DEFAULT_255_2_778
10
10.047132
20
0.2870861
40
0.3705821
50
120.1036903
51
147.3599072
0
ARC
8
DEFAULT_255_2_778
10
-7.0496089
20
13.0725261
40
20.979084
50
323.0873043
51
323.1365465
0
ARC
8
DEFAULT_255_2_778
10
9.4076674
20
0.6745612
40
0.3755487
50
295.7795235
51
327.457236
0
ARC
8
DEFAULT_255_2_778
10
9.4611536
20
0.5986465
40
0.2843315
50
284.6698891
51
292.7258038
0
ARC
8
DEFAULT_255_2_778
10
9.6697233
20
0.8824983
40
0.5753562
50
211.7134894
51
256.2696072
0
ARC
8
DEFAULT_255_2_778
10
10.008157
20
1.1731181
40
1.0183903
50
213.72611
51
215.6166133
0
ARC
8
DEFAULT_255_2_778
10
9.4416287
20
4.1153456
40
1.576077
50
262.1644046
51
266.877248
0
ARC
8
DEFAULT_255_2_778
10
9.5003932
20
5.0738849
40
2.5364025
50
266.7313097
51
270.0605346
0
ARC
8
DEFAULT_255_2_778
10
9.5030303
20
5.3472994
40
2.8098156
50
270.0008697
51
270.888187
0
ARC
8
DEFAULT_255_2_778
10
9.5148657
20
4.9844865
40
2.4468707
50
270.7427751
51
275.9124915
0
ARC
8
DEFAULT_255_2_778
10
9.5870722
20
4.2178467
40
1.6768866
50
276.1567511
51
277.1455438
0
ARC
8
DEFAULT_255_2_778
10
10.1437852
20
2.5454029
40
0.3482305
50
172.6330546
51
178.5880087
0
ARC
8
DEFAULT_255_2_778
10
8.7604826
20
2.7050148
40
1.0442937
50
353.679816
51
354.35265
0
ARC
8
DEFAULT_255_2_778
10
9.5313648
20
2.6306937
40
0.269846
50
353.9495182
51
359.4462851
0
ARC
8
DEFAULT_255_2_778
10
9.7447149
20
2.636187
40
0.0570613
50
351.838068
51
59.1675341
0
ARC
8
DEFAULT_255_2_778
10
2.8549872
20
0.7265661
40
0.3448845
50
215.6852585
51
228.8405113
0
ARC
8
DEFAULT_255_2_778
10
2.7662424
20
0.6235421
40
0.2089141
50
228.5685227
51
252.4000878
0
ARC
8
DEFAULT_255_2_778
10
2.7582913
20
0.6066556
40
0.1904299
50
253.1441598
51
270.2466181
0
ARC
8
DEFAULT_255_2_778
10
2.7423879
20
0.7728503
40
0.3570147
50
272.6848079
51
296.7593324
0
ARC
8
DEFAULT_255_2_778
10
2.158095
20
2.052482
40
1.7635196
50
294.990717
51
298.4190662
0
ARC
8
DEFAULT_255_2_778
10
3.553679
20
-0.5019033
40
1.1472793
50
111.7494543
51
119.0047472
0
ARC
8
DEFAULT_255_2_778
10
3.2989219
20
0.1063294
40
0.4880744
50
108.536287
51
110.429631
0
ARC
8
DEFAULT_255_2_778
10
2.1757699
20
0.6480102
40
1.3864662
50
44.4355283
51
72.3191306
0
ARC
8
DEFAULT_255_2_778
10
17.0185066
20
1.0263373
40
1.2738913
50
12.1172489
51
27.6943229
0
ARC
8
DEFAULT_255_2_778
10
16.9771582
20
1.0118359
40
1.3173741
50
1.650676
51
12.3564058
0
ARC
8
DEFAULT_255_2_778
10
17.0575973
20
1.0159589
40
1.2368507
50
0.0027172
51
1.567098
0
ARC
8
DEFAULT_255_2_778
10
17.3340212
20
0.9938752
40
0.9606822
50
327.7459453
51
1.3207012
0
ARC
8
DEFAULT_255_2_778
10
17.4320956
20
1.238838
40
1.0413246
50
273.5389078
51
313.3155242
0
ARC
8
DEFAULT_255_2_778
10
17.3701021
20
1.5917994
40
1.3980146
50
269.9740478
51
275.1820977
0
ARC
8
DEFAULT_255_2_778
10
17.3697591
20
1.6599899
40
1.466205
50
266.1558418
51
269.9886603
0
ARC
8
DEFAULT_255_2_778
10
17.4335372
20
1.6037797
40
0.5372569
50
98.7912031
51
112.5435753
0
ARC
8
DEFAULT_255_2_778
10
17.4298617
20
1.6218297
40
0.518858
50
89.9867257
51
98.6947288
0
ARC
8
DEFAULT_255_2_778
10
17.4016243
20
1.4452195
40
0.696046
50
47.9005836
51
87.6650629
0
ARC
8
DEFAULT_255_2_778
10
17.0955829
20
1.0520623
40
1.1934962
50
28.3272116
51
49.6532296
0
ARC
8
DEFAULT_255_2_778
10
17.0131157
20
0.7053716
40
0.7772026
50
158.9535794
51
165.3268152
0
ARC
8
DEFAULT_255_2_778
10
23.6609033
20
-1.1459653
40
7.6778815
50
164.5280178
51
164.6398589
0
ARC
8
DEFAULT_255_2_778
10
15.9434356
20
0.9309575
40
0.3167953
50
307.039129
51
352.168903
0
ARC
8
DEFAULT_255_2_778
10
17.1359723
20
1.7129692
40
1.4402827
50
193.47205
51
225.9331922
0
ARC
8
DEFAULT_255_2_778
10
17.4848037
20
1.8222512
40
1.8051483
50
185.7925303
51
194.2658148
0
ARC
8
DEFAULT_255_2_778
10
17.6053312
20
1.8359407
40
1.9264426
50
179.9849719
51
185.8358101
0
ARC
8
DEFAULT_255_2_778
10
17.6295951
20
1.83667
40
1.9507062
50
172.2600988
51
180.0065789
0
ARC
8
DEFAULT_255_2_778
10
16.8892171
20
1.9248953
40
1.2052541
50
163.7877195
51
171.6758515
0
ARC
8
DEFAULT_255_2_778
10
17.0736985
20
1.8736007
40
1.3967224
50
157.8082461
51
163.8800942
0
ARC
8
DEFAULT_255_2_778
10
17.0021649
20
1.9174509
40
1.3139954
50
131.0498827
51
158.4005432
0
ARC
8
DEFAULT_255_2_778
10
16.7829202
20
2.1448708
40
0.9986358
50
121.2093476
51
130.1324005
0
ARC
8
DEFAULT_255_2_778
10
16.4262179
20
4.1055598
40
1.9837061
50
310.1909469
51
322.1909173
0
ARC
8
DEFAULT_255_2_778
10
14.4670439
20
6.3031828
40
4.9274172
50
309.4621176
51
311.1026358
0
ARC
8
DEFAULT_255_2_778
10
12.7694556
20
8.3479037
40
7.5849743
50
309.5173254
51
309.5456298
0
ARC
8
DEFAULT_255_2_778
10
12.8509132
20
8.2491329
40
7.456947
50
309.4888493
51
309.5174021
0
ARC
8
DEFAULT_255_2_778
10
12.9305142
20
8.1523913
40
7.3316663
50
309.4607421
51
309.4895429
0
ARC
8
DEFAULT_255_2_778
10
13.009134
20
8.0567902
40
7.2078898
50
309.4321654
51
309.4612185
0
ARC
8
DEFAULT_255_2_778
10
13.0856836
20
7.9627041
40
7.0865984
50
309.4079941
51
309.4372999
0
ARC
8
DEFAULT_255_2_778
10
11.4945764
20
9.8994851
40
9.5931384
50
309.385439
51
309.4069083
0
ARC
8
DEFAULT_255_2_778
10
11.5992222
20
9.7726496
40
9.4287065
50
309.3613532
51
309.3830157
0
ARC
8
DEFAULT_255_2_778
10
11.7025626
20
9.6473389
40
9.2662816
50
309.3368626
51
309.3587218
0
ARC
8
DEFAULT_255_2_778
10
13.3792742
20
7.6007042
40
6.6205161
50
309.3108024
51
309.3411431
0
ARC
8
DEFAULT_255_2_778
10
11.9023686
20
9.4034228
40
8.9509761
50
309.2926579
51
309.3149124
0
ARC
8
DEFAULT_255_2_778
10
11.9989117
20
9.284753
40
8.7979959
50
309.2730354
51
309.2954885
0
ARC
8
DEFAULT_255_2_778
10
12.0948901
20
9.167745
40
8.6466596
50
309.2488389
51
309.2714946
0
ARC
8
DEFAULT_255_2_778
10
38.7478168
20
-23.7712548
40
33.7251054
50
128.9090698
51
129.3550751
0
ARC
8
DEFAULT_255_2_778
10
19.3760731
20
-0.1337785
40
3.1637962
50
129.5410277
51
132.1566384
0
ARC
8
DEFAULT_255_2_778
10
16.4153835
20
0.6060419
40
2.7774909
50
58.714773
51
72.9305872
0
ARC
8
DEFAULT_255_2_778
10
16.5137816
20
0.7723997
40
2.5842257
50
54.9965364
51
58.6637979
0
ARC
8
DEFAULT_255_2_778
10
17.2858856
20
1.8586461
40
1.6507419
50
232.2018417
51
264.0880934
0
ARC
8
DEFAULT_255_2_778
10
18.1949686
20
3.2643614
40
3.3217511
50
233.0404102
51
234.6726641
0
ARC
8
DEFAULT_255_2_778
10
15.6169424
20
1.781311
40
1.3073342
50
296.3770689
51
327.921578
0
ARC
8
DEFAULT_255_2_778
10
15.9491115
20
1.5351441
40
0.8957239
50
329.9800841
51
343.9823416
0
ARC
8
DEFAULT_255_2_778
10
16.8912639
20
3.298435
40
0.0930081
50
108.5844241
51
150.8184004
0
ARC
8
DEFAULT_255_2_778
10
16.8948729
20
3.2807028
40
0.1109883
50
89.3427498
51
107.4329159
0
ARC
8
DEFAULT_255_2_778
10
16.885539
20
3.1315997
40
0.2603003
50
68.8266373
51
87.6646028
0
ARC
8
DEFAULT_255_2_778
10
16.6668796
20
2.5015073
40
0.9271367
50
67.0244444
51
70.2905403
0
ARC
8
DEFAULT_255_2_778
10
17.4651811
20
4.350878
40
1.0872127
50
246.334433
51
250.3286244
0
ARC
8
DEFAULT_255_2_778
10
17.1736894
20
3.5493759
40
0.2344105
50
251.471216
51
255.8437905
0
ARC
8
DEFAULT_255_2_778
10
12.4176832
20
9.8553035
40
7.7592815
50
304.5229095
51
309.5073438
0
ARC
8
DEFAULT_255_2_778
10
3.5267554
20
22.6380963
40
23.3299662
50
303.7425578
51
304.7212648
0
ARC
8
DEFAULT_255_2_778
10
-158.6085389
20
264.0965426
40
314.1735639
50
303.8596955
51
303.8704398
0
ARC
8
DEFAULT_255_2_778
10
22.5617996
20
-6.2166011
40
11.2379186
50
123.0269967
51
128.233914
0
ARC
8
DEFAULT_255_2_778
10
18.9512371
20
-1.5255082
40
5.3190512
50
128.95704
51
132.7294775
0
ARC
8
DEFAULT_255_2_778
10
16.672994
20
1.5287429
40
1.5807885
50
147.345849
51
160.6864711
0
ARC
8
DEFAULT_255_2_778
10
16.5648
20
1.5708976
40
1.4647467
50
160.84288
51
180.1197224
0
ARC
8
DEFAULT_255_2_778
10
16.8121816
20
1.5765491
40
1.7121473
50
180.2915481
51
195.3494387
0
ARC
8
DEFAULT_255_2_778
10
17.2480323
20
1.6884468
40
2.1620837
50
195.151595
51
202.6875645
0
ARC
8
DEFAULT_255_2_778
10
17.4072009
20
1.7494521
40
2.3324719
50
202.562103
51
202.6588216
0
ARC
8
DEFAULT_255_2_778
10
16.849473
20
1.5906294
40
1.7579339
50
204.8853562
51
254.4945584
0
ARC
8
DEFAULT_255_2_778
10
17.0258394
20
2.0170183
40
2.2166588
50
253.0479329
51
270.049133
0
ARC
8
DEFAULT_255_2_778
10
17.0277623
20
2.0394251
40
2.2390647
50
269.9994367
51
271.6455624
0
ARC
8
DEFAULT_255_2_778
10
16.2102329
20
2.7336249
40
3.0620653
50
286.7373335
51
306.1218611
0
ARC
8
DEFAULT_255_2_778
10
16.4000235
20
2.4297508
40
2.7048475
50
306.6689958
51
313.1808704
0
ARC
8
DEFAULT_255_2_778
10
18.9188129
20
-0.0467232
40
0.8367501
50
138.2440975
51
142.9538368
0
ARC
8
DEFAULT_255_2_778
10
19.1607394
20
-0.2584162
40
1.1582076
50
137.2232109
51
138.4020242
0
ARC
8
DEFAULT_255_2_778
10
19.8206332
20
-0.8853072
40
2.0683568
50
133.4133884
51
136.8913988
0
ARC
8
DEFAULT_255_2_778
10
48.1103345
20
-30.7212001
40
43.1838965
50
133.2972552
51
133.4732311
0
ARC
8
DEFAULT_255_2_778
10
17.6901218
20
1.6416387
40
1.2328176
50
310.7914791
51
330.6693957
0
ARC
8
DEFAULT_255_2_778
10
18.3079512
20
1.2694346
40
0.5123317
50
333.1134511
51
359.7234698
0
ARC
8
DEFAULT_255_2_778
10
18.2965169
20
1.2662557
40
0.5237606
50
0.0772512
51
9.2395648
0
ARC
8
DEFAULT_255_2_778
10
18.2227104
20
1.2543828
40
0.598516
50
9.2269536
51
16.0625149
0
ARC
8
DEFAULT_255_2_778
10
17.9006665
20
1.4559448
40
0.8979143
50
357.704721
51
359.9989765
0
ARC
8
DEFAULT_255_2_778
10
17.6928307
20
1.4089876
40
1.1067462
50
2.4308552
51
50.9574909
0
ARC
8
DEFAULT_255_2_778
10
17.2735764
20
1.007382
40
1.6843195
50
48.485177
51
66.8231591
0
ARC
8
DEFAULT_255_2_778
10
17.3247762
20
1.1217357
40
1.5590455
50
66.8989185
51
69.1702612
0
ARC
8
DEFAULT_255_2_778
10
21.2230883
20
-0.5212446
40
4.5598958
50
134.6504506
51
137.1666499
0
ARC
8
DEFAULT_255_2_778
10
25.1405238
20
-4.4973374
40
10.141615
50
132.8070402
51
134.6085058
0
ARC
8
DEFAULT_255_2_778
10
32.3994202
20
-12.2582435
40
20.7680884
50
132.8203124
51
132.9496258
0
ARC
8
DEFAULT_255_2_778
10
39.1605902
20
-19.5592845
40
30.7188981
50
132.6455957
51
132.8141868
0
ARC
8
DEFAULT_255_2_778
10
-23.9181723
20
49.1217133
40
62.5335448
50
312.5259039
51
312.836643
0
ARC
8
DEFAULT_255_2_778
10
12.2616906
20
10.0950393
40
9.3164081
50
312.8619993
51
314.3035358
0
ARC
8
DEFAULT_255_2_778
10
15.2790607
20
6.989686
40
4.9865616
50
314.4136514
51
315.238847
0
ARC
8
DEFAULT_255_2_778
10
59.8377524
20
110.1774792
40
114.5639352
50
248.8518719
51
248.8576231
0
ARC
8
DEFAULT_255_2_778
10
20.617894
20
9.3089019
40
6.3417787
50
239.5987473
51
250.5418805
0
ARC
8
DEFAULT_255_2_778
10
19.2868422
20
6.855415
40
3.5532896
50
237.097587
51
238.0899805
0
ARC
8
DEFAULT_255_2_778
10
23.7777056
20
0.5406237
40
0.2822179
50
269.995064
51
275.6643096
0
ARC
8
DEFAULT_255_2_778
10
23.7965806
20
0.669793
40
0.411821
50
236.124572
51
267.3696594
0
ARC
8
DEFAULT_255_2_778
10
24.1973003
20
1.3670544
40
1.2153685
50
234.9578036
51
238.7630338
0
ARC
8
DEFAULT_255_2_778
10
26.2006448
20
4.2183315
40
4.7000735
50
233.7518601
51
234.9205981
0
ARC
8
DEFAULT_255_2_778
10
22.7419751
20
-0.4361343
40
1.099268
50
51.8134353
51
65.7559909
0
ARC
8
DEFAULT_255_2_778
10
23.7552352
20
1.7045369
40
0.7111018
50
112.984689
51
142.1992213
0
ARC
8
DEFAULT_255_2_778
10
23.431697
20
1.9568028
40
0.4049864
50
34.0283886
51
83.4974754
0
ARC
8
DEFAULT_255_2_778
10
23.1743138
20
1.7079067
40
0.760131
50
37.7864975
51
38.7252615
0
ARC
8
DEFAULT_255_2_778
10
23.1616317
20
1.6980919
40
0.7761674
50
31.7010222
51
37.7854662
0
ARC
8
DEFAULT_255_2_778
10
23.2090194
20
1.7278934
40
0.7201897
50
30.8113363
51
31.6649366
0
ARC
8
DEFAULT_255_2_778
10
22.8560384
20
3.85597
40
0.3651317
50
237.0395365
51
257.6528182
0
ARC
8
DEFAULT_255_2_778
10
24.2623079
20
6.2810282
40
3.1680335
50
238.9299316
51
239.562434
0
ARC
8
DEFAULT_255_2_778
10
22.4058328
20
3.2636164
40
0.3760332
50
53.911269
51
85.1553343
0
ARC
8
DEFAULT_255_2_778
10
22.4379202
20
3.4251234
40
0.2131831
50
90.088603
51
105.4690599
0
ARC
8
DEFAULT_255_2_778
10
21.8974537
20
3.0798592
40
0.7329209
50
8.8947862
51
48.7127206
0
ARC
8
DEFAULT_255_2_778
10
25.3539843
20
-1.9090729
40
2.5737456
50
120.9758156
51
137.6339383
0
ARC
8
DEFAULT_255_2_778
10
37.2407093
20
-20.5692684
40
24.6975146
50
121.5848909
51
122.33897
0
ARC
8
DEFAULT_255_2_778
10
20.1693621
20
7.1133513
40
7.8257737
50
301.9026426
51
302.6634649
0
ARC
8
DEFAULT_255_2_778
10
29.2349013
20
0.9609707
40
4.8615123
50
183.2490623
51
185.142908
0
ARC
8
DEFAULT_255_2_778
10
32.0369069
20
1.1176821
40
7.667896
50
181.3774665
51
183.231516
0
ARC
8
DEFAULT_255_2_778
10
36.3668085
20
1.2247385
40
11.9991202
50
179.9538063
51
181.3914998
0
ARC
8
DEFAULT_255_2_778
10
40.2358367
20
1.2324902
40
15.8681448
50
179.4759565
51
179.9930587
0
ARC
8
DEFAULT_255_2_778
10
45.3210382
20
1.1729105
40
20.9536825
50
178.2236564
51
179.4402259
0
ARC
8
DEFAULT_255_2_778
10
50.8712409
20
1.0141256
40
26.5061434
50
177.8033712
51
178.2524856
0
ARC
8
DEFAULT_255_2_778
10
53.6798067
20
0.9071787
40
29.3167447
50
177.4333773
51
177.8048981
0
ARC
8
DEFAULT_255_2_778
10
54.3187098
20
0.8798413
40
29.9562312
50
177.415052
51
177.4358651
0
ARC
8
DEFAULT_255_2_778
10
23.641531
20
1.9538031
40
0.800887
50
20.2408536
51
26.3147336
0
ARC
8
DEFAULT_255_2_778
10
23.5115579
20
1.901493
40
0.9406418
50
25.6612667
51
64.4464808
0
ARC
8
DEFAULT_255_2_778
10
23.7383932
20
2.3149809
40
0.4704886
50
67.6493848
51
79.4383598
0
ARC
8
DEFAULT_255_2_778
10
23.7728146
20
2.4923294
40
0.2898387
50
79.7015838
51
79.7960198
0
ARC
8
DEFAULT_255_2_778
10
23.4399533
20
2.3901765
40
0.2752977
50
177.9058426
51
204.7584012
0
ARC
8
DEFAULT_255_2_778
10
24.2774878
20
2.3724097
40
1.1129963
50
171.1132283
51
178.5673625
0
ARC
8
DEFAULT_255_2_778
10
101.4988214
20
-7.9704675
40
79.0236391
50
172.346276
51
172.3535972
0
ARC
8
DEFAULT_255_2_778
10
21.0207444
20
2.8578587
40
2.1796858
50
351.9960321
51
354.3439791
0
ARC
8
DEFAULT_255_2_778
10
22.3987572
20
2.7200978
40
0.7948058
50
354.4361674
51
359.7229559
0
ARC
8
DEFAULT_255_2_778
10
22.7004543
20
2.7181345
40
0.4931031
50
359.7815784
51
6.9245256
0
ARC
8
DEFAULT_255_2_778
10
22.2657492
20
2.8376032
40
0.9261581
50
356.2843627
51
359.3025543
0
ARC
8
DEFAULT_255_2_778
10
21.9735938
20
2.8430412
40
1.2183594
50
359.2140813
51
0.0097077
0
ARC
8
DEFAULT_255_2_778
10
21.1896498
20
2.8349714
40
2.0023206
50
0.2368216
51
3.1113305
0
ARC
8
DEFAULT_255_2_778
10
15.1490307
20
2.5134715
40
8.0514882
50
3.0626817
51
3.8272223
0
ARC
8
DEFAULT_255_2_778
10
28.1375871
20
3.3915444
40
4.9667201
50
182.1708527
51
183.9328331
0
ARC
8
DEFAULT_255_2_778
10
25.3035042
20
3.2766687
40
2.1303327
50
180.0626015
51
181.9707585
0
ARC
8
DEFAULT_255_2_778
10
24.0970579
20
3.2994936
40
0.9242276
50
163.7135091
51
181.5594745
0
ARC
8
DEFAULT_255_2_778
10
23.5907585
20
3.4469238
40
0.3969002
50
118.263491
51
163.645263
0
ARC
8
DEFAULT_255_2_778
10
23.6283145
20
3.3738497
40
0.4790486
50
108.7839715
51
118.0812156
0
ARC
8
DEFAULT_255_2_778
10
23.3829561
20
3.2751614
40
0.5596871
50
80.6318584
51
90.0211718
0
ARC
8
DEFAULT_255_2_778
10
23.412514
20
3.0890536
40
0.7463886
50
92.2854672
51
134.035219
0
ARC
8
DEFAULT_255_2_778
10
23.6045463
20
2.837376
40
1.0614454
50
132.0437084
51
141.4211555
0
ARC
8
DEFAULT_255_2_778
10
22.259689
20
2.0798637
40
2.0270996
50
236.0183407
51
248.2721617
0
ARC
8
DEFAULT_255_2_778
10
188.4587325
20
266.8933787
40
314.6733051
50
237.8718901
51
237.8752575
0
ARC
8
DEFAULT_255_2_778
10
19.4055603
20
-2.2276076
40
3.1399403
50
57.1015385
51
62.0890873
0
ARC
8
DEFAULT_255_2_778
10
19.5451374
20
3.9824743
40
0.475912
50
234.6412452
51
256.7750195
0
ARC
8
DEFAULT_255_2_778
10
18.8694805
20
3.0053571
40
0.7121153
50
55.8018445
51
66.7998091
0
ARC
8
DEFAULT_255_2_778
10
19.0623396
20
3.4248732
40
0.2508351
50
69.5412266
51
71.4503341
0
ARC
8
DEFAULT_255_2_778
10
19.0839648
20
3.4971088
40
0.1754902
50
70.6411657
51
89.2504722
0
ARC
8
DEFAULT_255_2_778
10
19.5305657
20
3.8123765
40
0.465778
50
197.4652499
51
213.3481056
0
ARC
8
DEFAULT_255_2_778
10
10.8335366
20
-1.3568923
40
9.652028
50
30.4806373
51
30.5995676
0
ARC
8
DEFAULT_255_2_778
10
18.7399391
20
3.2704492
40
0.4916019
50
13.8925708
51
33.1219188
0
ARC
8
DEFAULT_255_2_778
10
19.6551317
20
-1.341627
40
1.7565571
50
60.0543363
51
69.6020168
0
ARC
8
DEFAULT_255_2_778
10
18.9491858
20
-2.6410673
40
3.2351252
50
59.945364
51
60.7087725
0
ARC
8
DEFAULT_255_2_778
10
15.8941642
20
-7.7828367
40
9.215867
50
57.7898154
51
59.5155186
0
ARC
8
DEFAULT_255_2_778
10
22.7682291
20
3.0675857
40
3.6288645
50
237.2755497
51
244.140818
0
ARC
8
DEFAULT_255_2_778
10
23.2059758
20
-2.0500718
40
2.7409784
50
114.2653064
51
137.4892982
0
ARC
8
DEFAULT_255_2_778
10
22.6500543
20
-0.9973579
40
1.5545775
50
110.5617632
51
111.5302298
0
ARC
8
DEFAULT_255_2_778
10
35.5137681
20
1.3984569
40
13.4426327
50
179.999672
51
184.0109482
0
ARC
8
DEFAULT_255_2_778
10
35.5137681
20
1.3986108
40
13.4426327
50
175.9890518
51
180.000328
0
ARC
8
DEFAULT_255_2_778
10
19.4144255
20
4.5082665
40
2.510741
50
301.9101881
51
317.0199218
0
ARC
8
DEFAULT_255_2_778
10
18.9211609
20
5.3079975
40
3.4503516
50
293.356577
51
301.8436331
0
ARC
8
DEFAULT_255_2_778
10
21.7559269
20
-1.9242087
40
2.7360374
50
121.337818
51
123.3835443
0
ARC
8
DEFAULT_255_2_778
10
17.4625019
20
4.6322332
40
5.1010988
50
302.544984
51
303.1298406
0
ARC
8
DEFAULT_255_2_778
10
19.8191254
20
0.8889913
40
0.6784314
50
287.2746258
51
304.8392679
0
ARC
8
DEFAULT_255_2_778
10
19.945847
20
0.533304
40
0.3015509
50
281.2856102
51
284.3504528
0
ARC
8
DEFAULT_255_2_778
10
20.0446053
20
0.6051497
40
0.3697084
50
245.4317356
51
263.8285972
0
ARC
8
DEFAULT_255_2_778
10
20.0045938
20
0.497017
40
0.2548736
50
183.9453012
51
243.5048262
0
ARC
8
DEFAULT_255_2_778
10
20.4387379
20
0.5766137
40
0.6952326
50
180.6054543
51
188.0312404
0
ARC
8
DEFAULT_255_2_778
10
20.9283995
20
0.590346
40
1.1850428
50
179.978653
51
181.0191965
0
ARC
8
DEFAULT_255_2_778
10
22.3101557
20
0.579565
40
2.5668234
50
178.0952026
51
179.7494938
0
ARC
8
DEFAULT_255_2_778
10
17.0768032
20
0.7540539
40
2.669437
50
358.0857184
51
359.4943371
0
ARC
8
DEFAULT_255_2_778
10
18.6545487
20
0.7346743
40
1.0915955
50
359.7806452
51
359.9996105
0
ARC
8
DEFAULT_255_2_778
10
19.1139812
20
0.7385168
40
0.6321747
50
359.6510689
51
4.4518414
0
ARC
8
DEFAULT_255_2_778
10
19.4002583
20
0.7588863
40
0.3451856
50
4.7693887
51
7.9089865
0
ARC
8
DEFAULT_255_2_778
10
17.2182381
20
3.2500553
40
2.5514303
50
356.2004888
51
359.2053999
0
ARC
8
DEFAULT_255_2_778
10
7.5330068
20
3.4355079
40
12.2384088
50
358.9660718
51
359.1657794
0
ARC
8
DEFAULT_255_2_778
10
20.9874082
20
3.2899977
40
1.217728
50
168.2033946
51
181.5375182
0
ARC
8
DEFAULT_255_2_778
10
20.2288933
20
3.4325862
40
0.4463517
50
134.2497643
51
166.2143196
0
ARC
8
DEFAULT_255_2_778
10
20.3500273
20
3.3113818
40
0.6177007
50
124.2636751
51
134.4532671
0
ARC
8
DEFAULT_255_2_778
10
20.0063696
20
3.1958906
40
0.6260067
50
90.3760894
51
104.5974599
0
ARC
8
DEFAULT_255_2_778
10
20.0246796
20
3.1111512
40
0.7126347
50
104.3049979
51
106.1763966
0
ARC
8
DEFAULT_255_2_778
10
20.020699
20
3.1069892
40
0.7155404
50
105.7774249
51
145.1681935
0
ARC
8
DEFAULT_255_2_778
10
24.0737372
20
0.4809749
40
2.3525141
50
35.1417171
51
54.8280674
0
ARC
8
DEFAULT_255_2_778
10
28.9583247
20
-1.8067892
40
5.5995558
50
124.2983741
51
128.3272666
0
ARC
8
DEFAULT_255_2_778
10
-21.8748273
20
63.7439687
40
77.3519635
50
307.6954428
51
307.7540894
0
ARC
8
DEFAULT_255_2_778
10
23.5488635
20
4.803323
40
2.9405341
50
296.5921787
51
309.5972537
0
ARC
8
DEFAULT_255_2_778
10
24.23328
20
3.5521422
40
1.5162288
50
293.6148365
51
294.6290345
0
ARC
8
DEFAULT_255_2_778
10
26.7965875
20
1.637013
40
1.9443116
50
174.1619112
51
177.8625892
0
ARC
8
DEFAULT_255_2_778
10
28.2175688
20
1.5819304
40
3.3663593
50
177.8277471
51
180.1090985
0
ARC
8
DEFAULT_255_2_778
10
31.4164522
20
1.5840583
40
6.5652421
50
180.0745114
51
181.1895722
0
ARC
8
DEFAULT_255_2_778
10
47.0857653
20
1.90639
40
22.23787
50
181.1817398
51
181.5205752
0
ARC
8
DEFAULT_255_2_778
10
7.6243817
20
0.8520643
40
17.2375964
50
1.0110094
51
1.5432106
0
ARC
8
DEFAULT_255_2_778
10
18.2271501
20
1.0443456
40
6.633088
50
0.0398277
51
0.9663476
0
ARC
8
DEFAULT_255_2_778
10
21.9669596
20
1.0212303
40
2.8934097
50
353.6613182
51
0.5490453
0
ARC
8
DEFAULT_255_2_778
10
23.5711247
20
0.8439452
40
1.2794787
50
342.4014441
51
353.6206955
0
ARC
8
DEFAULT_255_2_778
10
23.961153
20
0.7303508
40
0.873413
50
338.7282538
51
341.7686916
0
ARC
8
DEFAULT_255_2_778
10
27.4033163
20
3.724327
40
4.2272226
50
231.5563018
51
243.0659712
0
ARC
8
DEFAULT_255_2_778
10
56.4948554
20
57.8163125
40
65.6448753
50
241.8140783
51
242.0601915
0
ARC
8
DEFAULT_255_2_778
10
30.3983448
20
-4.8996258
40
6.635346
50
131.140981
51
134.6237244
0
ARC
8
DEFAULT_255_2_778
10
-62.3637492
20
100.207849
40
133.5517154
50
311.44421
51
311.5291139
0
ARC
8
DEFAULT_255_2_778
10
23.1678353
20
3.7118486
40
4.6058098
50
310.8615342
51
317.092654
0
ARC
8
DEFAULT_255_2_778
10
24.7974137
20
2.1523871
40
2.3507404
50
317.8920173
51
319.7042053
0
ARC
8
DEFAULT_255_2_778
10
26.6193256
20
0.6593382
40
0.0397716
50
191.7577603
51
223.2570695
0
ARC
8
DEFAULT_255_2_778
10
26.7391139
20
0.6886527
40
0.1630764
50
188.9822984
51
193.2650635
0
ARC
8
DEFAULT_255_2_778
10
26.5619871
20
0.6658664
40
0.0162716
50
350.5388103
51
79.5512258
0
ARC
8
DEFAULT_255_2_778
10
26.5673449
20
0.6440919
40
0.0378528
50
93.6456126
51
116.1936629
0
ARC
8
DEFAULT_255_2_778
10
26.5918564
20
0.5832271
40
0.1034017
50
113.4931869
51
116.2268222
0
ARC
8
DEFAULT_255_2_778
10
25.9910628
20
0.6730764
40
0.3598773
50
269.9544616
51
285.4379936
0
ARC
8
DEFAULT_255_2_778
10
26.0189418
20
0.875527
40
0.5630327
50
235.6249293
51
267.132653
0
ARC
8
DEFAULT_255_2_778
10
26.7914725
20
2.1287121
40
2.0347401
50
231.1819907
51
237.5948238
0
ARC
8
DEFAULT_255_2_778
10
0.2406527
20
-31.5518792
40
40.8527557
50
51.7791906
51
51.9313749
0
ARC
8
DEFAULT_255_2_778
10
13.789584
20
1.2887897
40
9.0253549
50
181.794589
51
184.0313677
0
ARC
8
DEFAULT_255_2_778
10
16.8728209
20
1.3890384
40
12.1102193
50
179.9650771
51
181.8118283
0
ARC
8
DEFAULT_255_2_778
10
18.4311272
20
1.3963492
40
13.6685235
50
179.8327987
51
179.9997037
0
ARC
8
DEFAULT_255_2_778
10
19.8943412
20
1.3840206
40
15.1317694
50
177.5767692
51
179.8022852
0
ARC
8
DEFAULT_255_2_778
10
19.8554181
20
1.3920715
40
15.0925423
50
176.2929221
51
177.6010578
0
ARC
8
DEFAULT_255_2_778
10
18.0202793
20
1.5100872
40
13.2536128
50
175.4595395
51
176.289104
0
ARC
8
DEFAULT_255_2_778
10
3.0212016
20
5.3422263
40
3.2218092
50
302.179143
51
312.0777683
0
ARC
8
DEFAULT_255_2_778
10
1.4213833
20
7.7255053
40
6.0915887
50
302.9265169
51
302.9768392
0
ARC
8
DEFAULT_255_2_778
10
0.9362959
20
8.4749928
40
6.9843605
50
302.8811353
51
302.9246576
0
ARC
8
DEFAULT_255_2_778
10
1.5338843
20
7.5503253
40
5.8833964
50
302.831325
51
302.8825586
0
ARC
8
DEFAULT_255_2_778
10
1.0660412
20
8.2748963
40
6.7458813
50
302.7893586
51
302.833667
0
ARC
8
DEFAULT_255_2_778
10
1.1291201
20
8.1774539
40
6.6298041
50
302.7424212
51
302.7871268
0
ARC
8
DEFAULT_255_2_778
10
0.7682468
20
8.7386755
40
7.2970367
50
302.7020677
51
302.7423444
0
ARC
8
DEFAULT_255_2_778
10
1.2508432
20
7.9868162
40
6.403621
50
302.6575136
51
302.7030239
0
ARC
8
DEFAULT_255_2_778
10
1.3096335
20
7.893939
40
6.2937024
50
302.6172586
51
302.6631743
0
ARC
8
DEFAULT_255_2_778
10
0.9701718
20
8.4240112
40
6.9231551
50
302.5775511
51
302.618941
0
ARC
8
DEFAULT_255_2_778
10
1.0348215
20
8.3224941
40
6.8028003
50
302.537325
51
302.5790926
0
ARC
8
DEFAULT_255_2_778
10
1.0978511
20
8.2225792
40
6.6846676
50
302.5003422
51
302.5424899
0
ARC
8
DEFAULT_255_2_778
10
0.3513259
20
9.3942667
40
8.0739665
50
302.4661489
51
302.5007501
0
ARC
8
DEFAULT_255_2_778
10
0.4261775
20
9.2760675
40
7.9340605
50
302.4333754
51
302.4682898
0
ARC
8
DEFAULT_255_2_778
10
0.5002273
20
9.1597028
40
7.7961324
50
302.3974772
51
302.4327096
0
ARC
8
DEFAULT_255_2_778
10
-0.1247779
20
10.1448716
40
8.9628324
50
302.3663279
51
302.3967154
0
ARC
8
DEFAULT_255_2_778
10
-0.0393376
20
10.0114758
40
8.8044217
50
302.3307375
51
302.3614105
0
ARC
8
DEFAULT_255_2_778
10
-0.4612704
20
10.6786974
40
9.5938594
50
302.3009673
51
302.3288786
0
ARC
8
DEFAULT_255_2_778
10
-0.3717918
20
10.5380475
40
9.4271604
50
302.2699249
51
302.2980896
0
ARC
8
DEFAULT_255_2_778
10
0.8474524
20
8.6064097
40
7.1429142
50
302.236241
51
302.2730983
0
ARC
8
DEFAULT_255_2_778
10
0.9128574
20
8.5011723
40
7.0190107
50
302.2056755
51
302.2428663
0
ARC
8
DEFAULT_255_2_778
10
0.3579971
20
9.3803206
40
8.058612
50
302.1802308
51
302.2123496
0
ARC
8
DEFAULT_255_2_778
10
-1.1047045
20
11.7047313
40
10.8049517
50
302.1567563
51
302.1805086
0
ARC
8
DEFAULT_255_2_778
10
0.0495709
20
9.8689033
40
8.6364
50
302.1265783
51
302.1560431
0
ARC
8
DEFAULT_255_2_778
10
0.1284238
20
9.7419855
40
8.4869833
50
302.1016777
51
302.1314072
0
ARC
8
DEFAULT_255_2_778
10
-3.9239571
20
16.2025337
40
16.1132848
50
302.0844138
51
302.0999399
0
ARC
8
DEFAULT_255_2_778
10
-3.7697024
20
15.960823
40
15.8265564
50
302.0603927
51
302.0760661
0
ARC
8
DEFAULT_255_2_778
10
-0.6169468
20
10.9286878
40
9.8883537
50
302.0308624
51
302.0557353
0
ARC
8
DEFAULT_255_2_778
10
-0.525171
20
10.7813806
40
9.7147966
50
302.0076715
51
302.032774
0
ARC
8
DEFAULT_255_2_778
10
-0.4361738
20
10.6370025
40
9.545196
50
301.9886876
51
302.0140195
0
ARC
8
DEFAULT_255_2_778
10
-3.1853195
20
15.03799
40
14.7342703
50
301.9734437
51
301.989715
0
ARC
8
DEFAULT_255_2_778
10
-0.2619849
20
10.355457
40
9.2141253
50
301.9456401
51
301.9714386
0
ARC
8
DEFAULT_255_2_778
10
-2.9098396
20
14.6007072
40
14.2174526
50
301.9315417
51
301.9481194
0
ARC
8
DEFAULT_255_2_778
10
-2.7766986
20
14.3884356
40
13.9668828
50
301.9118458
51
301.9285776
0
ARC
8
DEFAULT_255_2_778
10
29.0564377
20
-37.2067827
40
46.6584759
50
121.6024004
51
121.986097
0
ARC
8
DEFAULT_255_2_778
10
6.6201602
20
-1.2569654
40
4.2819019
50
122.1623962
51
124.4805798
0
ARC
8
DEFAULT_255_2_778
10
-11.4589244
20
1.6008557
40
15.6693939
50
0.0634251
51
2.4573201
0
ARC
8
DEFAULT_255_2_778
10
-7.6703637
20
1.6009785
40
11.8808361
50
355.8267378
51
0.083058
0
ARC
8
DEFAULT_255_2_778
10
-6.622376
20
1.5377085
40
10.8310306
50
355.4393366
51
355.7571073
0
ARC
8
DEFAULT_255_2_778
10
11.0199674
20
-7.5345266
40
9.6051385
50
126.9410008
51
128.7708479
0
ARC
8
DEFAULT_255_2_778
10
9.4961879
20
-5.5227045
40
7.0814057
50
126.0651759
51
126.8698127
0
ARC
8
DEFAULT_255_2_778
10
8.0800681
20
-3.5154374
40
4.6253064
50
116.8730341
51
126.523158
0
ARC
8
DEFAULT_255_2_778
10
45.3150799
20
2.1407088
40
39.3554838
50
181.9398019
51
182.2284893
0
ARC
8
DEFAULT_255_2_778
10
30.1612053
20
1.6337242
40
24.1931327
50
181.1986063
51
181.9546188
0
ARC
8
DEFAULT_255_2_778
10
22.3329347
20
1.471532
40
16.3631823
50
180.0371787
51
181.2041941
0
ARC
8
DEFAULT_255_2_778
10
19.6838467
20
1.460724
40
13.714091
50
179.9388867
51
179.9992055
0
ARC
8
DEFAULT_255_2_778
10
15.7224361
20
1.4916627
40
9.7526864
50
176.938759
51
180.0958245
0
ARC
8
DEFAULT_255_2_778
10
11.3582803
20
1.7193817
40
5.3826002
50
173.5703489
51
176.8784426
0
ARC
8
DEFAULT_255_2_778
10
9.4025967
20
1.9354523
40
3.415024
50
170.6379311
51
173.4983373
0
ARC
8
DEFAULT_255_2_778
10
12.3791268
20
2.7073188
40
0.109248
50
55.5286574
51
79.8627079
0
ARC
8
DEFAULT_255_2_778
10
12.3817187
20
2.7163723
40
0.0998841
50
80.4122096
51
90.0454245
0
ARC
8
DEFAULT_255_2_778
10
12.3939363
20
2.6402218
40
0.1764637
50
93.9958861
51
128.2535538
0
ARC
8
DEFAULT_255_2_778
10
12.9606153
20
1.8647759
40
1.1368021
50
126.483659
51
133.5050511
0
ARC
8
DEFAULT_255_2_778
10
11.6807218
20
3.2031988
40
0.7151104
50
300.7718275
51
314.0602395
0
ARC
8
DEFAULT_255_2_778
10
11.9163934
20
2.8307737
40
0.274804
50
293.4066559
51
298.2791908
0
ARC
8
DEFAULT_255_2_778
10
12.136512
20
2.4644595
40
0.1591685
50
134.1923895
51
149.4884254
0
ARC
8
DEFAULT_255_2_778
10
12.0754036
20
2.4998244
40
0.0885686
50
149.127646
51
179.331517
0
ARC
8
DEFAULT_255_2_778
10
12.1077752
20
2.5078258
40
0.1211347
50
183.2976452
51
219.6922209
0
ARC
8
DEFAULT_255_2_778
10
12.29062
20
2.6352822
40
0.3437421
50
216.5736588
51
222.3576306
0
ARC
8
DEFAULT_255_2_778
10
13.0151419
20
3.3107374
40
1.3342676
50
222.8290993
51
225.8826265
0
ARC
8
DEFAULT_255_2_778
10
11.8056274
20
2.0391784
40
0.4209211
50
29.684834
51
48.1757986
0
ARC
8
DEFAULT_255_2_778
10
12.0291234
20
2.1781269
40
0.1582631
50
18.6677875
51
26.0506549
0
ARC
8
DEFAULT_255_2_778
10
11.696312
20
0.6952725
40
0.4518725
50
325.7522819
51
346.317228
0
ARC
8
DEFAULT_255_2_778
10
13.2018107
20
-0.3130372
40
1.3601091
50
146.332428
51
150.7285701
0
ARC
8
DEFAULT_255_2_778
10
12.1820473
20
0.2649468
40
0.1880348
50
152.4267494
51
161.0905655
0
ARC
8
DEFAULT_255_2_778
10
12.7535852
20
0.2032086
40
0.169727
50
4.6214231
51
51.5316401
0
ARC
8
DEFAULT_255_2_778
10
12.2882788
20
-0.2678638
40
0.8310744
50
46.6123419
51
51.2396314
0
ARC
8
DEFAULT_255_2_778
10
7.317023
20
-6.3455663
40
8.6829127
50
50.7684295
51
50.9457816
0
ARC
8
DEFAULT_255_2_778
10
13.0558117
20
0.770787
40
0.4598553
50
213.8456498
51
234.3418275
0
ARC
8
DEFAULT_255_2_778
10
12.8213298
20
0.599139
40
0.1699296
50
198.5838056
51
209.8082904
0
ARC
8
DEFAULT_255_2_778
10
12.5636189
20
2.4789489
40
0.3170253
50
300.781279
51
301.0966801
0
ARC
8
DEFAULT_255_2_778
10
12.3150302
20
2.8487579
40
0.7623973
50
302.7401401
51
311.2309112
0
ARC
8
DEFAULT_255_2_778
10
17.2829879
20
-3.0510704
40
6.9506516
50
129.637978
51
129.9749589
0
ARC
8
DEFAULT_255_2_778
10
13.1569102
20
1.9892957
40
0.4385921
50
96.3971126
51
134.6044718
0
ARC
8
DEFAULT_255_2_778
10
13.1196443
20
2.128545
40
0.2968388
50
89.9968681
51
92.2398871
0
ARC
8
DEFAULT_255_2_778
10
13.07182
20
2.2001361
40
0.2302721
50
64.0536995
51
78.0091143
0
ARC
8
DEFAULT_255_2_778
10
12.9712169
20
2.0158864
40
0.4400772
50
27.6231427
51
62.7714033
0
ARC
8
DEFAULT_255_2_778
10
13.1370348
20
2.105356
40
0.2516883
50
13.2127654
51
27.0791899
0
ARC
8
DEFAULT_255_2_778
10
4.2798099
20
1.7852442
40
9.1100811
50
1.3431523
51
2.375759
0
ARC
8
DEFAULT_255_2_778
10
1.4796171
20
1.7201866
40
11.9110295
50
0.2872578
51
1.3402778
0
ARC
8
DEFAULT_255_2_778
10
-0.6401019
20
1.7046503
40
14.0308006
50
359.9980124
51
0.307303
0
ARC
8
DEFAULT_255_2_778
10
-3.029925
20
1.710347
40
16.420625
50
358.9001012
51
359.9784243
0
ARC
8
DEFAULT_255_2_778
10
-6.0189624
20
1.7649794
40
19.4101606
50
357.969264
51
358.9082315
0
ARC
8
DEFAULT_255_2_778
10
-7.0468877
20
1.7980169
40
20.4386113
50
356.5077136
51
357.9788188
0
ARC
8
DEFAULT_255_2_778
10
-4.7500006
20
1.6591523
40
18.1375308
50
355.7844528
51
356.5035874
0
ARC
8
DEFAULT_255_2_778
10
14.0511018
20
0.5588995
40
0.7497693
50
198.1064384
51
239.5821875
0
ARC
8
DEFAULT_255_2_778
10
14.1735825
20
0.7193212
40
0.9504354
50
238.1110883
51
243.7933346
0
ARC
8
DEFAULT_255_2_778
10
12.4037477
20
1.9595671
40
2.4906592
50
302.8246944
51
304.2361395
0
ARC
8
DEFAULT_255_2_778
10
11.6536527
20
3.0116965
40
3.7825942
50
304.6631397
51
311.7325625
0
ARC
8
DEFAULT_255_2_778
10
10.7318519
20
4.0834007
40
5.1960275
50
311.4515781
51
313.9988326
0
ARC
8
DEFAULT_255_2_778
10
10.7242046
20
4.0932039
40
5.2083917
50
313.9844375
51
315.0446173
0
ARC
8
DEFAULT_255_2_778
10
14.3915221
20
0.375679
40
0.0417922
50
63.8200977
51
90.6036021
0
ARC
8
DEFAULT_255_2_778
10
14.4001084
20
0.3147088
40
0.1031557
50
95.0200265
51
127.6465892
0
ARC
8
DEFAULT_255_2_778
10
14.4707487
20
0.1979395
40
0.2392545
50
123.9587652
51
125.0457934
0
ARC
8
DEFAULT_255_2_778
10
14.5903686
20
0.0389929
40
0.4381231
50
125.9167869
51
134.0088
0
ARC
8
DEFAULT_255_2_778
10
15.3598688
20
-0.7750511
40
1.5582824
50
133.5630737
51
135.0487076
0
ARC
8
DEFAULT_255_2_778
10
14.0906436
20
0.416033
40
0.1892656
50
309.3540981
51
331.555281
0
ARC
8
DEFAULT_255_2_778
10
14.1321099
20
0.3678197
40
0.1256996
50
269.4574328
51
308.6745164
0
ARC
8
DEFAULT_255_2_778
10
14.1320577
20
0.4099547
40
0.1678329
50
255.5303313
51
269.611477
0
ARC
8
DEFAULT_255_2_778
10
14.2075119
20
0.6152848
40
0.3861168
50
223.8762781
51
252.3003329
0
ARC
8
DEFAULT_255_2_778
10
14.0509086
20
0.4730826
40
0.1747745
50
225.7535455
51
225.8559104
0
ARC
8
DEFAULT_255_2_778
10
16.2315038
20
0.7222891
40
2.3327848
50
184.1629347
51
189.2357532
0
ARC
8
DEFAULT_255_2_778
10
17.6314643
20
0.8268149
40
3.7366406
50
180.7254196
51
184.2031496
0
ARC
8
DEFAULT_255_2_778
10
19.1099304
20
0.8565655
40
5.2153765
50
179.9880439
51
180.8465935
0
ARC
8
DEFAULT_255_2_778
10
22.4028554
20
0.8308751
40
8.5083434
50
177.5419607
51
179.81967
0
ARC
8
DEFAULT_255_2_778
10
30.3262951
20
0.5377288
40
16.4371322
50
177.5352122
51
177.7055879
0
ARC
8
DEFAULT_255_2_778
10
48.4923522
20
-0.2700383
40
34.6211308
50
177.1775228
51
177.4925458
0
ARC
8
DEFAULT_255_2_778
10
-12.9166005
20
2.7892654
40
26.8639903
50
357.1098756
51
357.7162906
0
ARC
8
DEFAULT_255_2_778
10
6.3295233
20
2.0211342
40
7.6025444
50
357.7208683
51
359.5012575
0
ARC
8
DEFAULT_255_2_778
10
8.9491155
20
1.9876124
40
4.9827713
50
359.6245024
51
359.9971255
0
ARC
8
DEFAULT_255_2_778
10
9.9108244
20
1.9901722
40
4.0210635
50
359.959963
51
1.4813024
0
ARC
8
DEFAULT_255_2_778
10
10.7465735
20
2.0100017
40
3.1850813
50
1.5133557
51
2.3568749
0
ARC
8
DEFAULT_255_2_778
10
13.6669715
20
2.2394401
40
0.2798782
50
339.4036275
51
341.4407192
0
ARC
8
DEFAULT_255_2_778
10
13.6761987
20
2.2365527
40
0.2702119
50
341.3983787
51
0.0775506
0
ARC
8
DEFAULT_255_2_778
10
13.4858043
20
2.2048255
40
0.4617228
50
3.9856741
51
41.0243948
0
ARC
8
DEFAULT_255_2_778
10
12.8794075
20
1.7623573
40
1.2113374
50
37.9855959
51
45.2131813
0
ARC
8
DEFAULT_255_2_778
10
13.3312518
20
2.2227785
40
0.566262
50
44.8423856
51
44.899595
0
ARC
8
DEFAULT_255_2_778
10
13.1450549
20
2.2585453
40
0.6909262
50
31.7854599
51
38.5461877
0
ARC
8
DEFAULT_255_2_778
10
13.3370303
20
2.4125435
40
0.4448185
50
38.4412882
51
48.1273483
0
ARC
8
DEFAULT_255_2_778
10
13.4432477
20
2.53231
40
0.2847405
50
47.956569
51
63.02992
0
ARC
8
DEFAULT_255_2_778
10
13.4791908
20
2.6026419
40
0.2057566
50
63.0680107
51
89.9260867
0
ARC
8
DEFAULT_255_2_778
10
13.4854998
20
2.5390721
40
0.269394
50
91.2854614
51
116.4603823
0
ARC
8
DEFAULT_255_2_778
10
13.6114104
20
2.2716345
40
0.5649555
50
115.8068407
51
126.9189678
0
ARC
8
DEFAULT_255_2_778
10
13.8406312
20
1.9499908
40
0.959846
50
126.3251539
51
128.7179037
0
ARC
8
DEFAULT_255_2_778
10
14.3719447
20
1.3046709
40
1.7957098
50
129.0660248
51
133.2133996
0
ARC
8
DEFAULT_255_2_778
10
18.1081071
20
-2.7189783
40
7.2864665
50
132.9608583
51
133.5951059
0
ARC
8
DEFAULT_255_2_778
10
11.3652342
20
4.31408
40
2.4569217
50
309.2927956
51
314.3809403
0
ARC
8
DEFAULT_255_2_778
10
12.5125697
20
2.9157099
40
0.648111
50
297.3506807
51
309.082311
0
ARC
8
DEFAULT_255_2_778
10
12.6594737
20
2.6387824
40
0.3346637
50
285.3671183
51
296.7940104
0
ARC
8
DEFAULT_255_2_778
10
14.4912261
20
3.2929665
40
1.9981435
50
206.1567901
51
209.26799
0
ARC
8
DEFAULT_255_2_778
10
3.0420176
20
-2.3393987
40
10.7614776
50
26.2016038
51
26.8028955
0
ARC
8
DEFAULT_255_2_778
10
11.8292662
20
2.1392734
40
0.8994559
50
24.5646704
51
47.0551322
0
ARC
8
DEFAULT_255_2_778
10
3.003091
20
2.8767627
40
0.8239119
50
114.2144889
51
128.7278986
0
ARC
8
DEFAULT_255_2_778
10
2.9975978
20
2.9133455
40
0.7921545
50
130.0734662
51
169.4499444
0
ARC
8
DEFAULT_255_2_778
10
4.1747795
20
2.6613929
40
1.9958265
50
168.5267199
51
180.8964253
0
ARC
8
DEFAULT_255_2_778
10
6.2801224
20
2.6160212
40
4.1009495
50
179.8023456
51
180.0016391
0
ARC
8
DEFAULT_255_2_778
10
7.075039
20
2.617581
40
4.8958665
50
180.0196268
51
180.7892474
0
ARC
8
DEFAULT_255_2_778
10
13.4918259
20
2.7311082
40
11.3136363
50
180.9165048
51
181.8394871
0
ARC
8
DEFAULT_255_2_778
10
-9.2695092
20
1.9976237
40
11.4595141
50
0.9514396
51
1.8518717
0
ARC
8
DEFAULT_255_2_778
10
-2.2607782
20
2.1251957
40
4.4496451
50
0.0230321
51
0.8075508
0
ARC
8
DEFAULT_255_2_778
10
-0.3190587
20
2.1169656
40
2.5079454
50
356.3257565
51
0.228888
0
ARC
8
DEFAULT_255_2_778
10
0.8533655
20
2.0408318
40
1.3330525
50
349.9517573
51
356.3620344
0
ARC
8
DEFAULT_255_2_778
10
1.341908
20
1.9554709
40
0.8371111
50
342.4739504
51
349.8704391
0
ARC
8
DEFAULT_255_2_778
10
1.1570967
20
2.1602823
40
1.0840528
50
312.2433915
51
335.072413
0
ARC
8
DEFAULT_255_2_778
10
0.4084518
20
2.925504
40
2.1542104
50
304.9324262
51
313.3013316
0
ARC
8
DEFAULT_255_2_778
10
-0.1984784
20
3.7706935
40
3.1946837
50
301.851642
51
305.1765977
0
ARC
8
DEFAULT_255_2_778
10
-0.662898
20
4.511209
40
4.0687763
50
300.4542231
51
301.9037459
0
ARC
8
DEFAULT_255_2_778
10
1.084914
20
-1.2925758
40
2.3177886
50
61.8099992
51
82.2028333
0
ARC
8
DEFAULT_255_2_778
10
-2.3843208
20
-8.3457813
40
10.1769346
50
61.7004622
51
63.3537989
0
ARC
8
DEFAULT_255_2_778
10
129.2261716
20
238.6689506
40
269.711715
50
241.9605785
51
241.9627179
0
ARC
8
DEFAULT_255_2_778
10
2.5846753
20
2.947604
40
0.0481894
50
91.2205993
51
176.8121525
0
ARC
8
DEFAULT_255_2_778
10
2.5860627
20
2.9475803
40
0.0482627
50
90.0109501
51
92.8668748
0
ARC
8
DEFAULT_255_2_778
10
2.586815
20
2.9549499
40
0.0409002
50
25.0753923
51
91.0669335
0
ARC
8
DEFAULT_255_2_778
10
1.7990318
20
3.8391836
40
1.9870788
50
294.5253674
51
315.3003388
0
ARC
8
DEFAULT_255_2_778
10
2.2292212
20
3.3531036
40
1.3400821
50
317.1355563
51
318.7248502
0
ARC
8
DEFAULT_255_2_778
10
2.4235006
20
2.5075322
40
0.8137686
50
357.2919214
51
359.9982515
0
ARC
8
DEFAULT_255_2_778
10
2.1667448
20
2.4641249
40
1.0714032
50
2.3206102
51
35.4426449
0
ARC
8
DEFAULT_255_2_778
10
-0.9371772
20
0.5037007
40
4.7413214
50
32.991486
51
36.4708926
0
ARC
8
DEFAULT_255_2_778
10
47.8017911
20
35.87523
40
55.4804008
50
215.8837051
51
215.9268367
0
ARC
8
DEFAULT_255_2_778
10
5.656517
20
5.4425548
40
3.4963859
50
211.2545894
51
216.6425375
0
ARC
8
DEFAULT_255_2_778
10
1.0869562
20
3.276636
40
0.7861788
50
146.0683446
51
158.6198171
0
ARC
8
DEFAULT_255_2_778
10
0.9549094
20
3.3299286
40
0.6437929
50
158.752144
51
171.9345284
0
ARC
8
DEFAULT_255_2_778
10
0.9296338
20
3.3346813
40
0.6181015
50
172.0419991
51
180.0131781
0
ARC
8
DEFAULT_255_2_778
10
1.043493
20
3.3439079
40
0.7320206
50
180.7333174
51
204.250637
0
ARC
8
DEFAULT_255_2_778
10
1.357596
20
3.4701494
40
1.070348
50
203.5060388
51
210.4268972
0
ARC
8
DEFAULT_255_2_778
10
0.3241831
20
2.9271978
40
0.1324803
50
0.383192
51
23.516324
0
ARC
8
DEFAULT_255_2_778
10
0.537051
20
3.0278924
40
0.1031517
50
186.9650671
51
207.6274677
0
ARC
8
DEFAULT_255_2_778
10
0.6530813
20
3.1574347
40
0.2605496
50
178.8907104
51
213.0381363
0
ARC
8
DEFAULT_255_2_778
10
0.7389294
20
3.162279
40
0.3463491
50
175.9787906
51
179.9669408
0
ARC
8
DEFAULT_255_2_778
10
0.9577015
20
3.1262267
40
0.5674856
50
148.3752174
51
173.89625
0
ARC
8
DEFAULT_255_2_778
10
1.0813645
20
3.0664155
40
0.7042845
50
148.844688
51
149.5072337
0
ARC
8
DEFAULT_255_2_778
10
0.86787
20
2.4990521
40
1.0097565
50
88.8644064
51
112.6716135
0
ARC
8
DEFAULT_255_2_778
10
0.8878819
20
2.0559451
40
1.4526651
50
89.8527102
51
89.9999999
0
ARC
8
DEFAULT_255_2_778
10
0.8455508
20
1.27345
40
2.2356299
50
77.7548537
51
88.8193283
0
ARC
8
DEFAULT_255_2_778
10
0.0915454
20
-2.6628362
40
6.2430522
50
77.7902794
51
78.6544267
0
LINE
8
DEFAULT_255_2_778
10
1.4118923
20
3.4389983
11
1.4130172
21
3.4387559
0
ARC
8
DEFAULT_255_2_778
10
-0.2138511
20
-4.1122419
40
7.7242649
50
77.8329721
51
77.8414359
0
ARC
8
DEFAULT_255_2_778
10
-0.1859577
20
-3.9763093
40
7.5855069
50
77.813982
51
77.8225287
0
LINE
8
DEFAULT_255_2_778
10
1.4152386
20
3.4382767
11
1.4163354
21
3.43804
0
LINE
8
DEFAULT_255_2_778
10
1.4163354
20
3.43804
11
1.4174231
21
3.4378051
0
ARC
8
DEFAULT_255_2_778
10
-0.1041088
20
-3.6022168
40
7.2025667
50
77.795691
51
77.8044686
0
ARC
8
DEFAULT_255_2_778
10
-0.0774648
20
-3.4845088
40
7.0818867
50
77.7962115
51
77.8050643
0
ARC
8
DEFAULT_255_2_778
10
-0.0516841
20
-3.3733135
40
6.9677546
50
77.8012072
51
77.81013
0
ARC
8
DEFAULT_255_2_778
10
-0.0263374
20
-3.2522606
40
6.844079
50
77.785463
51
77.7944714
0
ARC
8
DEFAULT_255_2_778
10
-0.0011926
20
-3.1439187
40
6.73287
50
77.790452
51
77.7995328
0
ARC
8
DEFAULT_255_2_778
10
0.0235271
20
-3.0258943
40
6.6122872
50
77.7743495
51
77.7835189
0
LINE
8
DEFAULT_255_2_778
10
1.4237606
20
3.4364341
11
1.4247862
21
3.4362119
0
ARC
8
DEFAULT_255_2_778
10
0.0716488
20
-2.8100774
40
6.3911744
50
77.767522
51
77.7768513
0
ARC
8
DEFAULT_255_2_778
10
4.7317886
20
18.6731223
40
15.5916547
50
257.7583318
51
257.7659145
0
ARC
8
DEFAULT_255_2_778
10
0.1409049
20
-2.4978898
40
6.0714006
50
77.7529843
51
77.7625612
0
ARC
8
DEFAULT_255_2_778
10
3.3726489
20
12.3822643
40
9.1556529
50
257.7422369
51
257.7548296
0
ARC
8
DEFAULT_255_2_778
10
4.4870882
20
17.4956798
40
14.3891011
50
257.7366991
51
257.7445786
0
ARC
8
DEFAULT_255_2_778
10
0.2492298
20
-2.0102127
40
5.5718429
50
77.7267205
51
77.7367282
0
ARC
8
DEFAULT_255_2_778
10
3.2271854
20
11.6741783
40
8.4328269
50
257.7203446
51
257.7334564
0
ARC
8
DEFAULT_255_2_778
10
-1.0968503
20
-8.2027829
40
11.9090235
50
77.7157283
51
77.722577
0
ARC
8
DEFAULT_255_2_778
10
0.202449
20
-2.2371636
40
5.8035513
50
77.7047371
51
77.7186159
0
LINE
8
DEFAULT_255_2_778
10
1.438313
20
3.4332728
11
1.4392174
21
3.4330757
0
ARC
8
DEFAULT_255_2_778
10
0.2551638
20
-2.0025883
40
5.563131
50
77.6970177
51
77.7111977
0
ARC
8
DEFAULT_255_2_778
10
-0.869908
20
-7.1701723
40
10.8517707
50
77.6997718
51
77.7069508
0
LINE
8
DEFAULT_255_2_778
10
1.4418911
20
3.432493
11
1.4427659
21
3.4323023
0
ARC
8
DEFAULT_255_2_778
10
2.0618449
20
6.2671687
40
2.9016765
50
257.6811297
51
257.7074248
0
ARC
8
DEFAULT_255_2_778
10
2.9326509
20
10.250383
40
6.9789668
50
257.6844387
51
257.6988332
0
ARC
8
DEFAULT_255_2_778
10
7.7264947
20
31.9841054
40
29.2350884
50
257.5941638
51
257.8035387
0
ARC
8
DEFAULT_255_2_778
10
2.4668328
20
1.9212107
40
1.7474151
50
121.6404871
51
150.7457228
0
ARC
8
DEFAULT_255_2_778
10
1.7552142
20
2.3601556
40
0.9127295
50
152.9561278
51
179.6725106
0
ARC
8
DEFAULT_255_2_778
10
1.7304112
20
2.3656844
40
0.8879115
50
180.0201296
51
186.5353742
0
ARC
8
DEFAULT_255_2_778
10
1.7543544
20
2.3680174
40
0.9119646
50
186.5097828
51
187.4365285
0
ARC
8
DEFAULT_255_2_778
10
-11.0923877
20
22.1008591
40
22.9549578
50
299.8902641
51
300.142969
0
ARC
8
DEFAULT_255_2_778
10
0.4852984
20
1.8828418
40
0.3453934
50
113.6044805
51
165.1918757
0
ARC
8
DEFAULT_255_2_778
10
0.3975834
20
1.930728
40
0.249498
50
170.683565
51
171.9229082
0
ARC
8
DEFAULT_255_2_778
10
0.9998185
20
1.7833914
40
0.8686232
50
167.8788926
51
175.8343352
0
ARC
8
DEFAULT_255_2_778
10
0.6060578
20
1.8184466
40
0.4733989
50
176.6040601
51
179.9384669
0
ARC
8
DEFAULT_255_2_778
10
0.3268631
20
1.798546
40
0.1952734
50
174.0007771
51
235.464913
0
ARC
8
DEFAULT_255_2_778
10
0.5072149
20
1.7582984
40
0.3150564
50
181.7142734
51
202.509398
0
ARC
8
DEFAULT_255_2_778
10
0.4884786
20
1.755953
40
0.2962637
50
179.9961933
51
181.369274
0
ARC
8
DEFAULT_255_2_778
10
0.5061085
20
1.755665
40
0.3138937
50
173.5762221
51
179.9438336
0
ARC
8
DEFAULT_255_2_778
10
0.754731
20
1.7115477
40
0.5661181
50
156.8981475
51
171.9542382
0
ARC
8
DEFAULT_255_2_778
10
1.7125707
20
1.3530932
40
1.5884626
50
158.1655496
51
158.5617436
0
ARC
8
DEFAULT_255_2_778
10
0.4348883
20
1.6098507
40
0.3877104
50
87.6023958
51
120.5085625
0
LINE
8
DEFAULT_255_2_778
10
0.4511077
20
1.9972215
11
0.4516317
21
1.9972543
0
ARC
8
DEFAULT_255_2_778
10
0.4179624
20
2.8549664
40
0.8583728
50
272.2479793
51
279.9419335
0
ARC
8
DEFAULT_255_2_778
10
0.4916389
20
1.5550583
40
0.4604954
50
54.6710894
51
80.686922
0
ARC
8
DEFAULT_255_2_778
10
0.5992408
20
1.7023425
40
0.2781235
50
0.1334257
51
55.2101533
0
ARC
8
DEFAULT_255_2_778
10
0.5463609
20
1.704899
40
0.3310083
50
343.7660451
51
359.669574
0
ARC
8
DEFAULT_255_2_778
10
0.4707285
20
1.7247604
40
0.4091827
50
338.0914926
51
344.0565089
0
ARC
8
DEFAULT_255_2_778
10
0.4768798
20
1.534485
40
0.3753685
50
0.0045658
51
5.7486832
0
ARC
8
DEFAULT_255_2_778
10
0.2957056
20
1.5769565
40
0.5581586
50
310.7796198
51
355.6391006
0
ARC
8
DEFAULT_255_2_778
10
-0.1678139
20
1.9865906
40
1.1740617
50
313.505338
51
314.8548714
0
ARC
8
DEFAULT_255_2_778
10
-0.3572726
20
2.1896964
40
1.4518058
50
309.9598741
51
313.4103817
0
ARC
8
DEFAULT_255_2_778
10
-0.6058488
20
2.4813301
40
1.8349926
50
309.6949301
51
310.0607349
0
ARC
8
DEFAULT_255_2_778
10
0.5179135
20
1.9832218
40
0.8830225
50
290.6043613
51
303.0233904
0
ARC
8
DEFAULT_255_2_778
10
0.6441396
20
1.7898445
40
0.6520949
50
302.9841098
51
323.7537192
0
ARC
8
DEFAULT_255_2_778
10
0.4803965
20
1.8733227
40
0.8340295
50
325.7800709
51
355.0891571
0
ARC
8
DEFAULT_255_2_778
10
-0.9441558
20
2.0556168
40
2.2697424
50
353.5825786
51
0.5779025
0
ARC
8
DEFAULT_255_2_778
10
-7.6253832
20
2.0439798
40
8.950921
50
0.2210302
51
1.4744855
0
ARC
8
DEFAULT_255_2_778
10
17.0597383
20
2.6388666
40
15.7413863
50
180.9178871
51
181.3270638
0
ARC
8
DEFAULT_255_2_778
10
7.0835197
20
2.4762926
40
5.7638441
50
180.0396674
51
180.8906558
0
ARC
8
DEFAULT_255_2_778
10
3.7178106
20
2.4973553
40
2.3982643
50
173.1319604
51
180.5985428
0
ARC
8
DEFAULT_255_2_778
10
2.7178747
20
2.6041281
40
1.3928017
50
168.3918517
51
172.5737755
0
ARC
8
DEFAULT_255_2_778
10
2.3824421
20
2.6895747
40
1.0471619
50
127.6667417
51
169.2785011
0
ARC
8
DEFAULT_255_2_778
10
2.9362335
20
2.0974032
40
1.8558939
50
118.5688836
51
130.0295273
0
ARC
8
DEFAULT_255_2_778
10
3.0220295
20
1.9536108
40
2.0232182
50
114.2754245
51
118.7553955
0
ARC
8
DEFAULT_255_2_778
10
2.9889074
20
2.0266824
40
1.9429904
50
112.2511553
51
114.2709407
0
ARC
8
DEFAULT_255_2_778
10
2.1994428
20
5.4441423
40
1.6200493
50
269.9887845
51
271.9001629
0
ARC
8
DEFAULT_255_2_778
10
2.2463103
20
6.505035
40
2.681357
50
259.1404539
51
268.9916984
0
ARC
8
DEFAULT_255_2_778
10
4.0504323
20
17.1401037
40
13.4678691
50
259.6821375
51
260.126875
0
ARC
8
DEFAULT_255_2_778
10
0.6966138
20
-0.9421111
40
4.9230184
50
78.9733637
51
83.1339506
0
ARC
8
DEFAULT_255_2_778
10
1.0969711
20
2.2419536
40
1.7140092
50
83.6967417
51
89.758132
0
ARC
8
DEFAULT_255_2_778
10
1.0881346
20
2.9353697
40
1.0207044
50
89.0977886
51
111.7003073
0
ARC
8
DEFAULT_255_2_778
10
1.0780511
20
2.9911005
40
0.9652603
50
112.3673648
51
124.1871674
0
ARC
8
DEFAULT_255_2_778
10
1.1674717
20
2.8567799
40
1.1266175
50
124.1106183
51
130.3417854
0
ARC
8
DEFAULT_255_2_778
10
2.9064408
20
3.4986766
40
1.1384557
50
300.3957987
51
321.9431731
0
ARC
8
DEFAULT_255_2_778
10
17.8430204
20
-19.0464279
40
25.907413
50
123.662715
51
123.8015574
0
ARC
8
DEFAULT_255_2_778
10
4.2698263
20
1.1625257
40
1.5637984
50
122.471467
51
133.6425162
0
ARC
8
DEFAULT_255_2_778
10
4.6861914
20
4.0470161
40
2.304199
50
229.5270249
51
239.2574957
0
ARC
8
DEFAULT_255_2_778
10
26.2319424
20
38.4941555
40
42.933996
50
238.0439545
51
238.1460004
0
ARC
8
DEFAULT_255_2_778
10
2.070412
20
-0.4721247
40
2.9155026
50
53.0060252
51
58.9716255
0
ARC
8
DEFAULT_255_2_778
10
5.6901135
20
1.3396858
40
1.9356194
50
164.5145505
51
176.3577414
0
ARC
8
DEFAULT_255_2_778
10
7.4385195
20
1.1826469
40
3.6907522
50
175.6490254
51
177.7737756
0
ARC
8
DEFAULT_255_2_778
10
12.7560827
20
1.0167429
40
9.0108389
50
178.0330955
51
180.0173869
0
ARC
8
DEFAULT_255_2_778
10
-6.7880928
20
1.0336566
40
10.5333555
50
358.7138504
51
359.8931243
0
ARC
8
DEFAULT_255_2_778
10
0.3014313
20
0.8816001
40
3.4422117
50
356.5654643
51
358.5954912
0
ARC
8
DEFAULT_255_2_778
10
-1.4858065
20
16.3521598
40
16.5240377
50
288.033619
51
288.4273008
0
ARC
8
DEFAULT_255_2_778
10
12.7001241
20
-27.3147449
40
29.3893555
50
107.9768209
51
108.3276107
0
ARC
8
DEFAULT_255_2_778
10
4.1785995
20
-1.9448975
40
2.6291991
50
105.8923696
51
125.3886293
0
ARC
8
DEFAULT_255_2_778
10
3.4885191
20
-0.8742567
40
1.3579435
50
127.813169
51
140.0731477
0
ARC
8
DEFAULT_255_2_778
10
5.9634285
20
6.9984409
40
7.8345608
50
241.9531867
51
243.3323216
0
ARC
8
DEFAULT_255_2_778
10
41.4488317
20
73.6415674
40
83.3363495
50
241.8313954
51
241.9648676
0
ARC
8
DEFAULT_255_2_778
10
0.0183429
20
-3.5264724
40
4.2511426
50
60.5507707
51
70.2832289
0
ARC
8
DEFAULT_255_2_778
10
0.9663804
20
-0.9265561
40
1.4838935
50
70.8747665
51
89.0712599
0
ARC
8
DEFAULT_255_2_778
10
0.9895551
20
-0.5330534
40
1.0901962
50
89.9538815
51
96.3802404
0
ARC
8
DEFAULT_255_2_778
10
0.9820381
20
-0.4661501
40
1.022872
50
96.3782414
51
108.9726712
0
ARC
8
DEFAULT_255_2_778
10
0.9980797
20
-0.509611
40
1.0691877
50
109.0284151
51
117.8261183
0
ARC
8
DEFAULT_255_2_778
10
1.03394
20
-0.5803377
40
1.1484761
50
117.7612218
51
120.1580533
0
ARC
8
DEFAULT_255_2_778
10
0.7206352
20
0.1266148
40
0.3890499
50
132.6672958
51
167.1276577
0
ARC
8
DEFAULT_255_2_778
10
0.9094668
20
0.0667961
40
0.5866875
50
165.5407225
51
179.3451767
0
ARC
8
DEFAULT_255_2_778
10
0.9310788
20
0.0652915
40
0.6083166
50
179.226737
51
180.001343
0
ARC
8
DEFAULT_255_2_778
10
0.8549091
20
0.0586951
40
0.5321877
50
179.2913398
51
204.9632122
0
ARC
8
DEFAULT_255_2_778
10
0.7106501
20
-0.0003581
40
0.3765545
50
206.0810649
51
211.9846871
0
ARC
8
DEFAULT_255_2_778
10
0.361943
20
-0.1294738
40
0.0762074
50
274.5955014
51
292.6255584
0
ARC
8
DEFAULT_255_2_778
10
0.3639263
20
-0.145502
40
0.0600758
50
270.0143485
51
273.9347513
0
ARC
8
DEFAULT_255_2_778
10
0.3729994
20
-0.1253595
40
0.0807282
50
199.2588487
51
263.5576262
0
ARC
8
DEFAULT_255_2_778
10
0.7085339
20
0.0429418
40
0.4555558
50
191.9963172
51
205.3338119
0
ARC
8
DEFAULT_255_2_778
10
2.0613865
20
0.367822
40
1.846752
50
191.1699613
51
193.1317986
0
ARC
8
DEFAULT_255_2_778
10
-1.1876522
20
-0.2692988
40
1.4641692
50
10.9996504
51
13.089921
0
ARC
8
DEFAULT_255_2_778
10
-0.1638437
20
-0.0356593
40
0.4140714
50
13.6854343
51
14.0385432
0
ARC
8
DEFAULT_255_2_778
10
0.5618178
20
0.1621626
40
0.3382765
50
179.9486864
51
196.7303235
0
ARC
8
DEFAULT_255_2_778
10
0.787618
20
0.1316582
40
0.5649173
50
147.8562887
51
176.8738684
0
ARC
8
DEFAULT_255_2_778
10
2.6988433
20
-0.9217162
40
2.7464688
50
147.5794835
51
150.463806
0
ARC
8
DEFAULT_255_2_778
10
-2.6400931
20
2.4634112
40
3.5751881
50
327.65723
51
329.6556567
0
ARC
8
DEFAULT_255_2_778
10
-0.822497
20
1.388379
40
1.4635231
50
330.028211
51
330.9299224
0
ARC
8
DEFAULT_255_2_778
10
0.9246303
20
0.3598608
40
0.5654672
50
127.5952071
51
145.8510354
0
ARC
8
DEFAULT_255_2_778
10
1.1126946
20
0.0423579
40
0.932843
50
100.1091039
51
124.8492171
0
ARC
8
DEFAULT_255_2_778
10
1.7743467
20
-2.6095246
40
3.6644104
50
102.567719
51
103.0172452
0
ARC
8
DEFAULT_255_2_778
10
3.1805165
20
-8.9753289
40
10.183668
50
102.0987785
51
102.4963814
0
ARC
8
DEFAULT_255_2_778
10
0.7863247
20
2.4339097
40
1.4748215
50
280.1427617
51
292.1752533
0
ARC
8
DEFAULT_255_2_778
10
1.1648378
20
1.4918763
40
0.4596283
50
292.8042831
51
330.0295503
0
ARC
8
DEFAULT_255_2_778
10
1.070775
20
1.5365291
40
0.5634809
50
330.8743028
51
346.222
0
ARC
8
DEFAULT_255_2_778
10
0.8121279
20
1.6049696
40
0.8309998
50
345.8861034
51
353.3046901
0
ARC
8
DEFAULT_255_2_778
10
-1.037951
20
1.7521035
40
2.6865167
50
354.7885693
51
359.3300216
0
ARC
8
DEFAULT_255_2_778
10
-2.9042843
20
1.7915625
40
4.5532181
50
359.1081334
51
0.0243941
0
ARC
8
DEFAULT_255_2_778
10
-9.5652507
20
1.7545487
40
11.2142517
50
0.1990154
51
1.3304083
0
ARC
8
DEFAULT_255_2_778
10
19.4784669
20
2.3918812
40
17.8364726
50
180.758529
51
181.2109949
0
ARC
8
DEFAULT_255_2_778
10
8.595397
20
2.2420124
40
6.9523749
50
180.0261648
51
180.710888
0
ARC
8
DEFAULT_255_2_778
10
4.0903702
20
2.2894582
40
2.4478707
50
169.1450097
51
181.1849334
0
ARC
8
DEFAULT_255_2_778
10
2.9082722
20
2.4930037
40
1.2487983
50
158.4509735
51
168.1028179
0
ARC
8
DEFAULT_255_2_778
10
3.2990774
20
1.9126125
40
1.8679821
50
133.8046033
51
146.2029112
0
ARC
8
DEFAULT_255_2_778
10
4.4880508
20
0.5464222
40
3.67802
50
120.9943196
51
132.4399935
0
ARC
8
DEFAULT_255_2_778
10
-9.5722036
20
22.8232469
40
22.6659071
50
302.4636318
51
303.1108571
0
ARC
8
DEFAULT_255_2_778
10
0.1281054
20
7.9581205
40
4.9157559
50
303.0538358
51
306.7080863
0
ARC
8
DEFAULT_255_2_778
10
0.9857892
20
6.7847304
40
3.4624162
50
306.936161
51
307.6918465
0
ARC
8
DEFAULT_255_2_778
10
10.3966112
20
8.5429221
40
8.5692827
50
211.6616824
51
214.2831024
0
ARC
8
DEFAULT_255_2_778
10
-47.2170241
20
-30.1648619
40
60.8400439
50
33.7867944
51
33.8405907
0
ARC
8
DEFAULT_255_2_778
10
0.3953035
20
1.5382285
40
3.6408884
50
22.2513689
51
35.8104812
0
ARC
8
DEFAULT_255_2_778
10
2.1479497
20
2.323928
40
1.7224093
50
16.0933
51
20.138111
0
ARC
8
DEFAULT_255_2_778
10
12.1113461
20
7.0606342
40
1.8285803
50
187.0138403
51
219.8431788
0
ARC
8
DEFAULT_255_2_778
10
12.0879214
20
7.0702772
40
1.806551
50
180.0541548
51
187.4081046
0
ARC
8
DEFAULT_255_2_778
10
11.8390978
20
7.0748895
40
1.5577395
50
166.8852458
51
180.2324536
0
ARC
8
DEFAULT_255_2_778
10
11.5428153
20
7.1418136
40
1.2540013
50
155.5730676
51
166.7916463
0
ARC
8
DEFAULT_255_2_778
10
-30.2392786
20
5.5511137
40
41.1501865
50
3.0678813
51
3.3956786
0
ARC
8
DEFAULT_255_2_778
10
-6.115952
20
6.8314923
40
16.9929127
50
1.9851292
51
3.1100748
0
ARC
8
DEFAULT_255_2_778
10
1.3437614
20
7.0903483
40
9.5287096
50
0.0675027
51
1.9833533
0
ARC
8
DEFAULT_255_2_778
10
3.6186983
20
7.0992785
40
7.2537665
50
358.6201108
51
0.0181357
0
ARC
8
DEFAULT_255_2_778
10
4.8305372
20
7.0639755
40
6.0414319
50
353.7492233
51
358.6780579
0
ARC
8
DEFAULT_255_2_778
10
4.8091568
20
7.0721571
40
6.0635787
50
350.6532906
51
353.6943704
0
ARC
8
DEFAULT_255_2_778
10
4.3259104
20
7.1492768
40
6.5529348
50
349.6909912
51
350.6741647
0
ARC
8
DEFAULT_255_2_778
10
11.7697068
20
6.3688841
40
0.9392827
50
257.4436084
51
269.2407569
0
ARC
8
DEFAULT_255_2_778
10
11.9130478
20
7.0627055
40
1.6477081
50
251.7029299
51
257.8234862
0
ARC
8
DEFAULT_255_2_778
10
12.2441776
20
8.0378087
40
2.6774804
50
243.4174464
51
251.526159
0
ARC
8
DEFAULT_255_2_778
10
12.3921297
20
8.3587265
40
3.0307019
50
243.4138483
51
243.6309672
0
ARC
8
DEFAULT_255_2_778
10
10.8062457
20
5.455853
40
0.2996392
50
40.0066043
51
69.1706336
0
ARC
8
DEFAULT_255_2_778
10
11.5265005
20
7.0708051
40
1.4692123
50
243.1989297
51
245.3097928
0
ARC
8
DEFAULT_255_2_778
10
11.0206978
20
6.078954
40
0.3558703
50
225.9487059
51
243.8829101
0
ARC
8
DEFAULT_255_2_778
10
9.9860921
20
7.1739613
40
1.5634046
50
300.2315811
51
308.6886572
0
ARC
8
DEFAULT_255_2_778
10
10.19997
20
6.9078571
40
1.2220035
50
308.6603074
51
320.2824689
0
ARC
8
DEFAULT_255_2_778
10
10.3005885
20
6.8205701
40
1.0888343
50
320.4322262
51
338.8458706
0
ARC
8
DEFAULT_255_2_778
10
9.7775299
20
6.9844297
40
1.6361739
50
340.1046189
51
359.7987731
0
ARC
8
DEFAULT_255_2_778
10
8.143834
20
7.0717876
40
3.2711849
50
358.3690327
51
0.0355827
0
ARC
8
DEFAULT_255_2_778
10
5.162637
20
7.0426376
40
6.252459
50
0.2857391
51
2.906258
0
ARC
8
DEFAULT_255_2_778
10
-22.9412367
20
5.7643406
40
34.3853181
50
2.6591964
51
2.820285
0
ARC
8
DEFAULT_255_2_778
10
22.0800038
20
8.0238596
40
10.6926488
50
181.4921439
51
183.0431145
0
ARC
8
DEFAULT_255_2_778
10
16.0011213
20
7.8476685
40
4.6112741
50
180.0305039
51
181.2705043
0
ARC
8
DEFAULT_255_2_778
10
13.8423095
20
7.8761852
40
2.4526573
50
169.6630027
51
180.7235383
0
ARC
8
DEFAULT_255_2_778
10
36.1278734
20
7.5242371
40
23.1298264
50
176.2465651
51
177.7958835
0
ARC
8
DEFAULT_255_2_778
10
49.6797725
20
7.0006295
40
36.691837
50
177.7927298
51
178.9582096
0
ARC
8
DEFAULT_255_2_778
10
89.8756571
20
6.335875
40
76.893192
50
179.0075254
51
179.975885
0
ARC
8
DEFAULT_255_2_778
10
337.1861317
20
5.8412221
40
324.2040881
50
179.9068617
51
180.0185278
0
ARC
8
DEFAULT_255_2_778
10
11.7744604
20
7.4782882
40
2.1498222
50
284.8455929
51
302.7785622
0
ARC
8
DEFAULT_255_2_778
10
12.0822688
20
6.4971496
40
1.1235173
50
281.4117974
51
282.4913636
0
ARC
8
DEFAULT_255_2_778
10
12.1163518
20
6.3035008
40
0.9269661
50
270.3114361
51
281.7150365
0
ARC
8
DEFAULT_255_2_778
10
12.1149989
20
6.0542414
40
0.6777231
50
246.5094959
51
270.5403539
0
ARC
8
DEFAULT_255_2_778
10
-2.9711092
20
6.097227
40
14.8308656
50
357.4318242
51
358.9448665
0
ARC
8
DEFAULT_255_2_778
10
-8.2717205
20
6.1922916
40
20.1323289
50
358.9521513
51
0.0382857
0
ARC
8
DEFAULT_255_2_778
10
-23.2858977
20
6.1847158
40
35.1465081
50
0.0342805
51
0.586202
0
ARC
8
DEFAULT_255_2_778
10
-104.3034063
20
5.3794732
40
116.1680172
50
0.5745188
51
0.7088574
0
ARC
8
DEFAULT_255_2_778
10
79.2155983
20
7.6972123
40
67.3656331
50
180.354781
51
180.7489522
0
ARC
8
DEFAULT_255_2_778
10
42.5362246
20
7.4405835
40
30.6853879
50
180.0059636
51
180.2996927
0
ARC
8
DEFAULT_255_2_778
10
33.8846123
20
7.4497918
40
22.033779
50
179.0016344
51
180.0322502
0
ARC
8
DEFAULT_255_2_778
10
29.2130214
20
7.5262065
40
17.3615665
50
177.9512373
51
178.9851529
0
ARC
8
DEFAULT_255_2_778
10
27.8426812
20
7.5720773
40
15.9904628
50
177.5562633
51
177.9399569
0
ARC
8
DEFAULT_255_2_778
10
12.1283666
20
10.614089
40
2.3746592
50
263.6751297
51
269.1679346
0
ARC
8
DEFAULT_255_2_778
10
12.1277522
20
10.5598754
40
2.3204424
50
269.1636635
51
269.9982433
0
ARC
8
DEFAULT_255_2_778
10
12.1279232
20
10.4761715
40
2.2367385
50
269.9937982
51
271.4343075
0
ARC
8
DEFAULT_255_2_778
10
12.1560953
20
9.9115375
40
1.6716351
50
270.953418
51
281.9093539
0
ARC
8
DEFAULT_255_2_778
10
12.8773193
20
9.0190345
40
0.0437985
50
70.7483321
51
89.2629847
0
ARC
8
DEFAULT_255_2_778
10
12.8866635
20
9.0100932
40
0.0534624
50
99.4532966
51
166.8293516
0
ARC
8
DEFAULT_255_2_778
10
13.2633731
20
8.8387102
40
0.4664074
50
156.8231158
51
161.5714545
0
ARC
8
DEFAULT_255_2_778
10
-11.5184267
20
17.4282016
40
25.761798
50
340.851265
51
340.8709808
0
ARC
8
DEFAULT_255_2_778
10
12.6103957
20
9.0357206
40
0.215517
50
324.31975
51
344.4036362
0
ARC
8
DEFAULT_255_2_778
10
12.7347961
20
8.9539293
40
0.0670427
50
315.4344546
51
319.0821176
0
ARC
8
DEFAULT_255_2_778
10
12.3960093
20
9.2676012
40
0.5287143
50
288.6870131
51
316.9799885
0
ARC
8
DEFAULT_255_2_778
10
12.3064215
20
9.5679458
40
0.8420061
50
268.8131173
51
287.9136424
0
ARC
8
DEFAULT_255_2_778
10
12.3025427
20
10.5804279
40
1.8543573
50
263.3991031
51
269.5809551
0
ARC
8
DEFAULT_255_2_778
10
12.7039036
20
14.1447068
40
5.4411572
50
261.6049453
51
263.5151787
0
ARC
8
DEFAULT_255_2_778
10
11.0778723
20
3.231015
40
5.5930113
50
81.4488759
51
83.5679742
0
ARC
8
DEFAULT_255_2_778
10
11.5461146
20
7.3706579
40
1.426972
50
83.6303659
51
89.5404186
0
ARC
8
DEFAULT_255_2_778
10
11.6866348
20
11.66152
40
2.8668434
50
262.9544045
51
267.419492
0
ARC
8
DEFAULT_255_2_778
10
12.6397155
20
19.6266024
40
10.8887287
50
262.1722453
51
263.1180846
0
ARC
8
DEFAULT_255_2_778
10
9.0493979
20
-6.7141764
40
15.6956212
50
82.2840658
51
82.6791271
0
ARC
8
DEFAULT_255_2_778
10
10.6016873
20
5.6013
40
3.2828717
50
82.1611872
51
87.7551496
0
ARC
8
DEFAULT_255_2_778
10
10.6784741
20
7.0768591
40
1.8055366
50
88.3558804
51
89.9801673
0
ARC
8
DEFAULT_255_2_778
10
10.6506284
20
7.8591241
40
1.0236675
50
88.4062598
51
111.8748247
0
ARC
8
DEFAULT_255_2_778
10
10.5521937
20
8.1528631
40
0.7146319
50
113.325659
51
135.0312012
0
ARC
8
DEFAULT_255_2_778
10
10.6566072
20
8.0509155
40
0.8605536
50
135.1420056
51
148.0500433
0
ARC
8
DEFAULT_255_2_778
10
10.7878835
20
7.9626135
40
1.0186851
50
147.7431342
51
148.7431747
0
LINE
8
DEFAULT_255_2_778
10
9.9170605
20
8.4911838
11
9.9170106
21
8.4909588
0
ARC
8
DEFAULT_255_2_778
10
11.5329073
20
8.1204321
40
1.6578335
50
167.0852792
51
172.7183517
0
ARC
8
DEFAULT_255_2_778
10
10.8107332
20
8.2165794
40
0.9293053
50
172.9550148
51
179.3516307
0
ARC
8
DEFAULT_255_2_778
10
10.6358292
20
8.2213603
40
0.7543635
50
179.5644105
51
180.0019737
0
ARC
8
DEFAULT_255_2_778
10
10.3083254
20
8.1942186
40
0.4277201
50
176.3652379
51
226.4596466
0
ARC
8
DEFAULT_255_2_778
10
10.2735379
20
8.1799219
40
0.3936928
50
228.6968724
51
235.1128129
0
ARC
8
DEFAULT_255_2_778
10
9.7071692
20
7.7711664
40
0.3518183
50
14.1183395
51
33.2393242
0
ARC
8
DEFAULT_255_2_778
10
15.2273232
20
11.0130143
40
6.0503243
50
210.15087
51
210.261043
0
ARC
8
DEFAULT_255_2_778
10
10.2053008
20
8.1192494
40
0.2550769
50
183.5753885
51
214.6928413
0
ARC
8
DEFAULT_255_2_778
10
10.133037
20
8.1024952
40
0.1823185
50
163.7952893
51
179.7337692
0
ARC
8
DEFAULT_255_2_778
10
10.1710457
20
8.0928909
40
0.2215019
50
161.4428764
51
164.1533755
0
ARC
8
DEFAULT_255_2_778
10
10.2926026
20
8.0963689
40
0.3382472
50
161.7916131
51
168.5727243
0
ARC
8
DEFAULT_255_2_778
10
10.2331845
20
8.1325559
40
0.2709585
50
115.4745845
51
165.1362681
0
ARC
8
DEFAULT_255_2_778
10
10.1581823
20
8.2564834
40
0.1276362
50
90.1255224
51
108.9932231
0
ARC
8
DEFAULT_255_2_778
10
10.1578237
20
8.2577097
40
0.1264097
50
79.9604285
51
89.9641734
0
ARC
8
DEFAULT_255_2_778
10
10.4241409
20
6.4989449
40
1.899016
50
93.1733333
51
97.3907374
0
ARC
8
DEFAULT_255_2_778
10
10.4667993
20
5.7677947
40
2.6314073
50
89.9321324
51
93.2194688
0
ARC
8
DEFAULT_255_2_778
10
10.4653672
20
5.0381355
40
3.3610678
50
85.8904328
51
89.9224526
0
ARC
8
DEFAULT_255_2_778
10
10.463087
20
4.9076675
40
3.4913711
50
79.9042266
51
86.0065465
0
ARC
8
DEFAULT_255_2_778
10
10.6545916
20
5.9799459
40
2.4021262
50
75.1530809
51
79.917948
0
ARC
8
DEFAULT_255_2_778
10
10.8104958
20
6.5924123
40
1.7701702
50
74.1030234
51
74.951187
0
ARC
8
DEFAULT_255_2_778
10
3.0332985
20
22.8088366
40
16.7007932
50
298.7367235
51
299.6506788
0
ARC
8
DEFAULT_255_2_778
10
60.3346677
20
-81.6803952
40
102.4690288
50
118.7406993
51
118.8912096
0
ARC
8
DEFAULT_255_2_778
10
13.4270853
20
3.0551388
40
5.6179801
50
117.5694199
51
128.6624262
0
ARC
8
DEFAULT_255_2_778
10
11.5242959
20
6.5600396
40
1.8330004
50
151.2431676
51
158.8140438
0
ARC
8
DEFAULT_255_2_778
10
11.238965
20
6.6705165
40
1.5270285
50
158.8100145
51
168.7712953
0
ARC
8
DEFAULT_255_2_778
10
11.119935
20
6.6961622
40
1.4052845
50
168.8518845
51
180.0062586
0
ARC
8
DEFAULT_255_2_778
10
11.2723308
20
6.7034153
40
1.5576979
50
180.2724319
51
195.4123335
0
ARC
8
DEFAULT_255_2_778
10
11.7918586
20
6.8416129
40
2.0952761
50
195.2798789
51
203.7250141
0
ARC
8
DEFAULT_255_2_778
10
11.3863153
20
6.7333553
40
1.6816699
50
205.9081455
51
236.7651135
0
ARC
8
DEFAULT_255_2_778
10
11.6464381
20
7.1564135
40
2.1781418
50
237.1410634
51
262.3597754
0
ARC
8
DEFAULT_255_2_778
10
11.7416248
20
7.6510304
40
2.6811752
50
261.7489908
51
270.0546439
0
ARC
8
DEFAULT_255_2_778
10
11.7441057
20
7.7711642
40
2.8013076
50
270.0015594
51
271.551665
0
ARC
8
DEFAULT_255_2_778
10
13.4286462
20
5.2550754
40
0.1956402
50
231.5385922
51
246.852197
0
ARC
8
DEFAULT_255_2_778
10
13.4084421
20
5.2085822
40
0.144948
50
246.9711093
51
269.8601909
0
ARC
8
DEFAULT_255_2_778
10
13.3959045
20
5.2768366
40
0.2135499
50
273.2707449
51
310.4297794
0
ARC
8
DEFAULT_255_2_778
10
12.9672075
20
5.8084521
40
0.8964225
50
309.2513265
51
321.5808881
0
ARC
8
DEFAULT_255_2_778
10
18.1167397
20
1.5967332
40
5.7562318
50
139.3153147
51
140.5868899
0
ARC
8
DEFAULT_255_2_778
10
14.1909287
20
4.9721138
40
0.5788594
50
131.5934231
51
139.3510143
0
ARC
8
DEFAULT_255_2_778
10
13.9947696
20
5.1857107
40
0.2889392
50
129.7113539
51
130.6201174
0
LINE
8
DEFAULT_255_2_778
10
13.5693605
20
7.3108838
11
13.5702537
21
7.311777
0
ARC
8
DEFAULT_255_2_778
10
14.3504534
20
6.6258591
40
1.0388431
50
118.2818713
51
138.6794619
0
ARC
8
DEFAULT_255_2_778
10
14.0087611
20
7.2105558
40
0.3628321
50
90.2685563
51
114.5099838
0
ARC
8
DEFAULT_255_2_778
10
13.9657021
20
7.3679391
40
0.2095663
50
78.285405
51
78.6178394
0
ARC
8
DEFAULT_255_2_778
10
13.9475278
20
7.2979292
40
0.2818308
50
9.3111569
51
77.5573268
0
ARC
8
DEFAULT_255_2_778
10
14.0671112
20
7.3352651
40
0.1587492
50
0.0067479
51
2.9836962
0
ARC
8
DEFAULT_255_2_778
10
14.7889511
20
5.5536538
40
0.5775628
50
221.6014504
51
229.1867141
0
ARC
8
DEFAULT_255_2_778
10
14.665709
20
5.4099368
40
0.3882415
50
229.0896216
51
239.9192412
0
ARC
8
DEFAULT_255_2_778
10
14.6067538
20
5.3070845
40
0.2696923
50
239.8052624
51
256.6786506
0
ARC
8
DEFAULT_255_2_778
10
14.5967754
20
5.2708741
40
0.2321611
50
257.0159025
51
270.0042993
0
ARC
8
DEFAULT_255_2_778
10
14.5869273
20
5.3512482
40
0.3126908
50
271.8080165
51
301.3251936
0
ARC
8
DEFAULT_255_2_778
10
14.3274694
20
5.806884
40
0.8369384
50
300.2814166
51
310.3592995
0
ARC
8
DEFAULT_255_2_778
10
13.5721824
20
6.7380596
40
2.0357862
50
309.5858155
51
311.0506365
0
ARC
8
DEFAULT_255_2_778
10
10.6763051
20
10.0489561
40
6.4344351
50
311.1353669
51
311.8736395
0
ARC
8
DEFAULT_255_2_778
10
16.0586639
20
4.0978715
40
1.5899216
50
124.5656083
51
133.1536101
0
ARC
8
DEFAULT_255_2_778
10
15.3906438
20
5.0692894
40
0.4109816
50
100.0482566
51
124.7098009
0
ARC
8
DEFAULT_255_2_778
10
15.3585899
20
5.1998482
40
0.2769721
50
93.5664744
51
98.2311407
0
ARC
8
DEFAULT_255_2_778
10
23.6645573
20
-3.1612438
40
11.0887619
50
131.2091694
51
132.8100994
0
ARC
8
DEFAULT_255_2_778
10
31.9149432
20
-12.502647
40
23.5518826
50
131.2272164
51
131.3372169
0
ARC
8
DEFAULT_255_2_778
10
42.1589344
20
-24.2020634
40
39.1023063
50
131.0724332
51
131.2185168
0
ARC
8
DEFAULT_255_2_778
10
1.404567
20
22.7181763
40
23.0462695
50
310.8156081
51
311.9787804
0
ARC
8
DEFAULT_255_2_778
10
13.1375541
20
9.6595211
40
5.4909044
50
312.1054109
51
314.7607099
0
ARC
8
DEFAULT_255_2_778
10
16.9638596
20
5.6227004
40
0.1436924
50
73.7950187
51
89.7685561
0
ARC
8
DEFAULT_255_2_778
10
16.9782665
20
5.5744112
40
0.1924778
50
94.1193537
51
137.9926548
0
ARC
8
DEFAULT_255_2_778
10
17.4048583
20
5.1090005
40
0.8231403
50
133.7887374
51
139.1353308
0
ARC
8
DEFAULT_255_2_778
10
21.5357476
20
1.4735974
40
6.3258778
50
138.7135862
51
139.1049946
0
ARC
8
DEFAULT_255_2_778
10
16.2613393
20
6.0077876
40
0.6300431
50
306.0327441
51
321.4319288
0
ARC
8
DEFAULT_255_2_778
10
16.3648636
20
6.0194624
40
0.5856345
50
286.6921018
51
297.1345152
0
ARC
8
DEFAULT_255_2_778
10
16.4365942
20
5.7805406
40
0.3361773
50
270.4598941
51
286.6779888
0
ARC
8
DEFAULT_255_2_778
10
16.4395274
20
5.7356898
40
0.2913158
50
255.1818225
51
269.9538029
0
ARC
8
DEFAULT_255_2_778
10
16.4801942
20
5.8670159
40
0.4287133
50
238.4357809
51
254.4163644
0
ARC
8
DEFAULT_255_2_778
10
16.6956688
20
6.2391464
40
0.8586527
50
234.295972
51
239.1829615
0
ARC
8
DEFAULT_255_2_778
10
16.2867025
20
6.0565677
40
0.5228668
50
244.197274
51
259.8500686
0
ARC
8
DEFAULT_255_2_778
10
16.2052128
20
5.8902774
40
0.3376871
50
211.1303756
51
244.3640863
0
ARC
8
DEFAULT_255_2_778
10
16.3885528
20
5.9726656
40
0.5377659
50
180.6845599
51
208.5446686
0
ARC
8
DEFAULT_255_2_778
10
17.0566815
20
6.0291537
40
1.2074964
50
179.9108433
51
182.9865806
0
ARC
8
DEFAULT_255_2_778
10
17.9404845
20
6.023123
40
2.091313
50
176.7298459
51
179.7832983
0
ARC
8
DEFAULT_255_2_778
10
22.4671902
20
5.7753989
40
6.6247879
50
176.0835111
51
176.8241215
0
ARC
8
DEFAULT_255_2_778
10
11.7673522
20
6.5262289
40
4.1013865
50
355.828535
51
357.8360277
0
ARC
8
DEFAULT_255_2_778
10
14.3863731
20
6.418394
40
1.4801882
50
358.1791847
51
359.9415429
0
ARC
8
DEFAULT_255_2_778
10
11.5770668
20
2.2274151
40
7.3783549
50
42.6457762
51
50.0949283
0
ARC
8
DEFAULT_255_2_778
10
9.2049223
20
-0.4962254
40
10.9896932
50
49.7173118
51
50.2065895
0
ARC
8
DEFAULT_255_2_778
10
5.2857421
20
21.0185273
40
17.0531102
50
309.7516433
51
309.9618109
0
ARC
8
DEFAULT_255_2_778
10
13.3426787
20
11.1354597
40
4.3045076
50
297.7871106
51
311.4220302
0
ARC
8
DEFAULT_255_2_778
10
14.397618
20
9.2939063
40
2.1847918
50
294.9858084
51
295.8256202
0
ARC
8
DEFAULT_255_2_778
10
14.4619418
20
6.357816
40
1.1220026
50
314.7526076
51
314.9597942
0
ARC
8
DEFAULT_255_2_778
10
14.8125853
20
5.9697372
40
0.6000263
50
292.3825539
51
317.065498
0
ARC
8
DEFAULT_255_2_778
10
14.9547035
20
5.6701729
40
0.2694721
50
285.1128061
51
288.6930303
0
ARC
8
DEFAULT_255_2_778
10
14.9682063
20
5.6146193
40
0.2123243
50
270.4112257
51
285.503579
0
ARC
8
DEFAULT_255_2_778
10
14.9694416
20
5.572144
40
0.1698437
50
229.4590224
51
270.0973735
0
ARC
8
DEFAULT_255_2_778
10
15.0366703
20
5.6528275
40
0.2748599
50
212.506481
51
229.7412037
0
ARC
8
DEFAULT_255_2_778
10
15.1332195
20
5.7207322
40
0.3928113
50
210.7002229
51
213.2913971
0
ARC
8
DEFAULT_255_2_778
10
46.002279
20
6.8207171
40
31.2339064
50
182.0125248
51
182.3864007
0
ARC
8
DEFAULT_255_2_778
10
45.9678571
20
6.8212022
40
31.1995226
50
181.5479558
51
182.015635
0
ARC
8
DEFAULT_255_2_778
10
41.0841192
20
6.6980278
40
26.314241
50
180.5716549
51
181.5671123
0
ARC
8
DEFAULT_255_2_778
10
34.919806
20
6.6291879
40
20.1495492
50
180.0090301
51
180.550799
0
ARC
8
DEFAULT_255_2_778
10
29.6807925
20
6.6363163
40
14.910539
50
178.8288919
51
180.039595
0
ARC
8
DEFAULT_255_2_778
10
24.2837086
20
6.7477091
40
9.5123058
50
177.3674528
51
178.8352912
0
ARC
8
DEFAULT_255_2_778
10
20.7756269
20
6.9082238
40
6.0005541
50
175.7789945
51
177.3599815
0
ARC
8
DEFAULT_255_2_778
10
19.1578856
20
7.0234967
40
4.3787181
50
175.0557343
51
175.7251929
0
ARC
8
DEFAULT_255_2_778
10
13.5601627
20
6.8308513
40
1.4054772
50
32.0164934
51
34.9458015
0
ARC
8
DEFAULT_255_2_778
10
14.0674249
20
7.2423227
40
0.7554319
50
31.4000396
51
72.0679557
0
ARC
8
DEFAULT_255_2_778
10
14.2074747
20
7.557298
40
0.4142285
50
77.0911122
51
84.3076916
0
ARC
8
DEFAULT_255_2_778
10
16.239369
20
4.9735421
40
3.5970802
50
123.6041074
51
129.5068551
0
ARC
8
DEFAULT_255_2_778
10
10.462392
20
11.9742161
40
5.4794229
50
305.760943
51
309.5444486
0
ARC
8
DEFAULT_255_2_778
10
12.7299255
20
8.8650772
40
1.6314789
50
301.010703
51
304.9523784
0
ARC
8
DEFAULT_255_2_778
10
11.4163977
20
7.6276814
40
2.1600635
50
355.7282276
51
359.2227345
0
ARC
8
DEFAULT_255_2_778
10
10.6908512
20
7.6427707
40
2.8857527
50
359.1185868
51
0.0112661
0
ARC
8
DEFAULT_255_2_778
10
8.4875792
20
7.6187912
40
5.0890837
50
0.276364
51
3.0154463
0
ARC
8
DEFAULT_255_2_778
10
-9.8544317
20
6.7389771
40
23.4521396
50
2.8046342
51
3.0805658
0
ARC
8
DEFAULT_255_2_778
10
45.8062364
20
9.7190163
40
32.2882476
50
182.9205147
51
183.0531003
0
ARC
8
DEFAULT_255_2_778
10
19.2364251
20
8.3935368
40
5.6854909
50
180.3390165
51
183.222721
0
ARC
8
DEFAULT_255_2_778
10
15.5005963
20
8.3857271
40
1.9497338
50
170.2436011
51
180.7591011
0
ARC
8
DEFAULT_255_2_778
10
14.3849424
20
8.5971173
40
0.8146215
50
135.0355817
51
171.5994
0
ARC
8
DEFAULT_255_2_778
10
13.7975672
20
8.5327489
40
0.6401294
50
89.0159836
51
118.7251994
0
ARC
8
DEFAULT_255_2_778
10
13.8031935
20
8.5540787
40
0.6243132
50
120.1189433
51
154.4866323
0
LINE
8
DEFAULT_255_2_778
10
6.6426605
20
0.6999838
11
7.3424605
21
1.4408838
0
LINE
8
DEFAULT_255_2_778
10
11.0383605
20
0.2599838
11
10.4483605
21
0.5880838
0
LINE
8
DEFAULT_255_2_778
10
10.4700605
20
2.4909838
11
11.0825605
21
2.1409838
0
LINE
8
DEFAULT_255_2_778
10
11.0825605
20
2.1409838
11
11.0383605
21
0.2599838
0
LINE
8
DEFAULT_255_2_778
10
6.9487605
20
1.6810838
11
6.9706605
21
2.5560838
0
LINE
8
DEFAULT_255_2_778
10
7.8702605
20
2.1406838
11
7.8673605
21
2.1406838
0
LINE
8
DEFAULT_255_2_778
10
9.2233605
20
2.7095838
11
9.2013605
21
3.3876838
0
LINE
8
DEFAULT_255_2_778
10
6.3801605
20
1.4408838
11
6.8394605
21
1.0690838
0
LINE
8
DEFAULT_255_2_778
10
8.1517605
20
0.5423838
11
8.1734605
21
1.5043838
0
LINE
8
DEFAULT_255_2_778
10
8.1734605
20
1.5043838
11
7.7361605
21
1.8324838
0
LINE
8
DEFAULT_255_2_778
10
7.7361605
20
1.8324838
11
8.4142605
21
2.4885838
0
LINE
8
DEFAULT_255_2_778
10
8.6330605
20
2.4666838
11
8.6108605
21
0.6952838
0
LINE
8
DEFAULT_255_2_778
10
8.6108605
20
0.6952838
11
8.5015605
21
0.4327838
0
LINE
8
DEFAULT_255_2_778
10
9.2233605
20
-0.0704162
11
9.7922605
21
0.4327838
0
LINE
8
DEFAULT_255_2_778
10
9.7922605
20
0.4327838
11
10.6917605
21
-0.1135162
0
LINE
8
DEFAULT_255_2_778
10
9.8829605
20
2.2480838
11
9.8612605
21
0.6076838
0
LINE
8
DEFAULT_255_2_778
10
9.1611605
20
0.6076838
11
9.2267605
21
2.5539838
0
LINE
8
DEFAULT_255_2_778
10
9.7739605
20
2.6851838
11
9.2233605
21
2.7095838
0
LINE
8
DEFAULT_255_2_778
10
2.5968605
20
1.9686838
11
2.5748605
21
0.5253838
0
LINE
8
DEFAULT_255_2_778
10
3.1437605
20
0.5690838
11
3.1657605
21
1.6186838
0
LINE
8
DEFAULT_255_2_778
10
2.5968605
20
1.9689838
11
2.5968605
21
1.9686838
0
LINE
8
DEFAULT_255_2_778
10
17.2714605
20
0.1970838
11
17.2275605
21
2.0999838
0
LINE
8
DEFAULT_255_2_778
10
18.1461605
20
1.6183838
11
18.1464605
21
1.6183838
0
LINE
8
DEFAULT_255_2_778
10
16.2654605
20
2.9989838
11
16.2877605
21
0.9844838
0
LINE
8
DEFAULT_255_2_778
10
17.2526605
20
2.2115838
11
17.2306605
21
3.2611838
0
LINE
8
DEFAULT_255_2_778
10
17.9961605
20
2.8891838
11
17.9934605
21
2.8894838
0
LINE
8
DEFAULT_255_2_778
10
16.8100605
20
1.2879838
11
16.8100605
21
3.3437838
0
LINE
8
DEFAULT_255_2_778
10
17.1163605
20
3.3220838
11
17.1158605
21
0.2166838
0
LINE
8
DEFAULT_255_2_778
10
18.8197605
20
3.4783838
11
18.7541605
21
3.5440838
0
LINE
8
DEFAULT_255_2_778
10
18.7541605
20
3.5440838
11
18.5160605
21
3.3251838
0
LINE
8
DEFAULT_255_2_778
10
17.3566605
20
3.8720838
11
17.3539605
21
3.8686838
0
LINE
8
DEFAULT_255_2_778
10
23.8275605
20
2.0969838
11
23.8055605
21
0.2597838
0
LINE
8
DEFAULT_255_2_778
10
23.1933605
20
0.5661838
11
23.1933605
21
2.1403838
0
LINE
8
DEFAULT_255_2_778
10
23.8275605
20
2.0967838
11
23.8275605
21
2.0969838
0
LINE
8
DEFAULT_255_2_778
10
22.6215605
20
3.1931838
11
22.6215605
21
0.6780838
0
LINE
8
DEFAULT_255_2_778
10
22.6215605
20
0.6780838
11
22.5342605
21
0.3719838
0
LINE
8
DEFAULT_255_2_778
10
22.5342605
20
0.3719838
11
23.4523605
21
-0.1747162
0
LINE
8
DEFAULT_255_2_778
10
23.8241605
20
2.7775838
11
23.1899605
21
2.2748838
0
LINE
8
DEFAULT_255_2_778
10
22.7747605
20
3.4992838
11
22.7779605
21
3.4992838
0
LINE
8
DEFAULT_255_2_778
10
20.8753605
20
0.5470838
11
20.8972605
21
2.4057838
0
LINE
8
DEFAULT_255_2_778
10
20.8972605
20
2.4057838
11
21.5092605
21
2.0776838
0
LINE
8
DEFAULT_255_2_778
10
21.5092605
20
2.0776838
11
21.5092605
21
0.1967838
0
LINE
8
DEFAULT_255_2_778
10
19.2171605
20
3.3884838
11
19.2394605
21
0.5235838
0
LINE
8
DEFAULT_255_2_778
10
19.2394605
20
0.5235838
11
19.1081605
21
0.2610838
0
LINE
8
DEFAULT_255_2_778
10
19.1081605
20
0.2610838
11
19.7206605
21
-0.1762162
0
LINE
8
DEFAULT_255_2_778
10
19.7206605
20
-0.1762162
11
20.2673605
21
0.3047838
0
LINE
8
DEFAULT_255_2_778
10
22.1040605
20
2.3388838
11
21.2512605
21
2.7965838
0
LINE
8
DEFAULT_255_2_778
10
20.2890605
20
2.1403838
11
20.3329605
21
0.4126838
0
LINE
8
DEFAULT_255_2_778
10
19.7421605
20
0.8063838
11
19.7640605
21
3.0809838
0
LINE
8
DEFAULT_255_2_778
10
19.4333605
20
3.5156838
11
19.4362605
21
3.5191838
0
LINE
8
DEFAULT_255_2_778
10
25.9971605
20
1.8350838
11
25.4071605
21
1.4196838
0
LINE
8
DEFAULT_255_2_778
10
25.4071605
20
1.4196838
11
25.4288605
21
2.4039838
0
LINE
8
DEFAULT_255_2_778
10
25.9974605
20
1.8350838
11
25.9971605
21
1.8350838
0
LINE
8
DEFAULT_255_2_778
10
26.5437605
20
2.0975838
11
25.8029605
21
2.8190838
0
LINE
8
DEFAULT_255_2_778
10
24.8406605
20
2.1628838
11
24.8623605
21
1.8347838
0
LINE
8
DEFAULT_255_2_778
10
26.5461605
20
0.6759838
11
26.0868605
21
0.3261838
0
LINE
8
DEFAULT_255_2_778
10
25.4306605
20
0.6103838
11
25.4089605
21
1.2664838
0
LINE
8
DEFAULT_255_2_778
10
25.4089605
20
1.2664838
11
26.5437605
21
2.0975838
0
LINE
8
DEFAULT_255_2_778
10
5.3770605
20
0.3261838
11
4.7865605
21
0.6542838
0
LINE
8
DEFAULT_255_2_778
10
4.8082605
20
2.5592838
11
5.4204605
21
2.2311838
0
LINE
8
DEFAULT_255_2_778
10
5.4204605
20
2.2311838
11
5.3770605
21
0.3261838
0
LINE
8
DEFAULT_255_2_778
10
4.1743605
20
0.6764838
11
4.0869605
21
0.5229838
0
LINE
8
DEFAULT_255_2_778
10
4.0869605
20
0.5229838
11
5.0051605
21
-0.0458162
0
LINE
8
DEFAULT_255_2_778
10
6.0330605
20
2.4909838
11
5.1802605
21
2.9508838
0
LINE
8
DEFAULT_255_2_778
10
12.1790605
20
2.2287838
11
12.1353605
21
0.5883838
0
LINE
8
DEFAULT_255_2_778
10
12.0041605
20
0.3258838
11
12.5507605
21
-0.1112162
0
LINE
8
DEFAULT_255_2_778
10
12.5507605
20
-0.1112162
11
12.9227605
21
0.2168838
0
LINE
8
DEFAULT_255_2_778
10
12.6602605
20
0.5449838
11
12.7258605
21
2.2065838
0
LINE
8
DEFAULT_255_2_778
10
12.4420605
20
2.7976838
11
12.4409605
21
2.7973838
0
LINE
8
DEFAULT_255_2_778
10
2.4492605
20
0.6100838
11
2.5365605
21
2.9502838
0
LINE
8
DEFAULT_255_2_778
10
2.6238605
20
2.9722838
11
2.6238605
21
2.0313838
0
LINE
8
DEFAULT_255_2_778
10
2.6675605
20
3.6284838
11
2.6651605
21
3.6281838
0
LINE
8
DEFAULT_255_2_778
10
0.4346605
20
2.9280838
11
0.4566605
21
2.9280838
0
LINE
8
DEFAULT_255_2_778
10
0.8500605
20
2.2499838
11
0.4346605
21
2.2499838
0
LINE
8
DEFAULT_255_2_778
10
0.5661605
20
1.0693838
11
0.8286605
21
1.1566838
0
LINE
8
DEFAULT_255_2_778
10
0.4381605
20
3.7154838
11
0.4346605
21
3.7154838
0
LINE
8
DEFAULT_255_2_778
10
3.8028605
20
2.8013838
11
3.8028605
21
2.7968838
0
LINE
8
DEFAULT_255_2_778
10
16.4808605
20
7.0261838
11
15.8683605
21
6.5668838
0
LINE
8
DEFAULT_255_2_778
10
15.8683605
20
6.5668838
11
15.9120605
21
7.5728838
0
LINE
8
DEFAULT_255_2_778
10
15.9120605
20
7.5728838
11
16.4808605
21
7.0261838
0
LINE
8
DEFAULT_255_2_778
10
16.4808605
20
7.0261838
11
16.4808605
21
7.0261838
0
LINE
8
DEFAULT_255_2_778
10
10.7730605
20
5.9763838
11
10.7073605
21
5.8890838
0
LINE
8
DEFAULT_255_2_778
10
10.4010605
20
7.6603838
11
10.8386605
21
7.9884838
0
LINE
8
DEFAULT_255_2_778
10
10.7730605
20
5.9765838
11
10.7730605
21
5.9763838
0
LINE
8
DEFAULT_255_2_778
10
11.4294605
20
8.3162838
11
11.7355605
21
8.2729838
0
LINE
8
DEFAULT_255_2_778
10
11.7355605
20
8.2729838
11
11.7572605
21
5.4296838
0
LINE
8
DEFAULT_255_2_778
10
13.2442605
20
8.8195838
11
13.0476605
21
9.0383838
0
LINE
8
DEFAULT_255_2_778
10
12.9820605
20
5.7363838
11
12.9383605
21
5.6707838
0
LINE
8
DEFAULT_255_2_778
10
12.5010605
20
8.2758838
11
12.9354605
21
9.0383838
0
LINE
8
DEFAULT_255_2_778
10
12.9354605
20
9.0383838
11
12.8917605
21
9.0603838
0
LINE
8
DEFAULT_255_2_778
10
11.8199605
20
4.9708838
11
12.8259605
21
5.4955838
0
LINE
8
DEFAULT_255_2_778
10
12.8259605
20
5.4955838
11
13.3069605
21
5.1018838
0
LINE
8
DEFAULT_255_2_778
10
13.8101605
20
5.4079838
11
13.5476605
21
5.6704838
0
LINE
8
DEFAULT_255_2_778
10
13.5476605
20
5.6704838
11
13.5693605
21
7.3108838
0
LINE
8
DEFAULT_255_2_778
10
14.2258605
20
7.3352838
11
14.2258605
21
5.4082838
0
LINE
8
DEFAULT_255_2_778
10
14.2258605
20
5.4082838
11
14.3570605
21
5.1701838
0
LINE
8
DEFAULT_255_2_778
10
15.3413605
20
5.4762838
11
16.1289605
21
4.9735838
0
LINE
8
DEFAULT_255_2_778
10
15.8665605
20
6.4168838
11
17.0042605
21
7.2259838
0
LINE
8
DEFAULT_255_2_778
10
15.3204605
20
7.3135838
11
15.3204605
21
5.6299838
0
LINE
8
DEFAULT_255_2_778
10
15.3204605
20
5.6299838
11
15.2547605
21
5.5638838
0
LINE
8
DEFAULT_255_2_778
10
14.7954605
20
7.4008838
11
14.7518605
21
7.5759838
0
LINE
8
DEFAULT_255_2_778
10
13.2397605
20
8.8229838
11
13.2442605
21
8.8195838
0
ENDSEC
0
EOF