0
SECTION
2
HEADER
9
$MEASUREMENT
70
1
0
ENDSEC
0
SECTION
2
TABLES
0
TABLE
2
LTYPE
0
LTYPE
72
65
70
64
2
CONTINUOUS
3
______
73
0
40
0
0
ENDTAB
0
TABLE
2
LAYER
0
LAYER
2
DEFAULT_255_2_778
70
0
62
255
6
CONTINUOUS
0
ENDTAB
0
ENDSEC
0
SECTION
2
ENTITIES
0
ARC
8
DEFAULT_255_2_778
10
18.6256018
20
3.1891733
40
6.4825619
50
168.7346068
51
180.0023199
0
ARC
8
DEFAULT_255_2_778
10
17.9356481
20
3.1889109
40
5.7926083
50
180
51
180.0301121
0
ARC
8
DEFAULT_255_2_778
10
16.8243759
20
3.1795063
40
4.6813396
50
179.9221557
51
185.2050207
0
ARC
8
DEFAULT_255_2_778
10
16.074528
20
3.1101548
40
3.9282925
50
185.18986
51
191.6173637
0
ARC
8
DEFAULT_255_2_778
10
15.498856
20
2.9913331
40
3.3404861
50
191.6094449
51
199.310774
0
ARC
8
DEFAULT_255_2_778
10
15.1111242
20
2.8554699
40
2.9296397
50
199.3107818
51
208.8422637
0
ARC
8
DEFAULT_255_2_778
10
14.9372468
20
2.7618228
40
2.7321569
50
208.8810213
51
221.5127862
0
ARC
8
DEFAULT_255_2_778
10
15.1410401
20
2.9706376
40
3.0232339
50
221.9162839
51
242.5023355
0
ARC
8
DEFAULT_255_2_778
10
15.7512053
20
4.1533301
40
4.3540407
50
242.5658845
51
257.4884279
0
ARC
8
DEFAULT_255_2_778
10
16.121012
20
5.6192201
40
5.8653938
50
257.0638988
51
261.9090201
0
ARC
8
DEFAULT_255_2_778
10
16.2472141
20
6.478429
40
6.7338134
50
261.8748468
51
265.0686507
0
ARC
8
DEFAULT_255_2_778
10
16.3038295
20
7.1150346
40
7.3729297
50
265.0555811
51
267.3870478
0
ARC
8
DEFAULT_255_2_778
10
16.3255036
20
7.5747055
40
7.8331108
50
267.3819584
51
269.3066604
0
ARC
8
DEFAULT_255_2_778
10
16.3292068
20
7.8038933
40
8.0623267
50
269.3000543
51
270.0009503
0
ARC
8
DEFAULT_255_2_778
10
16.3417299
20
12.8215204
40
13.0799598
50
269.9457292
51
272.556311
0
ARC
8
DEFAULT_255_2_778
10
16.4852933
20
9.7200745
40
9.9751984
50
272.5270625
51
276.19443
0
ARC
8
DEFAULT_255_2_778
10
16.7531431
20
7.2718944
40
7.5124109
50
276.1782559
51
280.7859465
0
ARC
8
DEFAULT_255_2_778
10
17.1027986
20
5.4565814
40
5.6637351
50
280.747911
51
287.0489027
0
ARC
8
DEFAULT_255_2_778
10
17.5040021
20
4.1597339
40
4.3062511
50
287.0042944
51
295.8444777
0
ARC
8
DEFAULT_255_2_778
10
17.9071201
20
3.3419965
40
3.3945782
50
295.7377679
51
312.7135745
0
ARC
8
DEFAULT_255_2_778
10
17.8519894
20
3.3698139
40
3.4524819
50
313.0726708
51
328.5104809
0
ARC
8
DEFAULT_255_2_778
10
17.0358465
20
3.878295
40
4.4140434
50
328.4158056
51
337.0236978
0
ARC
8
DEFAULT_255_2_778
10
15.7641884
20
4.423969
40
5.7978233
50
336.9644873
51
342.8248264
0
ARC
8
DEFAULT_255_2_778
10
13.9903115
20
4.975612
40
7.6554943
50
342.8006687
51
347.311755
0
ARC
8
DEFAULT_255_2_778
10
11.8052661
20
5.4759082
40
9.8970716
50
347.2646185
51
350.1837495
0
ARC
8
DEFAULT_255_2_778
10
-44.2237874
20
16.2229902
40
63.6763839
50
349.5812505
51
349.6717898
0
ARC
8
DEFAULT_255_2_778
10
-22.688665
20
12.2603554
40
41.7797183
50
349.3835036
51
349.5851825
0
ARC
8
DEFAULT_255_2_778
10
-9.568823
20
9.8007668
40
28.4313166
50
349.0956312
51
349.3842305
0
LINE
8
DEFAULT_255_2_778
10
18.349146
20
4.4224057
11
18.3491199
21
4.4222703
0
ARC
8
DEFAULT_255_2_778
10
3.3944771
20
7.2755859
40
15.224413
50
347.5153522
51
349.1979115
0
ARC
8
DEFAULT_255_2_778
10
11.0753447
20
5.569098
40
7.3562645
50
344.3840604
51
347.5597596
0
ARC
8
DEFAULT_255_2_778
10
14.3768785
20
4.6399473
40
3.9264866
50
338.8529983
51
344.4733815
0
ARC
8
DEFAULT_255_2_778
10
15.9954886
20
4.0081814
40
2.1889664
50
329.3684942
51
338.9914218
0
ARC
8
DEFAULT_255_2_778
10
16.7928824
20
3.5230889
40
1.2557269
50
307.0381989
51
329.8758721
0
ARC
8
DEFAULT_255_2_778
10
16.8696343
20
3.4563215
40
1.1563913
50
284.4916233
51
305.9952312
0
ARC
8
DEFAULT_255_2_778
10
16.7308341
20
3.9701145
40
1.6885805
50
273.6635851
51
284.6888819
0
ARC
8
DEFAULT_255_2_778
10
16.6765407
20
4.6224054
40
2.3430409
50
269.9266349
51
273.9693121
0
ARC
8
DEFAULT_255_2_778
10
16.6605042
20
4.0740137
40
1.7946945
50
259.5282726
51
270.4161898
0
ARC
8
DEFAULT_255_2_778
10
16.5320265
20
3.4078754
40
1.1163125
50
240.9775215
51
259.7986079
0
ARC
8
DEFAULT_255_2_778
10
16.4403737
20
3.2139269
40
0.9023605
50
200.8213048
51
240.0916798
0
ARC
8
DEFAULT_255_2_778
10
16.9650373
20
3.4355085
40
1.4716669
50
188.2758785
51
201.6239971
0
ARC
8
DEFAULT_255_2_778
10
17.8506593
20
3.5718036
40
2.3676962
50
179.9181631
51
188.454943
0
ARC
8
DEFAULT_255_2_778
10
18.4684195
20
3.5874033
40
2.9854789
50
179.9987862
51
180.23448
0
ARC
8
DEFAULT_255_2_778
10
22.3111498
20
3.418833
40
6.8302913
50
167.8427059
51
178.5852772
0
ARC
8
DEFAULT_255_2_778
10
45.4750926
20
9.7375558
40
7.1742997
50
269.9021519
51
275.5456569
0
ARC
8
DEFAULT_255_2_778
10
45.6096143
20
8.3714908
40
5.8016291
50
275.5271192
51
282.3372416
0
ARC
8
DEFAULT_255_2_778
10
45.8489801
20
7.2891897
40
4.693178
50
282.3056504
51
291.0528449
0
ARC
8
DEFAULT_255_2_778
10
46.1593688
20
6.4919901
40
3.8376928
50
291.00368
51
303.4532786
0
ARC
8
DEFAULT_255_2_778
10
46.3858187
20
6.1340593
40
3.4142367
50
303.5938493
51
334.1008821
0
ARC
8
DEFAULT_255_2_778
10
45.7103347
20
6.4817693
40
4.1737915
50
333.8572964
51
344.2459631
0
ARC
8
DEFAULT_255_2_778
10
44.7805166
20
6.7473616
40
5.1407935
50
344.2107182
51
352.0617478
0
ARC
8
DEFAULT_255_2_778
10
43.5697195
20
6.9195001
40
6.3637623
50
352.032299
51
358.2241571
0
ARC
8
DEFAULT_255_2_778
10
42.5989489
20
6.961922
40
7.3353918
50
358.1279426
51
0.0112829
0
ARC
8
DEFAULT_255_2_778
10
46.0890143
20
6.975372
40
3.845345
50
359.8211175
51
9.0117041
0
ARC
8
DEFAULT_255_2_778
10
46.8577436
20
7.1000987
40
3.0665692
50
8.9598319
51
21.7021966
0
ARC
8
DEFAULT_255_2_778
10
47.2568291
20
7.2530036
40
2.6392357
50
21.8217714
51
59.2171588
0
ARC
8
DEFAULT_255_2_778
10
46.8367457
20
6.6015062
40
3.4140489
50
58.7561057
51
69.8526796
0
ARC
8
DEFAULT_255_2_778
10
46.5203619
20
5.7523788
40
4.3201944
50
69.7922699
51
77.8402113
0
ARC
8
DEFAULT_255_2_778
10
46.2787647
20
4.6419662
40
5.456584
50
77.8162635
51
84.4251398
0
ARC
8
DEFAULT_255_2_778
10
46.1413697
20
3.2672542
40
6.8381419
50
84.3983516
51
89.7629725
0
ARC
8
DEFAULT_255_2_778
10
46.1251993
20
2.4322426
40
7.6732239
50
89.668023
51
90.0004385
0
ARC
8
DEFAULT_255_2_778
10
45.6791776
20
5.6905015
40
1.7562062
50
79.2826993
51
90.3927082
0
ARC
8
DEFAULT_255_2_778
10
45.8018059
20
6.3136309
40
1.1211514
50
61.6631996
51
79.5182933
0
ARC
8
DEFAULT_255_2_778
10
45.9295314
20
6.5660233
40
0.8384095
50
12.0984997
51
61.1589622
0
ARC
8
DEFAULT_255_2_778
10
45.4204434
20
6.4282811
40
1.3653466
50
359.5125948
51
13.2728047
0
ARC
8
DEFAULT_255_2_778
10
45.1932762
20
6.4053657
40
1.5925044
50
345.077818
51
0.4065895
0
ARC
8
DEFAULT_255_2_778
10
45.5879289
20
6.2927966
40
1.1821951
50
294.1482642
51
345.4242073
0
ARC
8
DEFAULT_255_2_778
10
45.3982414
20
6.6828724
40
1.6157928
50
279.4176381
51
294.6272658
0
ARC
8
DEFAULT_255_2_778
10
45.2988365
20
7.2426936
40
2.1843436
50
269.7771497
51
279.5871335
0
ARC
8
DEFAULT_255_2_778
10
56.351528
20
2.623696
40
7.6950781
50
89.9194922
51
96.009065
0
ARC
8
DEFAULT_255_2_778
10
56.2306881
20
3.7526624
40
6.5596651
50
95.9916909
51
103.428699
0
ARC
8
DEFAULT_255_2_778
10
56.0107362
20
4.6642026
40
5.6219665
50
103.4058017
51
112.9886815
0
ARC
8
DEFAULT_255_2_778
10
55.7309056
20
5.3144675
40
4.9140582
50
112.946165
51
128.3133144
0
ARC
8
DEFAULT_255_2_778
10
55.701541
20
5.3806579
40
4.8439516
50
128.526166
51
147.9787205
0
ARC
8
DEFAULT_255_2_778
10
56.3116138
20
4.9897575
40
5.5684771
50
147.8969828
51
157.9006813
0
ARC
8
DEFAULT_255_2_778
10
57.1886905
20
4.6310008
40
6.5160871
50
157.8792964
51
165.6967153
0
ARC
8
DEFAULT_255_2_778
10
58.3081128
20
4.3426749
40
7.6720419
50
165.6755816
51
171.9771982
0
ARC
8
DEFAULT_255_2_778
10
59.6151502
20
4.1557846
40
8.992371
50
171.960367
51
177.1720566
0
ARC
8
DEFAULT_255_2_778
10
60.8058364
20
4.0891717
40
10.1848966
50
177.1282503
51
180.0225316
0
ARC
8
DEFAULT_255_2_778
10
56.502541
20
4.0737355
40
5.8816116
50
179.8886443
51
187.0622377
0
ARC
8
DEFAULT_255_2_778
10
55.506178
20
3.9480545
40
4.8773562
50
187.0360741
51
196.0114248
0
ARC
8
DEFAULT_255_2_778
10
54.7490127
20
3.7283742
40
4.0889703
50
195.9790565
51
208.0022524
0
ARC
8
DEFAULT_255_2_778
10
54.3432149
20
3.5172194
40
3.6315436
50
208.0667797
51
242.6403622
0
ARC
8
DEFAULT_255_2_778
10
54.7123503
20
4.1808903
40
4.3906803
50
242.342344
51
252.9056845
0
ARC
8
DEFAULT_255_2_778
10
54.9744546
20
5.0233635
40
5.27298
50
252.8743477
51
261.0158596
0
ARC
8
DEFAULT_255_2_778
10
55.1468568
20
6.0988017
40
6.3621473
50
260.9947363
51
267.6886582
0
ARC
8
DEFAULT_255_2_778
10
55.1941389
20
6.9929799
40
7.2575135
50
267.6003814
51
270.0150126
0
ARC
8
DEFAULT_255_2_778
10
55.2068748
20
7.436552
40
7.7010931
50
269.9193935
51
275.9965132
0
ARC
8
DEFAULT_255_2_778
10
55.3280212
20
6.3025255
40
6.5606162
50
275.9789235
51
283.4058526
0
ARC
8
DEFAULT_255_2_778
10
55.5487615
20
5.3861949
40
5.618076
50
283.3826318
51
292.9607271
0
ARC
8
DEFAULT_255_2_778
10
55.8300954
20
4.7316429
40
4.9056357
50
292.9174691
51
308.2933178
0
ARC
8
DEFAULT_255_2_778
10
55.8652255
20
4.659148
40
4.8269997
50
308.4992893
51
327.5175849
0
ARC
8
DEFAULT_255_2_778
10
55.2741445
20
5.0430034
40
5.5317595
50
327.4516167
51
337.6157368
0
ARC
8
DEFAULT_255_2_778
10
54.4006285
20
5.4056815
40
6.477571
50
337.5918427
51
345.4325775
0
ARC
8
DEFAULT_255_2_778
10
53.2742138
20
5.700876
40
7.6420216
50
345.4146592
51
351.8436108
0
ARC
8
DEFAULT_255_2_778
10
51.9374818
20
5.8952588
40
8.9928105
50
351.8259817
51
357.1297573
0
ARC
8
DEFAULT_255_2_778
10
50.7133665
20
5.964787
40
10.2188749
50
357.0840933
51
0.0234342
0
ARC
8
DEFAULT_255_2_778
10
54.4285245
20
6.0129612
40
6.5038648
50
359.6124263
51
359.9995695
0
ARC
8
DEFAULT_255_2_778
10
55.0638542
20
6.0242983
40
5.8685462
50
359.8888361
51
6.9144643
0
ARC
8
DEFAULT_255_2_778
10
56.0637469
20
6.1471599
40
4.8611349
50
6.8956826
51
15.4424393
0
ARC
8
DEFAULT_255_2_778
10
56.8323084
20
6.3626797
40
4.0629345
50
15.3988052
51
27.2596226
0
ARC
8
DEFAULT_255_2_778
10
57.2672189
20
6.5838375
40
3.5750304
50
27.3013398
51
62.0475465
0
ARC
8
DEFAULT_255_2_778
10
56.8905847
20
5.9209913
40
4.3371456
50
61.757005
51
72.40222
0
ARC
8
DEFAULT_255_2_778
10
56.6145548
20
5.0608827
40
5.2404571
50
72.3686189
51
80.5190444
0
ARC
8
DEFAULT_255_2_778
10
56.428162
20
3.9604482
40
6.3565632
50
80.4957589
51
87.1398929
0
ARC
8
DEFAULT_255_2_778
10
56.3685459
20
2.97592
40
7.3428471
50
87.0586149
51
90.0234505
0
ARC
8
DEFAULT_255_2_778
10
55.3832982
20
3.8550636
40
1.4934433
50
254.0726062
51
270.4504975
0
ARC
8
DEFAULT_255_2_778
10
55.3047612
20
3.5579212
40
1.1861714
50
204.4676507
51
253.7818451
0
ARC
8
DEFAULT_255_2_778
10
55.8170627
20
3.8257522
40
1.763679
50
191.8190571
51
205.4940757
0
ARC
8
DEFAULT_255_2_778
10
56.5134877
20
3.975785
40
2.4760728
50
181.8735295
51
191.9164555
0
ARC
8
DEFAULT_255_2_778
10
57.0747513
20
4.007718
40
3.0381108
50
179.9858835
51
182.1293769
0
ARC
8
DEFAULT_255_2_778
10
59.6711759
20
4.0042782
40
5.6345369
50
168.5057872
51
179.9574107
0
ARC
8
DEFAULT_255_2_778
10
62.7235748
20
3.566298
40
8.7148348
50
163.9649335
51
169.6830484
0
ARC
8
DEFAULT_255_2_778
10
58.5028528
20
4.7750522
40
4.3244425
50
155.5122746
51
163.9099945
0
ARC
8
DEFAULT_255_2_778
10
56.8120101
20
5.5537829
40
2.4629209
50
141.517185
51
155.694487
0
ARC
8
DEFAULT_255_2_778
10
56.0870392
20
6.1441626
40
1.5280758
50
104.8724429
51
141.9300632
0
ARC
8
DEFAULT_255_2_778
10
56.1453324
20
5.8791797
40
1.7991815
50
91.3885706
51
104.5007318
0
ARC
8
DEFAULT_255_2_778
10
56.1649811
20
5.5359282
40
2.1428383
50
89.9930639
51
91.6913844
0
ARC
8
DEFAULT_255_2_778
10
56.1769829
20
6.1853694
40
1.4934433
50
74.0726062
51
90.4504975
0
ARC
8
DEFAULT_255_2_778
10
56.2555199
20
6.4825118
40
1.1861714
50
24.4676507
51
73.7818451
0
ARC
8
DEFAULT_255_2_778
10
55.7432184
20
6.2146809
40
1.763679
50
11.8190571
51
25.4940757
0
ARC
8
DEFAULT_255_2_778
10
55.0467934
20
6.064648
40
2.4760728
50
1.8735295
51
11.9164555
0
ARC
8
DEFAULT_255_2_778
10
54.4855298
20
6.032715
40
3.0381108
50
359.9858835
51
2.1293769
0
ARC
8
DEFAULT_255_2_778
10
51.8891052
20
6.0361548
40
5.6345369
50
348.5057872
51
359.9574107
0
ARC
8
DEFAULT_255_2_778
10
49.2722055
20
6.3481997
40
8.2639501
50
343.5879537
51
350.0013142
0
ARC
8
DEFAULT_255_2_778
10
53.344694
20
5.154481
40
4.0201237
50
334.1948516
51
343.5085179
0
ARC
8
DEFAULT_255_2_778
10
54.9147373
20
4.3861216
40
2.2721848
50
318.3976003
51
334.4036351
0
ARC
8
DEFAULT_255_2_778
10
55.4831646
20
3.8832758
40
1.5132642
50
285.9437561
51
318.3446487
0
ARC
8
DEFAULT_255_2_778
10
55.4211844
20
4.1300743
40
1.7676134
50
272.4603253
51
285.6780219
0
ARC
8
DEFAULT_255_2_778
10
55.3957099
20
4.4818984
40
2.120232
50
269.9819112
51
272.7399664
0
ARC
8
DEFAULT_255_2_778
10
90.7142689
20
82.4020594
40
79.6853184
50
252.5060237
51
252.6550221
0
ARC
8
DEFAULT_255_2_778
10
74.4182749
20
30.713869
40
25.4891157
50
252.0523592
51
252.5161949
0
ARC
8
DEFAULT_255_2_778
10
70.7123044
20
19.2644339
40
13.454841
50
251.4336024
51
252.0417761
0
ARC
8
DEFAULT_255_2_778
10
68.9971373
20
14.1702507
40
8.0796688
50
250.2377438
51
251.4612333
0
ARC
8
DEFAULT_255_2_778
10
67.9264856
20
11.1925327
40
4.9153208
50
248.4861662
51
250.2467672
0
ARC
8
DEFAULT_255_2_778
10
67.4617515
20
10.0029256
40
3.6381669
50
247.682258
51
248.4246835
0
ARC
8
DEFAULT_255_2_778
10
66.9790201
20
8.8550284
40
2.3929665
50
242.9719781
51
247.9376276
0
ARC
8
DEFAULT_255_2_778
10
66.4475757
20
7.8210589
40
1.2304255
50
234.3215691
51
243.1367985
0
ARC
8
DEFAULT_255_2_778
10
66.103179
20
7.3494838
40
0.6465164
50
216.3109433
51
234.7394466
0
ARC
8
DEFAULT_255_2_778
10
66.0059036
20
7.2641251
40
0.5177045
50
182.4272995
51
215.0735129
0
ARC
8
DEFAULT_255_2_778
10
66.2546983
20
7.2920986
40
0.7676581
50
179.9501498
51
183.7269605
0
ARC
8
DEFAULT_255_2_778
10
66.235447
20
7.2928746
40
0.7484065
50
169.3968721
51
180.0082727
0
ARC
8
DEFAULT_255_2_778
10
66.1584232
20
7.3130555
40
0.6690086
50
135.4125995
51
169.8819263
0
ARC
8
DEFAULT_255_2_778
10
66.1727863
20
7.2872806
40
0.6973808
50
112.4939822
51
134.7328421
0
ARC
8
DEFAULT_255_2_778
10
66.2682186
20
7.0596183
40
0.9442342
50
98.0044183
51
112.5589832
0
ARC
8
DEFAULT_255_2_778
10
66.3247201
20
6.6946959
40
1.3134792
50
89.7940879
51
98.2284501
0
ARC
8
DEFAULT_255_2_778
10
66.3613754
20
6.9460783
40
1.0625683
50
90.0006203
51
91.7222495
0
ARC
8
DEFAULT_255_2_778
10
66.3611817
20
6.95297
40
1.0556765
50
22.3946878
51
89.9901109
0
ARC
8
DEFAULT_255_2_778
10
67.5437786
20
7.5112727
40
2.7836144
50
13.2095791
51
26.8368647
0
ARC
8
DEFAULT_255_2_778
10
67.8721346
20
7.6654685
40
2.4210354
50
27.0888734
51
58.5361005
0
ARC
8
DEFAULT_255_2_778
10
67.4789245
20
7.0569513
40
3.1453724
50
58.2123346
51
69.1429626
0
ARC
8
DEFAULT_255_2_778
10
67.1278509
20
6.1476291
40
4.1201057
50
69.0829485
51
76.9403475
0
ARC
8
DEFAULT_255_2_778
10
66.8327829
20
4.8911816
40
5.410732
50
76.9030459
51
82.9860487
0
ARC
8
DEFAULT_255_2_778
10
66.632486
20
3.2982687
40
7.016184
50
82.9510502
51
87.6307663
0
ARC
8
DEFAULT_255_2_778
10
66.5593988
20
1.7636924
40
8.5524751
50
87.5665426
51
90.0298674
0
ARC
8
DEFAULT_255_2_778
10
66.5499864
20
1.998057
40
8.318111
50
89.9658755
51
92.9086116
0
ARC
8
DEFAULT_255_2_778
10
66.4935391
20
3.0959822
40
7.218736
50
92.903353
51
96.2400826
0
ARC
8
DEFAULT_255_2_778
10
66.3886782
20
4.0513533
40
6.2576272
50
96.2364596
51
99.9383625
0
ARC
8
DEFAULT_255_2_778
10
66.2438968
20
4.873394
40
5.4229345
50
99.9306082
51
104.2279224
0
ARC
8
DEFAULT_255_2_778
10
66.0667317
20
5.5700534
40
4.7041011
50
104.221761
51
109.1417019
0
ARC
8
DEFAULT_255_2_778
10
65.8758455
20
6.1201753
40
4.1218024
50
109.1424774
51
114.490683
0
ARC
8
DEFAULT_255_2_778
10
65.6869769
20
6.5343927
40
3.666558
50
114.4881207
51
120.5877501
0
ARC
8
DEFAULT_255_2_778
10
65.5117899
20
6.8307086
40
3.3223291
50
120.5872793
51
127.6956653
0
ARC
8
DEFAULT_255_2_778
10
65.3784341
20
7.0043769
40
3.1033681
50
127.7080719
51
135.5523673
0
ARC
8
DEFAULT_255_2_778
10
65.3235847
20
7.0598096
40
3.0253948
50
135.5744159
51
143.8939964
0
ARC
8
DEFAULT_255_2_778
10
65.3761637
20
7.0229775
40
3.0895795
50
143.9167352
51
151.9998096
0
ARC
8
DEFAULT_255_2_778
10
65.4442857
20
6.9848308
40
3.1676371
50
151.9690611
51
152.4757959
0
ARC
8
DEFAULT_255_2_778
10
65.5314195
20
6.9412076
40
3.2650685
50
152.5035358
51
158.6365602
0
ARC
8
DEFAULT_255_2_778
10
65.7093172
20
6.8713431
40
3.4561928
50
158.6322676
51
163.8204768
0
ARC
8
DEFAULT_255_2_778
10
65.8773597
20
6.8221081
40
3.631299
50
163.8132147
51
168.1225019
0
ARC
8
DEFAULT_255_2_778
10
65.9909452
20
6.7977192
40
3.7474723
50
168.1150312
51
171.5793738
0
ARC
8
DEFAULT_255_2_778
10
66.019632
20
6.7931028
40
3.776526
50
171.5738246
51
174.4932966
0
ARC
8
DEFAULT_255_2_778
10
65.9513225
20
6.799502
40
3.7079177
50
174.4904313
51
176.6874304
0
ARC
8
DEFAULT_255_2_778
10
65.7775515
20
6.8092653
40
3.5338729
50
176.6826633
51
178.7936
0
ARC
8
DEFAULT_255_2_778
10
65.5335296
20
6.8147755
40
3.2897891
50
178.8000671
51
179.9931901
0
ARC
8
DEFAULT_255_2_778
10
66.2805529
20
6.8009954
40
4.0368372
50
179.7988649
51
188.2341603
0
ARC
8
DEFAULT_255_2_778
10
65.3147468
20
6.6570732
40
3.060378
50
188.1570886
51
200.9305413
0
ARC
8
DEFAULT_255_2_778
10
64.9229391
20
6.5190949
40
2.6451564
50
201.1708472
51
230.2618049
0
ARC
8
DEFAULT_255_2_778
10
65.4494913
20
7.1250473
40
3.4477769
50
229.9704688
51
240.1177309
0
ARC
8
DEFAULT_255_2_778
10
66.0097861
20
8.0913483
40
4.5647609
50
240.0628261
51
247.3129771
0
ARC
8
DEFAULT_255_2_778
10
66.5882502
20
9.462035
40
6.0525055
50
247.2653058
51
252.5665356
0
ARC
8
DEFAULT_255_2_778
10
67.0064079
20
10.7519745
40
7.408482
50
252.4699675
51
254.5687149
0
ARC
8
DEFAULT_255_2_778
10
60.3576078
20
-13.408643
40
17.650292
50
74.0323354
51
74.6323557
0
ARC
8
DEFAULT_255_2_778
10
64.5588874
20
1.064799
40
2.5801704
50
63.3814631
51
75.3118118
0
ARC
8
DEFAULT_255_2_778
10
65.3726852
20
2.6692659
40
0.7811894
50
31.4188234
51
64.0169366
0
ARC
8
DEFAULT_255_2_778
10
65.5095429
20
2.7836008
40
0.6053647
50
2.2099731
51
28.9356009
0
ARC
8
DEFAULT_255_2_778
10
65.3557954
20
2.7683033
40
0.7596453
50
359.9821392
51
2.9157606
0
ARC
8
DEFAULT_255_2_778
10
65.4180633
20
2.7551525
40
0.6974968
50
331.5586757
51
1.0608778
0
ARC
8
DEFAULT_255_2_778
10
65.4618153
20
2.7517042
40
0.6576241
50
293.1894987
51
330.0072105
0
ARC
8
DEFAULT_255_2_778
10
65.2980026
20
3.1034227
40
1.0455013
50
277.2906559
51
293.8515469
0
ARC
8
DEFAULT_255_2_778
10
65.227217
20
3.5686931
40
1.516034
50
269.8194826
51
277.7127795
0
ARC
8
DEFAULT_255_2_778
10
65.2062415
20
3.3996664
40
1.3470973
50
270.001043
51
270.6890053
0
ARC
8
DEFAULT_255_2_778
10
65.2063368
20
3.3867884
40
1.3342192
50
202.1906951
51
269.9969628
0
ARC
8
DEFAULT_255_2_778
10
63.6816578
20
2.6297462
40
2.6418689
50
191.5016758
51
209.5918952
0
ARC
8
DEFAULT_255_2_778
10
63.6380521
20
2.627025
40
2.6026777
50
210.0138464
51
233.9527784
0
ARC
8
DEFAULT_255_2_778
10
64.0429711
20
3.1647475
40
3.2757373
50
233.7609669
51
245.4263346
0
ARC
8
DEFAULT_255_2_778
10
64.413598
20
3.9639341
40
4.1566722
50
245.3614631
51
253.7732868
0
ARC
8
DEFAULT_255_2_778
10
64.7251954
20
5.0263547
40
5.2638426
50
253.7482198
51
260.6625978
0
ARC
8
DEFAULT_255_2_778
10
64.94629
20
6.3503034
40
6.6061221
50
260.6334816
51
266.2364001
0
ARC
8
DEFAULT_255_2_778
10
65.0438171
20
7.7349428
40
7.9941797
50
266.1903218
51
270.0517717
0
ARC
8
DEFAULT_255_2_778
10
65.0517706
20
9.0929672
40
9.3522007
50
269.9955271
51
271.4341136
0
ARC
8
DEFAULT_255_2_778
10
65.0640037
20
8.6318444
40
8.8909161
50
271.4296763
51
273.3141606
0
ARC
8
DEFAULT_255_2_778
10
65.1021917
20
7.9884368
40
8.246377
50
273.3077115
51
275.6836446
0
ARC
8
DEFAULT_255_2_778
10
65.1828173
20
7.1912378
40
7.4451125
50
275.6738091
51
278.6784166
0
ARC
8
DEFAULT_255_2_778
10
65.3157717
20
6.325649
40
6.5693728
50
278.6712221
51
282.1647146
0
ARC
8
DEFAULT_255_2_778
10
65.8412007
20
4.2699934
40
4.4498827
50
281.128706
51
303.1922526
0
ARC
8
DEFAULT_255_2_778
10
66.6241401
20
2.9879663
40
2.9487821
50
304.0987558
51
323.2418721
0
ARC
8
DEFAULT_255_2_778
10
66.7230602
20
2.8978706
40
2.8156437
50
323.5060918
51
335.1022126
0
ARC
8
DEFAULT_255_2_778
10
66.4840849
20
3.0071687
40
3.0784236
50
335.1295502
51
344.2972209
0
ARC
8
DEFAULT_255_2_778
10
66.0321321
20
3.134669
40
3.5480166
50
344.2904046
51
351.6116143
0
ARC
8
DEFAULT_255_2_778
10
65.4054615
20
3.2281186
40
4.1816159
50
351.5975065
51
357.5554572
0
ARC
8
DEFAULT_255_2_778
10
64.8311813
20
3.2581902
40
4.7566594
50
357.4886082
51
0.0177831
0
ARC
8
DEFAULT_255_2_778
10
65.5600933
20
3.2804458
40
4.0278009
50
359.7044123
51
359.9997686
0
ARC
8
DEFAULT_255_2_778
10
66.0919134
20
3.2939755
40
3.4960069
50
359.7779956
51
9.8490764
0
ARC
8
DEFAULT_255_2_778
10
66.8414331
20
3.4293222
40
2.734387
50
9.7412888
51
27.2699674
0
ARC
8
DEFAULT_255_2_778
10
66.9107943
20
3.4427851
40
2.6666398
50
27.6956903
51
48.2963007
0
ARC
8
DEFAULT_255_2_778
10
66.4239973
20
2.9094646
40
3.388681
50
48.1503228
51
58.5166192
0
ARC
8
DEFAULT_255_2_778
10
65.8899837
20
2.0469022
40
4.4031591
50
58.4524929
51
65.7084639
0
ARC
8
DEFAULT_255_2_778
10
65.3320073
20
0.8159892
40
5.7546324
50
65.6865313
51
71.5270963
0
ARC
8
DEFAULT_255_2_778
10
64.9529436
20
-0.2743542
40
6.9089175
50
71.4105808
51
73.1306845
0
LINE
8
DEFAULT_255_2_778
10
6.3280405
20
-0.0568335
11
9.6308405
21
-0.0568335
0
LINE
8
DEFAULT_255_2_778
10
9.6308405
20
-0.0568335
11
11.4043405
21
10.0872665
0
LINE
8
DEFAULT_255_2_778
10
11.4043405
20
10.0872665
11
8.0954405
21
10.0872665
0
LINE
8
DEFAULT_255_2_778
10
8.0954405
20
10.0872665
11
7.4427405
21
6.4590665
0
LINE
8
DEFAULT_255_2_778
10
7.4427405
20
6.4590665
11
4.5773405
21
6.4590665
0
LINE
8
DEFAULT_255_2_778
10
4.5773405
20
6.4590665
11
5.2303405
21
10.0869665
0
LINE
8
DEFAULT_255_2_778
10
5.2303405
20
10.0869665
11
1.9222405
21
10.0869665
0
LINE
8
DEFAULT_255_2_778
10
1.9222405
20
10.0869665
11
0.1508405
21
-0.0568335
0
LINE
8
DEFAULT_255_2_778
10
0.1508405
20
-0.0568335
11
3.4562405
21
-0.0568335
0
LINE
8
DEFAULT_255_2_778
10
3.4562405
20
-0.0568335
11
4.1230405
21
3.7382665
0
LINE
8
DEFAULT_255_2_778
10
4.1230405
20
3.7382665
11
6.9890405
21
3.7382665
0
LINE
8
DEFAULT_255_2_778
10
6.9890405
20
3.7382665
11
6.3280405
21
-0.0568335
0
LINE
8
DEFAULT_255_2_778
10
13.2733405
20
10.0991665
11
12.2679405
21
4.4555665
0
LINE
8
DEFAULT_255_2_778
10
21.5574405
20
3.7885665
11
22.6687405
21
10.1174665
0
LINE
8
DEFAULT_255_2_778
10
22.6687405
20
10.1174665
11
19.3580405
21
10.1174665
0
LINE
8
DEFAULT_255_2_778
10
19.3580405
20
10.1174665
11
18.4208405
21
4.8066665
0
LINE
8
DEFAULT_255_2_778
10
15.6340405
20
4.8572665
11
16.5912405
21
10.1176665
0
LINE
8
DEFAULT_255_2_778
10
16.5912405
20
10.1176665
11
13.2760405
21
10.1176665
0
LINE
8
DEFAULT_255_2_778
10
13.2760405
20
10.1176665
11
13.2733405
21
10.0991665
0
LINE
8
DEFAULT_255_2_778
10
40.1338405
20
-0.0568335
11
43.4393405
21
-0.0568335
0
LINE
8
DEFAULT_255_2_778
10
43.4393405
20
-0.0568335
11
43.9049405
21
2.5632665
0
LINE
8
DEFAULT_255_2_778
10
43.9049405
20
2.5632665
11
45.4628405
21
2.5632665
0
LINE
8
DEFAULT_255_2_778
10
46.1251405
20
10.1054665
11
41.8925405
21
10.1054665
0
LINE
8
DEFAULT_255_2_778
10
41.8925405
20
10.1054665
11
40.1338405
21
-0.0568335
0
LINE
8
DEFAULT_255_2_778
10
45.2874405
20
5.0583665
11
44.3349405
21
5.0583665
0
LINE
8
DEFAULT_255_2_778
10
44.3349405
20
5.0583665
11
44.7741405
21
7.4466665
0
LINE
8
DEFAULT_255_2_778
10
44.7741405
20
7.4466665
11
45.6671405
21
7.4466665
0
LINE
8
DEFAULT_255_2_778
10
45.2903405
20
5.0583665
11
45.2874405
21
5.0583665
0
LINE
8
DEFAULT_255_2_778
10
56.3655405
20
10.3187665
11
56.3623405
21
10.3187665
0
LINE
8
DEFAULT_255_2_778
10
55.3950405
20
2.3616665
11
55.3950405
21
2.3616665
0
LINE
8
DEFAULT_255_2_778
10
72.4360405
20
-0.0566335
11
75.7415405
21
-0.0566335
0
LINE
8
DEFAULT_255_2_778
10
75.7415405
20
-0.0566335
11
77.0511405
21
7.3723665
0
LINE
8
DEFAULT_255_2_778
10
77.0511405
20
7.3723665
11
79.5403405
21
7.3723665
0
LINE
8
DEFAULT_255_2_778
10
79.5403405
20
7.3723665
11
80.0179405
21
10.0869665
0
LINE
8
DEFAULT_255_2_778
10
80.0179405
20
10.0869665
11
71.5528405
21
10.0869665
0
LINE
8
DEFAULT_255_2_778
10
71.5528405
20
10.0869665
11
71.0753405
21
7.3723665
0
LINE
8
DEFAULT_255_2_778
10
71.0753405
20
7.3723665
11
73.7158405
21
7.3723665
0
LINE
8
DEFAULT_255_2_778
10
73.7158405
20
7.3723665
11
72.4360405
21
-0.0566335
0
LINE
8
DEFAULT_255_2_778
10
67.3372405
20
7.3551665
11
70.2537405
21
8.1473665
0
LINE
8
DEFAULT_255_2_778
10
63.9709405
20
2.8828665
11
61.0928405
21
2.1029665
0
LINE
8
DEFAULT_255_2_778
10
66.9578405
20
6.3372665
11
66.9581405
21
6.3402665
0
LINE
8
DEFAULT_255_2_778
10
24.5480405
20
10.0991665
11
22.7764405
21
-0.0568335
0
LINE
8
DEFAULT_255_2_778
10
22.7764405
20
-0.0568335
11
26.0818405
21
-0.0568335
0
LINE
8
DEFAULT_255_2_778
10
26.0818405
20
-0.0568335
11
26.6099405
21
2.9342665
0
LINE
8
DEFAULT_255_2_778
10
26.6099405
20
2.9342665
11
29.3873405
21
2.9342665
0
LINE
8
DEFAULT_255_2_778
10
29.3873405
20
2.9342665
11
29.8408405
21
5.4858665
0
LINE
8
DEFAULT_255_2_778
10
29.8408405
20
5.4858665
11
27.0616405
21
5.4858665
0
LINE
8
DEFAULT_255_2_778
10
27.0616405
20
5.4858665
11
27.3759405
21
7.3723665
0
LINE
8
DEFAULT_255_2_778
10
27.3759405
20
7.3723665
11
31.2600405
21
7.3723665
0
LINE
8
DEFAULT_255_2_778
10
31.2600405
20
7.3723665
11
31.7376405
21
10.0994665
0
LINE
8
DEFAULT_255_2_778
10
31.7376405
20
10.0994665
11
24.5480405
21
10.0991665
0
LINE
8
DEFAULT_255_2_778
10
33.2211405
20
10.0991665
11
31.4494405
21
-0.0568335
0
LINE
8
DEFAULT_255_2_778
10
31.4494405
20
-0.0568335
11
34.7549405
21
-0.0568335
0
LINE
8
DEFAULT_255_2_778
10
34.7549405
20
-0.0568335
11
35.2708405
21
2.9342665
0
LINE
8
DEFAULT_255_2_778
10
35.2708405
20
2.9342665
11
38.0603405
21
2.9342665
0
LINE
8
DEFAULT_255_2_778
10
38.0603405
20
2.9342665
11
38.5138405
21
5.4858665
0
LINE
8
DEFAULT_255_2_778
10
38.5138405
20
5.4858665
11
35.7365405
21
5.4858665
0
LINE
8
DEFAULT_255_2_778
10
35.7365405
20
5.4858665
11
36.0508405
21
7.3723665
0
LINE
8
DEFAULT_255_2_778
10
36.0508405
20
7.3723665
11
39.9322405
21
7.3723665
0
LINE
8
DEFAULT_255_2_778
10
39.9322405
20
7.3723665
11
40.4098405
21
10.0994665
0
LINE
8
DEFAULT_255_2_778
10
40.4098405
20
10.0994665
11
33.2211405
21
10.0991665
0
ENDSEC
0
EOF