0
SECTION
2
HEADER
9
$MEASUREMENT
70
1
0
ENDSEC
0
SECTION
2
TABLES
0
TABLE
2
LTYPE
0
LTYPE
72
65
70
64
2
CONTINUOUS
3
______
73
0
40
0
0
ENDTAB
0
TABLE
2
LAYER
0
LAYER
2
DEFAULT_255_2_778
70
0
62
255
6
CONTINUOUS
0
ENDTAB
0
ENDSEC
0
SECTION
2
ENTITIES
0
ARC
8
DEFAULT_255_2_778
10
6.8651052
20
12.4959622
40
0.2891996
50
154.8860624
51
156.873483
0
ARC
8
DEFAULT_255_2_778
10
7.2438072
20
12.333093
40
0.7014388
50
156.7884548
51
159.5376543
0
ARC
8
DEFAULT_255_2_778
10
7.5443369
20
12.2201965
40
1.0224738
50
159.497854
51
162.7238149
0
ARC
8
DEFAULT_255_2_778
10
7.7110759
20
12.167286
40
1.197404
50
162.6756971
51
164.8029664
0
ARC
8
DEFAULT_255_2_778
10
7.8302467
20
12.1354997
40
1.3207399
50
164.8274583
51
169.4298163
0
ARC
8
DEFAULT_255_2_778
10
7.9152714
20
12.1193237
40
1.407289
50
169.4174152
51
175.0746829
0
ARC
8
DEFAULT_255_2_778
10
7.9457513
20
12.116416
40
1.4379061
50
175.0635269
51
180.0040001
0
ARC
8
DEFAULT_255_2_778
10
7.9553385
20
12.1163373
40
1.4474931
50
180.000858
51
182.9359825
0
ARC
8
DEFAULT_255_2_778
10
7.9551492
20
12.1162998
40
1.4473021
50
182.934884
51
183.3667426
0
ARC
8
DEFAULT_255_2_778
10
7.4391041
20
12.0713226
40
0.9296209
50
182.4672338
51
192.5075255
0
ARC
8
DEFAULT_255_2_778
10
7.9780926
20
12.2016455
40
1.4840789
50
192.9129962
51
208.6716378
0
ARC
8
DEFAULT_255_2_778
10
7.9598105
20
12.182266
40
1.4587636
50
208.3483202
51
212.3694949
0
ARC
8
DEFAULT_255_2_778
10
7.6971294
20
12.0149665
40
1.1473316
50
212.3360434
51
216.4573202
0
ARC
8
DEFAULT_255_2_778
10
7.424231
20
11.8133588
40
0.8080394
50
216.4580123
51
220.4510584
0
ARC
8
DEFAULT_255_2_778
10
8.2171866
20
13.4891029
40
0.8152118
50
52.2525212
51
83.155122
0
ARC
8
DEFAULT_255_2_778
10
8.3889989
20
13.799079
40
0.4680427
50
358.1051678
51
45.6387678
0
ARC
8
DEFAULT_255_2_778
10
8.2489853
20
13.7836533
40
0.6078003
50
357.6758048
51
359.9952746
0
ARC
8
DEFAULT_255_2_778
10
8.2202013
20
13.78542
40
0.6366327
50
346.6945833
51
357.6219909
0
ARC
8
DEFAULT_255_2_778
10
8.3502612
20
13.7393283
40
0.4996792
50
314.7613049
51
348.4058967
0
ARC
8
DEFAULT_255_2_778
10
8.1833663
20
13.9209078
40
0.7461875
50
307.0816158
51
314.0428094
0
ARC
8
DEFAULT_255_2_778
10
7.8809874
20
14.3130743
40
1.2413784
50
304.3843146
51
307.3019358
0
ARC
8
DEFAULT_255_2_778
10
8.0890554
20
13.9999193
40
0.8654524
50
294.0720247
51
304.7245752
0
ARC
8
DEFAULT_255_2_778
10
8.1759079
20
13.8044867
40
0.6515903
50
284.9618617
51
294.1084989
0
ARC
8
DEFAULT_255_2_778
10
8.2456523
20
13.5387607
40
0.3768687
50
277.8579732
51
285.1479668
0
ARC
8
DEFAULT_255_2_778
10
8.283986
20
13.2665442
40
0.1019703
50
275.266037
51
277.4326994
0
ARC
8
DEFAULT_255_2_778
10
7.9562634
20
11.4309093
40
0.5306261
50
309.4386973
51
311.7284798
0
ARC
8
DEFAULT_255_2_778
10
7.4864651
20
11.9613133
40
1.2391713
50
311.6164137
51
314.6708224
0
ARC
8
DEFAULT_255_2_778
10
7.1331244
20
12.3206684
40
1.74314
50
314.6262049
51
318.1804007
0
ARC
8
DEFAULT_255_2_778
10
6.9024937
20
12.5278119
40
2.0531378
50
318.1638914
51
322.6341592
0
ARC
8
DEFAULT_255_2_778
10
6.7795418
20
12.6225567
40
2.2083579
50
322.6164854
51
327.7416757
0
ARC
8
DEFAULT_255_2_778
10
6.7400641
20
12.6481075
40
2.2553797
50
327.7280508
51
330.7624262
0
ARC
8
DEFAULT_255_2_778
10
6.7301485
20
12.6536974
40
2.2667622
50
330.7615517
51
334.0025322
0
ARC
8
DEFAULT_255_2_778
10
8.2930059
20
11.8897932
40
0.5272042
50
334.171834
51
336.7294764
0
ARC
8
DEFAULT_255_2_778
10
7.2269346
20
12.3560277
40
1.6907619
50
336.4878481
51
338.3521545
0
ARC
8
DEFAULT_255_2_778
10
8.3099715
20
11.6454745
40
0.4961307
50
3.8497509
51
10.0794572
0
ARC
8
DEFAULT_255_2_778
10
8.0947152
20
11.6291965
40
0.7119965
50
359.9172347
51
3.9937077
0
ARC
8
DEFAULT_255_2_778
10
7.8133073
20
11.6331706
40
0.9934163
50
351.1177925
51
359.7114749
0
ARC
8
DEFAULT_255_2_778
10
7.4998121
20
11.6803927
40
1.3104445
50
342.6941916
51
351.1942593
0
ARC
8
DEFAULT_255_2_778
10
7.2597822
20
11.7538518
40
1.5614608
50
334.9738508
51
342.740735
0
ARC
8
DEFAULT_255_2_778
10
7.6044612
20
11.5673472
40
1.1704742
50
298.293088
51
336.1088235
0
ARC
8
DEFAULT_255_2_778
10
7.1835529
20
12.3334039
40
2.0445304
50
291.5573648
51
298.504031
0
ARC
8
DEFAULT_255_2_778
10
7.3816226
20
11.8285941
40
1.5022552
50
281.4257633
51
291.6057561
0
ARC
8
DEFAULT_255_2_778
10
7.4257781
20
11.6276968
40
1.2965967
50
269.97706
51
281.2718474
0
ARC
8
DEFAULT_255_2_778
10
7.4287533
20
11.7872109
40
1.456115
50
261.8337211
51
269.8625036
0
ARC
8
DEFAULT_255_2_778
10
7.4768289
20
12.1494361
40
1.8215003
50
258.9831633
51
261.9552861
0
ARC
8
DEFAULT_255_2_778
10
7.374406
20
11.7717193
40
1.4314524
50
219.3074692
51
260.1181694
0
ARC
8
DEFAULT_255_2_778
10
7.3717472
20
11.7549324
40
1.4188059
50
212.1227317
51
218.8509464
0
ARC
8
DEFAULT_255_2_778
10
7.4968145
20
11.8291744
40
1.5642079
50
178.6434977
51
211.9899038
0
ARC
8
DEFAULT_255_2_778
10
7.4282136
20
11.7867913
40
1.4972761
50
123.1225584
51
176.9597064
0
ARC
8
DEFAULT_255_2_778
10
7.5731541
20
11.6591883
40
1.6841368
50
110.4677522
51
124.8804167
0
ARC
8
DEFAULT_255_2_778
10
6.8229632
20
13.8025012
40
0.5880464
50
285.9183311
51
286.1260425
0
ARC
8
DEFAULT_255_2_778
10
6.7681048
20
13.9726951
40
0.7667998
50
286.5316518
51
291.4833236
0
ARC
8
DEFAULT_255_2_778
10
7.6390238
20
11.6981964
40
1.6687862
50
110.4230952
51
110.7080642
0
ARC
8
DEFAULT_255_2_778
10
7.2035874
20
12.8834327
40
0.4061441
50
99.5009156
51
111.2021924
0
ARC
8
DEFAULT_255_2_778
10
7.2331993
20
12.7084082
40
0.5836556
50
96.2414733
51
99.5318954
0
ARC
8
DEFAULT_255_2_778
10
6.7792207
20
13.8090404
40
0.6506635
50
306.7536592
51
306.8837781
0
ARC
8
DEFAULT_255_2_778
10
5.4933225
20
15.6552484
40
2.9002803
50
302.1716194
51
305.2828285
0
ARC
8
DEFAULT_255_2_778
10
8.7430264
20
10.6029238
40
3.107214
50
123.2889222
51
123.7856202
0
ARC
8
DEFAULT_255_2_778
10
7.5633326
20
12.3865602
40
0.9688455
50
124.4589371
51
143.6726713
0
ARC
8
DEFAULT_255_2_778
10
7.8951423
20
12.1120248
40
1.3990173
50
142.664527
51
148.4104527
0
ARC
8
DEFAULT_255_2_778
10
7.8113309
20
12.1605054
40
1.3022318
50
148.2957874
51
154.925829
0
ARC
8
DEFAULT_255_2_778
10
7.569108
20
12.2762373
40
1.0337922
50
155.046287
51
157.6108352
0
ARC
8
DEFAULT_255_2_778
10
7.2357059
20
11.5757684
40
0.5155987
50
218.0606563
51
225.5599709
0
ARC
8
DEFAULT_255_2_778
10
7.4904255
20
11.8329863
40
0.8775949
50
225.4443273
51
231.3473689
0
ARC
8
DEFAULT_255_2_778
10
7.6240486
20
11.9943208
40
1.0870551
50
231.1584891
51
231.8945557
0
ARC
8
DEFAULT_255_2_778
10
7.7653119
20
12.1829436
40
1.3226635
50
232.1217381
51
241.5297514
0
ARC
8
DEFAULT_255_2_778
10
7.7118159
20
12.06802
40
1.1961617
50
241.1581475
51
252.5367389
0
ARC
8
DEFAULT_255_2_778
10
7.5874653
20
11.6770672
40
0.7859123
50
252.6312595
51
262.8279583
0
ARC
8
DEFAULT_255_2_778
10
7.6580157
20
12.3102091
40
1.4229371
50
263.1923176
51
267.5024733
0
ARC
8
DEFAULT_255_2_778
10
7.6568803
20
12.2874433
40
1.4001434
50
267.5082962
51
269.9975028
0
ARC
8
DEFAULT_255_2_778
10
7.6572008
20
12.2608781
40
1.3735782
50
269.9840865
51
276.801844
0
ARC
8
DEFAULT_255_2_778
10
7.6623654
20
12.2181508
40
1.33054
50
276.7989219
51
282.6031215
0
ARC
8
DEFAULT_255_2_778
10
7.6792139
20
12.1438766
40
1.2543791
50
282.5923365
51
287.5607489
0
ARC
8
DEFAULT_255_2_778
10
7.7010785
20
12.0721246
40
1.1793743
50
287.5997636
51
287.7513808
0
ARC
8
DEFAULT_255_2_778
10
7.7237269
20
12.004886
40
1.1084324
50
287.6960795
51
291.7730154
0
ARC
8
DEFAULT_255_2_778
10
7.8062349
20
11.7988829
40
0.8865209
50
291.7595019
51
294.9772341
0
ARC
8
DEFAULT_255_2_778
10
7.9407052
20
11.5115793
40
0.5693062
50
294.9190898
51
297.7465519
0
ARC
8
DEFAULT_255_2_778
10
8.108909
20
11.1918657
40
0.2080455
50
297.741933
51
299.3385585
0
ARC
8
DEFAULT_255_2_778
10
8.3844077
20
14.6380306
40
1.483415
50
258.1891704
51
263.2808799
0
ARC
8
DEFAULT_255_2_778
10
8.6166829
20
15.8027262
40
2.6710177
50
256.6108784
51
258.4258483
0
ARC
8
DEFAULT_255_2_778
10
9.024452
20
17.5045954
40
4.4210551
50
254.9470706
51
256.5772406
0
ARC
8
DEFAULT_255_2_778
10
9.5384979
20
19.451413
40
6.4345802
50
254.9892256
51
255.02902
0
ARC
8
DEFAULT_255_2_778
10
9.3735865
20
18.8380274
40
5.799413
50
254.9499991
51
254.9933438
0
ARC
8
DEFAULT_255_2_778
10
9.7529347
20
20.2498542
40
7.261316
50
254.9180779
51
254.9520602
0
ARC
8
DEFAULT_255_2_778
10
9.8395057
20
20.5716589
40
7.5945618
50
254.8872763
51
254.9191685
0
ARC
8
DEFAULT_255_2_778
10
9.6066832
20
19.7093659
40
6.70139
50
254.8514097
51
254.886884
0
ARC
8
DEFAULT_255_2_778
10
10.2580365
20
22.1137269
40
9.1924164
50
254.8235082
51
254.8488895
0
ARC
8
DEFAULT_255_2_778
10
9.6134493
20
19.7370605
40
6.72989
50
254.7887308
51
254.8227541
0
ARC
8
DEFAULT_255_2_778
10
10.3591398
20
22.4811063
40
9.5734515
50
254.7677424
51
254.7912135
0
ARC
8
DEFAULT_255_2_778
10
10.2581791
20
22.1092835
40
9.1881655
50
254.7420229
51
254.7660206
0
ARC
8
DEFAULT_255_2_778
10
10.1601001
20
21.7469092
40
8.8127534
50
254.7126438
51
254.7371943
0
ARC
8
DEFAULT_255_2_778
10
10.0665966
20
21.4054446
40
8.4587183
50
254.6886604
51
254.7137575
0
ARC
8
DEFAULT_255_2_778
10
11.9102045
20
28.1358526
40
15.437062
50
254.6717851
51
254.6852779
0
ARC
8
DEFAULT_255_2_778
10
10.1976801
20
21.8873215
40
8.9581053
50
254.647813
51
254.6706254
0
ARC
8
DEFAULT_255_2_778
10
11.5754451
20
26.9031017
40
14.1596711
50
254.630957
51
254.6451162
0
ARC
8
DEFAULT_255_2_778
10
12.5804929
20
30.5509239
40
17.9434157
50
254.6126356
51
254.6235973
0
ARC
8
DEFAULT_255_2_778
10
12.3803251
20
29.8178393
40
17.1834962
50
254.5963164
51
254.6075455
0
ARC
8
DEFAULT_255_2_778
10
12.1864995
20
29.107191
40
16.446892
50
254.5781952
51
254.5897041
0
ARC
8
DEFAULT_255_2_778
10
12.0055087
20
28.4496327
40
15.76488
50
254.5650148
51
254.5767931
0
ARC
8
DEFAULT_255_2_778
10
13.7064639
20
34.6019219
40
22.1479753
50
254.5510804
51
254.5593043
0
ARC
8
DEFAULT_255_2_778
10
-135.9926176
20
-504.3302031
40
537.1888395
50
74.4732294
51
74.4831782
0
ARC
8
DEFAULT_255_2_778
10
6.8586181
20
10.2058585
40
3.1908709
50
74.3976965
51
75.7540125
0
ARC
8
DEFAULT_255_2_778
10
6.6078151
20
12.5998495
40
0.940975
50
84.0201361
51
89.661128
0
LINE
8
DEFAULT_255_2_778
10
6.6133804
20
13.5408079
11
6.6129047
21
13.540808
0
ARC
8
DEFAULT_255_2_778
10
6.5912105
20
13.2112245
40
0.3302967
50
86.2340511
51
122.2508628
0
ARC
8
DEFAULT_255_2_778
10
6.5187069
20
13.3536861
40
0.1717547
50
127.1618593
51
130.5949774
0
ARC
8
DEFAULT_255_2_778
10
6.6166921
20
13.2528752
40
0.3121871
50
132.2110941
51
175.9008619
0
ARC
8
DEFAULT_255_2_778
10
6.56126
20
13.2601083
40
0.2564005
50
176.6276229
51
179.9853039
0
ARC
8
DEFAULT_255_2_778
10
6.5291417
20
13.259042
40
0.2242849
50
179.7108066
51
196.4567098
0
ARC
8
DEFAULT_255_2_778
10
6.527944
20
13.2693407
40
0.2262845
50
199.0443124
51
227.0527122
0
ARC
8
DEFAULT_255_2_778
10
14.1107589
20
21.1416332
40
11.1565801
50
226.0929067
51
226.3289103
0
ARC
8
DEFAULT_255_2_778
10
6.4128606
20
13.1839676
40
0.1122194
50
253.0945716
51
266.9782308
0
ARC
8
DEFAULT_255_2_778
10
6.4543757
20
13.3290198
40
0.263087
50
236.2459268
51
253.6301216
0
ARC
8
DEFAULT_255_2_778
10
6.5022384
20
13.4106765
40
0.3576162
50
236.286116
51
237.1393845
0
ARC
8
DEFAULT_255_2_778
10
6.5361237
20
13.5076616
40
0.4578171
50
192.1070481
51
239.4972407
0
ARC
8
DEFAULT_255_2_778
10
6.5956148
20
13.5245658
40
0.5195463
50
183.3281036
51
192.553751
0
ARC
8
DEFAULT_255_2_778
10
6.7189073
20
13.5298242
40
0.6429388
50
180.0007556
51
183.1580661
0
ARC
8
DEFAULT_255_2_778
10
6.7149687
20
13.5300692
40
0.6390002
50
125.3739457
51
180.0227318
0
ARC
8
DEFAULT_255_2_778
10
6.8149086
20
13.344826
40
0.8482929
50
90.9544854
51
123.6345202
0
ARC
8
DEFAULT_255_2_778
10
6.8001267
20
13.4058612
40
0.7871402
50
81.8257922
51
89.9526173
0
ARC
8
DEFAULT_255_2_778
10
6.6362136
20
12.1990007
40
2.0050668
50
75.3181482
51
82.0929082
0
ARC
8
DEFAULT_255_2_778
10
5.5759807
20
8.1540463
40
6.1866635
50
72.1192553
51
75.3143112
0
ARC
8
DEFAULT_255_2_778
10
-12.1487785
20
-48.1322102
40
65.1976247
50
72.3768123
51
72.4825021
0
ARC
8
DEFAULT_255_2_778
10
14.1172287
20
34.5564921
40
21.5625311
50
252.379929
51
252.6904811
0
ARC
8
DEFAULT_255_2_778
10
9.4667971
20
19.5416266
40
5.8440742
50
252.4198348
51
255.6154894
0
ARC
8
DEFAULT_255_2_778
10
8.841453
20
17.1834434
40
3.4045244
50
255.9504112
51
256.3054245
0
ARC
8
DEFAULT_255_2_778
10
8.2915551
20
14.998568
40
1.1517012
50
257.1513977
51
264.7302995
0
ARC
8
DEFAULT_255_2_778
10
8.2323145
20
14.4340292
40
0.5841511
50
265.4307055
51
269.8938598
0
ARC
8
DEFAULT_255_2_778
10
8.2391224
20
14.2079059
40
0.3581137
50
268.7375449
51
295.9885671
0
ARC
8
DEFAULT_255_2_778
10
8.2986659
20
14.0457085
40
0.1870511
50
301.3725621
51
311.8339334
0
ARC
8
DEFAULT_255_2_778
10
8.309529
20
14.0421035
40
0.1772111
50
309.9941152
51
354.7300464
0
ARC
8
DEFAULT_255_2_778
10
8.3440005
20
14.0334371
40
0.1421944
50
356.9320607
51
359.9990371
0
ARC
8
DEFAULT_255_2_778
10
8.3304095
20
14.0321782
40
0.1557902
50
0.4621483
51
25.6239338
0
ARC
8
DEFAULT_255_2_778
10
8.2841476
20
14.0123414
40
0.206092
50
25.0343516
51
32.5097844
0
ARC
8
DEFAULT_255_2_778
10
8.1877858
20
13.9309937
40
0.3315001
50
35.4166835
51
88.1261674
0
ARC
8
DEFAULT_255_2_778
10
7.9530865
20
12.6237931
40
1.6568187
50
81.4774257
51
82.1823954
0
ARC
8
DEFAULT_255_2_778
10
7.5518668
20
9.6647242
40
4.6429629
50
82.2441179
51
82.704217
0
ARC
8
DEFAULT_255_2_778
10
8.4318091
20
16.5764338
40
2.3245386
50
261.4707024
51
262.8252629
0
ARC
8
DEFAULT_255_2_778
10
8.6250492
20
11.0995553
40
3.2232659
50
98.3132034
51
99.608371
0
ARC
8
DEFAULT_255_2_778
10
8.2824426
20
13.4793709
40
0.8189366
50
93.0938604
51
98.668419
0
ARC
8
DEFAULT_255_2_778
10
8.2927491
20
12.9764758
40
1.3217624
50
89.5764206
51
92.3633949
0
ARC
8
DEFAULT_255_2_778
10
8.3108911
20
-2.9014911
40
17.1996952
50
89.9904933
51
90.0278838
0
LINE
8
DEFAULT_255_2_778
10
7.0670449
20
11.3921042
11
7.0670449
21
12.8041042
0
LINE
8
DEFAULT_255_2_778
10
7.0670449
20
12.8041042
11
6.6032449
21
12.6187042
0
LINE
8
DEFAULT_255_2_778
10
6.8093449
20
11.2891042
11
7.0670449
21
11.3921042
0
LINE
8
DEFAULT_255_2_778
10
8.2933449
20
13.1650042
11
8.2933449
21
12.4848042
0
LINE
8
DEFAULT_255_2_778
10
8.2933449
20
12.4848042
11
8.6130449
21
12.2374042
0
LINE
8
DEFAULT_255_2_778
10
8.6130449
20
12.2374042
11
8.2933449
21
11.9487042
0
LINE
8
DEFAULT_255_2_778
10
8.2933449
20
11.9487042
11
8.2933449
21
11.0211042
0
LINE
8
DEFAULT_255_2_778
10
6.6132449
20
12.6700042
11
7.6851449
21
13.1338042
0
LINE
8
DEFAULT_255_2_778
10
7.6851449
20
13.1338042
11
7.6851449
21
11.6805042
0
LINE
8
DEFAULT_255_2_778
10
7.6851449
20
11.6805042
11
6.8297449
21
11.2579042
0
LINE
8
DEFAULT_255_2_778
10
8.2108449
20
11.0105042
11
8.2108449
21
11.9588042
0
LINE
8
DEFAULT_255_2_778
10
8.2108449
20
11.9588042
11
7.8912449
21
12.2371042
0
LINE
8
DEFAULT_255_2_778
10
7.8912449
20
12.2371042
11
8.2108449
21
12.4845042
0
LINE
8
DEFAULT_255_2_778
10
8.2108449
20
12.4845042
11
8.2108449
21
13.1648042
0
LINE
8
DEFAULT_255_2_778
10
7.6438449
20
13.2986042
11
6.7058449
21
13.5357042
0
LINE
8
DEFAULT_255_2_778
10
12.5089449
20
11.7630042
11
12.0142449
21
11.4127042
0
LINE
8
DEFAULT_255_2_778
10
12.0142449
20
11.4127042
11
12.0142449
21
12.5668042
0
LINE
8
DEFAULT_255_2_778
10
12.0142449
20
12.5668042
11
12.5089449
21
11.7630042
0
LINE
8
DEFAULT_255_2_778
10
12.4883449
20
12.8761042
11
11.9419449
21
12.5565042
0
LINE
8
DEFAULT_255_2_778
10
11.9419449
20
12.5565042
11
11.4265449
21
12.2885042
0
LINE
8
DEFAULT_255_2_778
10
11.4265449
20
12.2885042
11
11.4265449
21
10.9486042
0
LINE
8
DEFAULT_255_2_778
10
11.4265449
20
10.9486042
11
11.2307449
21
10.7941042
0
LINE
8
DEFAULT_255_2_778
10
11.2307449
20
10.7941042
11
11.2617449
21
10.7631042
0
LINE
8
DEFAULT_255_2_778
10
11.2617449
20
10.7631042
11
11.4575449
21
10.9177042
0
LINE
8
DEFAULT_255_2_778
10
11.4575449
20
10.9177042
11
12.0655449
21
10.3919042
0
LINE
8
DEFAULT_255_2_778
10
12.0655449
20
10.3919042
11
13.1167449
21
11.1957042
0
LINE
8
DEFAULT_255_2_778
10
13.1167449
20
11.1957042
11
13.0961449
21
11.2267042
0
LINE
8
DEFAULT_255_2_778
10
13.0961449
20
11.2267042
11
12.5087449
21
10.7835042
0
LINE
8
DEFAULT_255_2_778
10
12.5087449
20
10.7835042
11
12.0139449
21
11.2061042
0
LINE
8
DEFAULT_255_2_778
10
12.0139449
20
11.2061042
11
12.0139449
21
11.3709042
0
LINE
8
DEFAULT_255_2_778
10
12.0139449
20
11.3709042
11
12.9725449
21
12.0511042
0
LINE
8
DEFAULT_255_2_778
10
12.9725449
20
12.0511042
11
12.4883449
21
12.8761042
0
ARC
8
DEFAULT_255_2_778
10
9.9172476
20
10.6983917
40
0.8533458
50
257.0616037
51
262.7472711
0
ARC
8
DEFAULT_255_2_778
10
9.9271645
20
10.7752529
40
0.9308441
50
262.7390162
51
269.5566047
0
ARC
8
DEFAULT_255_2_778
10
9.9280655
20
10.8046966
40
0.9602941
50
269.5164404
51
269.9999083
0
ARC
8
DEFAULT_255_2_778
10
9.9269234
20
10.8497118
40
1.0053098
50
270.065007
51
279.862104
0
ARC
8
DEFAULT_255_2_778
10
9.9086579
20
10.9523507
40
1.1095606
50
279.8835757
51
289.8370219
0
ARC
8
DEFAULT_255_2_778
10
9.8645811
20
11.0780732
40
1.2427809
50
289.7816046
51
295.8462322
0
ARC
8
DEFAULT_255_2_778
10
10.0962165
20
10.6233716
40
0.7326525
50
295.0458952
51
336.4797862
0
ARC
8
DEFAULT_255_2_778
10
9.7343921
20
10.7766761
40
1.1256025
50
336.674554
51
0.8190853
0
ARC
8
DEFAULT_255_2_778
10
9.7333004
20
10.7942741
40
1.1265803
50
359.9233455
51
0.0069686
0
ARC
8
DEFAULT_255_2_778
10
9.0590789
20
13.5715378
40
0.0428453
50
236.7395645
51
242.4213088
0
ARC
8
DEFAULT_255_2_778
10
9.0759776
20
13.6034519
40
0.078957
50
242.273685
51
245.4154226
0
ARC
8
DEFAULT_255_2_778
10
9.0968041
20
13.6485256
40
0.1286094
50
245.3324776
51
247.0063998
0
ARC
8
DEFAULT_255_2_778
10
9.1229217
20
13.7098992
40
0.1953088
50
246.9863709
51
248.1052863
0
ARC
8
DEFAULT_255_2_778
10
9.1605654
20
13.8034022
40
0.2961048
50
248.0934666
51
248.8328034
0
ARC
8
DEFAULT_255_2_778
10
8.7555499
20
12.6900165
40
0.8887424
50
66.4526331
51
70.4024099
0
ARC
8
DEFAULT_255_2_778
10
8.9770051
20
13.2133988
40
0.3205268
50
62.3722171
51
65.3656792
0
ARC
8
DEFAULT_255_2_778
10
9.0578429
20
13.3474419
40
0.1645532
50
16.0585917
51
65.6683662
0
ARC
8
DEFAULT_255_2_778
10
9.0485196
20
13.3512817
40
0.1725645
50
359.6445567
51
13.9766793
0
ARC
8
DEFAULT_255_2_778
10
8.5038402
20
10.9718239
40
1.8716419
50
353.3164085
51
359.9292012
0
ARC
8
DEFAULT_255_2_778
10
8.7709452
20
10.924258
40
1.6008976
50
338.1661107
51
353.8946122
0
ARC
8
DEFAULT_255_2_778
10
9.5267759
20
10.6204703
40
0.7863022
50
320.4887455
51
338.2309272
0
ARC
8
DEFAULT_255_2_778
10
9.7331576
20
10.4649319
40
0.5282417
50
318.3844471
51
319.2620859
0
ARC
8
DEFAULT_255_2_778
10
8.9269356
20
11.1741039
40
1.6019781
50
315.0435562
51
318.5720738
0
ARC
8
DEFAULT_255_2_778
10
9.5205919
20
10.5777324
40
0.7605075
50
308.0744438
51
315.2363924
0
ARC
8
DEFAULT_255_2_778
10
9.6999815
20
10.3520379
40
0.4722159
50
300.4305003
51
307.8275356
0
ARC
8
DEFAULT_255_2_778
10
9.6572851
20
10.4458953
40
0.5748694
50
285.9782388
51
299.3616649
0
ARC
8
DEFAULT_255_2_778
10
9.0556486
20
12.3391181
40
2.5612035
50
286.2741107
51
287.2588715
0
ARC
8
DEFAULT_255_2_778
10
25.1345466
20
-42.6513014
40
54.7317038
50
106.2997787
51
106.3512678
0
ARC
8
DEFAULT_255_2_778
10
4.7318783
20
2.1194533
40
0.2891553
50
154.9222501
51
156.912004
0
ARC
8
DEFAULT_255_2_778
10
5.1125019
20
1.9560351
40
0.7033767
50
156.8248791
51
159.5693907
0
ARC
8
DEFAULT_255_2_778
10
5.4138045
20
1.843049
40
1.0251668
50
159.5301429
51
162.7511296
0
ARC
8
DEFAULT_255_2_778
10
5.5812215
20
1.7900254
40
1.2007774
50
162.7036049
51
164.8272581
0
ARC
8
DEFAULT_255_2_778
10
5.7006435
20
1.7582264
40
1.3243595
50
164.8517359
51
169.4467182
0
ARC
8
DEFAULT_255_2_778
10
5.7858767
20
1.7420337
40
1.4111166
50
169.4341977
51
175.0825833
0
ARC
8
DEFAULT_255_2_778
10
5.8164875
20
1.739118
40
1.4418646
50
175.071417
51
180.0039015
0
ARC
8
DEFAULT_255_2_778
10
5.8263868
20
1.7390516
40
1.4517639
50
180.0012534
51
183.120361
0
ARC
8
DEFAULT_255_2_778
10
5.8622746
20
1.7410268
40
1.487706
50
183.121083
51
183.3299851
0
ARC
8
DEFAULT_255_2_778
10
5.3063277
20
1.6946441
40
0.9301091
50
182.4668378
51
192.5017769
0
ARC
8
DEFAULT_255_2_778
10
5.8445764
20
1.8247304
40
1.4837923
50
192.9067379
51
208.685175
0
ARC
8
DEFAULT_255_2_778
10
5.8237811
20
1.8040532
40
1.4556472
50
208.3640728
51
212.3968496
0
ARC
8
DEFAULT_255_2_778
10
5.5607275
20
1.6363696
40
1.1436945
50
212.3644924
51
216.4833705
0
ARC
8
DEFAULT_255_2_778
10
5.2890612
20
1.4354749
40
0.805817
50
216.4836995
51
220.4745272
0
ARC
8
DEFAULT_255_2_778
10
6.0700144
20
3.217421
40
0.7078072
50
74.0103978
51
84.3677625
0
ARC
8
DEFAULT_255_2_778
10
6.0391762
20
3.0952573
40
0.8337489
50
67.3780147
51
74.2857219
0
ARC
8
DEFAULT_255_2_778
10
6.0897582
20
3.2036094
40
0.7142944
50
50.7826579
51
67.7801101
0
ARC
8
DEFAULT_255_2_778
10
6.2145296
20
3.4225282
40
0.4676648
50
358.0993738
51
45.6611788
0
ARC
8
DEFAULT_255_2_778
10
6.0741739
20
3.4070627
40
0.6077634
50
357.6659949
51
359.9957482
0
ARC
8
DEFAULT_255_2_778
10
6.0447941
20
3.4088642
40
0.6371925
50
346.6938022
51
357.6117235
0
ARC
8
DEFAULT_255_2_778
10
6.1761262
20
3.3621539
40
0.4988682
50
314.7458796
51
348.4432139
0
ARC
8
DEFAULT_255_2_778
10
6.0089002
20
3.5440746
40
0.7458537
50
307.0685121
51
314.0317777
0
ARC
8
DEFAULT_255_2_778
10
5.7064498
20
3.9365307
40
1.2413173
50
304.3679765
51
307.2886464
0
ARC
8
DEFAULT_255_2_778
10
6.0287805
20
3.4561709
40
0.6628766
50
292.3481738
51
304.8092087
0
ARC
8
DEFAULT_255_2_778
10
6.0914931
20
3.3032813
40
0.497625
50
280.5301092
51
292.3633178
0
ARC
8
DEFAULT_255_2_778
10
6.1222121
20
3.1342989
40
0.3258753
50
271.1590646
51
280.6497112
0
ARC
8
DEFAULT_255_2_778
10
6.126804
20
3.0045452
40
0.1960652
50
269.9979419
51
270.5844387
0
ARC
8
DEFAULT_255_2_778
10
6.1265288
20
2.9566629
40
0.1481832
50
267.7342881
51
270.1036878
0
ARC
8
DEFAULT_255_2_778
10
6.1228825
20
2.8675161
40
0.0589621
50
265.8164577
51
267.8500423
0
ARC
8
DEFAULT_255_2_778
10
5.8496464
20
1.039541
40
0.4529181
50
306.4257998
51
309.3387536
0
ARC
8
DEFAULT_255_2_778
10
5.4646004
20
1.5137146
40
1.0637353
50
309.1889286
51
312.9378903
0
ARC
8
DEFAULT_255_2_778
10
5.1513026
20
1.8524416
40
1.5251355
50
312.8860639
51
317.1723287
0
ARC
8
DEFAULT_255_2_778
10
4.9070261
20
2.0794627
40
1.8586162
50
317.1587769
51
322.4177361
0
ARC
8
DEFAULT_255_2_778
10
4.716353
20
2.2268942
40
2.0996389
50
322.4028717
51
328.2316952
0
ARC
8
DEFAULT_255_2_778
10
4.6011845
20
2.3000087
40
2.2360476
50
328.1925866
51
330.7990953
0
ARC
8
DEFAULT_255_2_778
10
4.5418503
20
2.333315
40
2.3040905
50
330.7959634
51
332.883598
0
ARC
8
DEFAULT_255_2_778
10
6.1718879
20
1.4876518
40
0.4678711
50
334.0763439
51
336.3359842
0
ARC
8
DEFAULT_255_2_778
10
5.1019543
20
1.9611071
40
1.6378766
50
336.1889682
51
338.2926053
0
ARC
8
DEFAULT_255_2_778
10
6.1310805
20
1.2683644
40
0.5002145
50
3.8315243
51
10.0099308
0
ARC
8
DEFAULT_255_2_778
10
5.9167935
20
1.2522521
40
0.7151015
50
359.9186565
51
3.9723031
0
ARC
8
DEFAULT_255_2_778
10
5.6345816
20
1.2563208
40
0.9973256
50
351.0352405
51
359.7079273
0
ARC
8
DEFAULT_255_2_778
10
5.3202989
20
1.3040427
40
1.3152067
50
342.6143646
51
351.1151715
0
ARC
8
DEFAULT_255_2_778
10
5.0812163
20
1.3775061
40
1.5653185
50
335.0176575
51
342.6630817
0
ARC
8
DEFAULT_255_2_778
10
5.430019
20
1.1901559
40
1.1702418
50
298.2924234
51
336.1197513
0
ARC
8
DEFAULT_255_2_778
10
5.0085341
20
1.958083
40
2.0462169
50
291.5510436
51
298.4928702
0
ARC
8
DEFAULT_255_2_778
10
5.20681
20
1.4525805
40
1.5032216
50
281.4241247
51
291.5995129
0
ARC
8
DEFAULT_255_2_778
10
5.2510379
20
1.2512996
40
1.297173
50
269.9773495
51
281.2702408
0
ARC
8
DEFAULT_255_2_778
10
5.2539763
20
1.4097461
40
1.4556233
50
261.8698594
51
269.8641539
0
ARC
8
DEFAULT_255_2_778
10
5.3017185
20
1.7705991
40
1.8196052
50
258.9858571
51
261.9885758
0
ARC
8
DEFAULT_255_2_778
10
5.200314
20
1.3954239
40
1.432238
50
219.3160202
51
260.1004069
0
ARC
8
DEFAULT_255_2_778
10
5.1970369
20
1.3780578
40
1.4187451
50
212.1299177
51
218.8572772
0
ARC
8
DEFAULT_255_2_778
10
5.3224799
20
1.4522442
40
1.5644361
50
178.6460003
51
211.9874022
0
ARC
8
DEFAULT_255_2_778
10
5.2535231
20
1.4098846
40
1.4971455
50
123.1200553
51
176.9627497
0
ARC
8
DEFAULT_255_2_778
10
5.3986676
20
1.2819582
40
1.6843861
50
110.4674118
51
124.8777312
0
ARC
8
DEFAULT_255_2_778
10
4.3497991
20
4.1921352
40
1.4092713
50
289.0459151
51
291.4353138
0
ARC
8
DEFAULT_255_2_778
10
5.0361835
20
2.4476475
40
0.4653932
50
99.6278247
51
111.6056693
0
ARC
8
DEFAULT_255_2_778
10
5.0644515
20
2.2789229
40
0.6364691
50
96.2482332
51
99.5964097
0
ARC
8
DEFAULT_255_2_778
10
3.3206502
20
5.2744069
40
2.8960069
50
302.1855216
51
305.3254758
0
ARC
8
DEFAULT_255_2_778
10
6.6152191
20
0.1560703
40
3.1912778
50
123.2976471
51
123.7858422
0
ARC
8
DEFAULT_255_2_778
10
5.3944836
20
2.0035534
40
0.9770386
50
124.5357412
51
143.8316683
0
ARC
8
DEFAULT_255_2_778
10
5.7208386
20
1.734402
40
1.3995606
50
142.8212254
51
148.4154
0
ARC
8
DEFAULT_255_2_778
10
5.6328112
20
1.7855069
40
1.2978089
50
148.3019228
51
154.9522854
0
ARC
8
DEFAULT_255_2_778
10
5.3911909
20
1.9008571
40
1.0300779
50
155.0750269
51
157.6227498
0
ARC
8
DEFAULT_255_2_778
10
5.0592087
20
1.1966452
40
0.5127638
50
218.0064037
51
225.5543959
0
ARC
8
DEFAULT_255_2_778
10
5.3145933
20
1.4544469
40
0.8756428
50
225.4364836
51
231.3634764
0
ARC
8
DEFAULT_255_2_778
10
5.4488076
20
1.6165199
40
1.0860482
50
231.1712799
51
231.9096108
0
ARC
8
DEFAULT_255_2_778
10
5.5904044
20
1.8057441
40
1.3223369
50
232.1388653
51
241.5327151
0
ARC
8
DEFAULT_255_2_778
10
5.5377341
20
1.6923608
40
1.1975823
50
241.1622664
51
252.5086251
0
ARC
8
DEFAULT_255_2_778
10
5.4131117
20
1.3010657
40
0.786924
50
252.5997489
51
262.8024893
0
LINE
8
DEFAULT_255_2_778
10
5.3145179
20
0.5203425
11
5.3147806
21
0.5203111
0
ARC
8
DEFAULT_255_2_778
10
5.4677405
20
1.8009345
40
1.2897259
50
263.1887607
51
267.4835345
0
ARC
8
DEFAULT_255_2_778
10
5.4662565
20
1.771073
40
1.259828
50
267.4913317
51
269.9967705
0
ARC
8
DEFAULT_255_2_778
10
5.4667362
20
1.7369392
40
1.2256942
50
269.9742571
51
277.7578687
0
ARC
8
DEFAULT_255_2_778
10
5.4724657
20
1.6944989
40
1.1828689
50
277.7603798
51
284.4030337
0
ARC
8
DEFAULT_255_2_778
10
5.487934
20
1.6350373
40
1.1214284
50
284.3932475
51
290.0580918
0
ARC
8
DEFAULT_255_2_778
10
5.5006626
20
1.5978868
40
1.082166
50
290.0996523
51
290.2683807
0
ARC
8
DEFAULT_255_2_778
10
5.529248
20
1.5233196
40
1.0023141
50
290.2121334
51
294.8250227
0
ARC
8
DEFAULT_255_2_778
10
5.6093945
20
1.3505858
40
0.8118925
50
294.8096038
51
298.4195001
0
ARC
8
DEFAULT_255_2_778
10
5.7448918
20
1.1014221
40
0.5282702
50
298.3560326
51
301.4998742
0
ARC
8
DEFAULT_255_2_778
10
5.9192144
20
0.8169969
40
0.1946746
50
301.4929821
51
303.2596415
0
ARC
8
DEFAULT_255_2_778
10
6.2941267
20
5.0966801
40
2.2936968
50
258.9398724
51
263.2864491
0
ARC
8
DEFAULT_255_2_778
10
6.5320163
20
6.4011745
40
3.6196375
50
258.7965457
51
259.2055155
0
ARC
8
DEFAULT_255_2_778
10
6.8393383
20
7.9132639
40
5.1626279
50
257.1099951
51
258.7113511
0
ARC
8
DEFAULT_255_2_778
10
8.344421
20
14.5065347
40
11.9255037
50
256.5409872
51
257.1276398
0
ARC
8
DEFAULT_255_2_778
10
2.2700333
20
-10.8448675
40
14.1434783
50
76.5124951
51
76.9038148
0
ARC
8
DEFAULT_255_2_778
10
4.5730611
20
-0.9823521
40
4.0156506
50
77.0238955
51
77.1040235
0
ARC
8
DEFAULT_255_2_778
10
4.4328749
20
2.2273379
40
0.9469005
50
84.0348204
51
89.5833525
0
ARC
8
DEFAULT_255_2_778
10
4.4386299
20
2.7006352
40
0.4735795
50
89.8632075
51
90.0456295
0
ARC
8
DEFAULT_255_2_778
10
4.4165555
20
2.8449486
40
0.3299805
50
86.2298931
51
122.2670173
0
ARC
8
DEFAULT_255_2_778
10
4.344312
20
2.9868959
40
0.1720145
50
127.1673443
51
130.5950805
0
ARC
8
DEFAULT_255_2_778
10
4.4425588
20
2.8862742
40
0.3124826
50
132.2686294
51
175.9867682
0
ARC
8
DEFAULT_255_2_778
10
4.3882999
20
2.8932368
40
0.2578887
50
176.6862192
51
179.9852701
0
ARC
8
DEFAULT_255_2_778
10
4.3563055
20
2.8921858
40
0.2258968
50
179.7166111
51
196.2928552
0
ARC
8
DEFAULT_255_2_778
10
4.3538205
20
2.9029745
40
0.2268078
50
199.0860402
51
227.0236704
0
ARC
8
DEFAULT_255_2_778
10
11.1025523
20
9.9002939
40
9.9482901
50
226.0585562
51
226.3233123
0
ARC
8
DEFAULT_255_2_778
10
4.2382809
20
2.8170292
40
0.1119736
50
253.0767577
51
266.9795072
0
ARC
8
DEFAULT_255_2_778
10
4.2795116
20
2.9609309
40
0.2616569
50
236.1645149
51
253.6117365
0
ARC
8
DEFAULT_255_2_778
10
4.326854
20
3.0414919
40
0.3549778
50
236.199868
51
237.0575695
0
ARC
8
DEFAULT_255_2_778
10
4.3618881
20
3.1409449
40
0.4578621
50
192.0953363
51
239.481856
0
ARC
8
DEFAULT_255_2_778
10
4.4208344
20
3.1576299
40
0.5190111
50
183.2936249
51
192.5328351
0
ARC
8
DEFAULT_255_2_778
10
4.5431696
20
3.1634506
40
0.6414798
50
180.0008498
51
183.1848911
0
ARC
8
DEFAULT_255_2_778
10
4.5409332
20
3.1634112
40
0.6392434
50
125.3946017
51
179.9973193
0
ARC
8
DEFAULT_255_2_778
10
4.6411628
20
2.975769
40
0.8506874
50
90.9905613
51
123.5772806
0
ARC
8
DEFAULT_255_2_778
10
4.6258185
20
3.0420307
40
0.7842987
50
81.8001162
51
89.9534008
0
ARC
8
DEFAULT_255_2_778
10
4.4629205
20
1.8358313
40
2.0014293
50
75.3214452
51
82.1094062
0
ARC
8
DEFAULT_255_2_778
10
3.4050382
20
-2.2011764
40
6.174743
50
72.1159266
51
75.3177822
0
ARC
8
DEFAULT_255_2_778
10
-14.1458439
20
-57.9267294
40
64.5986649
50
72.3729404
51
72.4796286
0
ARC
8
DEFAULT_255_2_778
10
11.9887651
20
24.3294952
40
21.7095287
50
252.376376
51
252.6820414
0
ARC
8
DEFAULT_255_2_778
10
7.2952493
20
9.1832186
40
5.8527983
50
252.4088422
51
255.6084076
0
ARC
8
DEFAULT_255_2_778
10
6.6618771
20
6.7946855
40
3.3818532
50
255.9444092
51
256.3027088
0
ARC
8
DEFAULT_255_2_778
10
6.117162
20
4.6352871
40
1.1550218
50
257.1904348
51
264.7429802
0
ARC
8
DEFAULT_255_2_778
10
6.057852
20
4.0686455
40
0.5853729
50
265.4421276
51
269.8943745
0
ARC
8
DEFAULT_255_2_778
10
6.0646741
20
3.8419871
40
0.3588004
50
268.7381603
51
295.9678074
0
ARC
8
DEFAULT_255_2_778
10
6.1252175
20
3.678258
40
0.1858945
50
301.2954485
51
311.7935962
0
ARC
8
DEFAULT_255_2_778
10
6.1353243
20
3.675392
40
0.1771115
50
309.9735591
51
354.6867421
0
ARC
8
DEFAULT_255_2_778
10
6.1698116
20
3.6667535
40
0.1420753
50
356.8681041
51
0.0027677
0
ARC
8
DEFAULT_255_2_778
10
6.1559595
20
3.6655059
40
0.1559324
50
0.4609432
51
25.5922832
0
ARC
8
DEFAULT_255_2_778
10
6.1097562
20
3.645721
40
0.2061601
50
25.0046677
51
32.4737671
0
ARC
8
DEFAULT_255_2_778
10
6.0134213
20
3.5640797
40
0.33171
50
35.4377434
51
88.1107924
0
ARC
8
DEFAULT_255_2_778
10
5.7787434
20
2.2572147
40
1.6567024
50
81.4742253
51
82.1790576
0
ARC
8
DEFAULT_255_2_778
10
5.3801841
20
-0.6817961
40
4.6226128
50
82.2420447
51
82.7054301
0
ARC
8
DEFAULT_255_2_778
10
6.2574198
20
6.2095664
40
2.3243625
50
261.4706766
51
262.8253454
0
ARC
8
DEFAULT_255_2_778
10
13.7191384
20
2.2812348
40
1.16937
50
308.4869952
51
309.0157167
0
ARC
8
DEFAULT_255_2_778
10
12.6428684
20
3.6106844
40
2.879865
50
309.0017889
51
309.8781886
0
ARC
8
DEFAULT_255_2_778
10
11.8996537
20
4.5019291
40
4.0403324
50
309.8628967
51
310.9988113
0
ARC
8
DEFAULT_255_2_778
10
11.6405566
20
4.8014406
40
4.4363598
50
310.9865935
51
312.5609537
0
ARC
8
DEFAULT_255_2_778
10
11.902985
20
4.5195796
40
4.0512538
50
312.5234717
51
315.3778187
0
ARC
8
DEFAULT_255_2_778
10
12.3036453
20
4.1197996
40
3.4852665
50
315.4289431
51
316.2565788
0
ARC
8
DEFAULT_255_2_778
10
13.1925609
20
3.3010954
40
2.2771164
50
315.6739384
51
325.3890066
0
ARC
8
DEFAULT_255_2_778
10
14.0604845
20
2.68269
40
1.2116417
50
326.1448023
51
330.3410867
0
ARC
8
DEFAULT_255_2_778
10
14.2597786
20
2.5672868
40
0.9813535
50
330.4383569
51
332.1019145
0
ARC
8
DEFAULT_255_2_778
10
14.8994896
20
2.2838914
40
0.2875698
50
320.0019798
51
322.319239
0
ARC
8
DEFAULT_255_2_778
10
14.657831
20
2.4851452
40
0.6020556
50
316.5716069
51
320.1118878
0
ARC
8
DEFAULT_255_2_778
10
14.5665105
20
2.5704931
40
0.7270482
50
311.2522198
51
316.6343013
0
ARC
8
DEFAULT_255_2_778
10
14.578944
20
2.5559307
40
0.7079017
50
307.7383732
51
311.2728101
0
ARC
8
DEFAULT_255_2_778
10
14.6468462
20
2.4628903
40
0.5927728
50
293.9373664
51
308.0523132
0
ARC
8
DEFAULT_255_2_778
10
14.714084
20
2.3082775
40
0.4241793
50
270.4879505
51
294.1099497
0
ARC
8
DEFAULT_255_2_778
10
14.7178261
20
2.2698714
40
0.3857578
50
257.3176464
51
269.980729
0
ARC
8
DEFAULT_255_2_778
10
14.7221373
20
2.2902294
40
0.4065656
50
252.7215134
51
257.3547882
0
ARC
8
DEFAULT_255_2_778
10
14.7525381
20
2.4343342
40
0.5533683
50
235.9750083
51
254.1476717
0
ARC
8
DEFAULT_255_2_778
10
14.8102641
20
2.5219468
40
0.6582829
50
225.5488688
51
236.077809
0
ARC
8
DEFAULT_255_2_778
10
14.8732426
20
2.5872786
40
0.7490242
50
217.0457046
51
225.6096665
0
ARC
8
DEFAULT_255_2_778
10
14.8507046
20
2.5717463
40
0.7216787
50
211.8223044
51
217.1394576
0
ARC
8
DEFAULT_255_2_778
10
14.6556418
20
2.4516485
40
0.4926109
50
208.2671137
51
211.9163319
0
ARC
8
DEFAULT_255_2_778
10
14.364447
20
2.2946977
40
0.1618126
50
206.8511669
51
208.1504597
0
ARC
8
DEFAULT_255_2_778
10
13.8814633
20
0.3256131
40
0.2696819
50
145.3103188
51
147.7520606
0
ARC
8
DEFAULT_255_2_778
10
14.1381671
20
0.1493698
40
0.5810626
50
141.8043528
51
145.4269388
0
ARC
8
DEFAULT_255_2_778
10
14.258158
20
0.0558232
40
0.7332086
50
136.5229264
51
141.857304
0
ARC
8
DEFAULT_255_2_778
10
14.2627804
20
0.0523657
40
0.7389421
50
130.5819749
51
136.5750011
0
ARC
8
DEFAULT_255_2_778
10
14.2060133
20
0.1215163
40
0.6494975
50
117.7083191
51
130.7470833
0
ARC
8
DEFAULT_255_2_778
10
14.153372
20
0.2223323
40
0.535766
50
98.256333
51
117.7373773
0
ARC
8
DEFAULT_255_2_778
10
14.1487552
20
0.2415629
40
0.5160748
50
89.9795045
51
98.0556769
0
ARC
8
DEFAULT_255_2_778
10
14.1485843
20
0.2171097
40
0.5405283
50
82.5970883
51
89.9623124
0
ARC
8
DEFAULT_255_2_778
10
14.1446257
20
0.1840644
40
0.5738083
50
79.3083381
51
82.6302487
0
ARC
8
DEFAULT_255_2_778
10
14.1260692
20
0.1314625
40
0.6289966
50
59.4655449
51
78.5362797
0
ARC
8
DEFAULT_255_2_778
10
14.0573407
20
0.0171315
40
0.7623913
50
44.9629866
51
59.3820609
0
ARC
8
DEFAULT_255_2_778
10
13.9792934
20
-0.0665914
40
0.8767869
50
43.0895944
51
45.2300698
0
ARC
8
DEFAULT_255_2_778
10
13.9225743
20
-0.1178848
40
0.9532494
50
35.0188033
51
43.0121612
0
ARC
8
DEFAULT_255_2_778
10
13.9135517
20
-0.1258501
40
0.9652105
50
30.1355877
51
35.0986914
0
ARC
8
DEFAULT_255_2_778
10
14.0760484
20
-0.0321827
40
0.7776516
50
26.8744985
51
30.1778662
0
ARC
8
DEFAULT_255_2_778
10
14.4312903
20
0.1468698
40
0.3798388
50
24.5563924
51
27.0054503
0
ARC
8
DEFAULT_255_2_778
10
11.8908333
20
3.9501352
40
3.663645
50
313.3145762
51
314.9195311
0
ARC
8
DEFAULT_255_2_778
10
8.27479
20
7.7954568
40
8.9421154
50
312.1901731
51
313.2705109
0
ARC
8
DEFAULT_255_2_778
10
123.0127733
20
-118.6904451
40
161.8310921
50
132.2130199
51
132.276305
0
ARC
8
DEFAULT_255_2_778
10
21.3708538
20
-6.8845051
40
10.729645
50
132.3125296
51
133.0326273
0
ARC
8
DEFAULT_255_2_778
10
16.7795661
20
-1.9960354
40
4.0232315
50
132.7462652
51
136.7414735
0
ARC
8
DEFAULT_255_2_778
10
14.9734823
20
-0.2966953
40
1.5433736
50
136.7371308
51
143.2372182
0
ARC
8
DEFAULT_255_2_778
10
14.2390165
20
0.2479863
40
0.6289925
50
142.9434711
51
154.5798419
0
ARC
8
DEFAULT_255_2_778
10
13.9449736
20
0.3914064
40
0.3018724
50
155.2092351
51
165.0050132
0
ARC
8
DEFAULT_255_2_778
10
13.9910196
20
-0.083774
40
0.088737
50
273.4872155
51
284.9961441
0
ARC
8
DEFAULT_255_2_778
10
13.9853198
20
-0.0174724
40
0.1552713
50
269.8927892
51
274.098427
0
ARC
8
DEFAULT_255_2_778
10
13.9896688
20
0.1151623
40
0.287943
50
256.7719741
51
269.0767838
0
ARC
8
DEFAULT_255_2_778
10
14.0245769
20
0.276087
40
0.4525948
50
244.9940046
51
257.1317573
0
ARC
8
DEFAULT_255_2_778
10
14.0377776
20
0.3077353
40
0.4868587
50
239.7289886
51
245.1605048
0
ARC
8
DEFAULT_255_2_778
10
14.0275346
20
0.2922598
40
0.468331
50
219.454704
51
239.8568713
0
ARC
8
DEFAULT_255_2_778
10
14.0268062
20
0.2892068
40
0.4658322
50
199.5203995
51
219.2216938
0
ARC
8
DEFAULT_255_2_778
10
14.0813206
20
0.31013
40
0.5242068
50
193.111976
51
199.6849023
0
ARC
8
DEFAULT_255_2_778
10
14.0525269
20
0.3089596
40
0.4959276
50
184.5761562
51
193.7349544
0
ARC
8
DEFAULT_255_2_778
10
13.9983693
20
0.3036757
40
0.441522
50
180.016949
51
184.4533767
0
ARC
8
DEFAULT_255_2_778
10
14.030374
20
0.2965962
40
0.4735777
50
148.3463991
51
179.1592508
0
ARC
8
DEFAULT_255_2_778
10
14.2524297
20
0.1833121
40
0.7223288
50
148.8812348
51
149.94091
0
ARC
8
DEFAULT_255_2_778
10
14.5626181
20
-0.0189836
40
1.0925056
50
138.8637215
51
148.2059843
0
ARC
8
DEFAULT_255_2_778
10
15.9511328
20
-1.217034
40
2.9264226
50
135.2131781
51
139.0816221
0
ARC
8
DEFAULT_255_2_778
10
29.0109858
20
-14.1131308
40
21.2804075
50
134.749751
51
135.3410812
0
ARC
8
DEFAULT_255_2_778
10
-3.6670574
20
18.7242303
40
25.0461898
50
314.9549128
51
314.972208
0
ARC
8
DEFAULT_255_2_778
10
14.8463752
20
2.7492166
40
0.3359488
50
220.5952029
51
222.8796312
0
ARC
8
DEFAULT_255_2_778
10
15.0831205
20
2.9672262
40
0.6577804
50
222.7627626
51
226.3898384
0
ARC
8
DEFAULT_255_2_778
10
15.1235486
20
3.0078004
40
0.7150446
50
226.2867959
51
232.8771027
0
ARC
8
DEFAULT_255_2_778
10
14.9739116
20
2.7911325
40
0.452121
50
231.4255635
51
257.9640219
0
ARC
8
DEFAULT_255_2_778
10
14.9279293
20
2.6223971
40
0.277679
50
259.9836307
51
269.884394
0
ARC
8
DEFAULT_255_2_778
10
14.9274079
20
2.6008572
40
0.2561386
50
269.9912925
51
273.1719226
0
ARC
8
DEFAULT_255_2_778
10
14.9162298
20
2.7650855
40
0.4207388
50
273.4543365
51
288.1083558
0
ARC
8
DEFAULT_255_2_778
10
14.9680542
20
2.6097393
40
0.2569807
50
287.8912844
51
311.6203832
0
ARC
8
DEFAULT_255_2_778
10
14.9913714
20
2.5792937
40
0.2187514
50
312.3513343
51
338.4823994
0
ARC
8
DEFAULT_255_2_778
10
14.9478847
20
2.5962208
40
0.2654161
50
338.5262297
51
355.225523
0
ARC
8
DEFAULT_255_2_778
10
14.9210297
20
2.5997482
40
0.2924743
50
354.9747876
51
359.9946595
0
ARC
8
DEFAULT_255_2_778
10
14.9475408
20
2.6002581
40
0.2659637
50
359.8842764
51
6.5852681
0
ARC
8
DEFAULT_255_2_778
10
15.0391477
20
2.6108469
40
0.1737468
50
6.5808893
51
11.0375595
0
ARC
8
DEFAULT_255_2_778
10
14.8496008
20
2.4177274
40
0.4253317
50
29.0241834
51
32.157757
0
ARC
8
DEFAULT_255_2_778
10
14.9162109
20
2.4552542
40
0.3488801
50
26.2341222
51
28.9426941
0
ARC
8
DEFAULT_255_2_778
10
14.9331249
20
2.4635374
40
0.3300468
50
16.213968
51
26.2422137
0
ARC
8
DEFAULT_255_2_778
10
14.9090665
20
2.4571435
40
0.3549342
50
5.0318846
51
16.1206502
0
ARC
8
DEFAULT_255_2_778
10
14.8611782
20
2.452232
40
0.4030693
50
359.9554847
51
5.1302835
0
ARC
8
DEFAULT_255_2_778
10
14.7572898
20
2.4555028
40
0.5069703
50
346.2542181
51
359.5949571
0
ARC
8
DEFAULT_255_2_778
10
14.5127368
20
2.514157
40
0.7584573
50
336.3531035
51
346.3399574
0
ARC
8
DEFAULT_255_2_778
10
14.1656676
20
2.663831
40
1.1364206
50
329.260088
51
336.4591085
0
ARC
8
DEFAULT_255_2_778
10
13.7083661
20
2.9342944
40
1.6677152
50
323.5696355
51
329.3041855
0
ARC
8
DEFAULT_255_2_778
10
13.1240737
20
3.3632508
40
2.3925591
50
319.1527158
51
323.6139363
0
ARC
8
DEFAULT_255_2_778
10
12.6377962
20
3.7761726
40
3.0304813
50
317.7125344
51
319.2603017
0
ARC
8
DEFAULT_255_2_778
10
16.3658648
20
-1.5528426
40
2.3904934
50
116.6970503
51
117.2457124
0
ARC
8
DEFAULT_255_2_778
10
17.6712232
20
-4.0951481
40
5.2483375
50
117.2090802
51
117.8071952
0
ARC
8
DEFAULT_255_2_778
10
18.6397385
20
-5.9316449
40
7.3245703
50
117.8068193
51
118.7045738
0
ARC
8
DEFAULT_255_2_778
10
19.2002531
20
-6.957627
40
8.4936789
50
118.696878
51
119.8466788
0
ARC
8
DEFAULT_255_2_778
10
19.2400884
20
-7.0300692
40
8.5763379
50
119.836648
51
121.4166867
0
ARC
8
DEFAULT_255_2_778
10
18.6402461
20
-6.0596264
40
7.4354927
50
121.3700396
51
124.45814
0
ARC
8
DEFAULT_255_2_778
10
18.008694
20
-5.1253992
40
6.3078556
50
124.5294397
51
125.0785541
0
ARC
8
DEFAULT_255_2_778
10
17.856226
20
-4.908029
40
6.0423442
50
125.0799574
51
125.4236077
0
ARC
8
DEFAULT_255_2_778
10
14.0880856
20
-0.2087928
40
0.3480619
50
40.1880825
51
41.9833029
0
ARC
8
DEFAULT_255_2_778
10
13.8140984
20
-0.4538364
40
0.7156414
50
41.893376
51
44.6666751
0
ARC
8
DEFAULT_255_2_778
10
13.7315724
20
-0.5341775
40
0.8308135
50
44.6063371
51
49.1730007
0
ARC
8
DEFAULT_255_2_778
10
13.7712992
20
-0.4882406
40
0.7700812
50
49.1751012
51
51.8607492
0
ARC
8
DEFAULT_255_2_778
10
13.9661421
20
-0.207761
40
0.4296149
50
49.1963649
51
83.0910463
0
ARC
8
DEFAULT_255_2_778
10
14.0051856
20
-0.0233036
40
0.2423675
50
87.0115573
51
89.9906562
0
ARC
8
DEFAULT_255_2_778
10
14.0049831
20
-0.0079865
40
0.2270507
50
89.938916
51
98.5750664
0
ARC
8
DEFAULT_255_2_778
10
14.0040879
20
0.0000625
40
0.2189583
50
98.6574937
51
118.0818334
0
ARC
8
DEFAULT_255_2_778
10
14.0147834
20
-0.0210995
40
0.2426642
50
117.9578098
51
123.7743503
0
ARC
8
DEFAULT_255_2_778
10
14.0121232
20
0.0064114
40
0.2187091
50
127.2036991
51
148.7058696
0
ARC
8
DEFAULT_255_2_778
10
13.9502104
20
0.0447819
40
0.1458743
50
148.9527937
51
179.5360172
0
ARC
8
DEFAULT_255_2_778
10
13.8935797
20
0.0457628
40
0.0892389
50
179.8713419
51
180.042886
0
ARC
8
DEFAULT_255_2_778
10
13.985
20
0.0533489
40
0.1808212
50
182.4256547
51
227.478883
0
ARC
8
DEFAULT_255_2_778
10
14.1196566
20
0.1848232
40
0.3688772
50
225.8652639
51
247.586863
0
ARC
8
DEFAULT_255_2_778
10
14.1820424
20
0.31395
40
0.5121057
50
246.6426066
51
250.8062432
0
ARC
8
DEFAULT_255_2_778
10
1.0420647
20
5.871229
40
0.6064249
50
247.0316186
51
264.1049254
0
ARC
8
DEFAULT_255_2_778
10
0.9515159
20
5.662851
40
0.3792382
50
220.5432939
51
247.3422765
0
ARC
8
DEFAULT_255_2_778
10
0.878308
20
5.5973443
40
0.2810341
50
193.9508344
51
220.0962452
0
ARC
8
DEFAULT_255_2_778
10
0.8462401
20
5.5879868
40
0.2476597
50
180.0869119
51
193.6384536
0
ARC
8
DEFAULT_255_2_778
10
0.7941277
20
5.5827884
40
0.1956065
50
159.9465223
51
178.5872121
0
ARC
8
DEFAULT_255_2_778
10
0.8844099
20
5.5543971
40
0.2901822
50
151.7521446
51
160.7931069
0
ARC
8
DEFAULT_255_2_778
10
0.8930317
20
5.5526637
40
0.2986088
50
115.8767714
51
152.2421298
0
ARC
8
DEFAULT_255_2_778
10
0.8793801
20
5.5727396
40
0.2746102
50
96.9859045
51
115.142126
0
ARC
8
DEFAULT_255_2_778
10
0.9015869
20
5.4026387
40
0.4461512
50
96.2550207
51
97.159708
0
ARC
8
DEFAULT_255_2_778
10
0.901066
20
5.408337
40
0.4404302
50
90.0084712
51
96.2684299
0
ARC
8
DEFAULT_255_2_778
10
0.8929298
20
5.3577981
40
0.4910357
50
53.017148
51
89.0581948
0
ARC
8
DEFAULT_255_2_778
10
0.7329316
20
5.1224983
40
0.7753696
50
40.777592
51
54.0326354
0
ARC
8
DEFAULT_255_2_778
10
0.9776856
20
5.4630987
40
1.0319776
50
41.3077976
51
81.833364
0
ARC
8
DEFAULT_255_2_778
10
2.7801977
20
5.7429091
40
0.1016918
50
234.8009488
51
242.5769461
0
ARC
8
DEFAULT_255_2_778
10
2.8166005
20
5.8089815
40
0.1771152
50
241.9680985
51
248.3497636
0
ARC
8
DEFAULT_255_2_778
10
2.8314506
20
5.8479003
40
0.218768
50
248.4954352
51
264.2346647
0
ARC
8
DEFAULT_255_2_778
10
2.8349393
20
5.8737548
40
0.2448438
50
264.0301599
51
270.033062
0
ARC
8
DEFAULT_255_2_778
10
2.8394358
20
5.6911939
40
0.0624348
50
266.0000846
51
298.4416368
0
ARC
8
DEFAULT_255_2_778
10
2.8577347
20
5.6549511
40
0.0218827
50
301.5087107
51
345.7406723
0
ARC
8
DEFAULT_255_2_778
10
2.8544384
20
5.6555764
40
0.0252322
50
346.2080633
51
0.2729454
0
ARC
8
DEFAULT_255_2_778
10
2.8447243
20
5.6553221
40
0.0349479
50
0.6140166
51
17.6590782
0
ARC
8
DEFAULT_255_2_778
10
2.8477282
20
5.6567598
40
0.0316528
50
16.8287226
51
25.1484861
0
ARC
8
DEFAULT_255_2_778
10
2.8458189
20
9.2109825
40
0.6453953
50
272.7141661
51
313.3168016
0
ARC
8
DEFAULT_255_2_778
10
2.7029338
20
9.3279407
40
0.8288541
50
314.9568513
51
319.8031248
0
ARC
8
DEFAULT_255_2_778
10
2.7531745
20
9.2850631
40
0.7628049
50
319.827543
51
323.2281044
0
ARC
8
DEFAULT_255_2_778
10
2.8228436
20
9.2353901
40
0.6772653
50
323.0659523
51
335.8358919
0
ARC
8
DEFAULT_255_2_778
10
2.8832404
20
9.2074481
40
0.6107231
50
335.9081393
51
349.7883264
0
ARC
8
DEFAULT_255_2_778
10
2.8937474
20
9.2050724
40
0.5999617
50
349.8337194
51
0.0001195
0
ARC
8
DEFAULT_255_2_778
10
2.9011004
20
9.2053038
40
0.5926088
50
359.9777534
51
8.7989114
0
ARC
8
DEFAULT_255_2_778
10
2.9562052
20
9.2143212
40
0.5367733
50
8.7474542
51
15.8024428
0
ARC
8
DEFAULT_255_2_778
10
3.0494337
20
9.240116
40
0.440044
50
15.8764225
51
19.0929406
0
ARC
8
DEFAULT_255_2_778
10
3.1630563
20
9.2803173
40
0.319523
50
18.9452448
51
24.1822064
0
ARC
8
DEFAULT_255_2_778
10
3.3195749
20
9.3515483
40
0.1475627
50
23.8467189
51
31.3817698
0
ARC
8
DEFAULT_255_2_778
10
3.3992358
20
9.3994382
40
0.0546202
50
32.0091193
51
36.6092059
0
ARC
8
DEFAULT_255_2_778
10
3.0856594
20
9.4831841
40
0.3610659
50
347.3642187
51
351.8521758
0
ARC
8
DEFAULT_255_2_778
10
3.1040352
20
9.4706407
40
0.3404905
50
286.5991999
51
348.7475449
0
ARC
8
DEFAULT_255_2_778
10
3.1145266
20
9.4709665
40
0.3379581
50
269.7718055
51
284.8786244
0
ARC
8
DEFAULT_255_2_778
10
3.1130924
20
9.6636188
40
0.5306077
50
252.6107036
51
270.009524
0
ARC
8
DEFAULT_255_2_778
10
3.1262499
20
9.703528
40
0.5726254
50
239.2235251
51
252.5477909
0
ARC
8
DEFAULT_255_2_778
10
3.1424252
20
9.7328186
40
0.6060687
50
236.7863164
51
239.3266046
0
ARC
8
DEFAULT_255_2_778
10
3.1423969
20
9.7331337
40
0.6063169
50
229.0413225
51
236.8048634
0
ARC
8
DEFAULT_255_2_778
10
3.0794593
20
9.6616061
40
0.5110444
50
224.0524662
51
229.113301
0
ARC
8
DEFAULT_255_2_778
10
2.9072308
20
9.4958449
40
0.2720076
50
220.7469728
51
224.1831122
0
ARC
8
DEFAULT_255_2_778
10
2.7293112
20
9.3421995
40
0.0369292
50
219.9004311
51
220.328056
0
ARC
8
DEFAULT_255_2_778
10
3.1871572
20
9.7986351
40
1.3768959
50
227.5474378
51
233.8238795
0
ARC
8
DEFAULT_255_2_778
10
2.8230476
20
9.2971932
40
0.7572089
50
233.6669308
51
244.3065439
0
ARC
8
DEFAULT_255_2_778
10
2.7320088
20
9.1153156
40
0.553853
50
244.6358584
51
258.094873
0
ARC
8
DEFAULT_255_2_778
10
2.806734
20
9.5376649
40
0.9826328
50
258.9117625
51
267.4421299
0
ARC
8
DEFAULT_255_2_778
10
1.0189225
20
8.6825406
40
0.6651689
50
29.4431802
51
75.8420457
0
ARC
8
DEFAULT_255_2_778
10
1.063737
20
8.7499937
40
0.5894199
50
78.4631306
51
90.1610147
0
ARC
8
DEFAULT_255_2_778
10
1.0670611
20
8.8020395
40
0.5373947
50
90.5310134
51
134.0730323
0
ARC
8
DEFAULT_255_2_778
10
1.1065643
20
8.7454755
40
0.6056099
50
133.0357553
51
159.6015138
0
ARC
8
DEFAULT_255_2_778
10
0.973115
20
8.7978416
40
0.4622842
50
159.919906
51
171.6078085
0
ARC
8
DEFAULT_255_2_778
10
2.5552768
20
8.6074043
40
2.0557384
50
172.7928516
51
175.1561999
0
ARC
8
DEFAULT_255_2_778
10
1.9343047
20
8.6595391
40
1.4325819
50
175.136761
51
177.9779457
0
ARC
8
DEFAULT_255_2_778
10
1.5404347
20
8.6744326
40
1.0384322
50
178.0323948
51
179.9594964
0
ARC
8
DEFAULT_255_2_778
10
1.2181819
20
8.6730564
40
0.7161821
50
179.8311707
51
183.9398325
0
ARC
8
DEFAULT_255_2_778
10
0.9061318
20
8.6508897
40
0.403347
50
183.8441271
51
189.2111161
0
ARC
8
DEFAULT_255_2_778
10
0.7688583
20
8.6300025
40
0.2645036
50
189.5048287
51
190.6274287
0
ARC
8
DEFAULT_255_2_778
10
0.6636777
20
8.6086039
40
0.1571892
50
190.0318602
51
197.6223021
0
ARC
8
DEFAULT_255_2_778
10
0.5542807
20
8.5736152
40
0.042334
50
197.313821
51
204.5720571
0
ARC
8
DEFAULT_255_2_778
10
0.8211157
20
8.5082398
40
0.3090496
50
168.856407
51
171.1078529
0
ARC
8
DEFAULT_255_2_778
10
1.0925678
20
8.4558895
40
0.5855022
50
164.7057773
51
168.9640378
0
ARC
8
DEFAULT_255_2_778
10
1.0557724
20
8.468525
40
0.5466827
50
155.5080067
51
164.9659352
0
ARC
8
DEFAULT_255_2_778
10
0.7561052
20
8.628256
40
0.2088321
50
100.2087162
51
161.3142499
0
ARC
8
DEFAULT_255_2_778
10
0.7321148
20
8.6738391
40
0.1604721
50
89.976499
51
94.6545043
0
ARC
8
DEFAULT_255_2_778
10
0.7403654
20
8.5532635
40
0.2811668
50
65.5927331
51
91.6681216
0
ARC
8
DEFAULT_255_2_778
10
0.7020711
20
8.5244494
40
0.3240447
50
32.4571544
51
61.5287081
0
ARC
8
DEFAULT_255_2_778
10
-1.8204749
20
6.6869566
40
3.4442971
50
34.7219923
51
35.7308995
0
ARC
8
DEFAULT_255_2_778
10
1.1457402
20
5.6014409
40
2.3710314
50
93.2703118
51
95.1171087
0
ARC
8
DEFAULT_255_2_778
10
1.0237946
20
6.9510482
40
1.0159271
50
95.0558721
51
102.0522115
0
ARC
8
DEFAULT_255_2_778
10
0.9667986
20
7.2323066
40
0.7289735
50
102.2870538
51
107.1353024
0
ARC
8
DEFAULT_255_2_778
10
0.8754855
20
7.4836818
40
0.4620416
50
105.4985363
51
140.5447382
0
ARC
8
DEFAULT_255_2_778
10
0.8581012
20
7.5146295
40
0.4291447
50
142.260361
51
164.2874332
0
ARC
8
DEFAULT_255_2_778
10
1.0235533
20
7.4658146
40
0.6016378
50
164.0793972
51
176.283637
0
ARC
8
DEFAULT_255_2_778
10
0.8390117
20
7.5048592
40
0.415831
50
180.0066228
51
180.2450229
0
ARC
8
DEFAULT_255_2_778
10
0.935077
20
7.5178966
40
0.512107
50
181.6578405
51
218.9908017
0
ARC
8
DEFAULT_255_2_778
10
0.8016716
20
7.4083763
40
0.3395104
50
218.7906209
51
232.2538798
0
ARC
8
DEFAULT_255_2_778
10
0.7222421
20
7.3086424
40
0.212031
50
232.7278337
51
240.8247464
0
ARC
8
DEFAULT_255_2_778
10
0.8871709
20
7.5406562
40
0.4959735
50
237.2525728
51
252.4958264
0
ARC
8
DEFAULT_255_2_778
10
0.8523328
20
7.4275674
40
0.3776436
50
252.3760589
51
263.4264015
0
ARC
8
DEFAULT_255_2_778
10
0.8285932
20
7.2196647
40
0.1683902
50
263.3525545
51
268.8047476
0
ARC
8
DEFAULT_255_2_778
10
0.8900049
20
7.1670877
40
0.1327379
50
236.0043555
51
240.7175049
0
ARC
8
DEFAULT_255_2_778
10
0.9442022
20
7.2492824
40
0.2311896
50
226.4755517
51
236.2580375
0
ARC
8
DEFAULT_255_2_778
10
0.9419119
20
7.2472191
40
0.2281163
50
222.8710234
51
226.5357564
0
ARC
8
DEFAULT_255_2_778
10
0.9102757
20
7.2210812
40
0.1871624
50
195.3612665
51
223.5958395
0
ARC
8
DEFAULT_255_2_778
10
0.8921814
20
7.2138182
40
0.167805
50
179.9098521
51
194.6065476
0
ARC
8
DEFAULT_255_2_778
10
0.916146
20
7.2133422
40
0.1917709
50
166.0081429
51
179.7789218
0
ARC
8
DEFAULT_255_2_778
10
0.9451539
20
7.2071225
40
0.2214241
50
164.1195066
51
166.2613287
0
ARC
8
DEFAULT_255_2_778
10
0.8991222
20
7.1936553
40
0.1826301
50
103.516421
51
156.0777715
0
ARC
8
DEFAULT_255_2_778
10
0.9553191
20
7.066449
40
0.3204174
50
104.7761607
51
107.9750864
0
ARC
8
DEFAULT_255_2_778
10
0.9545176
20
7.0728609
40
0.3140144
50
91.9027131
51
104.9331381
0
ARC
8
DEFAULT_255_2_778
10
0.9507899
20
7.1385894
40
0.2482033
50
90.0106021
51
91.5464489
0
ARC
8
DEFAULT_255_2_778
10
0.9545305
20
7.2377672
40
0.1490735
50
72.9765172
51
91.4555008
0
ARC
8
DEFAULT_255_2_778
10
0.9921327
20
7.3505544
40
0.0303619
50
19.3434445
51
78.5231921
0
ARC
8
DEFAULT_255_2_778
10
1.0165161
20
5.0986721
40
1.3962455
50
89.8250026
51
92.9675259
0
ARC
8
DEFAULT_255_2_778
10
0.9991281
20
5.4372748
40
1.0571967
50
92.9764567
51
99.7832692
0
ARC
8
DEFAULT_255_2_778
10
0.9608313
20
5.6465606
40
0.8444498
50
99.6355118
51
112.6499739
0
ARC
8
DEFAULT_255_2_778
10
0.9269597
20
5.737569
40
0.7474259
50
112.9403641
51
113.4504841
0
ARC
8
DEFAULT_255_2_778
10
0.8964212
20
5.8012989
40
0.6768119
50
113.2257735
51
130.2269637
0
ARC
8
DEFAULT_255_2_778
10
0.8832993
20
5.8209556
40
0.6533354
50
130.4616495
51
146.1145535
0
ARC
8
DEFAULT_255_2_778
10
0.9314328
20
5.7871022
40
0.7121691
50
146.0125867
51
150.8303725
0
ARC
8
DEFAULT_255_2_778
10
0.8776464
20
5.8207681
40
0.648803
50
151.1113013
51
169.1264992
0
ARC
8
DEFAULT_255_2_778
10
0.8398364
20
5.8287281
40
0.6101705
50
169.1907769
51
179.9517519
0
ARC
8
DEFAULT_255_2_778
10
0.7636998
20
5.8234302
40
0.5340654
50
179.376487
51
213.8155933
0
ARC
8
DEFAULT_255_2_778
10
0.9006453
20
5.9416451
40
0.7139726
50
215.5816538
51
220.7595232
0
ARC
8
DEFAULT_255_2_778
10
0.7133994
20
5.7803844
40
0.4668572
50
220.7720687
51
220.8373335
0
ARC
8
DEFAULT_255_2_778
10
0.85203
20
5.8962064
40
0.6474856
50
220.5696402
51
239.5107473
0
ARC
8
DEFAULT_255_2_778
10
0.825325
20
5.8565815
40
0.5997975
50
239.7885019
51
261.0045904
0
ARC
8
DEFAULT_255_2_778
10
0.8379072
20
5.9305937
40
0.6748673
50
260.9319812
51
270.1048725
0
ARC
8
DEFAULT_255_2_778
10
0.8382065
20
6.0281896
40
0.7724625
50
270.0694191
51
276.4450414
0
ARC
8
DEFAULT_255_2_778
10
0.8282095
20
6.1226208
40
0.8674193
50
276.4010426
51
280.0499913
0
LINE
8
DEFAULT_255_2_778
10
10.8598806
20
10.7944111
11
10.8701806
21
11.2788111
0
LINE
8
DEFAULT_255_2_778
10
10.8701806
20
11.2788111
11
10.8701806
21
12.3506111
0
LINE
8
DEFAULT_255_2_778
10
10.8701806
20
12.3506111
11
11.0762806
21
12.5051111
0
LINE
8
DEFAULT_255_2_778
10
11.0762806
20
12.5051111
11
11.0556806
21
12.5361111
0
LINE
8
DEFAULT_255_2_778
10
11.0556806
20
12.5361111
11
10.8495806
21
12.3816111
0
LINE
8
DEFAULT_255_2_778
10
10.8495806
20
12.3816111
11
10.4063806
21
12.8970111
0
LINE
8
DEFAULT_255_2_778
10
10.4063806
20
12.8970111
11
9.7261806
21
12.3919111
0
LINE
8
DEFAULT_255_2_778
10
9.7261806
20
12.3919111
11
9.7261806
21
14.1027111
0
LINE
8
DEFAULT_255_2_778
10
9.7261806
20
14.1027111
11
9.0355806
21
13.5357111
0
LINE
8
DEFAULT_255_2_778
10
9.2210806
20
13.3502111
11
9.2210806
21
10.9489111
0
LINE
8
DEFAULT_255_2_778
10
9.2210806
20
10.9489111
11
8.8604806
21
10.7221111
0
LINE
8
DEFAULT_255_2_778
10
8.8604806
20
10.7221111
11
8.8810806
21
10.6912111
0
LINE
8
DEFAULT_255_2_778
10
8.8810806
20
10.6912111
11
9.0355806
21
10.8044111
0
LINE
8
DEFAULT_255_2_778
10
9.0355806
20
10.8044111
11
9.4684806
21
10.4128111
0
LINE
8
DEFAULT_255_2_778
10
9.4684806
20
10.4128111
11
10.1486806
21
10.9385111
0
LINE
8
DEFAULT_255_2_778
10
10.1486806
20
10.9385111
11
10.1280806
21
10.9695111
0
LINE
8
DEFAULT_255_2_778
10
10.1280806
20
10.9695111
11
9.9631806
21
10.8459111
0
LINE
8
DEFAULT_255_2_778
10
9.9631806
20
10.8459111
11
9.7364806
21
11.0005111
0
LINE
8
DEFAULT_255_2_778
10
9.7364806
20
11.0005111
11
9.7364806
21
12.3403111
0
LINE
8
DEFAULT_255_2_778
10
9.7364806
20
12.3403111
11
10.0044806
21
12.5051111
0
LINE
8
DEFAULT_255_2_778
10
10.0044806
20
12.5051111
11
10.3754806
21
12.1239111
0
LINE
8
DEFAULT_255_2_778
10
10.3754806
20
12.1239111
11
10.3754806
21
10.9695111
0
LINE
8
DEFAULT_255_2_778
10
12.8489806
20
1.3863111
11
12.3026806
21
1.0360111
0
LINE
8
DEFAULT_255_2_778
10
12.3026806
20
1.0360111
11
12.3026806
21
2.1904111
0
LINE
8
DEFAULT_255_2_778
10
12.3026806
20
2.1904111
11
12.8489806
21
1.3863111
0
LINE
8
DEFAULT_255_2_778
10
12.8386806
20
2.4994111
11
12.2819806
21
2.1798111
0
LINE
8
DEFAULT_255_2_778
10
12.2819806
20
2.1798111
11
11.7769806
21
1.9118111
0
LINE
8
DEFAULT_255_2_778
10
11.7769806
20
1.9118111
11
11.7769806
21
0.5719111
0
LINE
8
DEFAULT_255_2_778
10
11.7769806
20
0.5719111
11
11.5604806
21
0.4174111
0
LINE
8
DEFAULT_255_2_778
10
11.5604806
20
0.4174111
11
11.5914806
21
0.3864111
0
LINE
8
DEFAULT_255_2_778
10
11.5914806
20
0.3864111
11
11.7872806
21
0.5409111
0
LINE
8
DEFAULT_255_2_778
10
11.7872806
20
0.5409111
11
12.3952806
21
0.0152111
0
LINE
8
DEFAULT_255_2_778
10
12.3952806
20
0.0152111
11
13.4464806
21
0.8190111
0
LINE
8
DEFAULT_255_2_778
10
13.4464806
20
0.8190111
11
13.4257806
21
0.8500111
0
LINE
8
DEFAULT_255_2_778
10
13.4257806
20
0.8500111
11
12.8384806
21
0.4068111
0
LINE
8
DEFAULT_255_2_778
10
12.8384806
20
0.4068111
11
12.3539806
21
0.8397111
0
LINE
8
DEFAULT_255_2_778
10
12.3539806
20
0.8397111
11
12.3539806
21
1.0045111
0
LINE
8
DEFAULT_255_2_778
10
12.3539806
20
1.0045111
11
13.3125806
21
1.6847111
0
LINE
8
DEFAULT_255_2_778
10
13.3125806
20
1.6847111
11
12.8386806
21
2.4994111
0
LINE
8
DEFAULT_255_2_778
10
11.0903806
20
0.0158111
11
11.7295806
21
0.5825111
0
LINE
8
DEFAULT_255_2_778
10
11.7295806
20
0.5825111
11
11.6985806
21
0.6134111
0
LINE
8
DEFAULT_255_2_778
10
11.6985806
20
0.6134111
11
11.5443806
21
0.4793111
0
LINE
8
DEFAULT_255_2_778
10
11.5443806
20
0.4793111
11
11.2763806
21
0.7267111
0
LINE
8
DEFAULT_255_2_778
10
11.2763806
20
0.7267111
11
11.2763806
21
1.9840111
0
LINE
8
DEFAULT_255_2_778
10
11.2763806
20
1.9840111
11
11.5337806
21
2.1594111
0
LINE
8
DEFAULT_255_2_778
10
11.5337806
20
2.1594111
11
11.5133806
21
2.1904111
0
LINE
8
DEFAULT_255_2_778
10
11.5133806
20
2.1904111
11
11.2763806
21
2.0149111
0
LINE
8
DEFAULT_255_2_778
10
11.2763806
20
2.0149111
11
10.8434806
21
2.4891111
0
LINE
8
DEFAULT_255_2_778
10
10.8434806
20
2.4891111
11
10.2251806
21
2.0149111
0
LINE
8
DEFAULT_255_2_778
10
10.2251806
20
2.0149111
11
9.7819806
21
2.4682111
0
LINE
8
DEFAULT_255_2_778
10
9.7819806
20
2.4682111
11
9.1845806
21
2.0149111
0
LINE
8
DEFAULT_255_2_778
10
9.1845806
20
2.0149111
11
8.7410806
21
2.4682111
0
LINE
8
DEFAULT_255_2_778
10
8.7410806
20
2.4682111
11
8.1021806
21
1.9284111
0
LINE
8
DEFAULT_255_2_778
10
8.1021806
20
1.9284111
11
8.1224806
21
1.8975111
0
LINE
8
DEFAULT_255_2_778
10
8.1224806
20
1.8975111
11
8.3285806
21
2.0626111
0
LINE
8
DEFAULT_255_2_778
10
8.3285806
20
2.0626111
11
8.6177806
21
1.7427111
0
LINE
8
DEFAULT_255_2_778
10
8.6177806
20
1.7427111
11
8.6177806
21
0.6293111
0
LINE
8
DEFAULT_255_2_778
10
8.6177806
20
0.6293111
11
8.4735806
21
0.5060111
0
LINE
8
DEFAULT_255_2_778
10
8.4735806
20
0.5060111
11
8.9373806
21
0.0049111
0
LINE
8
DEFAULT_255_2_778
10
8.9373806
20
0.0049111
11
9.4115806
21
0.4581111
0
LINE
8
DEFAULT_255_2_778
10
9.4115806
20
0.4581111
11
9.2157806
21
0.6539111
0
LINE
8
DEFAULT_255_2_778
10
9.2157806
20
0.6539111
11
9.2157806
21
1.9938111
0
LINE
8
DEFAULT_255_2_778
10
9.2157806
20
1.9938111
11
9.3289806
21
2.0864111
0
LINE
8
DEFAULT_255_2_778
10
9.3289806
20
2.0864111
11
9.6276806
21
1.7152111
0
LINE
8
DEFAULT_255_2_778
10
9.6276806
20
1.7152111
11
9.6276806
21
0.6126111
0
LINE
8
DEFAULT_255_2_778
10
9.6276806
20
0.6126111
11
9.5350806
21
0.4894111
0
LINE
8
DEFAULT_255_2_778
10
9.5350806
20
0.4894111
11
9.9679806
21
0.0255111
0
LINE
8
DEFAULT_255_2_778
10
9.9679806
20
0.0255111
11
10.4317806
21
0.4687111
0
LINE
8
DEFAULT_255_2_778
10
10.4317806
20
0.4687111
11
10.2468806
21
0.6441111
0
LINE
8
DEFAULT_255_2_778
10
10.2468806
20
0.6441111
11
10.2468806
21
1.9840111
0
LINE
8
DEFAULT_255_2_778
10
10.2468806
20
1.9840111
11
10.3809806
21
2.0869111
0
LINE
8
DEFAULT_255_2_778
10
10.3809806
20
2.0869111
11
10.7664806
21
1.7260111
0
LINE
8
DEFAULT_255_2_778
10
10.7664806
20
1.7260111
11
10.7664806
21
0.6235111
0
LINE
8
DEFAULT_255_2_778
10
10.7664806
20
0.6235111
11
10.6122806
21
0.5206111
0
LINE
8
DEFAULT_255_2_778
10
10.6122806
20
0.5206111
11
11.0903806
21
0.0158111
0
LINE
8
DEFAULT_255_2_778
10
7.2565806
20
0.5103111
11
7.0715806
21
0.3560111
0
LINE
8
DEFAULT_255_2_778
10
7.0715806
20
0.3560111
11
7.0919806
21
0.3251111
0
LINE
8
DEFAULT_255_2_778
10
7.0919806
20
0.3251111
11
7.2877806
21
0.4902111
0
LINE
8
DEFAULT_255_2_778
10
7.2877806
20
0.4902111
11
7.7102806
21
0.0160111
0
LINE
8
DEFAULT_255_2_778
10
7.7102806
20
0.0160111
11
8.3185806
21
0.5417111
0
LINE
8
DEFAULT_255_2_778
10
8.3185806
20
0.5417111
11
8.2981806
21
0.5727111
0
LINE
8
DEFAULT_255_2_778
10
8.2981806
20
0.5727111
11
8.1132806
21
0.4185111
0
LINE
8
DEFAULT_255_2_778
10
8.1132806
20
0.4185111
11
7.8658806
21
0.6968111
0
LINE
8
DEFAULT_255_2_778
10
7.8658806
20
0.6968111
11
7.8658806
21
1.9430111
0
LINE
8
DEFAULT_255_2_778
10
7.8658806
20
1.9430111
11
8.0817806
21
2.1184111
0
LINE
8
DEFAULT_255_2_778
10
8.0817806
20
2.1184111
11
8.0507806
21
2.1494111
0
LINE
8
DEFAULT_255_2_778
10
8.0507806
20
2.1494111
11
7.8446806
21
1.9739111
0
LINE
8
DEFAULT_255_2_778
10
7.8446806
20
1.9739111
11
7.4014806
21
2.4751111
0
LINE
8
DEFAULT_255_2_778
10
7.4014806
20
2.4751111
11
6.7461806
21
1.9596111
0
LINE
8
DEFAULT_255_2_778
10
6.7461806
20
1.9596111
11
6.8286806
21
1.9393111
0
LINE
8
DEFAULT_255_2_778
10
6.8286806
20
1.9393111
11
6.9935806
21
2.0734111
0
LINE
8
DEFAULT_255_2_778
10
6.9935806
20
2.0734111
11
7.2615806
21
1.7747111
0
LINE
8
DEFAULT_255_2_778
10
7.2615806
20
1.7747111
11
7.2565806
21
0.5103111
0
LINE
8
DEFAULT_255_2_778
10
7.7983806
20
3.0251111
11
7.3345806
21
2.6230111
0
LINE
8
DEFAULT_255_2_778
10
7.3345806
20
2.6230111
11
6.9633806
21
3.0145111
0
LINE
8
DEFAULT_255_2_778
10
6.9633806
20
3.0145111
11
7.4282806
21
3.4270111
0
LINE
8
DEFAULT_255_2_778
10
7.4282806
20
3.4270111
11
7.7983806
21
3.0251111
0
LINE
8
DEFAULT_255_2_778
10
4.9027806
20
1.0153111
11
4.9027806
21
2.4274111
0
LINE
8
DEFAULT_255_2_778
10
4.9027806
20
2.4274111
11
4.4699806
21
2.2420111
0
LINE
8
DEFAULT_255_2_778
10
4.6760806
20
0.9124111
11
4.9027806
21
1.0153111
0
LINE
8
DEFAULT_255_2_778
10
6.1185806
20
2.8087111
11
6.1185806
21
2.1284111
0
LINE
8
DEFAULT_255_2_778
10
6.1185806
20
2.1284111
11
6.4278806
21
1.8604111
0
LINE
8
DEFAULT_255_2_778
10
6.4278806
20
1.8604111
11
6.1185806
21
1.5924111
0
LINE
8
DEFAULT_255_2_778
10
6.1185806
20
1.5924111
11
6.1185806
21
0.6751111
0
LINE
8
DEFAULT_255_2_778
10
4.4386806
20
2.2930111
11
5.5001806
21
2.7362111
0
LINE
8
DEFAULT_255_2_778
10
5.5001806
20
2.7362111
11
5.5001806
21
1.2828111
0
LINE
8
DEFAULT_255_2_778
10
5.5001806
20
1.2828111
11
4.6551806
21
0.8809111
0
LINE
8
DEFAULT_255_2_778
10
6.0259806
20
0.6542111
11
6.0259806
21
1.6025111
0
LINE
8
DEFAULT_255_2_778
10
6.0259806
20
1.6025111
11
5.7166806
21
1.8705111
0
LINE
8
DEFAULT_255_2_778
10
5.7166806
20
1.8705111
11
6.0259806
21
2.1385111
0
LINE
8
DEFAULT_255_2_778
10
6.0259806
20
2.1385111
11
6.0259806
21
2.8187111
0
LINE
8
DEFAULT_255_2_778
10
5.4692806
20
2.9320111
11
4.5312806
21
3.1691111
0
LINE
8
DEFAULT_255_2_778
10
5.9126806
20
3.9109111
11
6.1394806
21
3.9213111
0
LINE
8
DEFAULT_255_2_778
10
14.1581806
20
2.2316111
11
14.1581806
21
1.5617111
0
LINE
8
DEFAULT_255_2_778
10
14.1581806
20
1.5617111
11
14.4468806
21
1.3659111
0
LINE
8
DEFAULT_255_2_778
10
14.7767806
20
0.3047111
11
14.7767806
21
1.1498111
0
LINE
8
DEFAULT_255_2_778
10
14.7767806
20
1.1498111
11
14.4777806
21
1.3559111
0
LINE
8
DEFAULT_255_2_778
10
14.0346806
20
1.0053111
11
13.6533806
21
1.3453111
0
LINE
8
DEFAULT_255_2_778
10
13.6533806
20
1.3453111
11
13.6533806
21
1.9843111
0
LINE
8
DEFAULT_255_2_778
10
13.6533806
20
1.9843111
11
14.1480806
21
2.2523111
0
LINE
8
DEFAULT_255_2_778
10
14.1480806
20
2.2523111
11
14.5912806
21
2.5306111
0
LINE
8
DEFAULT_255_2_778
10
14.8796806
20
1.7371111
11
15.2918806
21
1.4175111
0
LINE
8
DEFAULT_255_2_778
10
15.2918806
20
1.4175111
11
15.2918806
21
0.5828111
0
LINE
8
DEFAULT_255_2_778
10
1.3200806
20
5.6289111
11
1.9486806
21
6.2988111
0
LINE
8
DEFAULT_255_2_778
10
1.9486806
20
6.2988111
11
1.9177806
21
6.3298111
0
LINE
8
DEFAULT_255_2_778
10
1.9177806
20
6.3298111
11
1.7528806
21
6.1443111
0
LINE
8
DEFAULT_255_2_778
10
1.1242806
20
6.4846111
11
1.1242806
21
8.5356111
0
LINE
8
DEFAULT_255_2_778
10
1.1242806
20
8.5356111
11
2.7215806
21
5.6598111
0
LINE
8
DEFAULT_255_2_778
10
2.8763806
20
5.6702111
11
2.8763806
21
8.5663111
0
LINE
8
DEFAULT_255_2_778
10
2.7009806
20
9.3185111
11
2.0516806
21
8.6179111
0
LINE
8
DEFAULT_255_2_778
10
2.0516806
20
8.6179111
11
2.0825806
21
8.5869111
0
LINE
8
DEFAULT_255_2_778
10
2.0825806
20
8.5869111
11
2.2577806
21
8.7827111
0
LINE
8
DEFAULT_255_2_778
10
2.7628806
20
8.5560111
11
2.7628806
21
6.8759111
0
LINE
8
DEFAULT_255_2_778
10
2.7628806
20
6.8759111
11
1.5981806
21
9.0095111
0
LINE
8
DEFAULT_255_2_778
10
1.0104806
20
8.6488111
11
1.0104806
21
7.9686111
0
LINE
8
DEFAULT_255_2_778
10
1.0207806
20
7.3606111
11
1.0207806
21
6.4949111
0
ARC
8
DEFAULT_255_2_778
10
4.6599032
20
7.2726109
40
0.7105565
50
358.7495895
51
359.9928794
0
ARC
8
DEFAULT_255_2_778
10
4.8213975
20
7.27669
40
0.5490779
50
359.5651269
51
11.6264538
0
ARC
8
DEFAULT_255_2_778
10
4.9741072
20
7.3078836
40
0.3932151
50
11.6588056
51
30.9298456
0
ARC
8
DEFAULT_255_2_778
10
4.7568606
20
7.1403135
40
0.6664702
50
33.6887118
51
52.804323
0
LINE
8
DEFAULT_255_2_778
10
5.1597678
20
7.6712074
11
5.1583811
21
7.6723825
0
ARC
8
DEFAULT_255_2_778
10
5.5206015
20
8.1612488
40
0.6084356
50
209.7772737
51
233.4637828
0
ARC
8
DEFAULT_255_2_778
10
5.3624805
20
8.0443567
40
0.4137762
50
189.2047654
51
206.6004752
0
ARC
8
DEFAULT_255_2_778
10
5.5276171
20
8.0726988
40
0.5813222
50
179.7046601
51
189.3586453
0
ARC
8
DEFAULT_255_2_778
10
5.6897448
20
8.075421
40
0.7434422
50
177.7431691
51
179.9788598
0
ARC
8
DEFAULT_255_2_778
10
5.7593271
20
8.0728739
40
0.8130711
50
176.4792131
51
177.7569064
0
ARC
8
DEFAULT_255_2_778
10
5.4273085
20
8.0738674
40
0.4820087
50
129.3541287
51
174.1727982
0
ARC
8
DEFAULT_255_2_778
10
5.6331523
20
7.883631
40
0.7606122
50
129.0164682
51
132.2582193
0
ARC
8
DEFAULT_255_2_778
10
5.6405984
20
7.8752549
40
0.771808
50
121.3345851
51
129.0544934
0
ARC
8
DEFAULT_255_2_778
10
5.5403563
20
8.0428047
40
0.5765687
50
114.8463031
51
121.484684
0
ARC
8
DEFAULT_255_2_778
10
5.5637698
20
8.0249672
40
0.60275
50
100.41785
51
116.1535741
0
ARC
8
DEFAULT_255_2_778
10
5.5686888
20
8.0206189
40
0.6079297
50
93.6703082
51
100.7997067
0
ARC
8
DEFAULT_255_2_778
10
5.5488619
20
8.3350498
40
0.2928747
50
90.659569
51
93.7372332
0
ARC
8
DEFAULT_255_2_778
10
5.6658411
20
8.4221434
40
0.2383739
50
120.3235032
51
123.234225
0
ARC
8
DEFAULT_255_2_778
10
5.7806574
20
8.2447627
40
0.44967
50
123.0839715
51
128.1688278
0
ARC
8
DEFAULT_255_2_778
10
5.7861627
20
8.2359932
40
0.4599679
50
128.0329108
51
135.324613
0
ARC
8
DEFAULT_255_2_778
10
5.6644634
20
8.3452744
40
0.2966971
50
133.8074524
51
164.6015248
0
ARC
8
DEFAULT_255_2_778
10
5.5804032
20
8.3755185
40
0.2077361
50
166.4878126
51
179.9523048
0
ARC
8
DEFAULT_255_2_778
10
5.5845428
20
8.3760608
40
0.2118762
50
180.0999028
51
194.5695643
0
ARC
8
DEFAULT_255_2_778
10
5.6003331
20
8.3795259
40
0.2280312
50
194.4141557
51
195.4953415
0
ARC
8
DEFAULT_255_2_778
10
5.7499335
20
8.4452999
40
0.3904687
50
198.9333705
51
236.811568
0
ARC
8
DEFAULT_255_2_778
10
6.5781969
20
9.5353478
40
1.7587367
50
233.6673143
51
237.8146153
0
ARC
8
DEFAULT_255_2_778
10
-95.6137587
20
-149.4721737
40
187.2561248
50
57.2567204
51
57.2666014
0
ARC
8
DEFAULT_255_2_778
10
5.290107
20
7.3479917
40
0.7794585
50
37.6344628
51
60.9533251
0
ARC
8
DEFAULT_255_2_778
10
5.6111833
20
7.6256787
40
0.3564281
50
5.0352704
51
33.7976398
0
ARC
8
DEFAULT_255_2_778
10
5.5454116
20
7.6168927
40
0.4227276
50
1.5198826
51
5.4390944
0
ARC
8
DEFAULT_255_2_778
10
16.1380877
20
8.4015529
40
0.3774205
50
225.3167344
51
244.4977354
0
ARC
8
DEFAULT_255_2_778
10
15.9395552
20
7.9529893
40
0.1137733
50
70.0556196
51
71.534791
0
ARC
8
DEFAULT_255_2_778
10
15.912511
20
7.8777882
40
0.1936891
50
69.5327913
51
70.1234849
0
ARC
8
DEFAULT_255_2_778
10
15.8772078
20
7.7829504
40
0.2948845
50
69.1574423
51
69.5497995
0
ARC
8
DEFAULT_255_2_778
10
15.8189767
20
7.6298602
40
0.4586755
50
68.9113387
51
69.1635696
0
ARC
8
DEFAULT_255_2_778
10
16.4115241
20
9.1360131
40
1.1598596
50
248.3714333
51
250.0118531
0
ARC
8
DEFAULT_255_2_778
10
16.1952018
20
8.5506382
40
0.5358106
50
250.3535744
51
251.3767408
0
ARC
8
DEFAULT_255_2_778
10
16.1432819
20
8.3848512
40
0.3621433
50
250.7847216
51
264.4251487
0
ARC
8
DEFAULT_255_2_778
10
16.1304418
20
8.2838101
40
0.2603496
50
265.0773839
51
269.9493946
0
ARC
8
DEFAULT_255_2_778
10
16.1310371
20
8.241862
40
0.218403
50
269.7835006
51
281.9498291
0
ARC
8
DEFAULT_255_2_778
10
16.1374773
20
8.2106411
40
0.1865253
50
282.0001515
51
300.9088587
0
ARC
8
DEFAULT_255_2_778
10
15.9545723
20
8.6185895
40
0.6326849
50
296.1378571
51
300.0857996
0
ARC
8
DEFAULT_255_2_778
10
16.1094915
20
8.3455922
40
0.3188188
50
300.5898459
51
301.5287613
0
ARC
8
DEFAULT_255_2_778
10
16.1456296
20
8.2878233
40
0.2506812
50
301.3929054
51
308.1237186
0
ARC
8
DEFAULT_255_2_778
10
15.968836
20
8.4978358
40
0.5251238
50
309.1522582
51
315.6191268
0
ARC
8
DEFAULT_255_2_778
10
12.6204471
20
11.8922309
40
5.2930296
50
314.7092779
51
315.0659608
0
ARC
8
DEFAULT_255_2_778
10
15.4940767
20
8.1246341
40
0.8739008
50
0.0051001
51
1.9129032
0
ARC
8
DEFAULT_255_2_778
10
15.6260176
20
8.1180711
40
0.7419896
50
338.4931984
51
0.5127992
0
ARC
8
DEFAULT_255_2_778
10
15.7538168
20
8.0675541
40
0.6045684
50
307.4778655
51
338.5071318
0
ARC
8
DEFAULT_255_2_778
10
15.7968694
20
8.0169323
40
0.5382106
50
296.5562394
51
307.1196422
0
ARC
8
DEFAULT_255_2_778
10
15.9313913
20
7.7485353
40
0.2379893
50
292.5562
51
296.4754979
0
ARC
8
DEFAULT_255_2_778
10
15.9186282
20
7.7779106
40
0.2700137
50
292.414488
51
292.6662552
0
ARC
8
DEFAULT_255_2_778
10
15.8853209
20
7.8644275
40
0.362701
50
282.9457843
51
292.0672181
0
ARC
8
DEFAULT_255_2_778
10
15.8641032
20
7.9519242
40
0.4527284
50
272.5476401
51
283.0820377
0
ARC
8
DEFAULT_255_2_778
10
15.8625952
20
7.9718638
40
0.4727156
50
269.99895
51
272.6228049
0
ARC
8
DEFAULT_255_2_778
10
15.8630488
20
7.9836132
40
0.4844651
50
254.1599398
51
269.9453317
0
ARC
8
DEFAULT_255_2_778
10
15.8774503
20
8.0308307
40
0.5338215
50
238.5138108
51
254.0562049
0
ARC
8
DEFAULT_255_2_778
10
15.931225
20
8.1206579
40
0.6385101
50
229.1749819
51
238.6088261
0
ARC
8
DEFAULT_255_2_778
10
16.0008021
20
8.203136
40
0.7464092
50
224.3949306
51
229.2725088
0
ARC
8
DEFAULT_255_2_778
10
16.0584254
20
8.2601827
40
0.8274929
50
221.6169765
51
224.4259942
0
ARC
8
DEFAULT_255_2_778
10
18.3220445
20
8.5909238
40
0.5905583
50
224.8535114
51
255.2202245
0
ARC
8
DEFAULT_255_2_778
10
18.2546416
20
8.3255855
40
0.3168142
50
254.7651706
51
270.0941546
0
ARC
8
DEFAULT_255_2_778
10
18.2459045
20
8.4289755
40
0.4203058
50
271.2621042
51
297.9138607
0
ARC
8
DEFAULT_255_2_778
10
18.1667474
20
8.6023092
40
0.610632
50
296.8631129
51
303.2401061
0
ARC
8
DEFAULT_255_2_778
10
18.1249795
20
8.6668458
40
0.6875043
50
303.2032883
51
309.452618
0
ARC
8
DEFAULT_255_2_778
10
18.1682777
20
8.6156058
40
0.6204266
50
309.3720209
51
313.2274074
0
ARC
8
DEFAULT_255_2_778
10
18.3591768
20
8.4133994
40
0.3423454
50
313.1258777
51
315.6807921
0
ARC
8
DEFAULT_255_2_778
10
18.5590814
20
8.2176453
40
0.0625586
50
316.0376206
51
316.2752004
0
ARC
8
DEFAULT_255_2_778
10
17.3837754
20
8.3553468
40
1.2338545
50
346.2398222
51
351.567304
0
ARC
8
DEFAULT_255_2_778
10
17.7984754
20
8.2174887
40
0.7990441
50
310.9252452
51
348.7690955
0
ARC
8
DEFAULT_255_2_778
10
18.0423891
20
7.9762942
40
0.4577802
50
279.7343202
51
307.6326711
0
ARC
8
DEFAULT_255_2_778
10
18.0446561
20
8.0177241
40
0.4983158
50
269.925721
51
278.6719341
0
ARC
8
DEFAULT_255_2_778
10
18.0515868
20
8.1565454
40
0.6371817
50
250.3189106
51
269.318681
0
ARC
8
DEFAULT_255_2_778
10
18.1175152
20
8.3623344
40
0.853183
50
243.3850328
51
250.8044214
0
ARC
8
DEFAULT_255_2_778
10
18.1487448
20
8.4274651
40
0.925404
50
238.4021257
51
243.4628965
0
ARC
8
DEFAULT_255_2_778
10
18.0945964
20
8.340646
40
0.8230851
50
235.1307099
51
238.4460847
0
ARC
8
DEFAULT_255_2_778
10
17.9191169
20
8.0899293
40
0.5170603
50
232.7306272
51
235.2013259
0
ARC
8
DEFAULT_255_2_778
10
17.6959699
20
7.7961769
40
0.1481637
50
231.8227407
51
232.6123758
0
ARC
8
DEFAULT_255_2_778
10
16.1187828
20
8.5421675
40
0.4651582
50
359.1546907
51
23.181592
0
ARC
8
DEFAULT_255_2_778
10
16.2810216
20
8.6157632
40
0.2870728
50
22.4253394
51
58.9436128
0
ARC
8
DEFAULT_255_2_778
10
16.3363426
20
8.6996612
40
0.1867069
50
60.2049305
51
85.0849281
0
ARC
8
DEFAULT_255_2_778
10
16.3396726
20
8.7215334
40
0.1646361
50
85.5873847
51
89.9924531
0
ARC
8
DEFAULT_255_2_778
10
16.3396718
20
8.7249352
40
0.1612344
50
89.9920212
51
94.7962827
0
ARC
8
DEFAULT_255_2_778
10
11.2059253
20
7.7907692
40
0.1939835
50
313.2517232
51
317.2146177
0
ARC
8
DEFAULT_255_2_778
10
11.0912564
20
7.910815
40
0.3599928
50
306.3494206
51
313.4527712
0
ARC
8
DEFAULT_255_2_778
10
11.0796559
20
7.9254179
40
0.3786307
50
302.8701803
51
306.4535209
0
ARC
8
DEFAULT_255_2_778
10
11.1048856
20
7.882262
40
0.3286984
50
284.1679948
51
303.2592153
0
ARC
8
DEFAULT_255_2_778
10
11.1211644
20
7.8251477
40
0.2693429
50
270.0906308
51
283.7842424
0
ARC
8
DEFAULT_255_2_778
10
11.1196093
20
7.8206413
40
0.2648437
50
249.3296538
51
270.4286005
0
ARC
8
DEFAULT_255_2_778
10
11.1132808
20
7.8006279
40
0.2438874
50
232.3974465
51
249.0610329
0
ARC
8
DEFAULT_255_2_778
10
11.1075918
20
7.7939708
40
0.2351423
50
219.9822412
51
232.5059173
0
ARC
8
DEFAULT_255_2_778
10
11.0442609
20
7.7418645
40
0.1531365
50
212.9622913
51
220.2692596
0
ARC
8
DEFAULT_255_2_778
10
10.9405389
20
7.6741777
40
0.0292853
50
211.2045345
51
212.2630001
0
ARC
8
DEFAULT_255_2_778
10
11.0208291
20
7.1700963
40
0.1245246
50
141.538374
51
147.7713796
0
ARC
8
DEFAULT_255_2_778
10
11.1018532
20
7.1072517
40
0.2270601
50
130.3738804
51
141.8379755
0
ARC
8
DEFAULT_255_2_778
10
11.1129113
20
7.09535
40
0.2432915
50
127.6008167
51
130.5422212
0
ARC
8
DEFAULT_255_2_778
10
11.1134875
20
7.0945583
40
0.2442702
50
107.2298804
51
127.5946101
0
ARC
8
DEFAULT_255_2_778
10
11.1201182
20
7.0703861
40
0.2693231
50
89.6867926
51
107.0539776
0
ARC
8
DEFAULT_255_2_778
10
11.1221701
20
7.0172156
40
0.32249
50
70.3395829
51
90.1029755
0
ARC
8
DEFAULT_255_2_778
10
11.1202803
20
7.0125859
40
0.3274855
50
58.9861842
51
70.3007504
0
ARC
8
DEFAULT_255_2_778
10
11.1282098
20
7.024529
40
0.3131648
50
49.3549373
51
59.1036971
0
ARC
8
DEFAULT_255_2_778
10
11.1976796
20
7.104603
40
0.207158
50
43.7720689
51
49.5078728
0
ARC
8
DEFAULT_255_2_778
10
11.3045339
20
7.207447
40
0.0588532
50
41.9707106
51
43.4386407
0
ARC
8
DEFAULT_255_2_778
10
11.0611833
20
7.8437623
40
0.1907078
50
220.1855847
51
224.3496988
0
ARC
8
DEFAULT_255_2_778
10
11.1780037
20
7.9560992
40
0.3527746
50
224.1335276
51
231.3630794
0
ARC
8
DEFAULT_255_2_778
10
11.1913357
20
7.9716449
40
0.3732427
50
231.254486
51
235.4975186
0
ARC
8
DEFAULT_255_2_778
10
11.1677613
20
7.9339441
40
0.3288254
50
235.1616424
51
254.2530329
0
ARC
8
DEFAULT_255_2_778
10
11.1527608
20
7.8865058
40
0.2791008
50
254.5739544
51
269.9445005
0
ARC
8
DEFAULT_255_2_778
10
11.1558256
20
7.8208797
40
0.2135007
50
269.1049427
51
291.4655491
0
ARC
8
DEFAULT_255_2_778
10
11.1722593
20
7.775145
40
0.1649306
50
291.9666406
51
317.6579108
0
ARC
8
DEFAULT_255_2_778
10
11.1715271
20
7.7756947
40
0.165842
50
317.6879076
51
334.7498085
0
ARC
8
DEFAULT_255_2_778
10
11.2183983
20
7.7544513
40
0.11439
50
334.3590136
51
342.6918613
0
ARC
8
DEFAULT_255_2_778
10
11.3091201
20
7.7258617
40
0.0192729
50
343.5964788
51
344.4810071
0
ARC
8
DEFAULT_255_2_778
10
10.9553132
20
5.8899574
40
0.1533145
50
254.9450381
51
257.1709712
0
ARC
8
DEFAULT_255_2_778
10
10.9973741
20
6.0718815
40
0.3400371
50
257.0671727
51
260.3361403
0
ARC
8
DEFAULT_255_2_778
10
11.009752
20
6.1401701
40
0.4094351
50
260.2327515
51
260.7547116
0
ARC
8
DEFAULT_255_2_778
10
11.015925
20
6.1805369
40
0.4502695
50
260.8046609
51
265.5295199
0
ARC
8
DEFAULT_255_2_778
10
11.0172852
20
6.194015
40
0.4638128
50
265.4917848
51
269.9886855
0
ARC
8
DEFAULT_255_2_778
10
11.0184931
20
6.1501193
40
0.419919
50
269.8226881
51
282.7068909
0
ARC
8
DEFAULT_255_2_778
10
11.0306832
20
6.0918704
40
0.3604167
50
282.8533267
51
291.7726469
0
ARC
8
DEFAULT_255_2_778
10
11.042442
20
6.0626995
40
0.3289651
50
291.7552563
51
307.013136
0
ARC
8
DEFAULT_255_2_778
10
11.0442389
20
6.0598805
40
0.3256325
50
307.059288
51
308.1502403
0
ARC
8
DEFAULT_255_2_778
10
11.0622059
20
6.0351922
40
0.2951213
50
308.367966
51
320.8565602
0
ARC
8
DEFAULT_255_2_778
10
11.0967962
20
6.0061208
40
0.2499436
50
321.0195963
51
330.1566048
0
ARC
8
DEFAULT_255_2_778
10
11.1111731
20
5.997798
40
0.2333314
50
330.1724856
51
351.1719425
0
ARC
8
DEFAULT_255_2_778
10
11.0959796
20
6.0002395
40
0.2487197
50
351.1533289
51
0.0507167
0
ARC
8
DEFAULT_255_2_778
10
11.077203
20
6.0001678
40
0.2674963
50
0.0625144
51
10.6011867
0
ARC
8
DEFAULT_255_2_778
10
11.0802666
20
6.000946
40
0.2643418
50
10.5575497
51
14.3640069
0
ARC
8
DEFAULT_255_2_778
10
11.1189021
20
6.0113236
40
0.22434
50
14.2443651
51
19.5462479
0
ARC
8
DEFAULT_255_2_778
10
11.227875
20
6.0503384
40
0.1085943
50
19.3839338
51
22.7912405
0
ARC
8
DEFAULT_255_2_778
10
11.2183829
20
7.1216323
40
0.1176214
50
21.2721077
51
27.7791843
0
ARC
8
DEFAULT_255_2_778
10
11.1502364
20
7.087153
40
0.1939877
50
27.4084784
51
41.1286558
0
ARC
8
DEFAULT_255_2_778
10
11.1518459
20
7.088725
40
0.1917414
50
41.0911813
51
43.6418816
0
ARC
8
DEFAULT_255_2_778
10
11.1606417
20
7.0980953
40
0.1789107
50
43.4143195
51
71.4719891
0
ARC
8
DEFAULT_255_2_778
10
11.1544077
20
7.0753319
40
0.2024795
50
71.8462408
51
90.4576227
0
ARC
8
DEFAULT_255_2_778
10
11.1544007
20
6.9884908
40
0.2893187
50
90.3188796
51
115.7114182
0
ARC
8
DEFAULT_255_2_778
10
11.1783877
20
6.9337774
40
0.3490279
50
115.3626234
51
124.6057566
0
ARC
8
DEFAULT_255_2_778
10
11.1909255
20
6.9146262
40
0.3719119
50
124.5199698
51
133.5729626
0
ARC
8
DEFAULT_255_2_778
10
11.1216972
20
6.9860719
40
0.2724336
50
133.3816184
51
138.7138483
0
ARC
8
DEFAULT_255_2_778
10
10.9785645
20
7.1122405
40
0.0816325
50
138.9695586
51
140.372634
0
ARC
8
DEFAULT_255_2_778
10
9.2895997
20
8.5964402
40
0.492193
50
358.831744
51
20.4099846
0
ARC
8
DEFAULT_255_2_778
10
9.5505866
20
8.7069112
40
0.2094401
50
16.9827561
51
88.7951562
0
ARC
8
DEFAULT_255_2_778
10
9.5535927
20
8.7122997
40
0.2040101
50
89.6074436
51
129.7746011
0
ARC
8
DEFAULT_255_2_778
10
9.6264608
20
8.6289796
40
0.3146777
50
130.2659189
51
151.9085572
0
ARC
8
DEFAULT_255_2_778
10
9.7890841
20
8.535715
40
0.5020924
50
151.2579001
51
161.9046964
0
ARC
8
DEFAULT_255_2_778
10
9.8079844
20
8.5272633
40
0.5226874
50
161.6675632
51
166.0841641
0
ARC
8
DEFAULT_255_2_778
10
9.5922566
20
8.5798594
40
0.3006431
50
165.9261102
51
168.8360219
0
ARC
8
DEFAULT_255_2_778
10
9.3930507
20
8.6554414
40
0.0973347
50
188.2466885
51
190.3195142
0
ARC
8
DEFAULT_255_2_778
10
9.5230196
20
8.6747475
40
0.2287294
50
185.8288535
51
188.3630025
0
ARC
8
DEFAULT_255_2_778
10
9.6290443
20
8.6856511
40
0.3353134
50
182.4764951
51
185.8424628
0
ARC
8
DEFAULT_255_2_778
10
9.6939275
20
8.6888056
40
0.4002726
50
179.977456
51
182.526311
0
ARC
8
DEFAULT_255_2_778
10
9.7570891
20
8.6878686
40
0.4634354
50
169.4830348
51
179.864684
0
ARC
8
DEFAULT_255_2_778
10
9.789459
20
8.6822409
40
0.4962888
50
155.2004792
51
169.5263531
0
ARC
8
DEFAULT_255_2_778
10
9.8234036
20
8.6660145
40
0.5339096
50
141.4374284
51
155.1476657
0
ARC
8
DEFAULT_255_2_778
10
9.8713771
20
8.6292589
40
0.5943348
50
135.9868415
51
141.5497378
0
ARC
8
DEFAULT_255_2_778
10
9.8949867
20
8.6070054
40
0.6267767
50
134.9997772
51
136.0234242
0
ARC
8
DEFAULT_255_2_778
10
10.045249
20
8.5120395
40
0.8011337
50
133.3875303
51
137.797337
0
ARC
8
DEFAULT_255_2_778
10
10.0070547
20
8.5516743
40
0.7460936
50
132.1724526
51
133.3467986
0
ARC
8
DEFAULT_255_2_778
10
9.9418725
20
8.6291555
40
0.6449199
50
115.9996042
51
132.5020409
0
ARC
8
DEFAULT_255_2_778
10
9.9021453
20
8.7050637
40
0.5592839
50
95.0167947
51
115.7505418
0
ARC
8
DEFAULT_255_2_778
10
9.9053373
20
8.6734318
40
0.5910741
50
89.976933
51
95.0568816
0
ARC
8
DEFAULT_255_2_778
10
9.9045758
20
8.6181777
40
0.6463288
50
81.5558359
51
89.9113988
0
ARC
8
DEFAULT_255_2_778
10
9.8926989
20
8.533336
40
0.731995
50
76.8048329
51
81.6114486
0
ARC
8
DEFAULT_255_2_778
10
9.9256816
20
8.6188029
40
0.6413796
50
57.6924673
51
77.9307165
0
ARC
8
DEFAULT_255_2_778
10
9.9990908
20
8.7386433
40
0.5008611
50
22.5450172
51
57.4630555
0
ARC
8
DEFAULT_255_2_778
10
9.9643524
20
8.7246472
40
0.5383113
50
7.3190973
51
22.5032334
0
ARC
8
DEFAULT_255_2_778
10
9.9377775
20
8.7203882
40
0.565213
50
359.9915718
51
7.4041191
0
ARC
8
DEFAULT_255_2_778
10
10.8777332
20
7.3678171
40
1.5885461
50
256.3551456
51
262.405555
0
ARC
8
DEFAULT_255_2_778
10
10.3856841
20
4.5142317
40
1.3097164
50
73.1639784
51
77.5612963
0
ARC
8
DEFAULT_255_2_778
10
10.5547811
20
5.068018
40
0.7306919
50
69.642313
51
73.2779909
0
ARC
8
DEFAULT_255_2_778
10
10.7451763
20
5.5834277
40
0.1812422
50
68.3678943
51
69.3901562
0
ARC
8
DEFAULT_255_2_778
10
11.4972116
20
6.0947568
40
0.5421364
50
314.7487635
51
3.0291052
0
ARC
8
DEFAULT_255_2_778
10
11.609403
20
6.0330194
40
0.4208686
50
300.3706024
51
309.8124273
0
ARC
8
DEFAULT_255_2_778
10
11.4961985
20
6.2492284
40
0.6647453
50
275.9659648
51
299.3669661
0
ARC
8
DEFAULT_255_2_778
10
11.4699446
20
6.4436724
40
0.8608851
50
269.8881023
51
276.3587458
0
ARC
8
DEFAULT_255_2_778
10
11.4917193
20
7.0132446
40
1.430648
50
257.131853
51
269.0605724
0
ARC
8
DEFAULT_255_2_778
10
11.8607518
20
8.8242594
40
3.2786556
50
255.7914416
51
257.8931647
0
ARC
8
DEFAULT_255_2_778
10
13.2888584
20
14.4543555
40
9.0870519
50
254.9379886
51
255.7756817
0
ARC
8
DEFAULT_255_2_778
10
9.7567476
20
1.5040937
40
4.3364132
50
74.3373976
51
78.3573925
0
ARC
8
DEFAULT_255_2_778
10
10.3119733
20
4.0916897
40
1.690146
50
79.0899561
51
81.3938087
0
ARC
8
DEFAULT_255_2_778
10
8.4142658
20
-10.325988
40
16.2318961
50
82.38628
51
82.5796123
0
ARC
8
DEFAULT_255_2_778
10
9.9106038
20
1.2528694
40
4.5567735
50
82.4339455
51
84.524632
0
ARC
8
DEFAULT_255_2_778
10
10.1097488
20
3.2894497
40
2.5104865
50
84.6138748
51
87.153429
0
ARC
8
DEFAULT_255_2_778
10
10.1456745
20
3.9984103
40
1.8006168
50
87.1748512
51
89.9318996
0
ARC
8
DEFAULT_255_2_778
10
10.1298768
20
4.8276058
40
0.9715857
50
88.9421202
51
103.9333864
0
ARC
8
DEFAULT_255_2_778
10
9.9746556
20
5.4146068
40
0.364599
50
102.4705126
51
142.0605332
0
ARC
8
DEFAULT_255_2_778
10
9.9222356
20
5.4705731
40
0.2890931
50
144.4214739
51
156.1198621
0
ARC
8
DEFAULT_255_2_778
10
9.9035521
20
5.4769198
40
0.2694454
50
155.7455859
51
179.5571235
0
ARC
8
DEFAULT_255_2_778
10
9.8651369
20
5.478646
40
0.2310226
50
179.9115692
51
192.7130793
0
ARC
8
DEFAULT_255_2_778
10
9.8674074
20
5.480882
40
0.2337356
50
193.125291
51
223.7957595
0
ARC
8
DEFAULT_255_2_778
10
9.9352752
20
5.5432691
40
0.3259066
50
223.4548911
51
237.6301576
0
ARC
8
DEFAULT_255_2_778
10
9.866221
20
5.4404477
40
0.2021189
50
238.5585962
51
253.4003578
0
ARC
8
DEFAULT_255_2_778
10
9.913042
20
5.5919873
40
0.3607223
50
253.1497971
51
262.1679347
0
ARC
8
DEFAULT_255_2_778
10
9.9480938
20
5.8344107
40
0.6056631
50
262.0080803
51
267.645313
0
ARC
8
DEFAULT_255_2_778
10
9.9615807
20
6.1052189
40
0.8767999
50
267.4917949
51
270.055103
0
ARC
8
DEFAULT_255_2_778
10
9.9552012
20
6.6344623
40
1.4060613
50
270.2943245
51
275.1607188
0
ARC
8
DEFAULT_255_2_778
10
9.8364689
20
7.9800655
40
2.7568911
50
275.1028237
51
278.2261903
0
ARC
8
DEFAULT_255_2_778
10
9.3674817
20
11.2309394
40
6.0414199
50
278.2169182
51
280.1101491
0
ARC
8
DEFAULT_255_2_778
10
5.736503
20
31.6125484
40
26.7439315
50
280.1032653
51
280.6219982
0
ARC
8
DEFAULT_255_2_778
10
15.6510574
20
-21.5155183
40
27.3013471
50
100.2930259
51
100.5204997
0
ARC
8
DEFAULT_255_2_778
10
12.2021615
20
-2.3825882
40
7.8601109
50
98.2616625
51
100.4776441
0
ARC
8
DEFAULT_255_2_778
10
11.5692635
20
1.9369489
40
3.4944622
50
95.1534296
51
98.1692206
0
ARC
8
DEFAULT_255_2_778
10
11.4372531
20
3.4074603
40
2.0180374
50
90.9647182
51
95.1707238
0
ARC
8
DEFAULT_255_2_778
10
11.4234081
20
3.9330933
40
1.4922541
50
90.0059557
51
90.7730049
0
ARC
8
DEFAULT_255_2_778
10
11.4265343
20
4.2639678
40
1.1613841
50
85.3407857
51
90.1618816
0
ARC
8
DEFAULT_255_2_778
10
11.4601371
20
4.66872
40
0.7552401
50
78.8892343
51
85.3873759
0
ARC
8
DEFAULT_255_2_778
10
11.5136349
20
4.9370075
40
0.4816725
50
69.6280403
51
78.98372
0
ARC
8
DEFAULT_255_2_778
10
11.5528562
20
5.0489057
40
0.3631263
50
66.3385262
51
69.2832583
0
ARC
8
DEFAULT_255_2_778
10
11.3443089
20
4.5989939
40
0.8589757
50
55.5641514
51
65.6413855
0
ARC
8
DEFAULT_255_2_778
10
11.4952957
20
4.8175204
40
0.5933641
50
41.4909199
51
55.6563457
0
ARC
8
DEFAULT_255_2_778
10
11.6008661
20
4.9111575
40
0.4522508
50
20.5297029
51
41.4656638
0
ARC
8
DEFAULT_255_2_778
10
11.6166819
20
4.9186826
40
0.434803
50
17.271324
51
20.3319433
0
ARC
8
DEFAULT_255_2_778
10
11.5851872
20
4.9107779
40
0.467228
50
0.1959411
51
17.0503022
0
ARC
8
DEFAULT_255_2_778
10
11.5234563
20
4.9080851
40
0.5289736
50
0.0029552
51
0.4647434
0
ARC
8
DEFAULT_255_2_778
10
11.4474692
20
4.9116722
40
0.6049712
50
346.5722996
51
359.6628518
0
ARC
8
DEFAULT_255_2_778
10
11.3287825
20
4.9361887
40
0.7261161
50
344.5296793
51
346.865436
0
ARC
8
DEFAULT_255_2_778
10
11.5715972
20
4.8784476
40
0.4767843
50
318.1478661
51
343.4337522
0
ARC
8
DEFAULT_255_2_778
10
11.4406381
20
5.0010964
40
0.6561763
50
298.6437123
51
317.8003381
0
ARC
8
DEFAULT_255_2_778
10
11.3014513
20
5.2409353
40
0.9334118
50
289.6848006
51
299.0846434
0
ARC
8
DEFAULT_255_2_778
10
11.2632634
20
5.3395889
40
1.0391671
50
284.7807456
51
289.8350594
0
ARC
8
DEFAULT_255_2_778
10
11.3019175
20
5.1897961
40
0.88447
50
281.5921195
51
284.8351778
0
ARC
8
DEFAULT_255_2_778
10
11.3849029
20
4.7817582
40
0.4680802
50
279.4668369
51
281.6777646
0
ARC
8
DEFAULT_255_2_778
10
11.4552507
20
4.3608703
40
0.041354
50
278.8184616
51
279.240316
0
ARC
8
DEFAULT_255_2_778
10
11.3562439
20
4.508001
40
0.2155003
50
299.2648078
51
302.5036248
0
ARC
8
DEFAULT_255_2_778
10
11.2525952
20
4.6728266
40
0.4102048
50
302.3420703
51
307.9141109
0
ARC
8
DEFAULT_255_2_778
10
11.2412992
20
4.6890186
40
0.4299218
50
307.7757835
51
315.7673587
0
ARC
8
DEFAULT_255_2_778
10
11.3216766
20
4.6163737
40
0.3216803
50
315.0516666
51
338.7682893
0
ARC
8
DEFAULT_255_2_778
10
11.3901106
20
4.5861999
40
0.2469868
50
339.5438267
51
359.9682975
0
ARC
8
DEFAULT_255_2_778
10
11.3757883
20
4.5855493
40
0.2613096
50
0.1126793
51
12.1959295
0
ARC
8
DEFAULT_255_2_778
10
11.3463469
20
4.5798135
40
0.2912989
50
12.075294
51
15.9792677
0
ARC
8
DEFAULT_255_2_778
10
11.4852499
20
4.6279158
40
0.1447424
50
12.8088512
51
85.6833629
0
ARC
8
DEFAULT_255_2_778
10
11.4087836
20
4.2385243
40
0.5408259
50
80.7041452
51
90.8174558
0
ARC
8
DEFAULT_255_2_778
10
11.403624
20
3.5943894
40
1.1849083
50
90.1236114
51
92.9256082
0
ARC
8
DEFAULT_255_2_778
10
11.4423528
20
2.8185096
40
1.9617538
50
92.8986773
51
94.8617576
0
ARC
8
DEFAULT_255_2_778
10
11.7195133
20
1.1684301
40
3.6319452
50
97.0127155
51
100.961672
0
ARC
8
DEFAULT_255_2_778
10
13.4716695
20
-7.9393483
40
12.9067306
50
100.9098328
51
102.0694851
0
ARC
8
DEFAULT_255_2_778
10
2.7421143
20
42.8804245
40
39.0334137
50
281.7748903
51
281.8728993
0
ARC
8
DEFAULT_255_2_778
10
9.5563635
20
9.9309668
40
5.3870115
50
277.8995758
51
282.3390508
0
ARC
8
DEFAULT_255_2_778
10
10.0326871
20
6.5656455
40
1.9881826
50
270.4108002
51
277.6320507
0
ARC
8
DEFAULT_255_2_778
10
10.0396548
20
5.7225403
40
1.1450495
50
260.6626903
51
270.3646305
0
ARC
8
DEFAULT_255_2_778
10
9.9786592
20
5.3491625
40
0.7667225
50
247.7943777
51
260.6334171
0
ARC
8
DEFAULT_255_2_778
10
9.9484473
20
5.1915071
40
0.6101613
50
200.1040767
51
244.8246172
0
ARC
8
DEFAULT_255_2_778
10
10.0174728
20
5.2339822
40
0.6897703
50
180.1342087
51
201.4466265
0
ARC
8
DEFAULT_255_2_778
10
9.9869653
20
5.2323957
40
0.6592608
50
177.7998434
51
180.002538
0
ARC
8
DEFAULT_255_2_778
10
9.7709869
20
5.2457721
40
0.4429572
50
152.7211717
51
178.456296
0
ARC
8
DEFAULT_255_2_778
10
9.9092949
20
5.1638291
40
0.6035136
50
127.6561338
51
151.8248971
0
ARC
8
DEFAULT_255_2_778
10
10.047142
20
5.0080336
40
0.8111893
50
126.9077696
51
128.6417561
0
ARC
8
DEFAULT_255_2_778
10
10.1135165
20
4.915894
40
0.924727
50
118.6545338
51
126.7677873
0
ARC
8
DEFAULT_255_2_778
10
10.1447694
20
4.8627069
40
0.9863884
50
114.2769852
51
118.7660981
0
ARC
8
DEFAULT_255_2_778
10
10.0748828
20
5.0191294
40
0.8150651
50
111.3819465
51
114.3196102
0
ARC
8
DEFAULT_255_2_778
10
9.9279761
20
5.3963321
40
0.4102658
50
109.3660911
51
111.4834228
0
ARC
8
DEFAULT_255_2_778
10
9.7600374
20
7.1630207
40
0.0340569
50
20.244161
51
77.9994249
0
ARC
8
DEFAULT_255_2_778
10
9.712056
20
7.0252501
40
0.1797258
50
72.1593919
51
89.639985
0
ARC
8
DEFAULT_255_2_778
10
9.7039497
20
6.9017249
40
0.3033881
50
88.2555539
51
90.0127453
0
ARC
8
DEFAULT_255_2_778
10
9.7056305
20
6.829687
40
0.3754301
50
90.2668128
51
101.5987999
0
ARC
8
DEFAULT_255_2_778
10
9.6705627
20
6.9461208
40
0.2545585
50
99.1352785
51
132.2541044
0
ARC
8
DEFAULT_255_2_778
10
9.5869373
20
7.0496817
40
0.1219205
50
135.8936312
51
148.7641348
0
ARC
8
DEFAULT_255_2_778
10
9.6475966
20
7.0230629
40
0.1877915
50
151.4180966
51
165.3974544
0
ARC
8
DEFAULT_255_2_778
10
9.5991914
20
7.0361586
40
0.1376491
50
165.5927072
51
179.776256
0
ARC
8
DEFAULT_255_2_778
10
9.6026489
20
7.0412622
40
0.1411796
50
181.8534131
51
230.4514516
0
ARC
8
DEFAULT_255_2_778
10
9.6649929
20
7.0998895
40
0.2263377
50
227.7310025
51
231.3453814
0
ARC
8
DEFAULT_255_2_778
10
9.6923343
20
7.135606
40
0.2713095
50
231.5476622
51
242.3176905
0
ARC
8
DEFAULT_255_2_778
10
9.6736849
20
7.0975484
40
0.2289469
50
242.0259611
51
247.0184951
0
ARC
8
DEFAULT_255_2_778
10
9.6122314
20
6.9533939
40
0.0722409
50
247.2510079
51
248.4449481
0
ARC
8
DEFAULT_255_2_778
10
9.5757599
20
6.9605934
40
0.0750482
50
275.1869484
51
277.6038252
0
ARC
8
DEFAULT_255_2_778
10
9.5689174
20
7.0291876
40
0.1439815
50
274.3863965
51
275.4309447
0
ARC
8
DEFAULT_255_2_778
10
9.5649001
20
7.0859615
40
0.2008967
50
271.0751926
51
274.290379
0
ARC
8
DEFAULT_255_2_778
10
9.5637536
20
7.1287163
40
0.2436658
50
269.9945724
51
271.1560999
0
ARC
8
DEFAULT_255_2_778
10
9.5651115
20
7.1856472
40
0.3005998
50
257.9522796
51
269.7367751
0
ARC
8
DEFAULT_255_2_778
10
9.5710565
20
7.2161502
40
0.3316724
50
240.0943074
51
258.0477571
0
ARC
8
DEFAULT_255_2_778
10
9.5816075
20
7.2352294
40
0.3534716
50
232.0737421
51
240.1536775
0
ARC
8
DEFAULT_255_2_778
10
9.6010456
20
7.259928
40
0.3849016
50
223.8471441
51
232.0511303
0
ARC
8
DEFAULT_255_2_778
10
9.6193949
20
7.2783227
40
0.4108779
50
222.752546
51
223.9245109
0
ARC
8
DEFAULT_255_2_778
10
9.4712606
20
7.1502797
40
0.2152834
50
216.3323797
51
224.4927256
0
ARC
8
DEFAULT_255_2_778
10
9.5707429
20
7.2255814
40
0.3400439
50
211.6220161
51
216.622607
0
ARC
8
DEFAULT_255_2_778
10
9.6632392
20
7.281171
40
0.4479546
50
199.264416
51
211.4735094
0
ARC
8
DEFAULT_255_2_778
10
9.6577212
20
7.2818572
40
0.4429787
50
180.2548264
51
199.583673
0
ARC
8
DEFAULT_255_2_778
10
9.6136385
20
7.2803856
40
0.398892
50
161.4214708
51
180.0716177
0
ARC
8
DEFAULT_255_2_778
10
9.6349652
20
7.2725206
40
0.4216138
50
149.4329599
51
161.3317336
0
ARC
8
DEFAULT_255_2_778
10
9.6766589
20
7.2486674
40
0.4696445
50
143.9415308
51
149.5140526
0
ARC
8
DEFAULT_255_2_778
10
9.7173488
20
7.2328318
40
0.5119813
50
119.7663592
51
145.1892814
0
ARC
8
DEFAULT_255_2_778
10
9.8269652
20
6.9369201
40
0.8248953
50
92.5589365
51
116.1690903
0
ARC
8
DEFAULT_255_2_778
10
10.2049397
20
3.7298594
40
4.0524188
50
95.7051721
51
95.8750587
0
LINE
8
DEFAULT_255_2_778
10
4.4426905
20
7.0407051
11
3.9066905
21
6.6904051
0
LINE
8
DEFAULT_255_2_778
10
3.9066905
20
6.6904051
11
3.9066905
21
7.8448051
0
LINE
8
DEFAULT_255_2_778
10
3.9066905
20
7.8448051
11
4.4426905
21
7.0407051
0
LINE
8
DEFAULT_255_2_778
10
4.4220905
20
8.1538051
11
3.8655905
21
7.8342051
0
LINE
8
DEFAULT_255_2_778
10
3.8655905
20
7.8342051
11
3.3811905
21
7.5662051
0
LINE
8
DEFAULT_255_2_778
10
3.3811905
20
7.5662051
11
3.3811905
21
6.2263051
0
LINE
8
DEFAULT_255_2_778
10
3.3811905
20
6.2263051
11
3.1853905
21
6.0718051
0
LINE
8
DEFAULT_255_2_778
10
3.1853905
20
6.0718051
11
3.2163905
21
6.0408051
0
LINE
8
DEFAULT_255_2_778
10
3.2163905
20
6.0408051
11
3.4121905
21
6.1954051
0
LINE
8
DEFAULT_255_2_778
10
3.4121905
20
6.1954051
11
3.9790905
21
5.6696051
0
LINE
8
DEFAULT_255_2_778
10
3.9790905
20
5.6696051
11
5.0302905
21
6.4734051
0
LINE
8
DEFAULT_255_2_778
10
5.0302905
20
6.4734051
11
5.0096905
21
6.5044051
0
LINE
8
DEFAULT_255_2_778
10
5.0096905
20
6.5044051
11
4.4222905
21
6.0612051
0
LINE
8
DEFAULT_255_2_778
10
4.4222905
20
6.0612051
11
3.9481905
21
6.4941051
0
LINE
8
DEFAULT_255_2_778
10
3.9481905
20
6.4941051
11
3.9481905
21
6.6589051
0
LINE
8
DEFAULT_255_2_778
10
3.9481905
20
6.6589051
11
4.9067905
21
7.3391051
0
LINE
8
DEFAULT_255_2_778
10
4.9067905
20
7.3391051
11
4.4220905
21
8.1538051
0
LINE
8
DEFAULT_255_2_778
10
5.9063905
20
5.6389051
11
5.3909905
21
6.0512051
0
LINE
8
DEFAULT_255_2_778
10
5.3909905
20
6.0512051
11
5.1641905
21
5.8966051
0
LINE
8
DEFAULT_255_2_778
10
5.1641905
20
5.8966051
11
5.1435905
21
5.9276051
0
LINE
8
DEFAULT_255_2_778
10
5.1435905
20
5.9276051
11
5.3702905
21
6.0924051
0
LINE
8
DEFAULT_255_2_778
10
5.3702905
20
6.0924051
11
5.3702905
21
7.2571051
0
LINE
8
DEFAULT_255_2_778
10
5.9679905
20
7.6281051
11
5.9679905
21
6.3089051
0
LINE
8
DEFAULT_255_2_778
10
5.9679905
20
6.3089051
11
6.2875905
21
6.0202051
0
LINE
8
DEFAULT_255_2_778
10
6.2875905
20
6.0202051
11
6.3804905
21
6.0924051
0
LINE
8
DEFAULT_255_2_778
10
6.3804905
20
6.0924051
11
6.3804905
21
7.5251051
0
LINE
8
DEFAULT_255_2_778
10
6.3804905
20
7.5251051
11
6.2362905
21
7.7209051
0
LINE
8
DEFAULT_255_2_778
10
6.2362905
20
7.7209051
11
6.7516905
21
8.1641051
0
LINE
8
DEFAULT_255_2_778
10
6.7516905
20
8.1641051
11
7.2258905
21
7.7622051
0
LINE
8
DEFAULT_255_2_778
10
7.2258905
20
7.7622051
11
7.0093905
21
7.5767051
0
LINE
8
DEFAULT_255_2_778
10
7.0093905
20
7.5767051
11
7.0093905
21
6.3091051
0
LINE
8
DEFAULT_255_2_778
10
7.0093905
20
6.3091051
11
7.4835905
21
5.9588051
0
LINE
8
DEFAULT_255_2_778
10
7.4835905
20
5.9588051
11
7.5660905
21
6.0104051
0
LINE
8
DEFAULT_255_2_778
10
7.5660905
20
6.0104051
11
7.5660905
21
7.5251051
0
LINE
8
DEFAULT_255_2_778
10
7.5660905
20
7.5251051
11
7.3702905
21
7.7106051
0
LINE
8
DEFAULT_255_2_778
10
7.3702905
20
7.7106051
11
7.8856905
21
8.1641051
0
LINE
8
DEFAULT_255_2_778
10
7.8856905
20
8.1641051
11
8.3701905
21
7.7829051
0
LINE
8
DEFAULT_255_2_778
10
8.3701905
20
7.7829051
11
8.5659905
21
7.9477051
0
LINE
8
DEFAULT_255_2_778
10
8.5659905
20
7.9477051
11
8.5865905
21
7.9167051
0
LINE
8
DEFAULT_255_2_778
10
8.5865905
20
7.9167051
11
8.1536905
21
7.5458051
0
LINE
8
DEFAULT_255_2_778
10
8.1536905
20
7.5458051
11
8.1536905
21
6.3089051
0
LINE
8
DEFAULT_255_2_778
10
8.1536905
20
6.3089051
11
7.0509905
21
5.6493051
0
LINE
8
DEFAULT_255_2_778
10
7.0509905
20
5.6493051
11
6.4839905
21
6.0718051
0
LINE
8
DEFAULT_255_2_778
10
6.4839905
20
6.0718051
11
5.9063905
21
5.6389051
0
LINE
8
DEFAULT_255_2_778
10
13.0799905
20
6.4327051
11
13.6160905
21
5.9689051
0
LINE
8
DEFAULT_255_2_778
10
13.6160905
20
5.9689051
11
13.6160905
21
7.3913051
0
LINE
8
DEFAULT_255_2_778
10
13.6160905
20
7.3913051
11
13.0799905
21
7.8654051
0
LINE
8
DEFAULT_255_2_778
10
13.0799905
20
7.8654051
11
13.0799905
21
6.4327051
0
LINE
8
DEFAULT_255_2_778
10
14.2240905
20
7.5974051
11
14.4095905
21
7.7622051
0
LINE
8
DEFAULT_255_2_778
10
14.4095905
20
7.7622051
11
14.4404905
21
7.7313051
0
LINE
8
DEFAULT_255_2_778
10
14.4404905
20
7.7313051
11
14.2137905
21
7.5664051
0
LINE
8
DEFAULT_255_2_778
10
14.2137905
20
7.5664051
11
14.2137905
21
6.2369051
0
LINE
8
DEFAULT_255_2_778
10
14.2137905
20
6.2369051
11
13.6776905
21
5.9276051
0
LINE
8
DEFAULT_255_2_778
10
13.6776905
20
5.9276051
11
13.1829905
21
5.6389051
0
LINE
8
DEFAULT_255_2_778
10
13.1829905
20
5.6389051
11
12.5542905
21
6.1543051
0
LINE
8
DEFAULT_255_2_778
10
12.5542905
20
6.1543051
11
12.3894905
21
6.0101051
0
LINE
8
DEFAULT_255_2_778
10
12.3894905
20
6.0101051
11
12.3584905
21
6.0411051
0
LINE
8
DEFAULT_255_2_778
10
12.3584905
20
6.0411051
11
12.5748905
21
6.1853051
0
LINE
8
DEFAULT_255_2_778
10
12.5748905
20
6.1853051
11
12.5748905
21
7.6283051
0
LINE
8
DEFAULT_255_2_778
10
12.5748905
20
7.6283051
11
12.5439905
21
7.6283051
0
LINE
8
DEFAULT_255_2_778
10
12.5439905
20
7.6283051
11
13.0902905
21
7.8964051
0
LINE
8
DEFAULT_255_2_778
10
13.0902905
20
7.8964051
11
13.5644905
21
8.1644051
0
LINE
8
DEFAULT_255_2_778
10
13.5644905
20
8.1644051
11
14.2240905
21
7.5974051
0
LINE
8
DEFAULT_255_2_778
10
15.4707905
20
7.7313051
11
15.8726905
21
8.1332051
0
LINE
8
DEFAULT_255_2_778
10
15.4397905
20
7.7106051
11
15.4397905
21
6.2779051
0
LINE
8
DEFAULT_255_2_778
10
15.4397905
20
6.2779051
11
15.7387905
21
6.0615051
0
LINE
8
DEFAULT_255_2_778
10
15.7387905
20
6.0615051
11
15.9552905
21
6.2263051
0
LINE
8
DEFAULT_255_2_778
10
15.9552905
20
6.2263051
11
15.9758905
21
6.1954051
0
LINE
8
DEFAULT_255_2_778
10
15.9758905
20
6.1954051
11
15.3162905
21
5.6593051
0
LINE
8
DEFAULT_255_2_778
10
15.3162905
20
5.6593051
11
14.8111905
21
6.1025051
0
LINE
8
DEFAULT_255_2_778
10
14.8111905
20
6.1025051
11
14.6256905
21
5.9376051
0
LINE
8
DEFAULT_255_2_778
10
14.6256905
20
5.9376051
11
14.5947905
21
5.9686051
0
LINE
8
DEFAULT_255_2_778
10
14.5947905
20
5.9686051
11
14.8214905
21
6.2057051
0
LINE
8
DEFAULT_255_2_778
10
14.8214905
20
6.2057051
11
14.8214905
21
7.4323051
0
LINE
8
DEFAULT_255_2_778
10
14.8214905
20
7.4323051
11
14.6566905
21
7.7003051
0
LINE
8
DEFAULT_255_2_778
10
14.6566905
20
7.7003051
11
14.4711905
21
7.5458051
0
LINE
8
DEFAULT_255_2_778
10
14.4711905
20
7.5458051
11
14.4401905
21
7.5767051
0
LINE
8
DEFAULT_255_2_778
10
14.4401905
20
7.5767051
11
15.0791905
21
8.1334051
0
LINE
8
DEFAULT_255_2_778
10
15.0791905
20
8.1334051
11
15.4707905
21
7.7313051
0
LINE
8
DEFAULT_255_2_778
10
17.1611905
20
7.1336051
11
17.9033905
21
8.1744051
0
LINE
8
DEFAULT_255_2_778
10
17.6043905
20
7.6797051
11
17.5527905
21
7.6074051
0
LINE
8
DEFAULT_255_2_778
10
17.5527905
20
7.6074051
11
18.5833905
21
6.1027051
0
LINE
8
DEFAULT_255_2_778
10
18.5833905
20
6.1027051
11
18.7894905
21
6.2779051
0
LINE
8
DEFAULT_255_2_778
10
18.7894905
20
6.2779051
11
18.8203905
21
6.2469051
0
LINE
8
DEFAULT_255_2_778
10
18.8203905
20
6.2469051
11
18.1091905
21
5.6493051
0
LINE
8
DEFAULT_255_2_778
10
18.1091905
20
5.6493051
11
17.1611905
21
7.1336051
0
LINE
8
DEFAULT_255_2_778
10
16.3261905
20
8.8856051
11
17.0992905
21
9.4320051
0
LINE
8
DEFAULT_255_2_778
10
17.0992905
20
9.4320051
11
17.0992905
21
6.3194051
0
LINE
8
DEFAULT_255_2_778
10
17.0992905
20
6.3194051
11
17.3466905
21
6.1030051
0
LINE
8
DEFAULT_255_2_778
10
17.3466905
20
6.1030051
11
17.5114905
21
6.2369051
0
LINE
8
DEFAULT_255_2_778
10
17.5114905
20
6.2369051
11
17.5424905
21
6.2059051
0
LINE
8
DEFAULT_255_2_778
10
17.5424905
20
6.2059051
11
16.8931905
21
5.6596051
0
LINE
8
DEFAULT_255_2_778
10
16.8931905
20
5.6596051
11
16.4499905
21
6.0615051
0
LINE
8
DEFAULT_255_2_778
10
16.4499905
20
6.0615051
11
16.2748905
21
5.9070051
0
LINE
8
DEFAULT_255_2_778
10
16.2748905
20
5.9070051
11
16.2438905
21
5.9379051
0
LINE
8
DEFAULT_255_2_778
10
16.2438905
20
5.9379051
11
16.5941905
21
6.1956051
0
LINE
8
DEFAULT_255_2_778
10
16.5941905
20
6.1956051
11
16.5941905
21
8.5353051
0
LINE
8
DEFAULT_255_2_778
10
16.5941905
20
8.5353051
11
16.5838905
21
8.5353051
0
LINE
8
DEFAULT_255_2_778
10
10.9154905
20
7.6590051
11
10.9154905
21
7.2365051
0
LINE
8
DEFAULT_255_2_778
10
11.3482905
20
7.2468051
11
11.3482905
21
7.6590051
0
LINE
8
DEFAULT_255_2_778
10
11.3276905
20
8.5660051
11
11.0699905
21
8.8340051
0
LINE
8
DEFAULT_255_2_778
10
11.0699905
20
8.8340051
11
10.9154905
21
8.7205051
0
LINE
8
DEFAULT_255_2_778
10
10.9154905
20
8.7205051
11
10.9154905
21
7.7207051
0
LINE
8
DEFAULT_255_2_778
10
11.3276905
20
7.7207051
11
11.3276905
21
8.5660051
0
LINE
8
DEFAULT_255_2_778
10
11.3279905
20
6.0924051
11
11.3279905
21
7.1643051
0
LINE
8
DEFAULT_255_2_778
10
10.9156905
20
7.1643051
11
10.9154905
21
5.7419051
0
LINE
8
DEFAULT_255_2_778
10
10.5029905
20
8.7203051
11
10.5029905
21
5.8241051
0
LINE
8
DEFAULT_255_2_778
10
10.8119905
20
5.7519051
11
10.8119905
21
9.2359051
0
LINE
8
DEFAULT_255_2_778
10
10.8119905
20
9.2359051
11
10.9151905
21
9.2359051
0
LINE
8
DEFAULT_255_2_778
10
10.9151905
20
9.2359051
11
10.9151905
21
8.7618051
0
LINE
8
DEFAULT_255_2_778
10
10.9151905
20
8.7618051
11
11.5438905
21
9.2669051
0
LINE
8
DEFAULT_255_2_778
10
11.5438905
20
9.2669051
11
12.0179905
21
8.8547051
0
LINE
8
DEFAULT_255_2_778
10
12.0179905
20
8.8547051
11
12.2446905
21
9.0402051
0
LINE
8
DEFAULT_255_2_778
10
12.2446905
20
9.0402051
11
12.2653905
21
9.0092051
0
LINE
8
DEFAULT_255_2_778
10
12.2653905
20
9.0092051
11
12.0385905
21
8.8134051
0
LINE
8
DEFAULT_255_2_778
10
12.0385905
20
8.8134051
11
12.0385905
21
6.1234051
0
LINE
8
DEFAULT_255_2_778
10
9.7919905
20
5.7834051
11
9.7919905
21
7.1748051
0
LINE
8
DEFAULT_255_2_778
10
9.8020905
20
7.7622051
11
9.7816905
21
8.5864051
0
ENDSEC
0
EOF