0
SECTION
2
HEADER
9
$MEASUREMENT
70
1
0
ENDSEC
0
SECTION
2
TABLES
0
TABLE
2
LTYPE
0
LTYPE
72
65
70
64
2
CONTINUOUS
3
______
73
0
40
0
0
ENDTAB
0
TABLE
2
LAYER
0
LAYER
2
DEFAULT_255_2_778
70
0
62
255
6
CONTINUOUS
0
ENDTAB
0
ENDSEC
0
SECTION
2
ENTITIES
0
ARC
8
DEFAULT_255_2_778
10
2.1238048
20
1.5992199
40
0.1825015
50
259.9310621
51
269.5404649
0
ARC
8
DEFAULT_255_2_778
10
2.2690245
20
2.4698579
40
1.0651592
50
259.651853
51
260.4277304
0
ARC
8
DEFAULT_255_2_778
10
2.0234236
20
1.1470649
40
0.2802634
50
78.8352732
51
89.6897628
0
ARC
8
DEFAULT_255_2_778
10
1.9015797
20
1.5504748
40
0.1232278
50
247.8677732
51
272.0283108
0
ARC
8
DEFAULT_255_2_778
10
1.8912183
20
1.5178955
40
0.0891858
50
243.8707479
51
246.1482309
0
ARC
8
DEFAULT_255_2_778
10
1.6616674
20
1.6731304
40
0.213648
50
257.1607083
51
268.8665373
0
ARC
8
DEFAULT_255_2_778
10
1.5667149
20
1.2565181
40
0.213648
50
77.1607083
51
88.8665373
0
ARC
8
DEFAULT_255_2_778
10
1.5712481
20
1.3246374
40
0.1454872
50
90.1208804
51
107.5111831
0
ARC
8
DEFAULT_255_2_778
10
1.9522863
20
0.1719073
40
1.3595494
50
108.2079574
51
110.1279544
0
ARC
8
DEFAULT_255_2_778
10
1.5390141
20
1.521359
40
0.097811
50
179.9783243
51
228.2166912
0
ARC
8
DEFAULT_255_2_778
10
1.5393027
20
1.5214012
40
0.0980995
50
178.4093604
51
180.0030343
0
ARC
8
DEFAULT_255_2_778
10
1.4217123
20
6.060789
40
0.0813863
50
249.1658808
51
268.6826098
0
LINE
8
DEFAULT_255_2_778
10
1.3927661
20
5.9847242
11
1.3925411
21
5.9847978
0
ARC
8
DEFAULT_255_2_778
10
1.3639662
20
5.9096318
40
0.0804143
50
69.1853434
51
88.6639876
0
ARC
8
DEFAULT_255_2_778
10
1.0732103
20
6.4432804
40
0.4596717
50
272.8720179
51
279.5838109
0
ARC
8
DEFAULT_255_2_778
10
0.9452986
20
8.6518812
40
2.6719621
50
270.4061825
51
273.2384597
0
ARC
8
DEFAULT_255_2_778
10
0.8605799
20
15.4702256
40
9.4908056
50
269.9393417
51
270.6258095
0
ARC
8
DEFAULT_255_2_778
10
0.8399133
20
56.3300912
40
50.350667
50
269.9960489
51
270.0120835
0
ARC
8
DEFAULT_255_2_778
10
0.2205308
20
6.0565557
40
0.0778853
50
231.7110664
51
277.9783268
0
ARC
8
DEFAULT_255_2_778
10
0.191461
20
6.0113364
40
0.0249294
50
178.4189991
51
219.6658002
0
ARC
8
DEFAULT_255_2_778
10
0.2208715
20
6.0153114
40
0.0544297
50
161.4395564
51
183.4623558
0
ARC
8
DEFAULT_255_2_778
10
0.2018749
20
6.0196056
40
0.03511
50
134.7867189
51
158.2134993
0
ARC
8
DEFAULT_255_2_778
10
0.1100935
20
6.0441064
40
0.0670489
50
0.3570153
51
22.9370643
0
ARC
8
DEFAULT_255_2_778
10
0.2182133
20
6.0938733
40
0.0520487
50
186.8957046
51
207.0086073
0
ARC
8
DEFAULT_255_2_778
10
0.2393687
20
6.1283944
40
0.083463
50
178.3317567
51
209.2408911
0
ARC
8
DEFAULT_255_2_778
10
0.2365212
20
6.129701
40
0.0805879
50
136.9393382
51
179.2013911
0
ARC
8
DEFAULT_255_2_778
10
-0.1010444
20
6.2684799
40
0.2909994
50
343.2724573
51
350.2569053
0
ARC
8
DEFAULT_255_2_778
10
1.1202864
20
6.0438747
40
0.950839
50
168.2171678
51
169.3723445
0
ARC
8
DEFAULT_255_2_778
10
0.3395883
20
6.2125786
40
0.1522494
50
148.2367857
51
170.3734303
0
ARC
8
DEFAULT_255_2_778
10
-1.7053181
20
6.4890896
40
1.9254983
50
354.1467108
51
359.3673279
0
ARC
8
DEFAULT_255_2_778
10
-6.4690752
20
6.5650648
40
6.6898446
50
359.1671792
51
0.1666622
0
ARC
8
DEFAULT_255_2_778
10
0.1043718
20
6.5806382
40
0.1164342
50
1.9126216
51
17.4605862
0
ARC
8
DEFAULT_255_2_778
10
0.3170829
20
6.651134
40
0.1076826
50
186.7248585
51
199.2826146
0
ARC
8
DEFAULT_255_2_778
10
0.2384888
20
6.6426894
40
0.0286521
50
81.4651526
51
188.3587396
0
ARC
8
DEFAULT_255_2_778
10
0.2444347
20
6.8788233
40
0.2078059
50
265.237379
51
269.5330509
0
ARC
8
DEFAULT_255_2_778
10
0.2402228
20
6.8284405
40
0.1572473
50
263.0484303
51
265.2425402
0
ARC
8
DEFAULT_255_2_778
10
0.2183489
20
6.6954183
40
0.0232435
50
216.402901
51
277.0236614
0
ARC
8
DEFAULT_255_2_778
10
0.2208575
20
6.6284737
40
0.0572286
50
99.8303436
51
111.7606588
0
ARC
8
DEFAULT_255_2_778
10
0.2515903
20
6.4911304
40
0.1979206
50
98.4069751
51
101.8087477
0
ARC
8
DEFAULT_255_2_778
10
0.2863412
20
6.238456
40
0.4529678
50
92.6907475
51
98.0826021
0
ARC
8
DEFAULT_255_2_778
10
0.3159711
20
5.6977591
40
0.9944685
50
89.8461684
51
92.9335457
0
ARC
8
DEFAULT_255_2_778
10
2.0661171
20
0.5564221
40
6.1619513
50
89.7543928
51
94.0712154
0
ARC
8
DEFAULT_255_2_778
10
2.0698704
20
15.8046403
40
9.0863517
50
270.1428922
51
272.1227987
0
ARC
8
DEFAULT_255_2_778
10
3.1803706
20
8.2321763
40
1.5076666
50
269.7480609
51
271.1856137
0
ARC
8
DEFAULT_255_2_778
10
3.1986054
20
7.2825764
40
0.5578946
50
271.3312066
51
281.1030161
0
ARC
8
DEFAULT_255_2_778
10
3.3213852
20
6.4643046
40
0.2708942
50
78.5677975
51
88.6555511
0
ARC
8
DEFAULT_255_2_778
10
3.4277671
20
6.9718088
40
0.2476542
50
257.7164409
51
266.8691642
0
ARC
8
DEFAULT_255_2_778
10
3.4175787
20
6.7233475
40
0.0035389
50
160.5789673
51
267.1117497
0
ARC
8
DEFAULT_255_2_778
10
3.4132151
20
6.7486935
40
0.0291821
50
278.2458261
51
294.6406631
0
ARC
8
DEFAULT_255_2_778
10
3.4373775
20
6.6932415
40
0.0313158
50
92.628953
51
112.5229799
0
ARC
8
DEFAULT_255_2_778
10
3.5732382
20
6.5282413
40
0.1590071
50
179.3575218
51
184.2047871
0
ARC
8
DEFAULT_255_2_778
10
3.4314097
20
6.5132827
40
0.0170726
50
168.8553873
51
247.3721667
0
ARC
8
DEFAULT_255_2_778
10
3.3697572
20
6.4616601
40
0.0551806
50
342.0548075
51
3.3912265
0
ARC
8
DEFAULT_255_2_778
10
3.3895945
20
6.4573058
40
0.0350221
50
314.7281953
51
338.8309338
0
ARC
8
DEFAULT_255_2_778
10
3.423242
20
6.214616
40
0.0612214
50
132.678344
51
142.9440437
0
ARC
8
DEFAULT_255_2_778
10
3.4124444
20
6.2340381
40
0.0418778
50
155.3446869
51
189.5027451
0
ARC
8
DEFAULT_255_2_778
10
3.4010695
20
6.2014817
40
0.0394112
50
139.4101368
51
174.1126486
0
ARC
8
DEFAULT_255_2_778
10
3.4953095
20
6.1864979
40
0.134793
50
171.8854519
51
181.0940236
0
ARC
8
DEFAULT_255_2_778
10
3.3844224
20
6.1814697
40
0.0240071
50
174.1316368
51
199.1379748
0
ARC
8
DEFAULT_255_2_778
10
3.4056491
20
6.2003096
40
0.0513934
50
211.3138943
51
227.8212369
0
ARC
8
DEFAULT_255_2_778
10
3.3460199
20
6.1371105
40
0.0355215
50
2.9663572
51
44.9914058
0
ARC
8
DEFAULT_255_2_778
10
3.2670424
20
6.1312636
40
0.1147092
50
359.2310668
51
3.8414818
0
ARC
8
DEFAULT_255_2_778
10
3.3675521
20
6.1297086
40
0.014189
50
323.5454571
51
0.0630254
0
ARC
8
DEFAULT_255_2_778
10
4.2205899
20
5.5411997
40
1.0221661
50
145.4240027
51
145.6740537
0
ARC
8
DEFAULT_255_2_778
10
3.404665
20
6.0993807
40
0.0335931
50
147.1577566
51
183.6806226
0
ARC
8
DEFAULT_255_2_778
10
3.3951764
20
6.0725906
40
0.0344167
50
134.2956054
51
177.6534314
0
ARC
8
DEFAULT_255_2_778
10
3.4794333
20
6.0661779
40
0.1189025
50
176.2281423
51
180.7486851
0
ARC
8
DEFAULT_255_2_778
10
3.3743637
20
6.0647946
40
0.0138236
50
180.7062912
51
231.3726835
0
LINE
8
DEFAULT_255_2_778
10
3.3657342
20
6.0539952
11
3.3658411
21
6.0538867
0
ARC
8
DEFAULT_255_2_778
10
3.3569471
20
6.0428243
40
0.0141944
50
0.4033079
51
51.2012656
0
ARC
8
DEFAULT_255_2_778
10
3.3368845
20
6.0365334
40
0.0345142
50
314.0140924
51
352.9951234
0
ARC
8
DEFAULT_255_2_778
10
3.2197336
20
6.1359183
40
0.1880044
50
313.6235946
51
318.649993
0
ARC
8
DEFAULT_255_2_778
10
3.2142238
20
5.4308687
40
0.5801694
50
78.7165799
51
92.636031
0
ARC
8
DEFAULT_255_2_778
10
3.1742659
20
4.6041288
40
1.4063581
50
89.459152
51
92.5094319
0
ARC
8
DEFAULT_255_2_778
10
3.1390106
20
5.4746982
40
0.5350877
50
92.8194638
51
101.0730848
0
ARC
8
DEFAULT_255_2_778
10
2.2602112
20
5.9448724
40
0.0893543
50
150.2406104
51
189.3481253
0
ARC
8
DEFAULT_255_2_778
10
6.9908738
20
5.92528
40
4.8188327
50
179.9396184
51
180.0101753
0
ARC
8
DEFAULT_255_2_778
10
1.2573832
20
2.0532254
40
0.9257761
50
355.590423
51
359.6409675
0
ARC
8
DEFAULT_255_2_778
10
-1.4230179
20
2.2432805
40
3.6128936
50
355.3318849
51
355.8535505
0
ARC
8
DEFAULT_255_2_778
10
3.3950245
20
1.8345871
40
1.2225224
50
174.6182381
51
179.1358785
0
ARC
8
DEFAULT_255_2_778
10
2.4583458
20
1.8321128
40
0.286469
50
175.8138403
51
194.3923591
0
ARC
8
DEFAULT_255_2_778
10
2.2432796
20
1.7846336
40
0.0667697
50
200.8140823
51
205.7515433
0
ARC
8
DEFAULT_255_2_778
10
2.0599906
20
1.6864628
40
0.1232278
50
337.8677732
51
2.0283108
0
ARC
8
DEFAULT_255_2_778
10
2.0925699
20
1.6761014
40
0.0891858
50
333.8707479
51
336.1482309
0
ARC
8
DEFAULT_255_2_778
10
2.2756189
20
1.5914555
40
0.1125288
50
156.2232142
51
176.392757
0
ARC
8
DEFAULT_255_2_778
10
2.5565962
20
1.5664385
40
0.3945909
50
175.3342789
51
180.7716731
0
ARC
8
DEFAULT_255_2_778
10
2.4648073
20
1.5694943
40
0.3028818
50
181.5835632
51
190.8511741
0
ARC
8
DEFAULT_255_2_778
10
1.869875
20
1.4554541
40
0.3028818
50
1.5835632
51
10.8511741
0
ARC
8
DEFAULT_255_2_778
10
2.1416136
20
1.453338
40
0.0327516
50
267.2480296
51
18.6733984
0
ARC
8
DEFAULT_255_2_778
10
6.0741756
20
1.3841873
40
0.0137676
50
0.9859181
51
51.0829934
0
LINE
8
DEFAULT_255_2_778
10
6.0828243
20
1.3948993
11
6.0826411
21
1.3950867
0
ARC
8
DEFAULT_255_2_778
10
6.0917401
20
1.4062472
40
0.0143996
50
180.4892489
51
230.8100444
0
ARC
8
DEFAULT_255_2_778
10
6.1014379
20
1.4277803
40
0.0323982
50
204.8567403
51
221.9464038
0
ARC
8
DEFAULT_255_2_778
10
6.1217137
20
1.437729
40
0.0549798
50
179.0670298
51
205.3821351
0
ARC
8
DEFAULT_255_2_778
10
6.2323094
20
1.8172487
40
0.273765
50
177.8280086
51
196.1447607
0
ARC
8
DEFAULT_255_2_778
10
5.526129
20
1.687795
40
0.4546487
50
17.9119061
51
18.6581344
0
ARC
8
DEFAULT_255_2_778
10
6.1984963
20
1.9404032
40
0.2643092
50
188.4614899
51
203.9175221
0
ARC
8
DEFAULT_255_2_778
10
6.0013718
20
1.9032317
40
0.0643306
50
180.006624
51
181.5322541
0
ARC
8
DEFAULT_255_2_778
10
6.855493
20
2.2621418
40
0.9860911
50
192.8089709
51
201.3448308
0
ARC
8
DEFAULT_255_2_778
10
-22.5059198
20
-7.577485
40
29.9852617
50
18.7148173
51
18.8095682
0
ARC
8
DEFAULT_255_2_778
10
6.6055803
20
2.3493512
40
0.77227
50
188.3750716
51
199.5854811
0
ARC
8
DEFAULT_255_2_778
10
6.6014047
20
2.3449445
40
0.7675062
50
187.1944523
51
188.0950192
0
ARC
8
DEFAULT_255_2_778
10
4.5753539
20
1.8742838
40
1.3188864
50
16.4980284
51
19.8144161
0
LINE
8
DEFAULT_255_2_778
10
5.8161563
20
2.3213528
11
5.8158438
21
2.3222464
0
ARC
8
DEFAULT_255_2_778
10
6.487083
20
2.582327
40
0.7198638
50
188.5080541
51
201.1795194
0
ARC
8
DEFAULT_255_2_778
10
5.0744631
20
2.7724342
40
0.592742
50
11.0876028
51
18.0729591
0
ARC
8
DEFAULT_255_2_778
10
0.9784143
20
1.4890773
40
4.8850968
50
17.4786649
51
17.5265321
0
ARC
8
DEFAULT_255_2_778
10
7.7647725
20
3.63437
40
2.2322727
50
197.2507869
51
197.578093
0
ARC
8
DEFAULT_255_2_778
10
6.2241057
20
3.1575004
40
0.6194953
50
194.2008939
51
197.3871091
0
ARC
8
DEFAULT_255_2_778
10
5.8102543
20
3.0681846
40
0.196947
50
185.6560307
51
198.5515866
0
ARC
8
DEFAULT_255_2_778
10
6.0552088
20
3.0839281
40
0.4423417
50
178.9512695
51
184.5582347
0
ARC
8
DEFAULT_255_2_778
10
5.7148965
20
3.1484547
40
0.1165302
50
197.3011748
51
208.9637388
0
ARC
8
DEFAULT_255_2_778
10
5.693567
20
3.1299733
40
0.0913712
50
176.7682933
51
190.195921
0
ARC
8
DEFAULT_255_2_778
10
6.5085141
20
3.4902688
40
0.9732816
50
192.7526401
51
201.4010532
0
ARC
8
DEFAULT_255_2_778
10
5.737184
20
3.3610747
40
0.1974834
50
197.4278332
51
205.7032354
0
ARC
8
DEFAULT_255_2_778
10
4.4281764
20
2.9266499
40
1.1817591
50
18.5153413
51
18.561245
0
ARC
8
DEFAULT_255_2_778
10
5.3866027
20
3.2515995
40
0.1697748
50
17.5614118
51
27.2459124
0
ARC
8
DEFAULT_255_2_778
10
5.5178454
20
2.7850483
40
0.5446322
50
87.9275426
51
96.9537845
0
ARC
8
DEFAULT_255_2_778
10
5.4651915
20
3.2428795
40
0.0838537
50
99.1151445
51
115.0847052
0
ARC
8
DEFAULT_255_2_778
10
5.4362543
20
2.9101254
40
0.4087523
50
90.9270193
51
99.1854609
0
LINE
8
DEFAULT_255_2_778
10
5.3710049
20
3.3136362
11
5.3702036
21
3.3135242
0
ARC
8
DEFAULT_255_2_778
10
5.3037385
20
3.7232642
40
0.4150957
50
270.9390169
51
279.2138683
0
ARC
8
DEFAULT_255_2_778
10
5.1599921
20
4.4875532
40
1.1888994
50
271.2369638
51
277.2748346
0
ARC
8
DEFAULT_255_2_778
10
5.0806841
20
7.3792172
40
4.0816366
50
269.7354911
51
271.4737185
0
ARC
8
DEFAULT_255_2_778
10
5.0618655
20
3.2837831
40
0.0138412
50
90.1006998
51
126.0267336
0
ARC
8
DEFAULT_255_2_778
10
3.9893077
20
4.8540317
40
1.8877592
50
304.1795569
51
304.3226135
0
ARC
8
DEFAULT_255_2_778
10
5.0314675
20
3.3210527
40
0.0340948
50
266.424341
51
302.5837201
0
ARC
8
DEFAULT_255_2_778
10
3.9211316
20
3.3125608
40
0.5365278
50
343.1929741
51
356.1380534
0
ARC
8
DEFAULT_255_2_778
10
5.4383741
20
2.8910701
40
1.0383755
50
165.1368975
51
172.4251768
0
ARC
8
DEFAULT_255_2_778
10
20.5268048
20
0.7993597
40
16.2710883
50
172.1276662
51
172.5889212
0
ARC
8
DEFAULT_255_2_778
10
5.2796698
20
2.600131
40
0.9366936
50
161.4499423
51
167.3715171
0
ARC
8
DEFAULT_255_2_778
10
5.8847735
20
2.4708063
40
1.5554447
50
167.5960922
51
170.9853504
0
ARC
8
DEFAULT_255_2_778
10
3.8859081
20
2.8012197
40
0.4706861
50
345.5743755
51
349.3861155
0
ARC
8
DEFAULT_255_2_778
10
4.150612
20
2.7352242
40
0.1978971
50
341.3036447
51
344.9868936
0
LINE
8
DEFAULT_255_2_778
10
4.3380661
20
2.6717878
11
4.3378786
21
2.6712242
0
ARC
8
DEFAULT_255_2_778
10
4.5682507
20
2.5926182
40
0.2434136
50
161.1596801
51
167.5887532
0
ARC
8
DEFAULT_255_2_778
10
5.0325523
20
2.4839634
40
0.7202451
50
167.0856251
51
168.4702046
0
ARC
8
DEFAULT_255_2_778
10
3.6711158
20
2.7629298
40
0.6694791
50
342.1928366
51
348.3660873
0
ARC
8
DEFAULT_255_2_778
10
-5.4994646
20
5.6067966
40
10.2708598
50
342.7105577
51
342.7332576
0
ARC
8
DEFAULT_255_2_778
10
11.5714922
20
0.2927664
40
7.6080798
50
162.7071797
51
162.729823
0
ARC
8
DEFAULT_255_2_778
10
5.0289515
20
2.3214634
40
0.7582485
50
162.3443403
51
165.6864187
0
ARC
8
DEFAULT_255_2_778
10
6.6047078
20
2.0712975
40
2.351547
50
169.2746333
51
170.3759835
0
ARC
8
DEFAULT_255_2_778
10
3.619152
20
2.5809587
40
0.6772046
50
348.5031806
51
350.0919637
0
ARC
8
DEFAULT_255_2_778
10
3.8958368
20
2.5258699
40
0.395093
50
338.6495446
51
348.3344379
0
ARC
8
DEFAULT_255_2_778
10
3.64266
20
2.6173474
40
0.6642355
50
338.7519541
51
339.2512051
0
ARC
8
DEFAULT_255_2_778
10
4.5225799
20
1.574452
40
0.4338464
50
157.6790807
51
179.6602986
0
ARC
8
DEFAULT_255_2_778
10
3.8719344
20
1.3215531
40
0.2020566
50
70.9329536
51
94.438691
0
ARC
8
DEFAULT_255_2_778
10
3.843265
20
-2.4190021
40
3.9420274
50
89.8105872
51
90.0395898
0
ARC
8
DEFAULT_255_2_778
10
3.8415081
20
1.0260413
40
0.4969839
50
90.1114846
51
93.9809689
0
ARC
8
DEFAULT_255_2_778
10
3.8307212
20
1.083468
40
0.4389991
50
93.096825
51
105.6098295
0
ARC
8
DEFAULT_255_2_778
10
3.7360587
20
1.4305709
40
0.0792575
50
107.2214977
51
116.7854646
0
ARC
8
DEFAULT_255_2_778
10
3.4248889
20
2.3496694
40
0.8854828
50
279.2873967
51
286.6526823
0
ARC
8
DEFAULT_255_2_778
10
3.4756427
20
2.0810668
40
0.6122472
50
269.7752495
51
278.6566672
0
ARC
8
DEFAULT_255_2_778
10
3.4472418
20
1.3469255
40
0.1219745
50
87.980012
51
112.3661034
0
ARC
8
DEFAULT_255_2_778
10
3.4370804
20
1.3785791
40
0.0888751
50
114.0734747
51
116.3440567
0
ARC
8
DEFAULT_255_2_778
10
3.7863847
20
1.4722798
40
0.4351127
50
168.6234296
51
173.302721
0
ARC
8
DEFAULT_255_2_778
10
8.1741121
20
0.6777988
40
4.8941132
50
168.4980996
51
169.6377444
0
ARC
8
DEFAULT_255_2_778
10
11.1932982
20
0.0727354
40
7.9733233
50
167.2964163
51
168.5635953
0
ARC
8
DEFAULT_255_2_778
10
10.3716728
20
0.2577622
40
7.1311219
50
166.7656319
51
167.294939
0
ARC
8
DEFAULT_255_2_778
10
3.5297687
20
2.2818968
40
0.0136276
50
143.988096
51
179.8848369
0
ARC
8
DEFAULT_255_2_778
10
2.1148533
20
3.2502331
40
1.7009219
50
325.6261573
51
325.7873158
0
ARC
8
DEFAULT_255_2_778
10
3.4925566
20
2.3122711
40
0.0342523
50
327.4888919
51
3.6040522
0
ARC
8
DEFAULT_255_2_778
10
3.2739947
20
2.4278364
40
0.2770254
50
335.8333074
51
352.1758815
0
ARC
8
DEFAULT_255_2_778
10
4.5763459
20
2.2376697
40
1.039149
50
168.5625602
51
171.5636294
0
ARC
8
DEFAULT_255_2_778
10
7.0932628
20
1.7407088
40
3.6046507
50
167.7023876
51
168.7534136
0
ARC
8
DEFAULT_255_2_778
10
11.4029921
20
0.8136198
40
8.0129604
50
167.6892845
51
167.7889888
0
ARC
8
DEFAULT_255_2_778
10
-14.6822915
20
6.5569459
40
18.6971288
50
347.5374795
51
347.815418
0
ARC
8
DEFAULT_255_2_778
10
2.8732834
20
2.7711665
40
0.7380157
50
347.4416331
51
350.7993281
0
ARC
8
DEFAULT_255_2_778
10
3.5483366
20
2.6616128
40
0.0541308
50
351.0196021
51
358.212419
0
ARC
8
DEFAULT_255_2_778
10
5.1566195
20
2.5023512
40
1.5621458
50
168.5979998
51
174.2107504
0
ARC
8
DEFAULT_255_2_778
10
25.0537854
20
-1.5280836
40
21.8634167
50
168.190328
51
168.5524286
0
ARC
8
DEFAULT_255_2_778
10
-0.3949801
20
3.7653907
40
4.1301282
50
348.5642069
51
348.7893415
0
ARC
8
DEFAULT_255_2_778
10
3.9025885
20
2.9335823
40
0.2479307
50
166.3689804
51
173.3196263
0
ARC
8
DEFAULT_255_2_778
10
3.4240739
20
3.0426877
40
0.2429121
50
347.958579
51
358.8999466
0
ARC
8
DEFAULT_255_2_778
10
4.8461251
20
2.88638
40
1.1888948
50
169.9948276
51
172.6719263
0
ARC
8
DEFAULT_255_2_778
10
6.7773115
20
2.5539923
40
3.1484706
50
168.9372386
51
170.1437955
0
ARC
8
DEFAULT_255_2_778
10
8.5270323
20
2.2169876
40
4.9303458
50
168.6691474
51
168.9953589
0
ARC
8
DEFAULT_255_2_778
10
10.4034225
20
1.8378409
40
6.8446564
50
167.8677058
51
168.6432436
0
ARC
8
DEFAULT_255_2_778
10
10.510268
20
1.8172187
40
6.9534501
50
167.6250028
51
167.8866086
0
ARC
8
DEFAULT_255_2_778
10
7.4082014
20
2.4985342
40
3.7774453
50
167.4549215
51
167.6353866
0
ARC
8
DEFAULT_255_2_778
10
3.5621292
20
3.3810135
40
0.1704814
50
338.6777427
51
348.1225552
0
ARC
8
DEFAULT_255_2_778
10
-12.3883887
20
7.1377787
40
16.5573883
50
346.7610429
51
346.9686057
0
ARC
8
DEFAULT_255_2_778
10
4.2396556
20
3.2968927
40
0.508544
50
159.6635384
51
167.8026661
0
ARC
8
DEFAULT_255_2_778
10
3.8088124
20
3.4575156
40
0.0487425
50
137.7451216
51
160.6968049
0
ARC
8
DEFAULT_255_2_778
10
3.7794942
20
3.4829176
40
0.010003
50
117.0760424
51
132.5092511
0
ARC
8
DEFAULT_255_2_778
10
3.6550016
20
3.5282807
40
0.1253578
50
343.0929629
51
2.488774
0
ARC
8
DEFAULT_255_2_778
10
3.8551733
20
3.5394785
40
0.0751528
50
159.0399916
51
184.3912898
0
ARC
8
DEFAULT_255_2_778
10
3.827388
20
3.5470929
40
0.0465683
50
153.9765137
51
155.5575695
0
ARC
8
DEFAULT_255_2_778
10
4.5157919
20
3.4612175
40
0.737948
50
162.883843
51
171.717309
0
ARC
8
DEFAULT_255_2_778
10
32.1386848
20
-4.9853834
40
29.6233975
50
162.8251307
51
162.9944522
0
ARC
8
DEFAULT_255_2_778
10
2.0982104
20
4.2834043
40
1.8145458
50
343.3034665
51
343.65731
0
ARC
8
DEFAULT_255_2_778
10
3.8918887
20
3.7664927
40
0.0528283
50
153.1849373
51
173.1165321
0
ARC
8
DEFAULT_255_2_778
10
3.7828137
20
3.8164937
40
0.0672298
50
337.0918904
51
359.5146399
0
ARC
8
DEFAULT_255_2_778
10
3.8738687
20
3.8184244
40
0.0239583
50
160.5572539
51
185.9900975
0
ARC
8
DEFAULT_255_2_778
10
3.8949273
20
3.7995018
40
0.0512723
50
131.9672758
51
148.3586946
0
ARC
8
DEFAULT_255_2_778
10
4.0757795
20
3.9132953
40
0.2154108
50
166.9393677
51
177.1184571
0
ARC
8
DEFAULT_255_2_778
10
3.6561027
20
4.0106532
40
0.2154107
50
346.9393677
51
357.1184571
0
ARC
8
DEFAULT_255_2_778
10
3.5222034
20
4.1006233
40
0.3633012
50
343.8917471
51
349.0460378
0
ARC
8
DEFAULT_255_2_778
10
21.7282482
20
0.387438
40
18.2175628
50
168.2595552
51
168.4609927
0
ARC
8
DEFAULT_255_2_778
10
4.5275965
20
3.970631
40
0.6477088
50
161.9336573
51
168.9909708
0
ARC
8
DEFAULT_255_2_778
10
3.9689368
20
4.1549009
40
0.0594781
50
140.5106644
51
163.79754
0
ARC
8
DEFAULT_255_2_778
10
3.9297551
20
4.1857763
40
0.0096666
50
117.8375004
51
134.0415537
0
ARC
8
DEFAULT_255_2_778
10
3.8901847
20
4.2289861
40
0.0492991
50
315.3242202
51
318.4847796
0
ARC
8
DEFAULT_255_2_778
10
3.8617539
20
4.2511624
40
0.0853158
50
319.9888638
51
356.1959177
0
ARC
8
DEFAULT_255_2_778
10
3.8838488
20
4.2482392
40
0.0630923
50
357.5135419
51
359.9863654
0
ARC
8
DEFAULT_255_2_778
10
4.7172771
20
4.2630303
40
0.7704782
50
175.972561
51
181.1011077
0
ARC
8
DEFAULT_255_2_778
10
4.2447861
20
4.2900023
40
0.2973259
50
173.8197187
51
174.7623522
0
ARC
8
DEFAULT_255_2_778
10
4.2928707
20
4.2828244
40
0.3459094
50
165.8605286
51
173.4951553
0
ARC
8
DEFAULT_255_2_778
10
5.032676
20
4.1923901
40
1.0893723
50
160.1275936
51
170.7592911
0
LINE
8
DEFAULT_255_2_778
10
4.0081736
20
4.5626968
11
4.0082281
21
4.5628623
0
ARC
8
DEFAULT_255_2_778
10
-14.918981
20
10.7978482
40
19.9277268
50
341.7671249
51
341.7966735
0
ARC
8
DEFAULT_255_2_778
10
5.0860404
20
4.3979089
40
1.0887098
50
160.1172195
51
170.7652857
0
LINE
8
DEFAULT_255_2_778
10
4.0622281
20
4.7681758
11
4.0632064
21
4.7711426
0
ARC
8
DEFAULT_255_2_778
10
-9.6144854
20
9.2822311
40
14.4024017
50
341.7467427
51
341.7751485
0
ARC
8
DEFAULT_255_2_778
10
3.3147992
20
4.9153436
40
0.7631169
50
349.6257857
51
353.8735172
0
ARC
8
DEFAULT_255_2_778
10
4.7258065
20
4.7771378
40
0.6547141
50
164.394046
51
175.0262567
0
ARC
8
DEFAULT_255_2_778
10
4.4213843
20
4.8520075
40
0.3415133
50
161.2781905
51
162.752017
0
ARC
8
DEFAULT_255_2_778
10
5.4279133
20
4.8421096
40
1.3442082
50
166.5629832
51
171.6539154
0
ARC
8
DEFAULT_255_2_778
10
6.6399532
20
4.5599438
40
2.5886484
50
164.2310026
51
166.7225116
0
ARC
8
DEFAULT_255_2_778
10
7.5932899
20
4.2979414
40
3.5773148
50
164.1525438
51
164.3420982
0
ARC
8
DEFAULT_255_2_778
10
4.6089574
20
5.1682501
40
0.4692781
50
156.3622558
51
166.8734692
0
ARC
8
DEFAULT_255_2_778
10
3.743576
20
5.5464501
40
0.4751374
50
336.4235611
51
346.6850515
0
ARC
8
DEFAULT_255_2_778
10
2.9866081
20
6.1696493
40
1.3447102
50
346.1356411
51
349.624498
0
ARC
8
DEFAULT_255_2_778
10
-119.6002071
20
29.4699979
40
126.1262232
50
349.2421593
51
349.2469372
0
ARC
8
DEFAULT_255_2_778
10
8.1796803
20
5.2031569
40
3.9375274
50
169.0884596
51
169.2470151
0
ARC
8
DEFAULT_255_2_778
10
5.1892508
20
5.7880758
40
0.8904803
50
163.1099496
51
169.6209634
0
ARC
8
DEFAULT_255_2_778
10
5.2269783
20
5.773564
40
0.9308012
50
161.1418008
51
162.9299221
0
ARC
8
DEFAULT_255_2_778
10
4.8765714
20
6.007965
40
0.5345775
50
163.585116
51
172.8584479
0
ARC
8
DEFAULT_255_2_778
10
5.5963026
20
5.7716854
40
1.2919527
50
154.8019274
51
162.5535385
0
ARC
8
DEFAULT_255_2_778
10
13.2588777
20
2.3880275
40
9.6680389
50
155.9133606
51
155.9911794
0
ARC
8
DEFAULT_255_2_778
10
4.482196
20
6.4453152
40
0.0496921
50
156.8530304
51
184.2596688
0
ARC
8
DEFAULT_255_2_778
10
4.4693118
20
6.448382
40
0.0367083
50
135.2521426
51
153.3471875
0
ARC
8
DEFAULT_255_2_778
10
4.6338332
20
6.3549264
40
0.2248495
50
136.5136076
51
147.9562027
0
ARC
8
DEFAULT_255_2_778
10
4.5397906
20
6.4389853
40
0.0988406
50
116.0531467
51
134.3505429
0
ARC
8
DEFAULT_255_2_778
10
4.5941325
20
6.338117
40
0.2133745
50
117.0064268
51
117.2664898
0
ARC
8
DEFAULT_255_2_778
10
4.4685635
20
6.6367264
40
0.112228
50
284.8050041
51
304.1657551
0
ARC
8
DEFAULT_255_2_778
10
3.0690241
20
9.1140413
40
2.9571764
50
299.6421709
51
299.7823838
0
LINE
8
DEFAULT_255_2_778
10
4.5378747
20
6.547454
11
4.538184
21
6.5476308
0
ARC
8
DEFAULT_255_2_778
10
4.7928844
20
6.1118283
40
0.5047733
50
117.2143439
51
120.3037146
0
ARC
8
DEFAULT_255_2_778
10
4.6921221
20
6.4315763
40
0.1833037
50
116.3573397
51
135.2062327
0
ARC
8
DEFAULT_255_2_778
10
4.7637882
20
6.273017
40
0.3572505
50
107.204476
51
115.3662399
0
ARC
8
DEFAULT_255_2_778
10
3.4399622
20
10.2599232
40
3.8437748
50
288.4765801
51
288.4973488
0
ARC
8
DEFAULT_255_2_778
10
4.9162769
20
5.9490342
40
0.7135179
50
106.6704275
51
111.0975515
0
ARC
8
DEFAULT_255_2_778
10
5.6660659
20
3.5124527
40
3.2628378
50
105.7769081
51
107.009397
0
ARC
8
DEFAULT_255_2_778
10
7.9722685
20
-4.5460298
40
11.6448118
50
105.8546585
51
105.9160647
0
ARC
8
DEFAULT_255_2_778
10
3.2968962
20
12.0011824
40
5.550259
50
285.6156243
51
286.6084547
0
ARC
8
DEFAULT_255_2_778
10
4.5748703
20
7.7012117
40
1.0644072
50
286.8454171
51
288.2464277
0
ARC
8
DEFAULT_255_2_778
10
4.8958437
20
6.8689474
40
0.179046
50
273.9383411
51
282.591211
0
ARC
8
DEFAULT_255_2_778
10
4.8746587
20
6.9913021
40
0.3031355
50
281.4576478
51
286.2772953
0
ARC
8
DEFAULT_255_2_778
10
4.9336419
20
6.8110248
40
0.1137155
50
283.2075433
51
309.2180513
0
ARC
8
DEFAULT_255_2_778
10
4.9751955
20
6.8118964
40
0.0940048
50
288.8328897
51
312.1062887
0
ARC
8
DEFAULT_255_2_778
10
5.1526555
20
6.5839373
40
0.1952602
50
119.5843806
51
125.8760367
0
ARC
8
DEFAULT_255_2_778
10
5.1047432
20
6.665807
40
0.1004169
50
116.8168964
51
118.8731455
0
ARC
8
DEFAULT_255_2_778
10
5.1067076
20
6.6861533
40
0.0838605
50
107.2310316
51
124.3073694
0
ARC
8
DEFAULT_255_2_778
10
8.1872812
20
-1.6013125
40
8.9252286
50
110.0940431
51
110.3611705
0
ARC
8
DEFAULT_255_2_778
10
5.0371562
20
7.0291565
40
0.262253
50
288.6246648
51
301.0844964
0
ARC
8
DEFAULT_255_2_778
10
5.1387118
20
6.8532345
40
0.0592846
50
304.8136522
51
307.5164582
0
ARC
8
DEFAULT_255_2_778
10
5.1503871
20
6.8383035
40
0.0403319
50
307.2781661
51
314.2714534
0
ARC
8
DEFAULT_255_2_778
10
3.5539195
20
7.5617019
40
1.79034
50
335.1536016
51
335.7791717
0
ARC
8
DEFAULT_255_2_778
10
5.2078084
20
6.8198725
40
0.0223863
50
81.6970143
51
160.8754184
0
ARC
8
DEFAULT_255_2_778
10
5.2356433
20
6.8177334
40
0.0345733
50
92.2837396
51
135.3648307
0
ARC
8
DEFAULT_255_2_778
10
5.2420849
20
6.7324698
40
0.1200644
50
89.2573414
51
93.7340784
0
ARC
8
DEFAULT_255_2_778
10
5.2400989
20
6.8097792
40
0.0428916
50
54.4360306
51
85.2627879
0
ARC
8
DEFAULT_255_2_778
10
5.2311826
20
6.7929879
40
0.0617878
50
25.9488528
51
56.76688
0
ARC
8
DEFAULT_255_2_778
10
5.293587
20
6.8162701
40
0.0078076
50
151.2602047
51
298.7397953
0
ARC
8
DEFAULT_255_2_778
10
5.1832765
20
6.6705077
40
0.1797458
50
7.1439419
51
50.6105329
0
ARC
8
DEFAULT_255_2_778
10
5.0165503
20
6.6216276
40
0.3523524
50
11.2427164
51
11.6636528
0
ARC
8
DEFAULT_255_2_778
10
5.3857842
20
6.687859
40
0.0237713
50
174.0472567
51
199.3717688
0
ARC
8
DEFAULT_255_2_778
10
5.4069179
20
6.7067648
40
0.0511385
50
211.5931891
51
228.0624845
0
ARC
8
DEFAULT_255_2_778
10
6.1137018
20
6.7923293
40
0.7511996
50
189.4707193
51
194.4417906
0
ARC
8
DEFAULT_255_2_778
10
6.9266818
20
7.0112748
40
1.5931219
50
194.775291
51
199.4564412
0
ARC
8
DEFAULT_255_2_778
10
9.6603464
20
7.9376672
40
4.4794061
50
198.9823277
51
199.0688851
0
ARC
8
DEFAULT_255_2_778
10
6.1648086
20
6.5967093
40
0.7481619
50
189.4225755
51
194.609611
0
ARC
8
DEFAULT_255_2_778
10
6.999367
20
6.8225172
40
1.6127123
50
194.8940006
51
199.3179666
0
ARC
8
DEFAULT_255_2_778
10
10.0754715
20
7.8607048
40
4.8592146
50
198.8714032
51
198.9872188
0
ARC
8
DEFAULT_255_2_778
10
6.4179744
20
6.0685104
40
0.8596774
50
188.2721415
51
195.5713979
0
ARC
8
DEFAULT_255_2_778
10
12.0816595
20
7.6483216
40
6.7395698
50
195.5839213
51
196.4498735
0
ARC
8
DEFAULT_255_2_778
10
2.8934273
20
4.9593676
40
2.8341098
50
15.7492563
51
15.9848667
0
ARC
8
DEFAULT_255_2_778
10
6.3399166
20
5.8173246
40
0.7242278
50
187.0350084
51
200.9734661
0
LINE
8
DEFAULT_255_2_778
10
5.6636716
20
5.5580977
11
5.6640401
21
5.5570211
0
ARC
8
DEFAULT_255_2_778
10
4.712446
20
5.2120844
40
1.0121822
50
13.4563753
51
19.9247195
0
ARC
8
DEFAULT_255_2_778
10
6.5539525
20
5.5731572
40
0.8662554
50
188.3323284
51
195.5434316
0
ARC
8
DEFAULT_255_2_778
10
12.5856613
20
7.2583024
40
7.1289399
50
195.6013461
51
196.4530183
0
ARC
8
DEFAULT_255_2_778
10
3.0034637
20
4.4541325
40
2.8552172
50
15.7973397
51
15.9591425
0
ARC
8
DEFAULT_255_2_778
10
6.3247098
20
5.3140774
40
0.5797903
50
188.1958384
51
199.5229901
0
ARC
8
DEFAULT_255_2_778
10
8.4506182
20
6.0169821
40
2.8187831
50
198.5482109
51
199.5136186
0
ARC
8
DEFAULT_255_2_778
10
4.681288
20
4.6653169
40
1.1856372
50
14.9970908
51
20.2363669
0
ARC
8
DEFAULT_255_2_778
10
6.5608878
20
5.0939244
40
0.7443792
50
189.4174536
51
194.5636324
0
ARC
8
DEFAULT_255_2_778
10
7.3935076
20
5.31893
40
1.6068468
50
194.8634925
51
199.3313389
0
ARC
8
DEFAULT_255_2_778
10
10.597469
20
6.4007512
40
4.9884435
50
198.874421
51
198.9872286
0
ARC
8
DEFAULT_255_2_778
10
6.7553492
20
4.5916252
40
0.79374
50
191.6071752
51
197.9806341
0
ARC
8
DEFAULT_255_2_778
10
7.2264963
20
4.7383029
40
1.287169
50
197.7168102
51
201.5901108
0
ARC
8
DEFAULT_255_2_778
10
7.2618438
20
4.7515167
40
1.3248989
50
201.5589767
51
201.8171243
0
ARC
8
DEFAULT_255_2_778
10
3.7213744
20
3.8214975
40
2.351547
50
9.6240165
51
10.7253667
0
ARC
8
DEFAULT_255_2_778
10
6.7069303
20
4.3311587
40
0.6772046
50
189.9080363
51
191.4968194
0
ARC
8
DEFAULT_255_2_778
10
6.4302455
20
4.2760699
40
0.395093
50
191.6655621
51
201.3504554
0
ARC
8
DEFAULT_255_2_778
10
6.6834223
20
4.3675474
40
0.6642355
50
200.7487949
51
201.2480459
0
ARC
8
DEFAULT_255_2_778
10
6.3394719
20
3.7444386
40
0.1785528
50
185.5002825
51
196.6865969
0
ARC
8
DEFAULT_255_2_778
10
11.4336029
20
5.1237857
40
5.4560632
50
195.2010377
51
196.2645848
0
ARC
8
DEFAULT_255_2_778
10
1.885944
20
2.3749652
40
4.4794951
50
15.7138466
51
15.8138831
0
ARC
8
DEFAULT_255_2_778
10
3.2686157
20
2.7624683
40
3.0435507
50
15.107773
51
15.7411909
0
ARC
8
DEFAULT_255_2_778
10
4.4061541
20
3.0692095
40
1.8653812
50
14.0486975
51
15.1183233
0
ARC
8
DEFAULT_255_2_778
10
6.0861063
20
3.2108593
40
0.2163868
50
25.1907995
51
26.0315968
0
ARC
8
DEFAULT_255_2_778
10
6.0405685
20
3.1900823
40
0.2664377
50
16.9984605
51
25.0657681
0
ARC
8
DEFAULT_255_2_778
10
6.1637175
20
3.2245125
40
0.1386372
50
2.3198498
51
18.2698408
0
ARC
8
DEFAULT_255_2_778
10
7.2417406
20
3.0973839
40
0.8607296
50
192.1023678
51
197.6856363
0
ARC
8
DEFAULT_255_2_778
10
5.606527
20
2.5760449
40
0.8555799
50
12.0543864
51
17.6810073
0
ARC
8
DEFAULT_255_2_778
10
3.0442938
20
2.1122623
40
3.4591329
50
9.9538173
51
10.7036485
0
ARC
8
DEFAULT_255_2_778
10
6.7877965
20
2.7691516
40
0.3415666
50
189.9405241
51
195.0024636
0
ARC
8
DEFAULT_255_2_778
10
6.6863553
20
2.7451481
40
0.2373895
50
195.7443757
51
207.4754
0
ARC
8
DEFAULT_255_2_778
10
5.0047254
20
2.0881926
40
1.569576
50
15.4367723
51
20.4125145
0
ARC
8
DEFAULT_255_2_778
10
2.1814159
20
1.3088359
40
4.4984791
50
13.8159984
51
15.4335548
0
ARC
8
DEFAULT_255_2_778
10
87.8113718
20
22.7615306
40
83.7778788
50
194.0780627
51
194.0828356
0
ARC
8
DEFAULT_255_2_778
10
7.0197382
20
2.26865
40
0.4259096
50
183.3146472
51
202.8115507
0
ARC
8
DEFAULT_255_2_778
10
7.5598244
20
2.1594826
40
0.9134081
50
193.1150227
51
203.4780806
0
ARC
8
DEFAULT_255_2_778
10
-9.277597
20
-4.5575172
40
17.2148221
50
21.6370279
51
21.6569312
0
ARC
8
DEFAULT_255_2_778
10
7.0503946
20
1.8552966
40
0.3326208
50
191.3169695
51
199.9240997
0
ARC
8
DEFAULT_255_2_778
10
7.203274
20
1.90779
40
0.4942457
50
199.605762
51
200.2132184
0
ARC
8
DEFAULT_255_2_778
10
6.5130627
20
1.6337519
40
0.2488442
50
11.8038507
51
24.5189614
0
ARC
8
DEFAULT_255_2_778
10
6.7224443
20
1.6820888
40
0.0342969
50
0.0592355
51
4.2927031
0
ARC
8
DEFAULT_255_2_778
10
6.723515
20
1.6437408
40
0.0507668
50
33.3489691
51
49.1193219
0
ARC
8
DEFAULT_255_2_778
10
6.7438336
20
1.6631551
40
0.0236657
50
353.3736565
51
21.0337876
0
ARC
8
DEFAULT_255_2_778
10
6.7357377
20
1.6616395
40
0.0316268
50
333.349058
51
357.7977866
0
ARC
8
DEFAULT_255_2_778
10
6.7342761
20
1.6601424
40
0.0323231
50
271.0015802
51
336.8851931
0
ARC
8
DEFAULT_255_2_778
10
6.7611309
20
1.5447523
40
0.0871326
50
107.561009
51
126.95304
0
ARC
8
DEFAULT_255_2_778
10
6.7454363
20
1.5641623
40
0.0621929
50
126.14826
51
149.4734993
0
ARC
8
DEFAULT_255_2_778
10
6.7023868
20
1.59001
40
0.0119879
50
151.3792285
51
153.6854016
0
ARC
8
DEFAULT_255_2_778
10
6.6059906
20
1.7732671
40
0.1974834
50
287.4278332
51
295.7032354
0
ARC
8
DEFAULT_255_2_778
10
7.0404155
20
0.4642595
40
1.1817591
50
108.5153413
51
108.561245
0
ARC
8
DEFAULT_255_2_778
10
6.7154659
20
1.4226858
40
0.1697748
50
107.5614118
51
117.2459124
0
ARC
8
DEFAULT_255_2_778
10
6.6077135
20
1.6036553
40
0.0424679
50
312.4344282
51
314.9967644
0
ARC
8
DEFAULT_255_2_778
10
6.6133209
20
1.5958669
40
0.0329551
50
274.7348156
51
314.3762078
0
ARC
8
DEFAULT_255_2_778
10
6.6072081
20
1.4812792
40
0.0817641
50
91.2382968
51
123.5901646
0
ARC
8
DEFAULT_255_2_778
10
7.305839
20
0.4195147
40
1.3527588
50
123.3593816
51
125.5012224
0
ARC
8
DEFAULT_255_2_778
10
6.3097659
20
1.837514
40
0.3802862
50
303.3702414
51
303.6093219
0
ARC
8
DEFAULT_255_2_778
10
6.459113
20
1.619312
40
0.1160058
50
275.6709079
51
301.0465297
0
ARC
8
DEFAULT_255_2_778
10
6.5487939
20
1.0259132
40
0.4843186
50
99.2940221
51
100.5068256
0
ARC
8
DEFAULT_255_2_778
10
6.4752116
20
1.4046597
40
0.0985594
50
98.5978674
51
122.9939049
0
ARC
8
DEFAULT_255_2_778
10
6.3808509
20
1.5598492
40
0.0831599
50
268.3395026
51
299.2946908
0
ARC
8
DEFAULT_255_2_778
10
6.2416179
20
1.6216189
40
0.1992864
50
294.7739487
51
313.3588744
0
ARC
8
DEFAULT_255_2_778
10
5.6544619
20
2.79409
40
1.5104728
50
295.5484537
51
296.3600086
0
ARC
8
DEFAULT_255_2_778
10
6.4264276
20
1.1687889
40
0.2888712
50
114.662433
51
122.6826928
0
ARC
8
DEFAULT_255_2_778
10
6.0466134
20
1.8879077
40
0.5259839
50
287.0593299
51
295.1849103
0
LINE
8
DEFAULT_255_2_778
10
6.200917
20
1.3850662
11
6.1995911
21
1.3846242
0
ARC
8
DEFAULT_255_2_778
10
6.3555268
20
0.8761862
40
0.5318131
50
107.0505434
51
115.0632296
0
ARC
8
DEFAULT_255_2_778
10
6.082844
20
1.4585505
40
0.1112301
50
272.7099946
51
295.2214286
0
ARC
8
DEFAULT_255_2_778
10
6.0869137
20
1.380507
40
0.0330837
50
270.3938198
51
272.0601442
0
ARC
8
DEFAULT_255_2_778
10
5.1868971
20
4.2146544
40
0.1830359
50
270.4520326
51
279.9555048
0
ARC
8
DEFAULT_255_2_778
10
5.0448372
20
5.0749973
40
1.0550205
50
279.4766058
51
280.2683412
0
ARC
8
DEFAULT_255_2_778
10
5.2871417
20
3.759545
40
0.2825832
50
90.3042428
51
101.0658164
0
ARC
8
DEFAULT_255_2_778
10
5.3163717
20
4.0631822
40
0.0372533
50
186.992894
51
214.4206612
0
ARC
8
DEFAULT_255_2_778
10
5.5176716
20
4.1095408
40
0.2436507
50
189.9097619
51
192.056799
0
ARC
8
DEFAULT_255_2_778
10
4.0989733
20
3.8951068
40
1.191239
50
8.3262325
51
12.1873548
0
ARC
8
DEFAULT_255_2_778
10
4.8781157
20
4.0561208
40
0.3957285
50
13.2152315
51
18.3435866
0
ARC
8
DEFAULT_255_2_778
10
4.9209394
20
4.069339
40
0.350922
50
18.4955458
51
18.7991533
0
ARC
8
DEFAULT_255_2_778
10
6.2034941
20
4.4891122
40
0.9986131
50
185.8272099
51
197.8853851
0
ARC
8
DEFAULT_255_2_778
10
5.3367493
20
4.4380895
40
0.1363511
50
187.1412552
51
201.6773454
0
ARC
8
DEFAULT_255_2_778
10
9.1669209
20
5.0816947
40
4.0201051
50
189.2919627
51
189.4573312
0
ARC
8
DEFAULT_255_2_778
10
5.1283238
20
4.4282266
40
0.0713755
50
3.5023409
51
28.3526162
0
ARC
8
DEFAULT_255_2_778
10
5.1882133
20
4.4594951
40
0.0039312
50
41.9430279
51
88.1369654
0
ARC
8
DEFAULT_255_2_778
10
4.9423836
20
4.4400691
40
0.2470639
50
5.4243191
51
12.0209897
0
ARC
8
DEFAULT_255_2_778
10
7.1875604
20
4.8545414
40
2.0361523
50
190.1126861
51
190.2699091
0
ARC
8
DEFAULT_255_2_778
10
6.072507
20
4.6560588
40
0.9035715
50
189.5405428
51
190.1372401
0
ARC
8
DEFAULT_255_2_778
10
5.3994451
20
4.5474629
40
0.2218646
50
182.1797975
51
190.6932203
0
ARC
8
DEFAULT_255_2_778
10
4.9564779
20
4.5522596
40
0.2214251
50
2.1908427
51
10.7440606
0
ARC
8
DEFAULT_255_2_778
10
4.261831
20
4.4395777
40
0.9250919
50
9.5801523
51
10.1513522
0
ARC
8
DEFAULT_255_2_778
10
5.5205631
20
4.6750705
40
0.3555803
50
186.3275586
51
191.7558114
0
ARC
8
DEFAULT_255_2_778
10
5.186427
20
4.6364367
40
0.0192859
50
180.0370159
51
181.6505199
0
ARC
8
DEFAULT_255_2_778
10
5.311556
20
4.697346
40
0.156739
50
188.8096319
51
202.8725639
0
LINE
8
DEFAULT_255_2_778
10
5.1566661
20
4.6733411
11
5.1564786
21
4.6742742
0
ARC
8
DEFAULT_255_2_778
10
5.0082271
20
4.6515771
40
0.1499789
50
8.7043444
51
23.8099911
0
ARC
8
DEFAULT_255_2_778
10
5.2231165
20
4.7554392
40
0.0889362
50
195.6141402
51
209.145863
0
ARC
8
DEFAULT_255_2_778
10
5.8117236
20
4.9393132
40
0.7055593
50
193.1103093
51
197.1296434
0
ARC
8
DEFAULT_255_2_778
10
7.9846787
20
5.4576364
40
2.9394704
50
191.6503644
51
193.3428337
0
ARC
8
DEFAULT_255_2_778
10
11.7906581
20
6.2594167
40
6.8289705
50
191.4714452
51
191.7903688
0
ARC
8
DEFAULT_255_2_778
10
12.7376833
20
6.4534706
40
7.7956713
50
191.4545329
51
191.4849213
0
ARC
8
DEFAULT_255_2_778
10
18.0657329
20
7.5328366
40
13.2319516
50
191.4359176
51
191.4535329
0
ARC
8
DEFAULT_255_2_778
10
15.1516638
20
6.9424935
40
10.258687
50
191.4088502
51
191.4311969
0
ARC
8
DEFAULT_255_2_778
10
15.899487
20
7.0931483
40
11.0215346
50
191.3871103
51
191.4075606
0
ARC
8
DEFAULT_255_2_778
10
12.9130048
20
6.4924192
40
7.9752336
50
191.3646307
51
191.392408
0
ARC
8
DEFAULT_255_2_778
10
20.2272714
20
7.9627722
40
15.4358256
50
191.3513895
51
191.3654907
0
ARC
8
DEFAULT_255_2_778
10
27.0204622
20
9.3243893
40
22.3641329
50
191.3364702
51
191.3460301
0
ARC
8
DEFAULT_255_2_778
10
15.6041093
20
7.0354663
40
10.7205818
50
191.3160874
51
191.3356702
0
ARC
8
DEFAULT_255_2_778
10
16.6493473
20
7.2458289
40
11.7867778
50
191.3043139
51
191.3217988
0
ARC
8
DEFAULT_255_2_778
10
18.0399158
20
7.524228
40
13.2049409
50
191.2908145
51
191.3061314
0
ARC
8
DEFAULT_255_2_778
10
19.9987381
20
7.9164581
40
15.2026466
50
191.2819939
51
191.2950473
0
ARC
8
DEFAULT_255_2_778
10
19.3912873
20
7.7958469
40
14.5833379
50
191.2708458
51
191.2841937
0
ARC
8
DEFAULT_255_2_778
10
42.6281675
20
12.424634
40
38.2767602
50
191.2602821
51
191.2677555
0
ARC
8
DEFAULT_255_2_778
10
25.4602463
20
9.0055697
40
20.771689
50
191.2443477
51
191.2577135
0
ARC
8
DEFAULT_255_2_778
10
-12.1641128
20
1.5541345
40
17.5834569
50
11.1527625
51
11.4396355
0
ARC
8
DEFAULT_255_2_778
10
3.9152808
20
4.8118703
40
1.1773753
50
11.2495964
51
13.2812813
0
ARC
8
DEFAULT_255_2_778
10
4.9476514
20
5.0554091
40
0.1166681
50
13.3516179
51
17.4651427
0
ARC
8
DEFAULT_255_2_778
10
5.1111333
20
5.1402942
40
0.0721875
50
189.5850174
51
223.6966086
0
ARC
8
DEFAULT_255_2_778
10
5.2278042
20
5.1607581
40
0.1906385
50
178.3870172
51
189.8107959
0
ARC
8
DEFAULT_255_2_778
10
4.9687036
20
5.3720365
40
0.0133047
50
177.3467721
51
237.4292119
0
ARC
8
DEFAULT_255_2_778
10
5.1582974
20
5.4103882
40
0.206364
50
183.2540782
51
190.536441
0
ARC
8
DEFAULT_255_2_778
10
5.565902
20
5.439133
40
0.6149682
50
180.5461203
51
183.7722181
0
ARC
8
DEFAULT_255_2_778
10
5.3110127
20
5.4372003
40
0.3600723
50
180.1075766
51
180.6251738
0
ARC
8
DEFAULT_255_2_778
10
5.5832652
20
5.6407617
40
0.6644898
50
197.440463
51
197.9001902
0
ARC
8
DEFAULT_255_2_778
10
5.6262961
20
5.654261
40
0.7095886
50
194.9431395
51
197.438996
0
ARC
8
DEFAULT_255_2_778
10
5.2186134
20
5.5540518
40
0.2899718
50
183.9802273
51
196.5843143
0
ARC
8
DEFAULT_255_2_778
10
4.9138663
20
5.5296758
40
0.0160474
50
15.3515649
51
113.2130418
0
ARC
8
DEFAULT_255_2_778
10
5.1390462
20
5.440668
40
0.2536927
50
155.8589724
51
176.0997136
0
ARC
8
DEFAULT_255_2_778
10
4.5658509
20
5.4743368
40
0.3205107
50
353.4741264
51
357.0647383
0
ARC
8
DEFAULT_255_2_778
10
-8.1096122
20
6.7603778
40
13.0610214
50
354.0328932
51
354.1886715
0
ARC
8
DEFAULT_255_2_778
10
10.4590329
20
4.8273175
40
5.6079756
50
174.1122106
51
174.1747102
0
ARC
8
DEFAULT_255_2_778
10
6.1009429
20
5.2635625
40
1.228142
50
173.7859082
51
176.1553541
0
ARC
8
DEFAULT_255_2_778
10
5.0141066
20
5.3379803
40
0.1387687
50
176.7236847
51
179.6102682
0
ARC
8
DEFAULT_255_2_778
10
5.2558823
20
5.0579109
40
0.4329956
50
162.5819817
51
167.7430988
0
ARC
8
DEFAULT_255_2_778
10
6.5293734
20
4.7667426
40
1.7393297
50
167.2761488
51
169.0451827
0
ARC
8
DEFAULT_255_2_778
10
8.812796
20
4.3195016
40
4.0661369
50
168.9724561
51
169.873545
0
ARC
8
DEFAULT_255_2_778
10
11.7123568
20
3.7977482
40
7.012265
50
169.8423239
51
170.2752652
0
ARC
8
DEFAULT_255_2_778
10
17.730655
20
2.7736852
40
13.1170656
50
170.3068561
51
170.8511121
0
ARC
8
DEFAULT_255_2_778
10
20.9260718
20
2.2476993
40
16.3554676
50
170.8118009
51
170.8238626
0
ARC
8
DEFAULT_255_2_778
10
29.3430299
20
0.8867638
40
24.8817405
50
170.8209462
51
170.8322965
0
ARC
8
DEFAULT_255_2_778
10
29.9036465
20
0.7949736
40
25.4498204
50
170.8293751
51
170.8397606
0
ARC
8
DEFAULT_255_2_778
10
117.6712352
20
-13.3495254
40
114.3498567
50
170.8438421
51
170.846005
0
ARC
8
DEFAULT_255_2_778
10
27.6989342
20
1.1498732
40
23.2167262
50
170.8489126
51
170.8555778
0
ARC
8
DEFAULT_255_2_778
10
-32.1248715
20
10.7604252
40
37.3741201
50
350.8052911
51
350.8847095
0
ARC
8
DEFAULT_255_2_778
10
1.6747015
20
5.2911069
40
3.134895
50
350.559743
51
350.7725482
0
ARC
8
DEFAULT_255_2_778
10
6.5219093
20
4.3513271
40
1.8056423
50
166.3668748
51
174.7156504
0
ARC
8
DEFAULT_255_2_778
10
5.0337219
20
4.4244814
40
0.3234806
50
163.2653756
51
171.902904
0
LINE
8
DEFAULT_255_2_778
10
4.7134661
20
4.470044
11
4.7132786
21
4.4689242
0
ARC
8
DEFAULT_255_2_778
10
4.4130185
20
4.5113745
40
0.303246
50
342.5074272
51
351.9529413
0
ARC
8
DEFAULT_255_2_778
10
5.556986
20
4.1876455
40
0.8858225
50
164.7781745
51
169.8120483
0
ARC
8
DEFAULT_255_2_778
10
7.3394685
20
3.8510863
40
2.6997777
50
169.4731021
51
171.5034785
0
ARC
8
DEFAULT_255_2_778
10
10.1806055
20
3.422399
40
5.5730725
50
171.4602345
51
172.7138821
0
ARC
8
DEFAULT_255_2_778
10
12.9922809
20
3.0551146
40
8.4086284
50
172.661211
51
172.8883901
0
ARC
8
DEFAULT_255_2_778
10
4.6249964
20
3.7722381
40
0.2492817
50
78.0899881
51
84.6264917
0
ARC
8
DEFAULT_255_2_778
10
5.0425788
20
6.0560349
40
2.0724798
50
259.8243719
51
259.9787936
0
ARC
8
DEFAULT_255_2_778
10
4.8411117
20
4.9140484
40
0.9128582
50
259.9582884
51
260.5487533
0
ARC
8
DEFAULT_255_2_778
10
4.7323777
20
4.2336838
40
0.2239186
50
259.4065588
51
267.8407497
0
ARC
8
DEFAULT_255_2_778
10
10.6397346
20
1.5757247
40
0.1372228
50
253.8393331
51
267.5802852
0
ARC
8
DEFAULT_255_2_778
10
10.5633477
20
1.3121238
40
0.1372228
50
73.8393331
51
87.5802852
0
ARC
8
DEFAULT_255_2_778
10
10.6838911
20
2.0126988
40
0.5823968
50
250.788835
51
255.3547011
0
ARC
8
DEFAULT_255_2_778
10
10.3891991
20
1.2001259
40
0.2821051
50
68.5737624
51
86.923169
0
ARC
8
DEFAULT_255_2_778
10
10.40689
20
1.2930861
40
0.1887553
50
90.7737081
51
103.6318584
0
ARC
8
DEFAULT_255_2_778
10
10.3182711
20
1.6445728
40
0.1737469
50
273.9827828
51
284.7146156
0
ARC
8
DEFAULT_255_2_778
10
10.3286332
20
1.5392131
40
0.067989
50
270.0066733
51
271.4376432
0
ARC
8
DEFAULT_255_2_778
10
10.2259385
20
1.3825771
40
0.1278327
50
43.9047753
51
62.1578853
0
ARC
8
DEFAULT_255_2_778
10
10.2525515
20
1.4322146
40
0.0715131
50
62.4380633
51
89.4474707
0
ARC
8
DEFAULT_255_2_778
10
10.2615527
20
1.200957
40
0.3028813
50
91.5724901
51
100.8495523
0
ARC
8
DEFAULT_255_2_778
10
10.1475296
20
1.7958914
40
0.3028812
50
271.5724901
51
280.8495523
0
ARC
8
DEFAULT_255_2_778
10
10.152577
20
1.5482082
40
0.0551806
50
252.0548075
51
273.3912265
0
ARC
8
DEFAULT_255_2_778
10
10.1482227
20
1.5283709
40
0.0350221
50
224.7281953
51
248.8309338
0
ARC
8
DEFAULT_255_2_778
10
10.2543895
20
1.8381227
40
0.3591601
50
243.1861098
51
248.6001404
0
ARC
8
DEFAULT_255_2_778
10
8.6494573
20
-1.2054464
40
3.0817019
50
62.0811273
51
62.340405
0
ARC
8
DEFAULT_255_2_778
10
10.0462699
20
1.4572772
40
0.0748544
50
63.1850654
51
70.4768624
0
ARC
8
DEFAULT_255_2_778
10
10.0115604
20
1.3487036
40
0.1888189
50
71.5602239
51
78.6045609
0
ARC
8
DEFAULT_255_2_778
10
9.8904009
20
0.8086749
40
0.7422387
50
77.672604
51
78.6211615
0
ARC
8
DEFAULT_255_2_778
10
11.2636153
20
2.5981012
40
1.5036535
50
207.7830932
51
210.8151701
0
ARC
8
DEFAULT_255_2_778
10
14.9337839
20
4.5242747
40
5.6485625
50
206.5082691
51
207.7157601
0
ARC
8
DEFAULT_255_2_778
10
-9.9780779
20
-8.0064264
40
22.2373048
50
26.7517865
51
26.7758973
0
ARC
8
DEFAULT_255_2_778
10
10.7368127
20
2.5507801
40
1.0167556
50
208.9885673
51
212.0304031
0
ARC
8
DEFAULT_255_2_778
10
9.782668
20
2.0256564
40
0.0724095
50
26.5525124
51
58.0913969
0
ARC
8
DEFAULT_255_2_778
10
8.8855765
20
1.6747269
40
1.0222419
50
23.792427
51
30.5426201
0
ARC
8
DEFAULT_255_2_778
10
33.1115047
20
15.9911192
40
27.1176709
50
210.3151266
51
210.582555
0
ARC
8
DEFAULT_255_2_778
10
10.4658934
20
2.8112406
40
0.917472
50
209.0690768
51
213.6146299
0
ARC
8
DEFAULT_255_2_778
10
10.2932892
20
2.7190063
40
0.721804
50
202.6269402
51
209.3267523
0
ARC
8
DEFAULT_255_2_778
10
10.1040092
20
2.6365952
40
0.5153971
50
201.999972
51
202.2660526
0
ARC
8
DEFAULT_255_2_778
10
8.7460641
20
2.0505946
40
0.9638098
50
24.059414
51
30.949756
0
ARC
8
DEFAULT_255_2_778
10
-331.7563223
20
-194.2706796
40
394.0080904
50
29.9685888
51
29.9699961
0
ARC
8
DEFAULT_255_2_778
10
10.4116165
20
3.0589437
40
0.9830144
50
204.6583121
51
210.864194
0
ARC
8
DEFAULT_255_2_778
10
9.607267
20
3.4050177
40
0.4397384
50
205.4395578
51
212.7045012
0
LINE
8
DEFAULT_255_2_778
10
9.2101661
20
3.2161242
11
9.2099411
21
3.2165742
0
ARC
8
DEFAULT_255_2_778
10
8.8027863
20
3.0227803
40
0.4509226
50
25.4530974
51
32.4643647
0
ARC
8
DEFAULT_255_2_778
10
8.816017
20
3.1257435
40
0.3926792
50
20.7434485
51
35.7659797
0
ARC
8
DEFAULT_255_2_778
10
9.5317035
20
3.6455967
40
0.4918909
50
205.0116177
51
216.1751857
0
ARC
8
DEFAULT_255_2_778
10
8.4190285
20
3.2073683
40
0.7055425
50
19.0475712
51
27.2436722
0
ARC
8
DEFAULT_255_2_778
10
-34.5539719
20
-18.9437355
40
49.0516919
50
27.2691762
51
27.3886616
0
ARC
8
DEFAULT_255_2_778
10
10.4298511
20
4.4710316
40
1.6638905
50
207.2550496
51
210.7128126
0
ARC
8
DEFAULT_255_2_778
10
15.053276
20
6.8672724
40
6.8713838
50
206.5303106
51
207.3625681
0
ARC
8
DEFAULT_255_2_778
10
-20.0385578
20
-10.7544171
40
32.3964469
50
26.6922821
51
26.7057456
0
ARC
8
DEFAULT_255_2_778
10
8.0213259
20
3.8837435
40
0.7330456
50
26.902235
51
31.1343104
0
ARC
8
DEFAULT_255_2_778
10
7.5897325
20
3.6292839
40
1.23405
50
30.8860523
51
31.123074
0
ARC
8
DEFAULT_255_2_778
10
7.4255577
20
3.530171
40
1.4258228
50
31.1225996
51
31.4218673
0
ARC
8
DEFAULT_255_2_778
10
10.4014219
20
5.4081447
40
2.0933157
50
208.5688023
51
212.822002
0
ARC
8
DEFAULT_255_2_778
10
9.4476473
20
4.8692994
40
0.9981333
50
206.6996778
51
207.585487
0
ARC
8
DEFAULT_255_2_778
10
9.3858161
20
5.338755
40
1.1551968
50
208.0551737
51
214.7664427
0
ARC
8
DEFAULT_255_2_778
10
6.1324925
20
3.6017485
40
2.5327984
50
28.1183204
51
31.3010192
0
ARC
8
DEFAULT_255_2_778
10
8.1824818
20
4.8741611
40
0.1221532
50
20.8430018
51
30.2016617
0
ARC
8
DEFAULT_255_2_778
10
7.3452209
20
4.4049904
40
1.0818923
50
29.3704747
51
32.1045311
0
ARC
8
DEFAULT_255_2_778
10
-15.3923979
20
-9.7232415
40
27.8513847
50
31.8648252
51
32.0008078
0
ARC
8
DEFAULT_255_2_778
10
12.7108292
20
7.8243179
40
5.2803061
50
211.7683177
51
211.8734815
0
ARC
8
DEFAULT_255_2_778
10
9.455182
20
5.8238887
40
1.4592704
50
208.4691317
51
212.2912757
0
ARC
8
DEFAULT_255_2_778
10
8.3281305
20
5.2164703
40
0.1789915
50
196.8565642
51
209.5200972
0
ARC
8
DEFAULT_255_2_778
10
8.194004
20
5.1733105
40
0.0381888
50
190.3885257
51
193.2357355
0
ARC
8
DEFAULT_255_2_778
10
7.5389299
20
4.9686011
40
0.6484243
50
17.7631499
51
19.272634
0
ARC
8
DEFAULT_255_2_778
10
7.965576
20
5.1168147
40
0.1967703
50
19.5384134
51
21.8017885
0
ARC
8
DEFAULT_255_2_778
10
7.8489886
20
5.0622414
40
0.3253706
50
23.09966
51
30.7580258
0
ARC
8
DEFAULT_255_2_778
10
2.8709846
20
2.2495036
40
6.0429859
50
29.5373517
51
30.0364397
0
ARC
8
DEFAULT_255_2_778
10
4.2070617
20
2.1333958
40
3.9914699
50
0.6992454
51
3.9726251
0
ARC
8
DEFAULT_255_2_778
10
-5.2888484
20
1.991135
40
13.4884346
50
359.8517067
51
0.8112323
0
ARC
8
DEFAULT_255_2_778
10
8.6566344
20
1.9718715
40
0.457361
50
181.9605936
51
188.949303
0
ARC
8
DEFAULT_255_2_778
10
7.7177691
20
1.8281141
40
0.4924544
50
1.0483688
51
8.4789169
0
ARC
8
DEFAULT_255_2_778
10
7.9458209
20
1.8317066
40
0.2643758
50
354.1421617
51
1.1742033
0
ARC
8
DEFAULT_255_2_778
10
8.1091704
20
1.8157217
40
0.1002508
50
334.3489072
51
353.7019716
0
ARC
8
DEFAULT_255_2_778
10
8.4763996
20
1.7517176
40
0.2768606
50
180.2262687
51
192.4588907
0
ARC
8
DEFAULT_255_2_778
10
9.6895846
20
2.0323582
40
1.5220712
50
192.9219226
51
195.2687963
0
ARC
8
DEFAULT_255_2_778
10
8.3026059
20
1.6333954
40
0.0813863
50
181.3173902
51
200.8341192
0
LINE
8
DEFAULT_255_2_778
10
8.2265411
20
1.6044492
11
8.2266147
21
1.6042242
0
ARC
8
DEFAULT_255_2_778
10
8.1514487
20
1.5756493
40
0.0804143
50
1.3360124
51
20.8146566
0
ARC
8
DEFAULT_255_2_778
10
8.1675988
20
1.5692433
40
0.0647738
50
299.2423334
51
7.3449715
0
ARC
8
DEFAULT_255_2_778
10
8.158551
20
1.4401995
40
0.0831596
50
60.7052786
51
91.6605656
0
ARC
8
DEFAULT_255_2_778
10
8.1592207
20
1.4756448
40
0.0477788
50
93.6956064
51
110.2297988
0
ARC
8
DEFAULT_255_2_778
10
8.1856369
20
1.3910819
40
0.1363323
50
108.3575867
51
111.3892966
0
ARC
8
DEFAULT_255_2_778
10
8.2046751
20
1.3419099
40
0.1890609
50
111.3267733
51
115.3795569
0
ARC
8
DEFAULT_255_2_778
10
8.2192524
20
1.3651711
40
0.1758222
50
122.9423681
51
135.8048821
0
ARC
8
DEFAULT_255_2_778
10
8.0608281
20
1.5177051
40
0.0441085
50
306.3429633
51
317.2026185
0
ARC
8
DEFAULT_255_2_778
10
8.0806844
20
1.4912961
40
0.0110746
50
268.7413216
51
304.5652416
0
ARC
8
DEFAULT_255_2_778
10
8.08043
20
1.4918159
40
0.0115916
50
207.1550188
51
270.0548525
0
ARC
8
DEFAULT_255_2_778
10
7.9962925
20
1.443894
40
0.0852487
50
30.0054805
51
42.8997046
0
ARC
8
DEFAULT_255_2_778
10
8.0114972
20
1.5532591
40
0.0391244
50
275.7574226
51
310.7599185
0
ARC
8
DEFAULT_255_2_778
10
7.9965048
20
1.6480035
40
0.1350035
50
268.9119173
51
278.0550297
0
ARC
8
DEFAULT_255_2_778
10
7.9981674
20
1.7266304
40
0.213648
50
257.1607083
51
268.8665373
0
ARC
8
DEFAULT_255_2_778
10
7.9032149
20
1.3100181
40
0.213648
50
77.1607083
51
88.8665373
0
ARC
8
DEFAULT_255_2_778
10
8.0550051
20
1.9758539
40
0.4756961
50
251.4027417
51
251.9283284
0
ARC
8
DEFAULT_255_2_778
10
7.7949566
20
1.2817166
40
0.2663143
50
65.9946822
51
81.8080947
0
ARC
8
DEFAULT_255_2_778
10
7.8317519
20
1.4827624
40
0.0625619
50
88.9452483
51
90.0098357
0
ARC
8
DEFAULT_255_2_778
10
7.8449737
20
1.4360268
40
0.1100955
50
96.9031809
51
109.1591408
0
ARC
8
DEFAULT_255_2_778
10
7.7719727
20
1.6599547
40
0.1254695
50
273.9259657
51
287.0882204
0
ARC
8
DEFAULT_255_2_778
10
7.7778252
20
1.6024146
40
0.0676903
50
270.0135136
51
272.3182703
0
ARC
8
DEFAULT_255_2_778
10
7.7655405
20
1.5871036
40
0.052407
50
262.9877652
51
271.8595681
0
ARC
8
DEFAULT_255_2_778
10
7.7862791
20
1.6344901
40
0.103039
50
239.9239046
51
254.7304126
0
ARC
8
DEFAULT_255_2_778
10
7.6902942
20
1.4669423
40
0.0900576
50
60.4996981
51
99.2776455
0
ARC
8
DEFAULT_255_2_778
10
7.6713401
20
-2.4044194
40
3.9602436
50
89.9358335
51
90.0216874
0
ARC
8
DEFAULT_255_2_778
10
7.672556
20
1.3649681
40
0.1908755
50
90.8149625
51
103.4940985
0
ARC
8
DEFAULT_255_2_778
10
7.5860947
20
1.7091554
40
0.1640286
50
272.8117872
51
284.8076042
0
ARC
8
DEFAULT_255_2_778
10
7.5130038
20
1.6648413
40
0.1444562
50
293.58758
51
304.1716763
0
ARC
8
DEFAULT_255_2_778
10
7.5000058
20
1.7069049
40
0.1882709
50
279.5084403
51
292.0901928
0
ARC
8
DEFAULT_255_2_778
10
8.3919807
20
-3.1473662
40
4.7472946
50
100.4478145
51
100.9989307
0
ARC
8
DEFAULT_255_2_778
10
7.5670775
20
1.5810925
40
0.1058713
50
187.6054269
51
220.2232277
0
ARC
8
DEFAULT_255_2_778
10
7.124451
20
1.4950163
40
0.3452902
50
12.0465146
51
17.5656255
0
ARC
8
DEFAULT_255_2_778
10
3.6813808
20
4.3984516
40
3.7500751
50
359.839157
51
0.8130611
0
ARC
8
DEFAULT_255_2_778
10
6.5570696
20
4.4490188
40
0.8740128
50
0.1735109
51
8.7796937
0
ARC
8
DEFAULT_255_2_778
10
13.1446367
20
4.9390517
40
5.7348949
50
179.2439544
51
183.5652688
0
ARC
8
DEFAULT_255_2_778
10
8.2829286
20
5.4955961
40
0.895328
50
177.3660316
51
192.9124637
0
ARC
8
DEFAULT_255_2_778
10
27.7356998
20
5.5516337
40
20.3471588
50
179.9910158
51
180.0419361
0
ARC
8
DEFAULT_255_2_778
10
7.7015739
20
6.102644
40
0.5777614
50
115.6003359
51
124.0541712
0
ARC
8
DEFAULT_255_2_778
10
8.3455557
20
4.7987002
40
2.0320298
50
116.035496
51
116.0892553
0
ARC
8
DEFAULT_255_2_778
10
6.1200096
20
9.3534418
40
3.0373614
50
296.0449209
51
296.1038276
0
ARC
8
DEFAULT_255_2_778
10
7.6183671
20
6.3084676
40
0.3563421
50
111.7899529
51
117.0261765
0
ARC
8
DEFAULT_255_2_778
10
7.5210566
20
6.5543321
40
0.0919266
50
91.5680021
51
112.3561307
0
ARC
8
DEFAULT_255_2_778
10
7.6112843
20
6.5748823
40
0.0933751
50
94.0700675
51
130.1786681
0
ARC
8
DEFAULT_255_2_778
10
7.4097771
20
7.7638482
40
1.1130201
50
280.08395
51
280.4003354
0
ARC
8
DEFAULT_255_2_778
10
7.6038194
20
6.7547782
40
0.0859399
50
274.5954942
51
320.5089588
0
ARC
8
DEFAULT_255_2_778
10
7.8980732
20
6.4236512
40
0.3624759
50
90.2263705
51
124.7927231
0
ARC
8
DEFAULT_255_2_778
10
7.8934562
20
6.8341196
40
0.0481009
50
273.7965598
51
290.3265182
0
ARC
8
DEFAULT_255_2_778
10
7.8663198
20
6.9206624
40
0.1387577
50
288.4201991
51
291.3465271
0
ARC
8
DEFAULT_255_2_778
10
7.8469432
20
6.9707291
40
0.1924427
50
291.2937279
51
295.2855227
0
ARC
8
DEFAULT_255_2_778
10
7.9858703
20
6.7646642
40
0.0651617
50
82.8851535
51
150.5273951
0
ARC
8
DEFAULT_255_2_778
10
8.0196399
20
6.8002836
40
0.0387786
50
107.2941278
51
131.5063699
0
ARC
8
DEFAULT_255_2_778
10
8.0730638
20
6.6625677
40
0.1864225
50
108.715169
51
110.3902449
0
ARC
8
DEFAULT_255_2_778
10
7.9010978
20
7.2004806
40
0.3783511
50
287.2425251
51
295.2656466
0
ARC
8
DEFAULT_255_2_778
10
7.9145827
20
7.1655052
40
0.3409768
50
295.724922
51
297.0486966
0
ARC
8
DEFAULT_255_2_778
10
8.084428
20
6.8335113
40
0.0286209
50
351.5878733
51
98.4119162
0
ARC
8
DEFAULT_255_2_778
10
8.8949352
20
7.069006
40
0.8180922
50
197.0362353
51
210.2782288
0
ARC
8
DEFAULT_255_2_778
10
7.7877673
20
4.8657445
40
1.2100378
50
21.3270427
51
34.6959666
0
ARC
8
DEFAULT_255_2_778
10
7.2901064
20
4.3149375
40
1.9031407
50
26.6783298
51
31.3764435
0
ARC
8
DEFAULT_255_2_778
10
13.7068215
20
7.5464988
40
5.2813729
50
206.7493845
51
208.5200147
0
ARC
8
DEFAULT_255_2_778
10
9.4642458
20
5.1940155
40
0.4323816
50
203.0354706
51
213.5719095
0
LINE
8
DEFAULT_255_2_778
10
9.1039887
20
4.9549158
11
9.1044629
21
4.9541567
0
ARC
8
DEFAULT_255_2_778
10
8.7452195
20
4.7156572
40
0.4312051
50
23.0695549
51
33.5799429
0
ARC
8
DEFAULT_255_2_778
10
10.607125
20
5.2944326
40
1.4842886
50
201.7539144
51
209.5859593
0
ARC
8
DEFAULT_255_2_778
10
2.8221382
20
0.9437745
40
7.4339494
50
28.2396495
51
29.1214318
0
ARC
8
DEFAULT_255_2_778
10
8.3065533
20
3.8918293
40
1.2074088
50
23.6989488
51
28.1372704
0
ARC
8
DEFAULT_255_2_778
10
8.8337417
20
3.9917584
40
0.69502
50
20.1977408
51
33.6740324
0
ARC
8
DEFAULT_255_2_778
10
10.8459162
20
4.7642001
40
1.4604261
50
201.3832627
51
205.8066673
0
ARC
8
DEFAULT_255_2_778
10
9.5578259
20
6.6801551
40
0.3445536
50
343.2965753
51
351.1919858
0
ARC
8
DEFAULT_255_2_778
10
10.0458289
20
6.6079155
40
0.1487934
50
156.3413917
51
172.477201
0
ARC
8
DEFAULT_255_2_778
10
10.5843098
20
5.993345
40
0.953921
50
134.9041253
51
135.0207857
0
ARC
8
DEFAULT_255_2_778
10
9.9535812
20
6.6344065
40
0.0549259
50
90.9806474
51
140.9673734
0
ARC
8
DEFAULT_255_2_778
10
10.0276116
20
7.0987856
40
0.4162682
50
259.6243391
51
266.1623823
0
ARC
8
DEFAULT_255_2_778
10
10.0035657
20
6.583318
40
0.1002054
50
47.4806571
51
92.1816133
0
ARC
8
DEFAULT_255_2_778
10
9.9871408
20
6.5720504
40
0.1196949
50
45.0248984
51
45.3304705
0
ARC
8
DEFAULT_255_2_778
10
10.048589
20
6.902336
40
0.2467005
50
275.3849628
51
282.0102627
0
ARC
8
DEFAULT_255_2_778
10
10.4707463
20
4.6121629
40
2.0821596
50
100.1049245
51
100.258817
0
ARC
8
DEFAULT_255_2_778
10
10.2659777
20
5.7632188
40
0.9130318
50
99.540967
51
100.1276433
0
ARC
8
DEFAULT_255_2_778
10
10.1559214
20
6.4450914
40
0.2223946
50
92.1853235
51
100.6973919
0
ARC
8
DEFAULT_255_2_778
10
10.2139839
20
6.8683491
40
0.2117521
50
251.6845551
51
271.9876718
0
LINE
8
DEFAULT_255_2_778
10
10.2213284
20
6.6567244
11
10.2230411
21
6.6567242
0
ARC
8
DEFAULT_255_2_778
10
10.2219663
20
6.8230152
40
0.1662945
50
270.3703119
51
284.5090646
0
ARC
8
DEFAULT_255_2_778
10
10.3050751
20
6.5303127
40
0.1380787
50
97.1281142
51
107.4675406
0
ARC
8
DEFAULT_255_2_778
10
10.2943043
20
6.3920887
40
0.2752666
50
81.9383004
51
89.1389061
0
ARC
8
DEFAULT_255_2_778
10
10.2152657
20
5.7735079
40
0.8988588
50
81.2999462
51
82.4796024
0
ARC
8
DEFAULT_255_2_778
10
10.4160505
20
7.0172464
40
0.3610882
50
259.6583137
51
266.7916017
0
ARC
8
DEFAULT_255_2_778
10
10.514949
20
6.7233925
40
0.0666682
50
269.9932382
51
271.4653586
0
ARC
8
DEFAULT_255_2_778
10
10.4745364
20
6.9370575
40
0.2834579
50
278.5449177
51
294.1576617
0
ARC
8
DEFAULT_255_2_778
10
10.5886523
20
6.7600843
40
0.0816819
50
271.3250527
51
290.7966457
0
LINE
8
DEFAULT_255_2_778
10
10.6176536
20
6.6837242
11
10.6179964
21
6.6838362
0
ARC
8
DEFAULT_255_2_778
10
10.6464312
20
6.6088501
40
0.0801964
50
91.3505061
51
110.7668007
0
ARC
8
DEFAULT_255_2_778
10
11.4879992
20
6.4185818
40
0.8445412
50
166.6612425
51
182.9020223
0
ARC
8
DEFAULT_255_2_778
10
10.005596
20
2.630715
40
0.670924
50
352.7203019
51
358.6769935
0
LINE
8
DEFAULT_255_2_778
10
10.6711121
20
2.5457001
11
10.6710411
21
2.5450492
0
ARC
8
DEFAULT_255_2_778
10
11.3424794
20
2.4590168
40
0.6769276
50
172.6983891
51
178.6449913
0
ARC
8
DEFAULT_255_2_778
10
11.0721097
20
2.4877168
40
0.4065668
50
181.7890006
51
189.3384117
0
LINE
8
DEFAULT_255_2_778
10
10.6709312
20
2.4217451
11
10.6710411
21
2.4209617
0
ARC
8
DEFAULT_255_2_778
10
10.2642381
20
2.3537345
40
0.4123205
50
1.8609483
51
9.3837378
0
ARC
8
DEFAULT_255_2_778
10
9.9971787
20
2.2674816
40
0.686433
50
3.3685045
51
8.3465491
0
ARC
8
DEFAULT_255_2_778
10
7.2262164
20
2.0834698
40
3.4634827
50
2.3978958
51
3.7138993
0
ARC
8
DEFAULT_255_2_778
10
17.7389141
20
2.504157
40
7.0576379
50
182.2394149
51
183.7025531
0
ARC
8
DEFAULT_255_2_778
10
13.5766666
20
2.2503188
40
2.8877274
50
184.0096197
51
184.5502775
0
ARC
8
DEFAULT_255_2_778
10
11.5288227
20
1.7026143
40
0.820732
50
181.898499
51
193.3416701
0
ARC
8
DEFAULT_255_2_778
10
10.6902527
20
1.5023351
40
0.0760696
50
261.8948006
51
301.7142125
0
ARC
8
DEFAULT_255_2_778
10
10.6771374
20
3.5432083
40
2.1161841
50
269.9784421
51
270.0647146
0
ARC
8
DEFAULT_255_2_778
10
10.6771295
20
1.4292408
40
0.0023526
50
250.4206737
51
325.0655738
0
ARC
8
DEFAULT_255_2_778
10
10.6689187
20
1.4189512
40
0.0135195
50
41.4101407
51
81.5572323
0
ARC
8
DEFAULT_255_2_778
10
10.6346863
20
1.3114548
40
0.1261789
50
73.3196685
51
90.7016533
0
ARC
8
DEFAULT_255_2_778
10
12.3316038
20
1.6387602
40
0.2118448
50
193.300316
51
219.6706098
0
ARC
8
DEFAULT_255_2_778
10
12.1076733
20
1.6294041
40
0.0395757
50
239.4437517
51
264.2977687
0
ARC
8
DEFAULT_255_2_778
10
12.0412651
20
1.5028225
40
0.103437
50
63.416314
51
67.6990004
0
ARC
8
DEFAULT_255_2_778
10
12.0702842
20
1.5748361
40
0.0258023
50
66.6361216
51
88.0968718
0
ARC
8
DEFAULT_255_2_778
10
12.0716006
20
1.6682778
40
0.0676552
50
247.2761952
51
269.6108903
0
ARC
8
DEFAULT_255_2_778
10
12.0217855
20
1.5588192
40
0.0526778
50
63.2859423
51
83.1798252
0
ARC
8
DEFAULT_255_2_778
10
12.0294873
20
1.7927037
40
0.1815852
50
259.9827953
51
269.5436855
0
ARC
8
DEFAULT_255_2_778
10
12.1708014
20
2.6426291
40
1.0431708
50
259.6524609
51
260.4595197
0
ARC
8
DEFAULT_255_2_778
10
11.9291069
20
1.3409152
40
0.2808133
50
78.8461468
51
89.6869668
0
ARC
8
DEFAULT_255_2_778
10
11.9263418
20
1.4998255
40
0.1219745
50
87.980012
51
112.3661034
0
ARC
8
DEFAULT_255_2_778
10
11.9161804
20
1.5314791
40
0.0888751
50
114.0734747
51
116.3440567
0
ARC
8
DEFAULT_255_2_778
10
12.6093722
20
1.8790199
40
0.7326339
50
176.1762111
51
179.8432484
0
ARC
8
DEFAULT_255_2_778
10
14.5352369
20
1.7476928
40
2.6629705
50
175.0893388
51
176.1202201
0
ARC
8
DEFAULT_255_2_778
10
10.5174705
20
2.0977455
40
1.3700221
50
354.8870218
51
358.8615445
0
ARC
8
DEFAULT_255_2_778
10
10.8394443
20
2.0863171
40
1.0478968
50
359.136514
51
0.0003888
0
ARC
8
DEFAULT_255_2_778
10
11.1827455
20
2.2016066
40
0.7139643
50
350.7078875
51
354.5478311
0
ARC
8
DEFAULT_255_2_778
10
10.4808275
20
2.2478513
40
1.4172512
50
355.3829717
51
0.8229449
0
ARC
8
DEFAULT_255_2_778
10
-8.4218026
20
2.2873778
40
20.3197441
50
359.9459432
51
0.0119737
0
ARC
8
DEFAULT_255_2_778
10
12.380327
20
3.6579687
40
0.4806265
50
187.0334855
51
190.9437284
0
ARC
8
DEFAULT_255_2_778
10
12.944127
20
3.7072367
40
1.0464107
50
178.8124238
51
185.9306765
0
ARC
8
DEFAULT_255_2_778
10
12.1015371
20
4.3244481
40
0.2242588
50
182.0340889
51
197.2290803
0
ARC
8
DEFAULT_255_2_778
10
12.6214631
20
4.348926
40
0.7447503
50
179.5000628
51
182.4963171
0
ARC
8
DEFAULT_255_2_778
10
12.381195
20
4.5588686
40
0.5134036
50
184.2833722
51
190.7139099
0
ARC
8
DEFAULT_255_2_778
10
13.1742354
20
4.6114033
40
1.3081706
50
179.3815125
51
183.9836258
0
ARC
8
DEFAULT_255_2_778
10
12.3918711
20
4.847469
40
0.5356949
50
182.8688246
51
191.0685866
0
ARC
8
DEFAULT_255_2_778
10
13.2526403
20
4.8825254
40
1.3971633
50
179.4505232
51
182.5379374
0
ARC
8
DEFAULT_255_2_778
10
12.795188
20
5.1595273
40
0.9506931
50
178.2416821
51
188.7427074
0
ARC
8
DEFAULT_255_2_778
10
36.482074
20
5.1971359
40
24.6371329
50
179.9965387
51
180.019623
0
ARC
8
DEFAULT_255_2_778
10
12.0483555
20
5.2674508
40
0.2147429
50
175.2791904
51
198.6935789
0
ARC
8
DEFAULT_255_2_778
10
12.5448178
20
5.4762081
40
0.7301512
50
183.8604617
51
189.0924133
0
ARC
8
DEFAULT_255_2_778
10
13.6271656
20
5.5347349
40
1.8140413
50
179.3496788
51
183.4032057
0
ARC
8
DEFAULT_255_2_778
10
11.8960743
20
5.7036883
40
0.0921883
50
205.2342752
51
206.035574
0
ARC
8
DEFAULT_255_2_778
10
11.9685373
20
5.7233296
40
0.1666275
50
174.6298289
51
200.7163015
0
ARC
8
DEFAULT_255_2_778
10
11.6794988
20
5.7526893
40
0.1239093
50
353.6218313
51
17.4020002
0
ARC
8
DEFAULT_255_2_778
10
11.7920767
20
5.7862937
40
0.0066306
50
31.3911397
51
90.3069718
0
ARC
8
DEFAULT_255_2_778
10
11.6036001
20
6.644527
40
0.429166
50
345.6312133
51
351.7973098
0
ARC
8
DEFAULT_255_2_778
10
11.5819686
20
6.6431273
40
0.4503988
50
352.3661644
51
355.7450967
0
ARC
8
DEFAULT_255_2_778
10
12.0447606
20
6.6125348
40
0.0139241
50
59.4354769
51
191.7030121
0
ARC
8
DEFAULT_255_2_778
10
12.2336261
20
6.7383403
40
0.0813386
50
271.3491142
51
290.8423283
0
LINE
8
DEFAULT_255_2_778
10
12.2625661
20
6.6623242
11
12.2627954
21
6.6623992
0
ARC
8
DEFAULT_255_2_778
10
12.291357
20
6.5872993
40
0.0803477
50
91.3662976
51
110.8225346
0
ARC
8
DEFAULT_255_2_778
10
12.2889583
20
6.6808182
40
0.0132028
50
272.0957871
51
295.9764681
0
ARC
8
DEFAULT_255_2_778
10
12.2905319
20
6.6775063
40
0.0095363
50
296.1925685
51
4.3174682
0
ARC
8
DEFAULT_255_2_778
10
12.3000332
20
6.7462131
40
0.0679889
50
270.0066733
51
271.4376432
0
ARC
8
DEFAULT_255_2_778
10
12.2896711
20
6.8515728
40
0.1737469
50
273.9827828
51
284.7146156
0
ARC
8
DEFAULT_255_2_778
10
12.37829
20
6.5000861
40
0.1887553
50
90.7737081
51
103.6318584
0
ARC
8
DEFAULT_255_2_778
10
13.2081557
20
7.203053
40
0.5359297
50
258.318035
51
270.0375897
0
ARC
8
DEFAULT_255_2_778
10
13.208495
20
7.2162126
40
0.5490892
50
270.0012774
51
272.4472721
0
ARC
8
DEFAULT_255_2_778
10
13.227801
20
6.4552841
40
0.2123805
50
77.1672025
51
88.8830214
0
LINE
8
DEFAULT_255_2_778
10
13.2749722
20
6.6623599
11
13.2751536
21
6.6623242
0
ARC
8
DEFAULT_255_2_778
10
13.3226042
20
6.8704493
40
0.2134657
50
257.1566393
51
268.8825426
0
ARC
8
DEFAULT_255_2_778
10
13.3634493
20
6.6985251
40
0.0612214
50
222.678344
51
232.9440437
0
ARC
8
DEFAULT_255_2_778
10
13.3440273
20
6.6877275
40
0.0418778
50
245.3446869
51
279.5027451
0
ARC
8
DEFAULT_255_2_778
10
13.3755748
20
6.6704595
40
0.0344167
50
224.2956054
51
267.6534314
0
ARC
8
DEFAULT_255_2_778
10
13.3819875
20
6.7547164
40
0.1189025
50
266.2281423
51
270.7486851
0
ARC
8
DEFAULT_255_2_778
10
13.3956305
20
6.5538903
40
0.0828211
50
59.5996771
51
98.3934584
0
ARC
8
DEFAULT_255_2_778
10
13.524019
20
6.926746
40
0.3135818
50
253.9918247
51
264.0577628
0
ARC
8
DEFAULT_255_2_778
10
13.4292939
20
6.0606666
40
0.5576691
50
76.8102353
51
83.5898145
0
ARC
8
DEFAULT_255_2_778
10
13.9876817
20
7.2015854
40
0.7038256
50
253.1649098
51
256.4156737
0
ARC
8
DEFAULT_255_2_778
10
13.8227381
20
6.5016825
40
0.015771
50
16.7370388
51
91.3381118
0
ARC
8
DEFAULT_255_2_778
10
13.6672564
20
5.9694232
40
0.5564883
50
62.5200657
51
71.0098105
0
ARC
8
DEFAULT_255_2_778
10
13.7674732
20
6.0774462
40
0.4162464
50
60.0347868
51
67.9050571
0
ARC
8
DEFAULT_255_2_778
10
13.0855068
20
4.9584477
40
1.7265862
50
54.9031355
51
58.9762646
0
ARC
8
DEFAULT_255_2_778
10
16.158873
20
9.4601937
40
3.7244521
50
236.0378435
51
236.1863846
0
ARC
8
DEFAULT_255_2_778
10
13.8949742
20
5.9965929
40
0.4157414
50
51.7308639
51
62.6088806
0
ARC
8
DEFAULT_255_2_778
10
13.393192
20
5.3793116
40
1.211213
50
42.9201973
51
51.1803585
0
LINE
8
DEFAULT_255_2_778
10
14.2801668
20
6.2041224
11
14.2807411
21
6.2035242
0
ARC
8
DEFAULT_255_2_778
10
14.3353802
20
6.2150088
40
0.0467568
50
225.2126994
51
250.5627501
0
ARC
8
DEFAULT_255_2_778
10
14.3503445
20
6.2650771
40
0.0989842
50
252.0389497
51
266.0205206
0
ARC
8
DEFAULT_255_2_778
10
14.3463337
20
6.1556571
40
0.0110506
50
23.8436943
51
104.9916116
0
ARC
8
DEFAULT_255_2_778
10
13.7690062
20
5.6721684
40
0.7636627
50
32.7114093
51
39.7148865
0
ARC
8
DEFAULT_255_2_778
10
14.216444
20
5.9598214
40
0.2317372
50
12.2078323
51
32.6537545
0
ARC
8
DEFAULT_255_2_778
10
14.360616
20
5.9638347
40
0.0938162
50
8.0806866
51
28.6559961
0
ARC
8
DEFAULT_255_2_778
10
14.4418059
20
5.9760301
40
0.0117368
50
0.947762
51
4.8489152
0
ARC
8
DEFAULT_255_2_778
10
14.273117
20
5.8902333
40
0.1998682
50
17.3500767
51
25.4826722
0
ARC
8
DEFAULT_255_2_778
10
18.7317424
20
7.3738571
40
4.4991544
50
198.4519132
51
198.4655081
0
ARC
8
DEFAULT_255_2_778
10
14.6248473
20
5.9994671
40
0.1684131
50
197.5003906
51
207.2618344
0
ARC
8
DEFAULT_255_2_778
10
14.9685044
20
5.9258672
40
0.4733842
50
198.0202677
51
198.5497819
0
ARC
8
DEFAULT_255_2_778
10
14.2698888
20
5.6647703
40
0.2731716
50
8.5582137
51
23.8602683
0
ARC
8
DEFAULT_255_2_778
10
14.4756925
20
5.7037243
40
0.0643486
50
359.9999313
51
1.5118711
0
ARC
8
DEFAULT_255_2_778
10
12.4537894
20
5.3835875
40
2.1186092
50
359.5074973
51
5.7493858
0
ARC
8
DEFAULT_255_2_778
10
1.0759394
20
5.3412207
40
13.4964027
50
359.9800625
51
0.1025483
0
ARC
8
DEFAULT_255_2_778
10
14.4066929
20
5.0062037
40
0.1763235
50
356.4452066
51
20.0395413
0
ARC
8
DEFAULT_255_2_778
10
12.0506277
20
4.9656212
40
2.532223
50
359.8439454
51
0.6708951
0
ARC
8
DEFAULT_255_2_778
10
14.4188057
20
4.7902968
40
0.1748116
50
356.4166898
51
20.2228088
0
ARC
8
DEFAULT_255_2_778
10
12.0856896
20
4.7497213
40
2.5077612
50
359.8424203
51
0.6774367
0
ARC
8
DEFAULT_255_2_778
10
14.872316
20
4.7217352
40
0.2796711
50
175.6754278
51
194.8281381
0
ARC
8
DEFAULT_255_2_778
10
14.6632007
20
4.674254
40
0.0658105
50
201.474452
51
205.9810308
0
ARC
8
DEFAULT_255_2_778
10
15.1432361
20
4.5066296
40
0.5395545
50
177.9081433
51
187.0196664
0
ARC
8
DEFAULT_255_2_778
10
14.6899247
20
4.4540125
40
0.0832714
50
189.2058508
51
205.3011926
0
ARC
8
DEFAULT_255_2_778
10
15.0012711
20
4.41885
40
0.3866302
50
180.0630901
51
189.2723296
0
ARC
8
DEFAULT_255_2_778
10
16.9482923
20
4.7054199
40
2.3545877
50
188.5205778
51
188.561279
0
ARC
8
DEFAULT_255_2_778
10
11.7056183
20
3.9121519
40
2.9477623
50
8.4366835
51
8.6383878
0
ARC
8
DEFAULT_255_2_778
10
14.3299924
20
4.2976409
40
0.2952535
50
0.3266555
51
9.1588152
0
ARC
8
DEFAULT_255_2_778
10
14.4198103
20
4.0792002
40
0.2166531
50
355.3202246
51
18.5220138
0
ARC
8
DEFAULT_255_2_778
10
14.110331
20
3.9529504
40
0.536511
50
359.9649608
51
11.6755977
0
ARC
8
DEFAULT_255_2_778
10
14.1003993
20
3.9526235
40
0.5464427
50
358.7104313
51
359.999873
0
ARC
8
DEFAULT_255_2_778
10
14.0998634
20
3.9526204
40
0.5469783
50
357.5485153
51
358.7120209
0
ARC
8
DEFAULT_255_2_778
10
14.7609257
20
3.9131931
40
0.1157006
50
172.0356471
51
203.7965455
0
ARC
8
DEFAULT_255_2_778
10
14.6740348
20
3.8809295
40
0.0238313
50
217.236356
51
224.1696809
0
ARC
8
DEFAULT_255_2_778
10
14.5902685
20
3.7588981
40
0.0780751
50
351.7762412
51
31.3555081
0
ARC
8
DEFAULT_255_2_778
10
11.6253827
20
3.7460757
40
3.0421585
50
359.9896145
51
0.0311632
0
ARC
8
DEFAULT_255_2_778
10
14.8830937
20
3.7566211
40
0.215838
50
182.9470387
51
193.0630371
0
LINE
8
DEFAULT_255_2_778
10
14.6728411
20
3.7078367
11
14.67295
21
3.7072814
0
ARC
8
DEFAULT_255_2_778
10
14.4657919
20
3.6594552
40
0.2126072
50
2.8224448
51
12.9999896
0
ARC
8
DEFAULT_255_2_778
10
14.4890348
20
3.5499129
40
0.2002965
50
355.5235657
51
19.2425723
0
ARC
8
DEFAULT_255_2_778
10
10.7969819
20
3.5212644
40
3.8917603
50
359.9596586
51
0.191619
0
ARC
8
DEFAULT_255_2_778
10
14.367923
20
3.4336973
40
0.3318431
50
359.9697544
51
14.8105464
0
ARC
8
DEFAULT_255_2_778
10
14.3636939
20
3.4335198
40
0.3360723
50
357.9033098
51
0.0003953
0
ARC
8
DEFAULT_255_2_778
10
15.2405276
20
3.3835949
40
0.5410152
50
180.5899646
51
188.0482225
0
LINE
8
DEFAULT_255_2_778
10
14.7048411
20
3.3078492
11
14.7048786
21
3.3075436
0
ARC
8
DEFAULT_255_2_778
10
14.1721503
20
3.2322751
40
0.5380193
50
0.5909566
51
8.0420111
0
ARC
8
DEFAULT_255_2_778
10
13.7126736
20
3.0899118
40
1.0083747
50
358.5857453
51
8.4348066
0
ARC
8
DEFAULT_255_2_778
10
16.034691
20
2.893027
40
1.3251593
50
172.5423325
51
181.7378067
0
LINE
8
DEFAULT_255_2_778
10
14.7101412
20
2.8528405
11
14.7101411
21
2.8489242
0
ARC
8
DEFAULT_255_2_778
10
14.5856406
20
2.8483306
40
0.124502
50
343.2197749
51
0.2731822
0
ARC
8
DEFAULT_255_2_778
10
15.2522513
20
2.6545145
40
0.5697206
50
163.9125198
51
164.8552529
0
ARC
8
DEFAULT_255_2_778
10
14.7726015
20
2.7833981
40
0.0730632
50
164.1453755
51
179.5089785
0
ARC
8
DEFAULT_255_2_778
10
14.9408478
20
2.677762
40
0.262484
50
163.6791379
51
172.1484029
0
ARC
8
DEFAULT_255_2_778
10
14.2248207
20
2.7678623
40
0.4592188
50
340.3635274
51
353.2163772
0
ARC
8
DEFAULT_255_2_778
10
14.4266056
20
2.7050563
40
0.2482138
50
337.8132608
51
338.3648872
0
ARC
8
DEFAULT_255_2_778
10
14.5464785
20
2.6246317
40
0.1107649
50
340.8927914
51
353.0997483
0
ARC
8
DEFAULT_255_2_778
10
14.7732268
20
2.5510581
40
0.1276613
50
163.0039585
51
175.7417508
0
ARC
8
DEFAULT_255_2_778
10
14.7142288
20
2.5572927
40
0.0683879
50
177.2806902
51
179.9735827
0
ARC
8
DEFAULT_255_2_778
10
14.67463
20
2.5145936
40
0.0508316
50
140.7948897
51
168.8017629
0
ARC
8
DEFAULT_255_2_778
10
14.4514965
20
2.5673578
40
0.1784996
50
336.0613973
51
346.0960989
0
ARC
8
DEFAULT_255_2_778
10
14.5341275
20
2.533715
40
0.0893687
50
332.6986991
51
334.2792804
0
ARC
8
DEFAULT_255_2_778
10
14.710701
20
2.4335305
40
0.1137714
50
148.6485141
51
174.5709174
0
LINE
8
DEFAULT_255_2_778
10
14.5974399
20
2.4442948
11
14.5974036
21
2.4440742
0
ARC
8
DEFAULT_255_2_778
10
14.4852473
20
2.454719
40
0.1126604
50
328.2431833
51
354.5782807
0
ARC
8
DEFAULT_255_2_778
10
14.56726
20
2.2495841
40
0.0550035
50
136.5313414
51
156.3759295
0
ARC
8
DEFAULT_255_2_778
10
14.3609034
20
2.3482672
40
0.1737764
50
332.1770374
51
333.8301429
0
ARC
8
DEFAULT_255_2_778
10
14.4723422
20
2.2886713
40
0.0474098
50
314.6170595
51
333.014789
0
ARC
8
DEFAULT_255_2_778
10
14.4850159
20
2.2699905
40
0.025542
50
269.5959638
51
323.8526846
0
ARC
8
DEFAULT_255_2_778
10
13.7473982
20
5.1698287
40
3.0168957
50
284.1339157
51
284.1484995
0
ARC
8
DEFAULT_255_2_778
10
14.4838664
20
2.2181439
40
0.0261188
50
89.5071205
51
144.7337863
0
ARC
8
DEFAULT_255_2_778
10
14.3441216
20
2.1670616
40
0.0715937
50
312.2292158
51
334.1309987
0
ARC
8
DEFAULT_255_2_778
10
14.4763008
20
2.02649
40
0.1213792
50
133.8323736
51
138.5546308
0
ARC
8
DEFAULT_255_2_778
10
14.4371982
20
2.0621829
40
0.0684485
50
139.2851288
51
153.500234
0
ARC
8
DEFAULT_255_2_778
10
13.7662932
20
2.4895829
40
0.7274389
50
312.4143103
51
326.9373375
0
ARC
8
DEFAULT_255_2_778
10
14.0317011
20
2.1234375
40
0.2827444
50
299.9791068
51
322.8085939
0
ARC
8
DEFAULT_255_2_778
10
-9.0930998
20
36.7214503
40
41.8967815
50
303.7285163
51
303.7326977
0
ARC
8
DEFAULT_255_2_778
10
14.1247885
20
1.8961682
40
0.0495818
50
319.2370379
51
337.0366752
0
ARC
8
DEFAULT_255_2_778
10
14.1464234
20
1.8795762
40
0.0224161
50
302.5127496
51
315.2487698
0
ARC
8
DEFAULT_255_2_778
10
14.206707
20
1.7793911
40
0.094517
50
120.6861119
51
135.0209104
0
ARC
8
DEFAULT_255_2_778
10
14.2600893
20
1.7220292
40
0.1728473
50
134.0786303
51
135.0124754
0
ARC
8
DEFAULT_255_2_778
10
13.3588026
20
2.9308992
40
1.3585169
50
298.7072118
51
301.1797923
0
ARC
8
DEFAULT_255_2_778
10
13.2214806
20
3.1820265
40
1.6447375
50
297.6526612
51
298.7008767
0
ARC
8
DEFAULT_255_2_778
10
11.5963384
20
6.3312385
40
5.1885305
50
296.3580854
51
297.4089724
0
ARC
8
DEFAULT_255_2_778
10
13.5448006
20
2.3017854
40
0.7038256
50
283.5843263
51
286.8350902
0
ARC
8
DEFAULT_255_2_778
10
13.7097442
20
1.6018825
40
0.015771
50
88.6618882
51
163.2629612
0
ARC
8
DEFAULT_255_2_778
10
13.6790169
20
1.612469
40
0.0167527
50
257.5714015
51
338.8491957
0
ARC
8
DEFAULT_255_2_778
10
13.6661029
20
1.7443731
40
0.1485562
50
269.5837866
51
273.5924782
0
ARC
8
DEFAULT_255_2_778
10
13.6653474
20
2.4806726
40
0.8848519
50
269.882547
51
269.9790435
0
ARC
8
DEFAULT_255_2_778
10
13.6617309
20
0.7401008
40
0.8557236
50
89.8793074
51
89.9725355
0
ARC
8
DEFAULT_255_2_778
10
13.5858022
20
1.6687828
40
0.094314
50
279.9755964
51
297.6299215
0
ARC
8
DEFAULT_255_2_778
10
13.5808751
20
1.7424524
40
0.1679098
50
268.2137297
51
277.2757877
0
ARC
8
DEFAULT_255_2_778
10
13.5305919
20
1.616177
40
0.0612868
50
307.0789244
51
317.3120063
0
ARC
8
DEFAULT_255_2_778
10
13.5499956
20
1.6054859
40
0.0420409
50
260.4782566
51
294.6692752
0
ARC
8
DEFAULT_255_2_778
10
13.4565436
20
1.6438949
40
0.1002507
50
276.2980284
51
295.6510928
0
ARC
8
DEFAULT_255_2_778
10
13.4405588
20
1.8072445
40
0.2643758
50
268.8257967
51
275.8578383
0
ARC
8
DEFAULT_255_2_778
10
13.2633371
20
2.8963322
40
1.364269
50
268.8779946
51
277.2345339
0
LINE
8
DEFAULT_255_2_778
10
13.2366228
20
1.5323247
11
13.2298411
21
1.5323242
0
ARC
8
DEFAULT_255_2_778
10
13.1861283
20
1.615894
40
0.0943118
50
279.9262804
51
297.6127067
0
ARC
8
DEFAULT_255_2_778
10
13.1810739
20
1.6904251
40
0.168782
50
268.22337
51
277.2540555
0
ARC
8
DEFAULT_255_2_778
10
13.1647901
20
1.5002812
40
0.0241232
50
62.7348247
51
153.28936
0
ARC
8
DEFAULT_255_2_778
10
12.2513358
20
2.9587627
40
1.4694392
50
267.9110489
51
270.6708784
0
ARC
8
DEFAULT_255_2_778
10
12.1902795
20
1.5109116
40
0.0219315
50
209.763688
51
289.9799897
0
ARC
8
DEFAULT_255_2_778
10
12.8090924
20
1.5642529
40
0.6309177
50
82.5357269
51
89.305376
0
ARC
8
DEFAULT_255_2_778
10
12.9703922
20
2.7641897
40
0.5798192
50
262.1353591
51
268.6805787
0
ARC
8
DEFAULT_255_2_778
10
12.9672906
20
2.2357728
40
0.0522634
50
258.6903199
51
308.9437358
0
ARC
8
DEFAULT_255_2_778
10
13.0051855
20
1.9097846
40
0.2858254
50
78.4521847
51
86.6593646
0
ARC
8
DEFAULT_255_2_778
10
13.122651
20
2.5285071
40
0.3439997
50
259.9133172
51
269.4320476
0
ARC
8
DEFAULT_255_2_778
10
13.1064188
20
2.5922277
40
0.407905
50
271.8013649
51
279.3568126
0
LINE
8
DEFAULT_255_2_778
10
13.1727369
20
2.1897499
11
13.1732661
21
2.1898242
0
ARC
8
DEFAULT_255_2_778
10
13.2404352
20
1.7835163
40
0.4118226
50
91.8498915
51
99.3869923
0
ARC
8
DEFAULT_255_2_778
10
13.3435223
20
2.1324469
40
0.0838124
50
88.3461917
51
119.037592
0
ARC
8
DEFAULT_255_2_778
10
13.569514
20
1.6591273
40
0.6002848
50
106.7906176
51
111.8664678
0
ARC
8
DEFAULT_255_2_778
10
20.0249916
20
-19.4495039
40
22.6739641
50
106.9631569
51
106.9990998
0
ARC
8
DEFAULT_255_2_778
10
13.1973075
20
2.9325247
40
0.7263025
50
287.0043426
51
287.8326172
0
ARC
8
DEFAULT_255_2_778
10
13.3251563
20
2.5404291
40
0.3138973
50
287.5347291
51
296.4642254
0
ARC
8
DEFAULT_255_2_778
10
14.6502562
20
1.5581847
40
1.314797
50
140.3918862
51
143.2084286
0
ARC
8
DEFAULT_255_2_778
10
13.7701288
20
2.2699655
40
0.1833857
50
135.0063924
51
136.4088886
0
ARC
8
DEFAULT_255_2_778
10
14.7196075
20
1.9210368
40
1.1647836
50
153.9100855
51
153.9737324
0
ARC
8
DEFAULT_255_2_778
10
14.2180544
20
2.1712958
40
0.6042916
50
146.158497
51
154.3069182
0
ARC
8
DEFAULT_255_2_778
10
13.5847194
20
2.6504102
40
0.1939134
50
312.666811
51
323.5784007
0
ARC
8
DEFAULT_255_2_778
10
13.7032977
20
2.5608503
40
0.0453538
50
325.6804709
51
1.2304204
0
ARC
8
DEFAULT_255_2_778
10
13.7463058
20
2.6295579
40
0.0344167
50
314.2956054
51
357.6534314
0
ARC
8
DEFAULT_255_2_778
10
13.662049
20
2.6359706
40
0.1189025
50
356.2281423
51
0.7486851
0
ARC
8
DEFAULT_255_2_778
10
13.7903273
20
2.6383354
40
0.0094212
50
115.7042609
51
184.9392092
0
ARC
8
DEFAULT_255_2_778
10
13.7916713
20
2.6351657
40
0.0128611
50
90.9586399
51
114.9746835
0
ARC
8
DEFAULT_255_2_778
10
12.9788069
20
3.0132696
40
0.8910337
50
335.8006981
51
337.4750399
0
ARC
8
DEFAULT_255_2_778
10
13.8132711
20
2.668798
40
0.0118262
50
90.1452065
51
164.6577966
0
ARC
8
DEFAULT_255_2_778
10
14.5387766
20
2.4877808
40
0.7640739
50
152.9417921
51
153.2722566
0
ARC
8
DEFAULT_255_2_778
10
13.3033383
20
3.1417387
40
0.6339495
50
331.0992237
51
335.5972278
0
ARC
8
DEFAULT_255_2_778
10
13.7670134
20
2.9239971
40
0.1219234
50
338.7580821
51
2.2690418
0
ARC
8
DEFAULT_255_2_778
10
14.1105395
20
3.416276
40
0.2311582
50
182.9647791
51
196.4481235
0
ARC
8
DEFAULT_255_2_778
10
14.6480873
20
3.4506032
40
0.7697892
50
179.3955396
51
183.4469615
0
ARC
8
DEFAULT_255_2_778
10
14.5218974
20
3.6715325
40
0.6520348
50
186.7755018
51
189.2498702
0
ARC
8
DEFAULT_255_2_778
10
15.178893
20
3.7285273
40
1.3113331
50
179.0475884
51
185.8616196
0
ARC
8
DEFAULT_255_2_778
10
13.7864572
20
3.7624089
40
0.0821774
50
351.5436737
51
30.6678125
0
ARC
8
DEFAULT_255_2_778
10
13.6848294
20
4.6684416
40
0.1511117
50
359.9934073
51
0.6525628
0
ARC
8
DEFAULT_255_2_778
10
13.4398668
20
4.6531013
40
0.3964317
50
2.4666145
51
9.6913293
0
ARC
8
DEFAULT_255_2_778
10
14.2900404
20
4.7898595
40
0.4647051
50
180.2879256
51
188.6664576
0
ARC
8
DEFAULT_255_2_778
10
13.7667621
20
4.9225235
40
0.0696616
50
327.2361915
51
7.8218173
0
ARC
8
DEFAULT_255_2_778
10
12.3363842
20
4.9549811
40
1.4995674
50
359.1220496
51
0.2117945
0
ARC
8
DEFAULT_255_2_778
10
13.7434079
20
5.2319136
40
0.0828203
50
351.606508
51
30.4006377
0
ARC
8
DEFAULT_255_2_778
10
12.6727884
20
5.2873027
40
1.1421323
50
359.323826
51
2.8607366
0
ARC
8
DEFAULT_255_2_778
10
13.3040116
20
5.3121378
40
0.5105001
50
3.6126504
51
11.5124888
0
ARC
8
DEFAULT_255_2_778
10
14.0661469
20
5.4952163
40
0.2742021
50
188.864919
51
197.2236846
0
ARC
8
DEFAULT_255_2_778
10
15.4600562
20
5.7387084
40
1.6891805
50
189.4431612
51
189.739204
0
ARC
8
DEFAULT_255_2_778
10
13.4868293
20
5.4186554
40
0.3099217
50
7.9585362
51
17.4173502
0
ARC
8
DEFAULT_255_2_778
10
13.9268787
20
5.5723553
40
0.1566715
50
188.8347855
51
202.8866966
0
ARC
8
DEFAULT_255_2_778
10
19.3740486
20
6.6771132
40
5.7145816
50
191.3832264
51
191.3927522
0
ARC
8
DEFAULT_255_2_778
10
13.6237207
20
5.5264743
40
0.1498944
50
8.7296772
51
23.8253818
0
ARC
8
DEFAULT_255_2_778
10
13.5354204
20
5.5689389
40
0.226145
50
4.5869732
51
48.5431187
0
ARC
8
DEFAULT_255_2_778
10
13.4205116
20
5.5398578
40
0.3392647
50
64.598692
51
68.0019322
0
ARC
8
DEFAULT_255_2_778
10
13.6010773
20
5.9830878
40
0.1393392
50
243.3784453
51
247.4275329
0
ARC
8
DEFAULT_255_2_778
10
13.583559
20
5.9442675
40
0.0968
50
222.4567468
51
242.3519976
0
ARC
8
DEFAULT_255_2_778
10
13.4875075
20
5.8548889
40
0.0344167
50
44.2956054
51
87.6534314
0
ARC
8
DEFAULT_255_2_778
10
13.4810948
20
5.7706321
40
0.1189025
50
86.2281423
51
90.7486851
0
ARC
8
DEFAULT_255_2_778
10
13.4208794
20
5.8258204
40
0.086599
50
47.3595472
51
76.2007521
0
ARC
8
DEFAULT_255_2_778
10
13.287017
20
5.3841791
40
0.5479774
50
73.6216609
51
75.0640228
0
ARC
8
DEFAULT_255_2_778
10
13.4602891
20
6.0466892
40
0.1368493
50
245.639102
51
256.4613192
0
ARC
8
DEFAULT_255_2_778
10
13.3615391
20
5.8438048
40
0.0889254
50
61.5949431
51
80.2576651
0
ARC
8
DEFAULT_255_2_778
10
13.3573407
20
5.7819622
40
0.1507194
50
82.6635746
51
91.5712684
0
LINE
8
DEFAULT_255_2_778
10
13.353208
20
5.932625
11
13.3515949
21
5.9326246
0
LINE
8
DEFAULT_255_2_778
10
13.3515949
20
5.9326246
11
13.3499411
21
5.9326242
0
ARC
8
DEFAULT_255_2_778
10
13.3048919
20
5.8910715
40
0.0612868
50
42.6879937
51
52.9210756
0
ARC
8
DEFAULT_255_2_778
10
13.3242956
20
5.9017626
40
0.0420409
50
65.3307248
51
99.5217434
0
ARC
8
DEFAULT_255_2_778
10
13.2611391
20
5.7302508
40
0.2131138
50
71.7323
51
92.0801691
0
LINE
8
DEFAULT_255_2_778
10
13.2534035
20
5.9432242
11
13.2522411
21
5.9432242
0
ARC
8
DEFAULT_255_2_778
10
13.0457813
20
5.304217
40
0.6715325
50
72.0946307
51
72.6175899
0
ARC
8
DEFAULT_255_2_778
10
13.0740748
20
5.3992304
40
0.5724072
50
72.4790906
51
77.4201247
0
ARC
8
DEFAULT_255_2_778
10
13.1377833
20
5.7000799
40
0.2649255
50
76.6964497
51
88.581589
0
ARC
8
DEFAULT_255_2_778
10
13.1042597
20
5.8991203
40
0.0770499
50
58.6542264
51
97.9866753
0
ARC
8
DEFAULT_255_2_778
10
13.0911442
20
3.8241862
40
2.1512381
50
89.9358142
51
90.0213888
0
ARC
8
DEFAULT_255_2_778
10
12.9695417
20
5.3101525
40
0.6761501
50
79.7084148
51
91.6441954
0
ARC
8
DEFAULT_255_2_778
10
12.6047898
20
5.9996161
40
0.0135941
50
218.7703823
51
268.9518073
0
LINE
8
DEFAULT_255_2_778
10
12.594191
20
5.9911035
11
12.5939661
21
5.9913242
0
ARC
8
DEFAULT_255_2_778
10
12.5828286
20
5.982273
40
0.0143517
50
39.1000176
51
89.550651
0
ARC
8
DEFAULT_255_2_778
10
11.3011978
20
5.6958514
40
1.292768
50
358.3675912
51
7.4880539
0
ARC
8
DEFAULT_255_2_778
10
12.2716584
20
5.4413976
40
0.3329035
50
0.0062597
51
14.8512536
0
ARC
8
DEFAULT_255_2_778
10
12.2720979
20
5.441439
40
0.332464
50
357.9117089
51
359.9991169
0
ARC
8
DEFAULT_255_2_778
10
12.2022025
20
5.2687314
40
0.4133906
50
356.7818068
51
13.398641
0
ARC
8
DEFAULT_255_2_778
10
13.1987595
20
5.1474467
40
0.5842471
50
177.8049477
51
187.7474699
0
ARC
8
DEFAULT_255_2_778
10
12.6946768
20
5.082531
40
0.0761013
50
190.4821177
51
204.7054073
0
ARC
8
DEFAULT_255_2_778
10
13.4696108
20
4.8617251
40
0.8444949
50
178.1814776
51
189.2262593
0
ARC
8
DEFAULT_255_2_778
10
12.8031189
20
4.624359
40
0.167792
50
174.7115982
51
200.3761099
0
ARC
8
DEFAULT_255_2_778
10
12.7287054
20
4.6043276
40
0.091339
50
204.8541228
51
206.043963
0
ARC
8
DEFAULT_255_2_778
10
11.9785275
20
4.4432507
40
0.6789775
50
359.9779494
51
10.2631945
0
ARC
8
DEFAULT_255_2_778
10
11.9677312
20
4.4429992
40
0.6897737
50
358.4153413
51
359.9991835
0
ARC
8
DEFAULT_255_2_778
10
12.5915964
20
4.3836424
40
0.0770185
50
351.8669129
51
31.5346786
0
ARC
8
DEFAULT_255_2_778
10
9.5791237
20
4.3702506
40
3.0887176
50
359.9958001
51
0.0462958
0
ARC
8
DEFAULT_255_2_778
10
14.7105964
20
4.2133839
40
2.0428206
50
179.5416921
51
182.1428703
0
ARC
8
DEFAULT_255_2_778
10
13.4341143
20
4.1688397
40
0.7655724
50
182.3835867
51
189.2238693
0
ARC
8
DEFAULT_255_2_778
10
11.8558948
20
3.6085233
40
0.8335837
50
358.1439139
51
9.3341732
0
ARC
8
DEFAULT_255_2_778
10
11.9650073
20
3.3265054
40
0.7330814
50
3.9953205
51
9.0110473
0
ARC
8
DEFAULT_255_2_778
10
10.9028526
20
3.2678095
40
1.796811
50
359.3308173
51
3.5025778
0
ARC
8
DEFAULT_255_2_778
10
12.5612391
20
3.252609
40
0.1384229
50
343.9869941
51
357.6048952
0
ARC
8
DEFAULT_255_2_778
10
12.8273431
20
3.1762395
40
0.1384229
50
163.9869941
51
177.6048952
0
ARC
8
DEFAULT_255_2_778
10
16.0469746
20
1.3983817
40
0.0944012
50
62.3788741
51
79.9544299
0
ARC
8
DEFAULT_255_2_778
10
16.0420246
20
1.3248132
40
0.167894
50
82.6713835
51
91.8033321
0
ARC
8
DEFAULT_255_2_778
10
16.0451112
20
1.1898581
40
0.3028818
50
91.5835632
51
100.8511741
0
ARC
8
DEFAULT_255_2_778
10
15.931071
20
1.7847904
40
0.3028818
50
271.5835632
51
280.8511741
0
ARC
8
DEFAULT_255_2_778
10
15.956632
20
2.1164556
40
0.6346642
50
263.6074598
51
268.4478622
0
ARC
8
DEFAULT_255_2_778
10
16.2071947
20
4.7544299
40
3.2844384
50
264.231526
51
264.3873652
0
ARC
8
DEFAULT_255_2_778
10
16.4816672
20
7.4726368
40
6.0164677
50
264.1666246
51
264.2326806
0
ARC
8
DEFAULT_255_2_778
10
15.7250282
20
0.1997007
40
1.2957789
50
83.568348
51
86.0748986
0
ARC
8
DEFAULT_255_2_778
10
15.8065381
20
1.3530732
40
0.1395523
50
87.0470303
51
89.7524247
0
ARC
8
DEFAULT_255_2_778
10
15.8005304
20
1.6420588
40
0.1495808
50
260.8110851
51
272.5330088
0
ARC
8
DEFAULT_255_2_778
10
15.7984245
20
1.5880973
40
0.0961979
50
241.9182226
51
256.9139079
0
ARC
8
DEFAULT_255_2_778
10
15.7550123
20
1.584589
40
0.0813863
50
249.1658808
51
268.6826098
0
LINE
8
DEFAULT_255_2_778
10
15.7260661
20
1.5085242
11
15.7258411
21
1.5085978
0
ARC
8
DEFAULT_255_2_778
10
15.6972662
20
1.4334318
40
0.0804143
50
69.1853434
51
88.6639876
0
ARC
8
DEFAULT_255_2_778
10
15.695387
20
1.5069784
40
0.0078076
50
61.2602047
51
208.7397953
0
ARC
8
DEFAULT_255_2_778
10
13.7337757
20
1.5188962
40
1.9548282
50
359.5406509
51
1.6019558
0
ARC
8
DEFAULT_255_2_778
10
15.3521435
20
1.5629722
40
0.3358627
50
1.8039262
51
8.1662817
0
ARC
8
DEFAULT_255_2_778
10
15.343656
20
1.558391
40
0.3449308
50
8.719287
51
14.2718343
0
ARC
8
DEFAULT_255_2_778
10
15.318117
20
4.3031726
40
0.3388532
50
1.5814353
51
5.8840132
0
ARC
8
DEFAULT_255_2_778
10
66.1309037
20
9.007813
40
50.6912831
50
185.2409388
51
185.2858328
0
ARC
8
DEFAULT_255_2_778
10
17.1022764
20
4.5117042
40
1.456933
50
182.763529
51
185.2867592
0
ARC
8
DEFAULT_255_2_778
10
16.3993157
20
4.4761121
40
0.7530757
50
180.1055894
51
182.6373652
0
ARC
8
DEFAULT_255_2_778
10
14.9411524
20
4.4740239
40
0.705089
50
0.0569079
51
2.0167522
0
ARC
8
DEFAULT_255_2_778
10
14.5124603
20
4.4558669
40
1.1341587
50
2.1713043
51
5.7355616
0
ARC
8
DEFAULT_255_2_778
10
14.2694915
20
4.4345756
40
1.3780425
50
5.6067992
51
6.9879444
0
ARC
8
DEFAULT_255_2_778
10
14.8143026
20
4.5022077
40
0.8290505
50
6.9293614
51
7.8210335
0
ARC
8
DEFAULT_255_2_778
10
15.7776785
20
6.5104976
40
0.1924019
50
54.7074439
51
80.7996351
0
ARC
8
DEFAULT_255_2_778
10
18.7851323
20
11.7288536
40
5.8314171
50
240.2200299
51
240.2873006
0
ARC
8
DEFAULT_255_2_778
10
16.2217519
20
7.2278793
40
0.6516968
50
239.8862303
51
243.1531751
0
ARC
8
DEFAULT_255_2_778
10
15.9269436
20
6.7498822
40
0.1145965
50
275.5572583
51
301.4537234
0
ARC
8
DEFAULT_255_2_778
10
16.0465387
20
6.5543663
40
0.1145965
50
95.5572583
51
121.4537234
0
ARC
8
DEFAULT_255_2_778
10
16.0199414
20
7.245262
40
0.577046
50
271.5391747
51
276.3694674
0
ARC
8
DEFAULT_255_2_778
10
17.1492875
20
-4.424764
40
11.1475636
50
95.3782165
51
95.4839024
0
ARC
8
DEFAULT_255_2_778
10
16.2086621
20
5.6641101
40
1.0149805
50
90.6559154
51
95.8943847
0
LINE
8
DEFAULT_255_2_778
10
16.197043
20
6.6790239
11
16.1976411
21
6.6790242
0
ARC
8
DEFAULT_255_2_778
10
16.2030707
20
6.5135718
40
0.1655415
50
82.4082
51
91.8795771
0
ARC
8
DEFAULT_255_2_778
10
16.2081401
20
6.5858977
40
0.0932897
50
62.2055775
51
79.6247
0
ARC
8
DEFAULT_255_2_778
10
16.5023623
20
9.3865821
40
2.7277891
50
265.1838608
51
268.9604733
0
ARC
8
DEFAULT_255_2_778
10
16.6102451
20
15.0686543
40
8.4108846
50
268.927912
51
270.2063801
0
ARC
8
DEFAULT_255_2_778
10
17.78807
20
6.5639211
40
0.0843159
50
66.8560559
51
98.8892137
0
ARC
8
DEFAULT_255_2_778
10
17.7728136
20
6.6104041
40
0.0574988
50
347.9201522
51
32.6810276
0
ARC
8
DEFAULT_255_2_778
10
13.1995297
20
6.5941785
40
4.6295115
50
359.9881894
51
0.0518875
0
ARC
8
DEFAULT_255_2_778
10
17.8503409
20
6.5932243
40
0.0212998
50
180.000105
51
181.5706074
0
ARC
8
DEFAULT_255_2_778
10
17.8998185
20
6.6068731
40
0.0721864
50
191.3711858
51
221.0029314
0
ARC
8
DEFAULT_255_2_778
10
17.7860265
20
6.512315
40
0.0758007
50
4.0163834
51
38.5093136
0
ARC
8
DEFAULT_255_2_778
10
17.8378136
20
6.515124
40
0.0239583
50
340.5572539
51
5.9900975
0
ARC
8
DEFAULT_255_2_778
10
17.816755
20
6.5340466
40
0.0512723
50
311.9672758
51
328.3586946
0
ARC
8
DEFAULT_255_2_778
10
16.0567233
20
7.3724794
40
1.9969791
50
333.9094652
51
333.9636927
0
ARC
8
DEFAULT_255_2_778
10
14.1264646
20
8.316743
40
4.1458235
50
333.9044026
51
333.9214431
0
ARC
8
DEFAULT_255_2_778
10
17.9824783
20
6.4168016
40
0.1531756
50
150.1167406
51
178.7196517
0
ARC
8
DEFAULT_255_2_778
10
18.3500333
20
6.4392908
40
0.5210411
50
182.0971033
51
188.4070908
0
ARC
8
DEFAULT_255_2_778
10
17.2231756
20
6.2826423
40
0.6166881
50
0.4907445
51
7.4977024
0
ARC
8
DEFAULT_255_2_778
10
18.2824696
20
6.1496887
40
0.4637122
50
162.6561006
51
166.3491662
0
ARC
8
DEFAULT_255_2_778
10
17.4791322
20
6.3478255
40
0.3637055
50
343.5240946
51
345.884638
0
ARC
8
DEFAULT_255_2_778
10
17.6836994
20
6.2867204
40
0.150209
50
325.3995403
51
343.7446989
0
ARC
8
DEFAULT_255_2_778
10
17.848842
20
6.156416
40
0.0612214
50
132.678344
51
142.9440437
0
ARC
8
DEFAULT_255_2_778
10
17.8380444
20
6.1758381
40
0.0418778
50
155.3446869
51
189.5027451
0
ARC
8
DEFAULT_255_2_778
10
17.7837204
20
6.156011
40
0.0183382
50
38.2903519
51
44.7624391
0
ARC
8
DEFAULT_255_2_778
10
17.6777409
20
6.0981951
40
0.1388358
50
6.425005
51
29.8862998
0
ARC
8
DEFAULT_255_2_778
10
17.5808085
20
6.0758572
40
0.2379299
50
7.7337158
51
9.1593717
0
ARC
8
DEFAULT_255_2_778
10
17.6254687
20
6.0810675
40
0.1929766
50
0.3731202
51
7.9851781
0
ARC
8
DEFAULT_255_2_778
10
17.8831521
20
6.0206358
40
0.0760696
50
148.2857875
51
188.1051994
0
ARC
8
DEFAULT_255_2_778
10
20.3474853
20
6.0072016
40
2.5396444
50
179.9388829
51
180.0107704
0
ARC
8
DEFAULT_255_2_778
10
17.7118715
20
50.5649257
40
44.6339213
50
269.7106337
51
270.054004
0
ARC
8
DEFAULT_255_2_778
10
17.6048083
20
26.1617163
40
20.2304888
50
269.4027763
51
269.6647999
0
ARC
8
DEFAULT_255_2_778
10
17.4882784
20
16.940886
40
11.0089637
50
267.8394962
51
269.5090087
0
ARC
8
DEFAULT_255_2_778
10
17.3360677
20
12.4918671
40
6.5573876
50
267.3250927
51
267.7030062
0
ARC
8
DEFAULT_255_2_778
10
16.9039501
20
14.9515299
40
9.0103907
50
267.1576406
51
270.594507
0
ARC
8
DEFAULT_255_2_778
10
16.5247508
20
3.255736
40
1.095879
50
92.4758079
51
96.3817527
0
ARC
8
DEFAULT_255_2_778
10
16.6528872
20
0.5844018
40
3.770276
50
90.8116591
51
92.6676176
0
ARC
8
DEFAULT_255_2_778
10
16.7313862
20
-3.9375948
40
8.2929434
50
90.2267184
51
90.9113838
0
ARC
8
DEFAULT_255_2_778
10
16.7704128
20
-13.574176
40
17.9296035
50
89.9650776
51
90.2295774
0
ARC
8
DEFAULT_255_2_778
10
16.7946071
20
4.6588016
40
0.3034918
50
271.5735658
51
280.8389846
0
ARC
8
DEFAULT_255_2_778
10
17.102155
20
2.8387322
40
1.5424649
50
98.9795115
51
99.3454782
0
ARC
8
DEFAULT_255_2_778
10
16.9048132
20
4.1143379
40
0.251726
50
91.0179512
51
99.9298191
0
ARC
8
DEFAULT_255_2_778
10
16.913826
20
5.7587161
40
1.3927571
50
269.4452458
51
272.5602822
0
ARC
8
DEFAULT_255_2_778
10
16.9489608
20
4.9019307
40
0.5352669
50
272.8999599
51
281.0705186
0
ARC
8
DEFAULT_255_2_778
10
17.7132974
20
4.2311097
40
0.1667039
50
82.4168666
51
91.8756466
0
ARC
8
DEFAULT_255_2_778
10
17.7185847
20
4.3046249
40
0.0932404
50
62.3593965
51
79.6749541
0
ARC
8
DEFAULT_255_2_778
10
17.1090485
20
4.265998
40
0.6639533
50
357.6451408
51
10.5202139
0
LINE
8
DEFAULT_255_2_778
10
17.7724411
20
4.2387172
11
17.7724411
21
4.2358242
0
ARC
8
DEFAULT_255_2_778
10
17.5054024
20
4.2414683
40
0.2670984
50
347.2554393
51
358.7891937
0
ARC
8
DEFAULT_255_2_778
10
17.3048566
20
4.2812541
40
0.4715116
50
341.0230303
51
347.9159744
0
ARC
8
DEFAULT_255_2_778
10
17.5927184
20
4.20515
40
0.1758834
50
332.9547101
51
333.9552282
0
ARC
8
DEFAULT_255_2_778
10
-0.5084753
20
14.1772019
40
20.8420746
50
331.0870448
51
331.1646102
0
ARC
8
DEFAULT_255_2_778
10
17.785222
20
4.0738571
40
0.0561809
50
151.7264237
51
179.9315043
0
ARC
8
DEFAULT_255_2_778
10
17.7628723
20
4.0719716
40
0.0338875
50
176.6966667
51
212.6546473
0
ARC
8
DEFAULT_255_2_778
10
-61.9373411
20
-49.1627966
40
95.810078
50
33.738103
51
33.7408346
0
ARC
8
DEFAULT_255_2_778
10
17.7248621
20
4.0412838
40
0.014779
50
0.1567169
51
35.6055574
0
ARC
8
DEFAULT_255_2_778
10
17.605217
20
3.9618253
40
0.1561727
50
1.4305621
51
30.6002236
0
ARC
8
DEFAULT_255_2_778
10
17.6513785
20
3.9790317
40
0.1107649
50
340.8927914
51
353.0997483
0
ARC
8
DEFAULT_255_2_778
10
17.8781268
20
3.9054581
40
0.1276613
50
163.0039585
51
175.7417508
0
ARC
8
DEFAULT_255_2_778
10
17.8191288
20
3.9116927
40
0.0683879
50
177.2806902
51
179.9735827
0
ARC
8
DEFAULT_255_2_778
10
17.7267058
20
3.8870906
40
0.0344167
50
2.3465686
51
45.7043946
0
ARC
8
DEFAULT_255_2_778
10
17.642449
20
3.8806779
40
0.1189025
50
359.2513149
51
3.7718578
0
ARC
8
DEFAULT_255_2_778
10
17.5286839
20
3.8959109
40
0.233262
50
341.9697133
51
355.8731458
0
ARC
8
DEFAULT_255_2_778
10
17.9886347
20
3.7503575
40
0.2491851
50
162.8798564
51
177.7537447
0
ARC
8
DEFAULT_255_2_778
10
17.6188528
20
3.7199013
40
0.1273095
50
5.4607261
51
18.4179442
0
ARC
8
DEFAULT_255_2_778
10
18.2463053
20
3.790886
40
0.5041696
50
186.7054567
51
186.9249474
0
ARC
8
DEFAULT_255_2_778
10
17.8506342
20
3.7421862
40
0.1055154
50
186.5780491
51
206.590127
0
ARC
8
DEFAULT_255_2_778
10
18.0237128
20
3.8170013
40
0.2939655
50
204.5297437
51
206.807579
0
ARC
8
DEFAULT_255_2_778
10
17.7212533
20
3.7495368
40
0.0764635
50
261.9564558
51
301.6193382
0
ARC
8
DEFAULT_255_2_778
10
17.708144
20
5.8253301
40
2.1515059
50
269.9786192
51
270.0641831
0
ARC
8
DEFAULT_255_2_778
10
17.7200884
20
5.0054585
40
1.3316953
50
264.8571439
51
269.4515463
0
ARC
8
DEFAULT_255_2_778
10
17.4729579
20
2.2642403
40
1.4206402
50
84.8404178
51
88.4264658
0
ARC
8
DEFAULT_255_2_778
10
17.5019529
20
3.0527307
40
0.6316935
50
89.0915215
51
89.9919946
0
ARC
8
DEFAULT_255_2_778
10
17.5115195
20
3.0057831
40
0.6787073
50
90.8001773
51
97.2096789
0
ARC
8
DEFAULT_255_2_778
10
17.3411628
20
4.3524654
40
0.6787073
50
270.8001773
51
277.2096789
0
ARC
8
DEFAULT_255_2_778
10
17.1614353
20
5.305246
40
1.6423568
50
268.6813843
51
276.6153833
0
ARC
8
DEFAULT_255_2_778
10
16.7772108
20
4.9444635
40
1.2982975
50
272.5142403
51
275.7613752
0
ARC
8
DEFAULT_255_2_778
10
16.6467553
20
7.6939174
40
4.0508389
50
270.9875356
51
272.651689
0
ARC
8
DEFAULT_255_2_778
10
16.5582278
20
12.2153848
40
8.573167
50
270.277838
51
271.0582928
0
ARC
8
DEFAULT_255_2_778
10
16.5260333
20
17.8369812
40
14.1948542
50
270.0112983
51
270.2977535
0
ARC
8
DEFAULT_255_2_778
10
16.5149865
20
36.8776603
40
33.2355359
50
269.9925088
51
270.0238694
0
ARC
8
DEFAULT_255_2_778
10
16.4469952
20
3.8438177
40
0.2114972
50
274.052311
51
287.5134925
0
ARC
8
DEFAULT_255_2_778
10
16.4213867
20
4.2277771
40
0.5963085
50
269.2173188
51
273.8996499
0
ARC
8
DEFAULT_255_2_778
10
17.6843837
20
2.009063
40
0.2154013
50
77.2755283
51
88.8940773
0
LINE
8
DEFAULT_255_2_778
10
17.7318286
20
2.2191742
11
17.7320101
21
2.2191389
0
ARC
8
DEFAULT_255_2_778
10
17.7791737
20
2.4281806
40
0.2142961
50
257.285894
51
268.895008
0
ARC
8
DEFAULT_255_2_778
10
17.7761211
20
2.2568342
40
0.0429236
50
268.558335
51
298.6728864
0
ARC
8
DEFAULT_255_2_778
10
17.8172101
20
2.1819342
40
0.0425026
50
88.6099625
51
118.7126155
0
ARC
8
DEFAULT_255_2_778
10
17.8223356
20
2.1960187
40
0.0286991
50
351.7976434
51
98.2023566
0
ARC
8
DEFAULT_255_2_778
10
17.684845
20
2.0141296
40
0.1666275
50
339.2836985
51
5.3701711
0
ARC
8
DEFAULT_255_2_778
10
17.757308
20
1.9944883
40
0.0921882
50
333.964426
51
334.7657248
0
ARC
8
DEFAULT_255_2_778
10
17.9440397
20
1.8546029
40
0.1134333
50
156.3401971
51
176.1221882
0
ARC
8
DEFAULT_255_2_778
10
18.2168644
20
1.8298136
40
0.3873608
50
175.1930028
51
180.7971807
0
ARC
8
DEFAULT_255_2_778
10
14.2266919
20
1.8239997
40
3.6028492
50
359.97975
51
0.0067508
0
ARC
8
DEFAULT_255_2_778
10
17.6152093
20
1.8153909
40
0.2144571
50
341.8887907
51
1.9601826
0
ARC
8
DEFAULT_255_2_778
10
17.9011054
20
1.7086208
40
0.0913391
50
153.956037
51
155.1458772
0
ARC
8
DEFAULT_255_2_778
10
17.9755189
20
1.6885895
40
0.167792
50
159.6238901
51
185.2884018
0
ARC
8
DEFAULT_255_2_778
10
18.10473
20
1.6569122
40
0.2967321
50
176.8680775
51
180.0011318
0
ARC
8
DEFAULT_255_2_778
10
18.1074715
20
1.6570111
40
0.2994735
50
180.0200371
51
195.7495399
0
ARC
8
DEFAULT_255_2_778
10
17.7465256
20
1.5349871
40
0.0833491
50
358.3754931
51
29.2586676
0
ARC
8
DEFAULT_255_2_778
10
17.815716
20
1.5369096
40
0.0147609
50
269.5548387
51
343.1228024
0
ARC
8
DEFAULT_255_2_778
10
17.9672107
20
0.9091017
40
0.6315161
50
103.8907996
51
107.6398009
0
ARC
8
DEFAULT_255_2_778
10
17.5116351
20
5.368495
40
3.8793689
50
266.9770609
51
269.5924511
0
ARC
8
DEFAULT_255_2_778
10
17.1045411
20
-2.2646778
40
3.7646528
50
86.9163905
51
89.487098
0
ARC
8
DEFAULT_255_2_778
10
22.2026853
20
1.2257855
40
0.2550799
50
74.3627288
51
87.9317421
0
ARC
8
DEFAULT_255_2_778
10
22.1604114
20
0.5058784
40
0.9761792
50
86.9770499
51
90.4736802
0
ARC
8
DEFAULT_255_2_778
10
21.8679058
20
1.3592001
40
0.1228722
50
88.3978615
51
102.9014381
0
ARC
8
DEFAULT_255_2_778
10
21.8811154
20
1.3148326
40
0.1690951
50
103.9078643
51
105.904346
0
ARC
8
DEFAULT_255_2_778
10
21.2062677
20
3.7092518
40
2.3186082
50
285.6613605
51
285.7280819
0
ARC
8
DEFAULT_255_2_778
10
21.7966634
20
1.600316
40
0.1285933
50
271.663448
51
286.0325031
0
ARC
8
DEFAULT_255_2_778
10
21.785545
20
1.7836628
40
0.3122392
50
269.8708484
51
272.7262374
0
ARC
8
DEFAULT_255_2_778
10
21.7409572
20
1.5267981
40
0.0553795
50
244.7152254
51
270.8111006
0
ARC
8
DEFAULT_255_2_778
10
21.7314451
20
1.5074392
40
0.0338141
50
228.7301269
51
245.2782337
0
ARC
8
DEFAULT_255_2_778
10
21.2530791
20
1.3336615
40
0.4795874
50
18.0203637
51
18.5431269
0
ARC
8
DEFAULT_255_2_778
10
23.2096447
20
2.0241749
40
1.595328
50
198.215316
51
199.7083274
0
ARC
8
DEFAULT_255_2_778
10
21.8302741
20
1.5691059
40
0.1428342
50
180.2333298
51
197.7785027
0
ARC
8
DEFAULT_255_2_778
10
21.7385594
20
4.9813491
40
0.0452704
50
131.3668715
51
171.7194289
0
ARC
8
DEFAULT_255_2_778
10
21.8499548
20
4.9637118
40
0.1580509
50
171.2082052
51
172.8052758
0
ARC
8
DEFAULT_255_2_778
10
21.6331389
20
4.9883397
40
0.0602039
50
333.3376186
51
355.395165
0
ARC
8
DEFAULT_255_2_778
10
22.0670896
20
4.0320355
40
0.762875
50
145.5189881
51
155.0694906
0
ARC
8
DEFAULT_255_2_778
10
20.3609288
20
4.8238349
40
1.1180641
50
327.6957283
51
335.1289079
0
ARC
8
DEFAULT_255_2_778
10
21.0821848
20
3.7174505
40
0.0332726
50
137.2775557
51
164.1925158
0
ARC
8
DEFAULT_255_2_778
10
21.118458
20
3.705893
40
0.0713333
50
163.1969806
51
178.7700085
0
ARC
8
DEFAULT_255_2_778
10
20.9784028
20
3.7360119
40
0.074446
50
310.274914
51
337.4180159
0
ARC
8
DEFAULT_255_2_778
10
21.0140214
20
3.6952607
40
0.0203458
50
271.7456141
51
307.9330098
0
ARC
8
DEFAULT_255_2_778
10
21.098652
20
4.3559848
40
0.6862225
50
250.9294574
51
262.967917
0
ARC
8
DEFAULT_255_2_778
10
20.9091855
20
3.93478
40
0.2299953
50
251.053479
51
261.3113148
0
ARC
8
DEFAULT_255_2_778
10
20.8812542
20
3.8492231
40
0.1400113
50
246.387355
51
250.4965018
0
ARC
8
DEFAULT_255_2_778
10
20.8483852
20
3.7821539
40
0.0654727
50
223.0499627
51
249.2347167
0
ARC
8
DEFAULT_255_2_778
10
20.8118308
20
3.7472953
40
0.0149736
50
209.0513569
51
221.0601941
0
ARC
8
DEFAULT_255_2_778
10
20.8856806
20
4.3364869
40
0.6027655
50
259.9914562
51
261.7070562
0
ARC
8
DEFAULT_255_2_778
10
20.9131691
20
4.5122766
40
0.780665
50
254.3214779
51
260.2469522
0
ARC
8
DEFAULT_255_2_778
10
20.8185789
20
4.1711906
40
0.4267093
50
249.1123029
51
254.1732225
0
ARC
8
DEFAULT_255_2_778
10
20.7686651
20
4.3969138
40
0.6327022
50
259.9271984
51
260.7021178
0
ARC
8
DEFAULT_255_2_778
10
20.8215615
20
4.6756912
40
0.9164401
50
256.1138933
51
259.719441
0
ARC
8
DEFAULT_255_2_778
10
20.9165623
20
5.0765033
40
1.3283438
50
256.0032652
51
256.285029
0
ARC
8
DEFAULT_255_2_778
10
20.9451834
20
5.191414
40
1.4467652
50
255.7485453
51
256.0041259
0
ARC
8
DEFAULT_255_2_778
10
20.9765352
20
5.3150004
40
1.5742662
50
255.5207611
51
255.7499019
0
ARC
8
DEFAULT_255_2_778
10
21.025971
20
5.5069942
40
1.7725223
50
255.3404542
51
255.5252369
0
ARC
8
DEFAULT_255_2_778
10
21.0826583
20
5.7240209
40
1.9968301
50
255.1941574
51
255.342809
0
ARC
8
DEFAULT_255_2_778
10
21.2217305
20
6.250284
40
2.541159
50
255.0891194
51
255.194809
0
ARC
8
DEFAULT_255_2_778
10
20.2754689
20
2.7511294
40
1.0837485
50
74.3484754
51
76.4227728
0
ARC
8
DEFAULT_255_2_778
10
20.5249935
20
3.7838481
40
0.0213127
50
76.731469
51
86.6440236
0
ARC
8
DEFAULT_255_2_778
10
20.5451168
20
3.4856508
40
0.3200306
50
93.3813176
51
104.9003202
0
ARC
8
DEFAULT_255_2_778
10
20.6640806
20
2.96086
40
0.8579978
50
103.565954
51
108.9154585
0
ARC
8
DEFAULT_255_2_778
10
20.3899579
20
3.7511728
40
0.021726
50
100.6542507
51
155.6826725
0
ARC
8
DEFAULT_255_2_778
10
20.3883786
20
3.753259
40
0.0194679
50
159.3662737
51
162.5940234
0
ARC
8
DEFAULT_255_2_778
10
20.408644
20
3.7477849
40
0.0404516
50
163.7822255
51
171.3654205
0
ARC
8
DEFAULT_255_2_778
10
20.3535766
20
3.7549196
40
0.0151114
50
255.9467123
51
355.9715753
0
ARC
8
DEFAULT_255_2_778
10
20.3431587
20
3.8363347
40
0.0963109
50
269.8110699
51
274.018008
0
ARC
8
DEFAULT_255_2_778
10
21.0173707
20
4.1742226
40
0.802196
50
209.5078114
51
212.7696062
0
ARC
8
DEFAULT_255_2_778
10
25.7734469
20
6.9010393
40
6.2845013
50
208.726608
51
209.7863282
0
ARC
8
DEFAULT_255_2_778
10
56.7367179
20
23.9425154
40
41.627612
50
208.6103705
51
208.8121669
0
LINE
8
DEFAULT_255_2_778
10
20.1919906
20
4.0091016
11
20.1915411
21
4.0099242
0
ARC
8
DEFAULT_255_2_778
10
20.381263
20
4.5222188
40
0.4121984
50
206.3823444
51
214.1503805
0
ARC
8
DEFAULT_255_2_778
10
21.5312914
20
5.1097731
40
1.7036041
50
204.0912353
51
206.8980723
0
ARC
8
DEFAULT_255_2_778
10
26.9451603
20
7.5491269
40
7.6416474
50
203.5039415
51
204.2185953
0
ARC
8
DEFAULT_255_2_778
10
16.1012597
20
2.8537989
40
4.1751597
50
23.2454329
51
25.311578
0
ARC
8
DEFAULT_255_2_778
10
19.2609324
20
4.3500893
40
0.6791051
50
25.163708
51
31.194979
0
ARC
8
DEFAULT_255_2_778
10
19.6562242
20
4.5854855
40
0.2190709
50
32.0795589
51
35.3791796
0
ARC
8
DEFAULT_255_2_778
10
19.6575828
20
5.0179777
40
0.0154058
50
347.8082498
51
56.8431486
0
ARC
8
DEFAULT_255_2_778
10
19.6833826
20
5.0619153
40
0.0355718
50
204.2165903
51
240.7632775
0
ARC
8
DEFAULT_255_2_778
10
19.6484409
20
5.0711518
40
0.0239583
50
250.5572539
51
275.9900975
0
ARC
8
DEFAULT_255_2_778
10
19.6673635
20
5.0922104
40
0.0512723
50
221.9672758
51
238.3586946
0
ARC
8
DEFAULT_255_2_778
10
19.4348599
20
1.5927771
40
0.2262019
50
351.6878839
51
359.2267091
0
ARC
8
DEFAULT_255_2_778
10
20.120886
20
1.4981442
40
0.4663312
50
172.3681925
51
174.0512483
0
ARC
8
DEFAULT_255_2_778
10
19.7949473
20
1.5321927
40
0.1386188
50
174.0864653
51
179.7190572
0
ARC
8
DEFAULT_255_2_778
10
19.749562
20
1.5324889
40
0.0932328
50
179.764325
51
198.293686
0
ARC
8
DEFAULT_255_2_778
10
19.5998542
20
1.6660748
40
0.1739659
50
274.9505359
51
290.5924136
0
ARC
8
DEFAULT_255_2_778
10
19.6085221
20
1.6405345
40
0.1479129
50
269.6513984
51
272.4584172
0
LINE
8
DEFAULT_255_2_778
10
19.6076222
20
1.4926243
11
19.6070411
21
1.4926242
0
ARC
8
DEFAULT_255_2_778
10
19.5602374
20
1.3114744
40
0.1870985
50
75.5132808
51
89.5692941
0
LINE
8
DEFAULT_255_2_778
10
19.5616438
20
1.4985676
11
19.5615022
21
1.4985752
0
ARC
8
DEFAULT_255_2_778
10
19.5530539
20
1.596461
40
0.0982498
50
236.7199729
51
274.9328001
0
ARC
8
DEFAULT_255_2_778
10
19.3679233
20
1.3892376
40
0.1812864
50
43.6296448
51
53.3005799
0
ARC
8
DEFAULT_255_2_778
10
19.390696
20
1.415452
40
0.1466819
50
54.3133135
51
63.5889982
0
ARC
8
DEFAULT_255_2_778
10
19.3013745
20
1.0074397
40
0.561094
50
74.0097538
51
89.6664267
0
ARC
8
DEFAULT_255_2_778
10
19.2964834
20
1.1241931
40
0.444406
50
88.9481869
51
94.5573567
0
ARC
8
DEFAULT_255_2_778
10
19.2807738
20
1.3696595
40
0.1985046
50
95.6669729
51
108.3923361
0
ARC
8
DEFAULT_255_2_778
10
19.171197
20
1.5747604
40
0.0498383
50
261.8609982
51
340.378237
0
ARC
8
DEFAULT_255_2_778
10
19.0194238
20
1.4955763
40
0.0393337
50
49.3617558
51
84.0647039
0
ARC
8
DEFAULT_255_2_778
10
19.0045158
20
1.4019896
40
0.1340594
50
81.862773
51
91.100444
0
ARC
8
DEFAULT_255_2_778
10
18.998677
20
1.4809403
40
0.0551806
50
86.6087735
51
107.9451925
0
ARC
8
DEFAULT_255_2_778
10
18.9943227
20
1.5007776
40
0.0350221
50
111.1690662
51
135.2718047
0
ARC
8
DEFAULT_255_2_778
10
19.0055395
20
1.4142441
40
0.1168936
50
107.9877717
51
110.0522447
0
ARC
8
DEFAULT_255_2_778
10
19.0018696
20
1.4267265
40
0.1039129
50
110.5112855
51
123.7061119
0
ARC
8
DEFAULT_255_2_778
10
18.9116655
20
1.5676213
40
0.063432
50
269.180053
51
300.8625004
0
ARC
8
DEFAULT_255_2_778
10
18.8947562
20
1.7742249
40
0.2705028
50
269.7849917
51
273.3913117
0
ARC
8
DEFAULT_255_2_778
10
18.3876571
20
1.6723471
40
0.5166239
50
348.4066592
51
359.650091
0
ARC
8
DEFAULT_255_2_778
10
17.270331
20
1.6846135
40
1.634013
50
359.4592473
51
0.1055706
0
ARC
8
DEFAULT_255_2_778
10
19.5432863
20
5.6401334
40
0.670924
50
172.7203019
51
178.6769935
0
LINE
8
DEFAULT_255_2_778
10
18.8777702
20
5.7251483
11
18.8778411
21
5.7257992
0
ARC
8
DEFAULT_255_2_778
10
18.2064029
20
5.8118316
40
0.6769276
50
352.6983891
51
358.6449913
0
ARC
8
DEFAULT_255_2_778
10
18.6314548
20
5.7913521
40
0.251726
50
1.0179512
51
9.9298191
0
ARC
8
DEFAULT_255_2_778
10
17.3558491
20
5.5940104
40
1.5424649
50
8.9795115
51
9.3454782
0
ARC
8
DEFAULT_255_2_778
10
19.1759185
20
5.9015583
40
0.3034918
50
181.5735658
51
190.8389846
0
ARC
8
DEFAULT_255_2_778
10
19.820232
20
6.0384978
40
0.9587609
50
178.2043571
51
188.7151533
0
ARC
8
DEFAULT_255_2_778
10
47.4578588
20
6.0761343
40
28.5959178
50
179.9986177
51
180.0152156
0
ARC
8
DEFAULT_255_2_778
10
19.6812786
20
6.6701771
40
0.8433126
50
184.8343844
51
190.2562727
0
ARC
8
DEFAULT_255_2_778
10
18.0236001
20
6.5310387
40
0.8201953
50
4.7604157
51
10.621993
0
ARC
8
DEFAULT_255_2_778
10
18.7155081
20
6.6982199
40
0.1153475
50
352.0288957
51
23.8485513
0
ARC
8
DEFAULT_255_2_778
10
18.8020393
20
6.7304113
40
0.0238425
50
37.2932671
51
44.1692002
0
ARC
8
DEFAULT_255_2_778
10
18.8629077
20
6.6633817
40
0.0944012
50
100.0455701
51
117.6211259
0
ARC
8
DEFAULT_255_2_778
10
18.8678577
20
6.5898132
40
0.167894
50
88.1966679
51
97.3286165
0
ARC
8
DEFAULT_255_2_778
10
18.8649028
20
6.5959443
40
0.1618897
50
75.0089136
51
87.0830501
0
ARC
8
DEFAULT_255_2_778
10
18.9513686
20
6.9365944
40
0.1895884
50
256.3969803
51
269.2059381
0
ARC
8
DEFAULT_255_2_778
10
18.9468523
20
6.6653642
40
0.0816819
50
69.2033543
51
88.6749473
0
LINE
8
DEFAULT_255_2_778
10
18.9758536
20
6.7417242
11
18.9761964
21
6.7416123
0
ARC
8
DEFAULT_255_2_778
10
19.0046312
20
6.8165984
40
0.0801964
50
249.2331993
51
268.6494939
0
ARC
8
DEFAULT_255_2_778
10
19.2243616
20
7.3178591
40
0.6114189
50
251.9820978
51
252.4026896
0
ARC
8
DEFAULT_255_2_778
10
19.1641414
20
7.1045655
40
0.3899646
50
251.3621332
51
268.5599335
0
ARC
8
DEFAULT_255_2_778
10
19.1597305
20
7.1020475
40
0.3873608
50
269.2028193
51
274.8069972
0
ARC
8
DEFAULT_255_2_778
10
19.1845198
20
6.8292228
40
0.1134333
50
273.8778118
51
293.6598029
0
ARC
8
DEFAULT_255_2_778
10
19.2807445
20
6.8073885
40
0.0913391
50
243.956037
51
245.1458772
0
ARC
8
DEFAULT_255_2_778
10
19.3007759
20
6.881802
40
0.167792
50
249.6238901
51
275.2884018
0
ARC
8
DEFAULT_255_2_778
10
19.3973707
20
6.5492718
40
0.1655415
50
82.4082
51
91.8795771
0
ARC
8
DEFAULT_255_2_778
10
19.4024401
20
6.6215977
40
0.0932897
50
62.2055775
51
79.6247
0
ARC
8
DEFAULT_255_2_778
10
19.4769214
20
6.3146732
40
0.1924156
50
28.6655415
51
42.5634071
0
LINE
8
DEFAULT_255_2_778
10
19.6457536
20
6.4069742
11
19.6460964
21
6.4064038
0
ARC
8
DEFAULT_255_2_778
10
19.8170537
20
6.500043
40
0.1949223
50
208.7110434
51
222.1942224
0
ARC
8
DEFAULT_255_2_778
10
19.5578078
20
6.0601745
40
0.2522042
50
21.8975259
51
32.6996934
0
ARC
8
DEFAULT_255_2_778
10
19.890134
20
6.1930963
40
0.10572
50
201.5677709
51
221.9517533
0
ARC
8
DEFAULT_255_2_778
10
19.8776908
20
6.1843977
40
0.0906695
50
223.1203186
51
224.6084829
0
ARC
8
DEFAULT_255_2_778
10
20.2932112
20
6.0762625
40
0.4011828
50
201.9618861
51
212.1485263
0
ARC
8
DEFAULT_255_2_778
10
21.4862981
20
6.8040623
40
1.7987061
50
211.5543446
51
211.9356191
0
ARC
8
DEFAULT_255_2_778
10
19.5090663
20
5.5631476
40
0.535708
50
27.1045122
51
32.7062549
0
ARC
8
DEFAULT_255_2_778
10
20.807443
20
6.226076
40
0.9221183
50
207.0152628
51
210.3339226
0
ARC
8
DEFAULT_255_2_778
10
44.5876457
20
19.9422717
40
28.3744609
50
209.9875748
51
210.0244699
0
ARC
8
DEFAULT_255_2_778
10
19.5667119
20
5.4600966
40
0.5357431
50
15.350945
51
32.0694853
0
ARC
8
DEFAULT_255_2_778
10
19.992229
20
4.8688968
40
0.4348666
50
21.6059912
51
36.3131793
0
ARC
8
DEFAULT_255_2_778
10
20.789839
20
5.2105104
40
0.4331518
50
204.7708264
51
217.2918905
0
ARC
8
DEFAULT_255_2_778
10
20.1040876
20
4.6883721
40
0.4287551
50
24.5955348
51
37.2800992
0
ARC
8
DEFAULT_255_2_778
10
21.1548396
20
5.1370785
40
0.7140197
50
202.2406066
51
208.7977159
0
ARC
8
DEFAULT_255_2_778
10
22.6021978
20
5.9360751
40
2.3672708
50
208.8694032
51
211.3455711
0
ARC
8
DEFAULT_255_2_778
10
19.577708
20
4.1169973
40
1.1622303
50
25.8404267
51
30.371381
0
LINE
8
DEFAULT_255_2_778
10
20.6237286
20
4.6235742
11
20.6239101
21
4.6232113
0
ARC
8
DEFAULT_255_2_778
10
21.6835133
20
5.1364879
40
1.177375
50
205.8457587
51
210.2969288
0
ARC
8
DEFAULT_255_2_778
10
19.7186094
20
5.0475283
40
1.1732141
50
329.7178066
51
333.7826781
0
ARC
8
DEFAULT_255_2_778
10
14.4592428
20
7.7090762
40
7.0676257
50
333.2616227
51
333.5136588
0
LINE
8
DEFAULT_255_2_778
10
20.7850555
20
4.557025
11
20.7858536
21
4.5586242
0
ARC
8
DEFAULT_255_2_778
10
22.6669485
20
3.6424438
40
2.0923442
50
151.191455
51
154.0317706
0
ARC
8
DEFAULT_255_2_778
10
21.3101831
20
4.3803704
40
0.5479514
50
149.1538181
51
150.4378334
0
ARC
8
DEFAULT_255_2_778
10
20.3571327
20
4.9340026
40
0.5543144
50
330.5331398
51
340.5195532
0
ARC
8
DEFAULT_255_2_778
10
23.6693482
20
3.7631472
40
2.9587576
50
158.5543375
51
160.5339707
0
ARC
8
DEFAULT_255_2_778
10
21.2067814
20
4.7346836
40
0.3114998
50
141.1784739
51
159.2737881
0
ARC
8
DEFAULT_255_2_778
10
19.1212058
20
6.301016
40
2.296958
50
323.3518001
51
324.1037377
0
ARC
8
DEFAULT_255_2_778
10
20.7784586
20
5.1082941
40
0.2551934
50
322.8733724
51
336.6439347
0
ARC
8
DEFAULT_255_2_778
10
21.2517919
20
4.9240933
40
0.2530601
50
148.6439772
51
160.8460506
0
ARC
8
DEFAULT_255_2_778
10
21.8873814
20
4.5449312
40
0.993145
50
146.0514934
51
149.0447124
0
ARC
8
DEFAULT_255_2_778
10
15.4878775
20
8.7788849
40
6.6802231
50
326.5794495
51
326.6295162
0
ARC
8
DEFAULT_255_2_778
10
25.7582825
20
2.9106053
40
5.1791314
50
150.9095425
51
154.9386668
0
ARC
8
DEFAULT_255_2_778
10
26.2325962
20
2.6503732
40
5.7201351
50
149.0670094
51
150.9416132
0
ARC
8
DEFAULT_255_2_778
10
21.078773
20
6.1608966
40
0.4776678
50
329.006259
51
335.5500636
0
ARC
8
DEFAULT_255_2_778
10
18.2666782
20
7.5018201
40
3.593037
50
334.6450166
51
336.4255377
0
ARC
8
DEFAULT_255_2_778
10
11.7734503
20
10.3482853
40
10.6827707
50
336.3611923
51
337.6428058
0
ARC
8
DEFAULT_255_2_778
10
9.1730746
20
11.4322602
40
13.500006
50
337.5860902
51
337.6595459
0
ARC
8
DEFAULT_255_2_778
10
10.6883777
20
10.809127
40
11.8615805
50
337.6613861
51
337.6772722
0
ARC
8
DEFAULT_255_2_778
10
21.9955784
20
5.6975031
40
0.9906156
50
97.7274486
51
100.6595635
0
ARC
8
DEFAULT_255_2_778
10
21.6983612
20
7.83596
40
1.1684068
50
278.0696947
51
279.3593587
0
ARC
8
DEFAULT_255_2_778
10
21.8368282
20
7.0205205
40
0.3413279
50
278.685898
51
291.8098941
0
ARC
8
DEFAULT_255_2_778
10
22.2670187
20
7.2874426
40
0.5842471
50
267.8049477
51
277.7474699
0
ARC
8
DEFAULT_255_2_778
10
22.3319344
20
6.7833599
40
0.0761013
50
280.4821177
51
294.7054073
0
ARC
8
DEFAULT_255_2_778
10
22.4879309
20
6.6550318
40
0.0701731
50
82.2277632
51
122.4862724
0
ARC
8
DEFAULT_255_2_778
10
22.5203981
20
5.2105409
40
1.5141936
50
89.7902548
51
90.8694727
0
ARC
8
DEFAULT_255_2_778
10
22.5320695
20
6.6854426
40
0.0397568
50
338.4264809
51
98.8672599
0
ARC
8
DEFAULT_255_2_778
10
23.4025266
20
6.5202559
40
0.8469763
50
169.760013
51
175.1634637
0
ARC
8
DEFAULT_255_2_778
10
21.74461
20
6.6594101
40
0.8167702
50
349.361471
51
355.2424325
0
ARC
8
DEFAULT_255_2_778
10
21.3432532
20
6.0296704
40
1.1937593
50
352.8676183
51
1.2217788
0
ARC
8
DEFAULT_255_2_778
10
21.9055826
20
5.9725208
40
0.6288221
50
350.7575593
51
351.6727448
0
ARC
8
DEFAULT_255_2_778
10
22.7404388
20
5.8051001
40
0.2242606
50
162.7709906
51
177.9658634
0
ARC
8
DEFAULT_255_2_778
10
23.2603631
20
5.7806225
40
0.7447503
50
177.5036829
51
180.4999372
0
ARC
8
DEFAULT_255_2_778
10
23.1840892
20
5.7894517
40
0.6686238
50
181.3135615
51
187.2669684
0
LINE
8
DEFAULT_255_2_778
10
22.5208361
20
5.7048757
11
22.5209411
21
5.7039117
0
ARC
8
DEFAULT_255_2_778
10
21.8489015
20
5.6178253
40
0.677531
50
1.3615439
51
7.299679
0
ARC
8
DEFAULT_255_2_778
10
37.5033883
20
1.7081583
40
14.9983472
50
179.9966921
51
180.0099244
0
ARC
8
DEFAULT_255_2_778
10
22.9054369
20
1.6840402
40
0.4009735
50
176.9234565
51
193.5603359
0
ARC
8
DEFAULT_255_2_778
10
22.4570621
20
1.552325
40
0.0696616
50
352.1781827
51
32.7638085
0
ARC
8
DEFAULT_255_2_778
10
21.0266842
20
1.5198674
40
1.4995674
50
359.7882055
51
0.8779504
0
ARC
8
DEFAULT_255_2_778
10
22.5221792
20
1.3214129
40
0.1929541
50
88.7937489
51
99.0370973
0
ARC
8
DEFAULT_255_2_778
10
22.5069598
20
1.4288133
40
0.0845162
50
100.284164
51
108.3669194
0
ARC
8
DEFAULT_255_2_778
10
22.6557825
20
0.9810244
40
0.5563882
50
108.3815967
51
108.8845251
0
ARC
8
DEFAULT_255_2_778
10
22.4531604
20
1.5726078
40
0.0689333
50
267.822436
51
289.0861028
0
ARC
8
DEFAULT_255_2_778
10
22.4746411
20
1.6851939
40
0.183063
50
254.226659
51
262.4351332
0
ARC
8
DEFAULT_255_2_778
10
22.3758373
20
1.2847879
40
0.2295365
50
77.6634478
51
90.1228311
0
LINE
8
DEFAULT_255_2_778
10
22.3753452
20
1.5143237
11
22.3748411
21
1.5143242
0
ARC
8
DEFAULT_255_2_778
10
22.1696208
20
1.9193716
40
0.4540691
50
287.874979
51
296.8693967
0
ARC
8
DEFAULT_255_2_778
10
22.7110559
20
0.1530251
40
1.3934609
50
106.7702838
51
108.0693631
0
ARC
8
DEFAULT_255_2_778
10
22.2879117
20
1.4471466
40
0.0319294
50
106.4896983
51
131.0544228
0
LINE
8
DEFAULT_255_2_778
10
2.0249411
20
1.4273242
11
1.9059411
21
1.4273242
0
LINE
8
DEFAULT_255_2_778
10
1.8519411
20
1.4378242
11
1.6574411
21
1.4595242
0
LINE
8
DEFAULT_255_2_778
10
1.4844411
20
1.4484242
11
1.4738411
21
1.4484242
0
LINE
8
DEFAULT_255_2_778
10
1.4412411
20
1.5241242
11
1.4412411
21
3.8040242
0
LINE
8
DEFAULT_255_2_778
10
1.4412411
20
3.8040242
11
1.4524411
21
4.2398242
0
LINE
8
DEFAULT_255_2_778
10
1.4524411
20
4.2398242
11
1.4198411
21
5.1150242
0
LINE
8
DEFAULT_255_2_778
10
1.4198411
20
5.1150242
11
1.4198411
21
5.9794242
0
LINE
8
DEFAULT_255_2_778
10
1.3658411
20
5.9900242
11
1.1497411
21
5.9900242
0
LINE
8
DEFAULT_255_2_778
10
0.8364411
20
5.9794242
11
0.2313411
21
5.9794242
0
LINE
8
DEFAULT_255_2_778
10
0.3186411
20
6.6922242
11
1.2936411
21
6.6922242
0
LINE
8
DEFAULT_255_2_778
10
1.2936411
20
6.6922242
11
1.6286411
21
6.7028242
0
LINE
8
DEFAULT_255_2_778
10
2.4064411
20
6.7245242
11
3.1737411
21
6.7245242
0
LINE
8
DEFAULT_255_2_778
10
3.3060411
20
6.7351242
11
3.3277411
21
6.7351242
0
LINE
8
DEFAULT_255_2_778
10
3.4359411
20
6.7245242
11
3.4142411
21
6.5300242
0
LINE
8
DEFAULT_255_2_778
10
3.4248411
20
6.4975242
11
3.4248411
21
6.4649242
0
LINE
8
DEFAULT_255_2_778
10
3.4142411
20
6.4324242
11
3.3817411
21
6.2596242
0
LINE
8
DEFAULT_255_2_778
10
3.3711411
20
6.0429242
11
3.3711411
21
6.0323242
0
LINE
8
DEFAULT_255_2_778
10
3.3494411
20
5.9998242
11
3.3277411
21
5.9998242
0
LINE
8
DEFAULT_255_2_778
10
3.0362411
20
5.9998242
11
2.7986411
21
5.9998242
0
LINE
8
DEFAULT_255_2_778
10
2.7986411
20
5.9998242
11
2.2366411
21
5.9892242
0
LINE
8
DEFAULT_255_2_778
10
2.2366411
20
5.9892242
11
2.1826411
21
5.9892242
0
LINE
8
DEFAULT_255_2_778
10
2.1720411
20
5.9244242
11
2.1720411
21
5.5571242
0
LINE
8
DEFAULT_255_2_778
10
2.1720411
20
5.5571242
11
2.1614411
21
4.7250242
0
LINE
8
DEFAULT_255_2_778
10
2.1614411
20
4.7250242
11
2.1831411
21
3.3227242
0
LINE
8
DEFAULT_255_2_778
10
2.1831411
20
3.3227242
11
2.1831411
21
2.0474242
0
LINE
8
DEFAULT_255_2_778
10
2.1831411
20
1.7556242
11
2.1831411
21
1.6908242
0
LINE
8
DEFAULT_255_2_778
10
2.1400411
20
1.4206242
11
2.1294411
21
1.4206242
0
LINE
8
DEFAULT_255_2_778
10
2.1294411
20
1.4206242
11
2.1223411
21
1.4167242
0
LINE
8
DEFAULT_255_2_778
10
6.0879411
20
1.3518242
11
6.0879411
21
1.3844242
0
LINE
8
DEFAULT_255_2_778
10
6.0667411
20
1.4386242
11
5.9693411
21
1.7411242
0
LINE
8
DEFAULT_255_2_778
10
5.7751411
20
2.4758242
11
5.6561411
21
2.8864242
0
LINE
8
DEFAULT_255_2_778
10
5.0293411
20
3.2870242
11
4.5755411
21
3.2764242
0
LINE
8
DEFAULT_255_2_778
10
4.5755411
20
3.2764242
11
4.4564411
21
3.2764242
0
LINE
8
DEFAULT_255_2_778
10
4.2617411
20
2.3766242
11
4.2292411
21
2.2364242
0
LINE
8
DEFAULT_255_2_778
10
4.2292411
20
2.2364242
11
4.1752411
21
1.9554242
0
LINE
8
DEFAULT_255_2_778
10
4.1752411
20
1.9554242
11
4.1212411
21
1.7392242
0
LINE
8
DEFAULT_255_2_778
10
4.0887411
20
1.5770242
11
4.0781411
21
1.5664242
0
LINE
8
DEFAULT_255_2_778
10
4.0781411
20
1.5664242
11
4.0675411
21
1.5125242
0
LINE
8
DEFAULT_255_2_778
10
4.0675411
20
1.5125242
11
4.0135411
21
1.5230242
0
LINE
8
DEFAULT_255_2_778
10
4.0135411
20
1.5230242
11
3.9596411
21
1.5125242
0
LINE
8
DEFAULT_255_2_778
10
3.9596411
20
1.5125242
11
3.9379411
21
1.5125242
0
LINE
8
DEFAULT_255_2_778
10
3.7003411
20
1.5013242
11
3.6786411
21
1.5013242
0
LINE
8
DEFAULT_255_2_778
10
3.4732411
20
1.4688242
11
3.4515411
21
1.4688242
0
LINE
8
DEFAULT_255_2_778
10
3.3976411
20
1.4582242
11
3.3436411
21
1.4582242
0
LINE
8
DEFAULT_255_2_778
10
3.3436411
20
1.4582242
11
3.3542411
21
1.5230242
0
LINE
8
DEFAULT_255_2_778
10
3.4299411
20
1.8903242
11
3.5161411
21
2.2819242
0
LINE
8
DEFAULT_255_2_778
10
3.8606411
20
3.8376242
11
3.8606411
21
3.9241242
0
LINE
8
DEFAULT_255_2_778
10
4.0979411
20
4.9616242
11
4.0979411
21
5.0372242
0
LINE
8
DEFAULT_255_2_778
10
4.2059411
20
5.4370242
11
4.2490411
21
5.6746242
0
LINE
8
DEFAULT_255_2_778
10
4.2490411
20
5.6746242
11
4.2921411
21
5.8474242
0
LINE
8
DEFAULT_255_2_778
10
4.4326411
20
6.3337242
11
4.4326411
21
6.4416242
0
LINE
8
DEFAULT_255_2_778
10
5.4806411
20
6.2797242
11
5.5672411
21
5.9448242
0
LINE
8
DEFAULT_255_2_778
10
5.8804411
20
4.7777242
11
5.9778411
21
4.4319242
0
LINE
8
DEFAULT_255_2_778
10
6.0643411
20
4.1268242
11
6.0643411
21
4.1162242
0
LINE
8
DEFAULT_255_2_778
10
6.0643411
20
4.1162242
11
6.1617411
21
3.7273242
0
LINE
8
DEFAULT_255_2_778
10
6.2157411
20
3.5220242
11
6.2805411
21
3.3058242
0
LINE
8
DEFAULT_255_2_778
10
6.3022411
20
3.2301242
11
6.4001411
21
2.9169242
0
LINE
8
DEFAULT_255_2_778
10
6.5514411
20
2.3763242
11
6.5945411
21
2.2440242
0
LINE
8
DEFAULT_255_2_778
10
6.6271411
20
2.1035242
11
6.6702411
21
1.9522242
0
LINE
8
DEFAULT_255_2_778
10
6.6160411
20
1.5630242
11
6.6054411
21
1.5630242
0
LINE
8
DEFAULT_255_2_778
10
6.0871411
20
1.3474242
11
6.0879411
21
1.3518242
0
LINE
8
DEFAULT_255_2_778
10
5.1777411
20
4.5390242
11
5.1777411
21
4.5607242
0
LINE
8
DEFAULT_255_2_778
10
5.0372411
20
5.1661242
11
5.0155411
21
5.2635242
0
LINE
8
DEFAULT_255_2_778
10
5.0155411
20
5.2635242
11
4.9615411
21
5.3608242
0
LINE
8
DEFAULT_255_2_778
10
4.8753411
20
5.3389242
11
4.8427411
21
5.1875242
0
LINE
8
DEFAULT_255_2_778
10
4.6483411
20
4.0961242
11
4.6483411
21
4.0204242
0
LINE
8
DEFAULT_255_2_778
10
4.7239411
20
4.0099242
11
5.1885411
21
4.0316242
0
LINE
8
DEFAULT_255_2_778
10
5.1885411
20
4.0316242
11
5.1883411
21
4.0316242
0
LINE
8
DEFAULT_255_2_778
10
10.5691411
20
1.4492242
11
10.5366411
21
1.4492242
0
LINE
8
DEFAULT_255_2_778
10
10.3286411
20
1.4712242
11
10.3180411
21
1.4712242
0
LINE
8
DEFAULT_255_2_778
10
10.0368411
20
1.5363242
11
10.0262411
21
1.6876242
0
LINE
8
DEFAULT_255_2_778
10
10.0262411
20
1.6876242
11
9.9722411
21
1.8278242
0
LINE
8
DEFAULT_255_2_778
10
9.5182411
20
2.6488242
11
9.2372411
21
3.1674242
0
LINE
8
DEFAULT_255_2_778
10
8.9020411
20
3.8048242
11
8.6750411
21
4.2154242
0
LINE
8
DEFAULT_255_2_778
10
8.5559411
20
4.4208242
11
8.4368411
21
4.6800242
0
LINE
8
DEFAULT_255_2_778
10
8.1024411
20
5.2743242
11
8.1024411
21
5.1552242
0
LINE
8
DEFAULT_255_2_778
10
8.1024411
20
5.1552242
11
8.1130411
21
4.7769242
0
LINE
8
DEFAULT_255_2_778
10
8.1130411
20
4.7769242
11
8.1455411
21
3.7937242
0
LINE
8
DEFAULT_255_2_778
10
8.1455411
20
3.7937242
11
8.1672411
21
2.9073242
0
LINE
8
DEFAULT_255_2_778
10
8.1672411
20
2.9073242
11
8.1889411
21
2.4099242
0
LINE
8
DEFAULT_255_2_778
10
8.1995411
20
1.7723242
11
8.1995411
21
1.7506242
0
LINE
8
DEFAULT_255_2_778
10
8.0587411
20
1.5019242
11
8.0370411
21
1.5236242
0
LINE
8
DEFAULT_255_2_778
10
7.7778411
20
1.5347242
11
7.7672411
21
1.5347242
0
LINE
8
DEFAULT_255_2_778
10
7.4536411
20
1.5992242
11
7.4319411
21
1.8802242
0
LINE
8
DEFAULT_255_2_778
10
7.4319411
20
1.8802242
11
7.4319411
21
2.1628242
0
LINE
8
DEFAULT_255_2_778
10
7.4319411
20
2.1628242
11
7.4102411
21
2.7031242
0
LINE
8
DEFAULT_255_2_778
10
7.4102411
20
2.7031242
11
7.4102411
21
3.2079242
0
LINE
8
DEFAULT_255_2_778
10
7.4102411
20
3.2079242
11
7.4208411
21
3.6834242
0
LINE
8
DEFAULT_255_2_778
10
7.4208411
20
3.6834242
11
7.4314411
21
4.0802242
0
LINE
8
DEFAULT_255_2_778
10
7.4314411
20
4.0802242
11
7.4314411
21
4.3879242
0
LINE
8
DEFAULT_255_2_778
10
7.4102411
20
5.0147242
11
7.4102411
21
5.2955242
0
LINE
8
DEFAULT_255_2_778
10
7.3885411
20
5.5548242
11
7.3885411
21
5.6870242
0
LINE
8
DEFAULT_255_2_778
10
7.3885411
20
5.6870242
11
7.3780411
21
6.1408242
0
LINE
8
DEFAULT_255_2_778
10
7.3780411
20
6.1408242
11
7.3780411
21
6.5813242
0
LINE
8
DEFAULT_255_2_778
10
7.5185411
20
6.6462242
11
7.5510411
21
6.6462242
0
LINE
8
DEFAULT_255_2_778
10
7.6701411
20
6.7001242
11
7.6701411
21
6.7107242
0
LINE
8
DEFAULT_255_2_778
10
7.6701411
20
6.7107242
11
7.6807411
21
6.7213242
0
LINE
8
DEFAULT_255_2_778
10
7.6807411
20
6.7213242
11
7.6912411
21
6.7213242
0
LINE
8
DEFAULT_255_2_778
10
8.0696411
20
6.8618242
11
8.0802411
21
6.8618242
0
LINE
8
DEFAULT_255_2_778
10
8.1884411
20
6.6565242
11
8.2963411
21
6.4512242
0
LINE
8
DEFAULT_255_2_778
10
8.2963411
20
6.4512242
11
8.6205411
21
5.8786242
0
LINE
8
DEFAULT_255_2_778
10
8.6205411
20
5.8786242
11
8.7826411
21
5.5545242
0
LINE
8
DEFAULT_255_2_778
10
9.1419411
20
4.8846242
11
9.2285411
21
4.7443242
0
LINE
8
DEFAULT_255_2_778
10
9.5311411
20
4.1284242
11
9.6714411
21
3.8797242
0
LINE
8
DEFAULT_255_2_778
10
9.6714411
20
3.8797242
11
9.8336411
21
3.5447242
0
LINE
8
DEFAULT_255_2_778
10
9.8336411
20
3.5447242
11
9.8767411
21
3.4474242
0
LINE
8
DEFAULT_255_2_778
10
9.8767411
20
3.4474242
11
9.8767411
21
3.5664242
0
LINE
8
DEFAULT_255_2_778
10
9.8767411
20
3.5664242
11
9.8661411
21
4.2903242
0
LINE
8
DEFAULT_255_2_778
10
9.8661411
20
4.2903242
11
9.8661411
21
4.6687242
0
LINE
8
DEFAULT_255_2_778
10
9.8661411
20
4.6687242
11
9.8878411
21
6.3975242
0
LINE
8
DEFAULT_255_2_778
10
9.8878411
20
6.3975242
11
9.8878411
21
6.5811242
0
LINE
8
DEFAULT_255_2_778
10
10.2879411
20
6.6673242
11
10.2984411
21
6.6673242
0
LINE
8
DEFAULT_255_2_778
10
10.3958411
20
6.6567242
11
10.5149411
21
6.6567242
0
LINE
8
DEFAULT_255_2_778
10
10.6445411
20
6.6890242
11
10.6662411
21
6.6890242
0
LINE
8
DEFAULT_255_2_778
10
10.6662411
20
6.6890242
11
10.6662411
21
6.6134242
0
LINE
8
DEFAULT_255_2_778
10
10.6445411
20
6.3758242
11
10.6445411
21
5.5873242
0
LINE
8
DEFAULT_255_2_778
10
10.6445411
20
5.5873242
11
10.6551411
21
4.0527242
0
LINE
8
DEFAULT_255_2_778
10
10.6551411
20
4.0527242
11
10.6657411
21
3.2423242
0
LINE
8
DEFAULT_255_2_778
10
10.6657411
20
3.2423242
11
10.6763411
21
2.6152242
0
LINE
8
DEFAULT_255_2_778
10
10.6980411
20
2.0212242
11
10.7085411
21
1.6754242
0
LINE
8
DEFAULT_255_2_778
10
10.7302411
20
1.5132242
11
10.7302411
21
1.4376242
0
LINE
8
DEFAULT_255_2_778
10
10.6331411
20
1.4376242
11
10.6339411
21
1.4386242
0
LINE
8
DEFAULT_255_2_778
10
12.1254411
20
1.5900242
11
12.1037411
21
1.5900242
0
LINE
8
DEFAULT_255_2_778
10
11.8767411
20
1.6111242
11
11.8767411
21
1.8810242
0
LINE
8
DEFAULT_255_2_778
10
11.8979411
20
2.2916242
11
11.8979411
21
2.3242242
0
LINE
8
DEFAULT_255_2_778
10
11.8979411
20
2.3242242
11
11.9084411
21
2.9724242
0
LINE
8
DEFAULT_255_2_778
10
11.9084411
20
2.9724242
11
11.9084411
21
3.5667242
0
LINE
8
DEFAULT_255_2_778
10
11.8979411
20
3.7289242
11
11.8873411
21
3.8479242
0
LINE
8
DEFAULT_255_2_778
10
11.8873411
20
3.8479242
11
11.8873411
21
4.2580242
0
LINE
8
DEFAULT_255_2_778
10
11.8767411
20
4.3554242
11
11.8767411
21
4.4634242
0
LINE
8
DEFAULT_255_2_778
10
11.8661411
20
4.6255242
11
11.8661411
21
4.7446242
0
LINE
8
DEFAULT_255_2_778
10
11.8555411
20
4.8959242
11
11.8555411
21
5.0150242
0
LINE
8
DEFAULT_255_2_778
10
11.8343411
20
5.2851242
11
11.8238411
21
5.3608242
0
LINE
8
DEFAULT_255_2_778
10
11.8132411
20
5.5553242
11
11.8132411
21
5.6632242
0
LINE
8
DEFAULT_255_2_778
10
11.7920411
20
5.7929242
11
11.7920411
21
5.8686242
0
LINE
8
DEFAULT_255_2_778
10
11.7920411
20
5.8686242
11
11.7711411
21
6.1924242
0
LINE
8
DEFAULT_255_2_778
10
11.7711411
20
6.1924242
11
11.7711411
21
6.3652242
0
LINE
8
DEFAULT_255_2_778
10
11.7711411
20
6.3652242
11
11.7817411
21
6.5274242
0
LINE
8
DEFAULT_255_2_778
10
11.7817411
20
6.5274242
11
12.0193411
21
6.5380242
0
LINE
8
DEFAULT_255_2_778
10
12.0518411
20
6.6245242
11
12.2355411
21
6.6570242
0
LINE
8
DEFAULT_255_2_778
10
12.3757411
20
6.6888242
11
13.0996411
21
6.6782242
0
LINE
8
DEFAULT_255_2_778
10
13.5565411
20
6.6036242
11
13.6756411
21
6.5710242
0
LINE
8
DEFAULT_255_2_778
10
13.6756411
20
6.5710242
11
13.7621411
21
6.5385242
0
LINE
8
DEFAULT_255_2_778
10
13.7621411
20
6.5385242
11
13.7838411
21
6.5279242
0
LINE
8
DEFAULT_255_2_778
10
13.8378411
20
6.5062242
11
13.8483411
21
6.4956242
0
LINE
8
DEFAULT_255_2_778
10
14.2807411
20
6.2035242
11
14.3024411
21
6.1818242
0
LINE
8
DEFAULT_255_2_778
10
14.4751411
20
5.9223242
11
14.5183411
21
5.7900242
0
LINE
8
DEFAULT_255_2_778
10
14.5183411
20
5.7900242
11
14.5183411
21
5.7794242
0
LINE
8
DEFAULT_255_2_778
10
14.5400411
20
5.7037242
11
14.5617411
21
5.5958242
0
LINE
8
DEFAULT_255_2_778
10
14.5723411
20
5.3365242
11
14.5723411
21
5.0666242
0
LINE
8
DEFAULT_255_2_778
10
14.5828411
20
4.9587242
11
14.5828411
21
4.8507242
0
LINE
8
DEFAULT_255_2_778
10
14.6040411
20
4.6454242
11
14.6040411
21
4.5263242
0
LINE
8
DEFAULT_255_2_778
10
14.6252411
20
4.2993242
11
14.6252411
21
4.1480242
0
LINE
8
DEFAULT_255_2_778
10
14.6569411
20
3.8643242
11
14.6569411
21
3.7995242
0
LINE
8
DEFAULT_255_2_778
10
14.6781411
20
3.6699242
11
14.6781411
21
3.6159242
0
LINE
8
DEFAULT_255_2_778
10
14.6995411
20
3.4212242
11
14.6995411
21
3.3780242
0
LINE
8
DEFAULT_255_2_778
10
14.6995411
20
2.7840242
11
14.6889411
21
2.7515242
0
LINE
8
DEFAULT_255_2_778
10
14.6458411
20
2.5573242
11
14.6352411
21
2.5467242
0
LINE
8
DEFAULT_255_2_778
10
14.5810411
20
2.3954242
11
14.5379411
21
2.2980242
0
LINE
8
DEFAULT_255_2_778
10
14.5379411
20
2.2980242
11
14.5273411
21
2.2874242
0
LINE
8
DEFAULT_255_2_778
10
14.4625411
20
2.2332242
11
14.4085411
21
2.1358242
0
LINE
8
DEFAULT_255_2_778
10
14.1378411
20
1.8442242
11
14.0621411
21
1.7686242
0
LINE
8
DEFAULT_255_2_778
10
13.8999411
20
1.6821242
11
13.7486411
21
1.6281242
0
LINE
8
DEFAULT_255_2_778
10
13.6621411
20
1.5958242
11
13.6295411
21
1.5852242
0
LINE
8
DEFAULT_255_2_778
10
13.5430411
20
1.5640242
11
13.5324411
21
1.5640242
0
LINE
8
DEFAULT_255_2_778
10
13.5324411
20
1.5640242
11
13.4999411
21
1.5535242
0
LINE
8
DEFAULT_255_2_778
10
13.1432411
20
1.5111242
11
13.1107411
21
1.5111242
0
LINE
8
DEFAULT_255_2_778
10
13.1107411
20
1.5111242
11
12.5921411
21
1.4894242
0
LINE
8
DEFAULT_255_2_778
10
12.5921411
20
1.4894242
11
12.2685411
21
1.4894242
0
LINE
8
DEFAULT_255_2_778
10
12.1712411
20
1.5000242
11
12.1685411
21
1.5035242
0
LINE
8
DEFAULT_255_2_778
10
13.0001411
20
2.1951242
11
13.0218411
21
2.1951242
0
LINE
8
DEFAULT_255_2_778
10
13.2271411
20
2.1951242
11
13.2597411
21
2.1951242
0
LINE
8
DEFAULT_255_2_778
10
13.2597411
20
2.1951242
11
13.3028411
21
2.2057242
0
LINE
8
DEFAULT_255_2_778
10
13.4650411
20
2.2594242
11
13.5973411
21
2.3350242
0
LINE
8
DEFAULT_255_2_778
10
13.5973411
20
2.3350242
11
13.5973411
21
2.3456242
0
LINE
8
DEFAULT_255_2_778
10
13.6404411
20
2.3996242
11
13.6729411
21
2.4321242
0
LINE
8
DEFAULT_255_2_778
10
13.7486411
20
2.5618242
11
13.7703411
21
2.6049242
0
LINE
8
DEFAULT_255_2_778
10
13.8132411
20
2.6806242
11
13.8563411
21
2.8208242
0
LINE
8
DEFAULT_255_2_778
10
13.8563411
20
2.8208242
11
13.8563411
21
2.8314242
0
LINE
8
DEFAULT_255_2_778
10
13.8888411
20
2.9288242
11
13.8888411
21
3.3508242
0
LINE
8
DEFAULT_255_2_778
10
13.8783411
20
3.4587242
11
13.8783411
21
3.5667242
0
LINE
8
DEFAULT_255_2_778
10
13.8571411
20
3.8043242
11
13.8465411
21
4.1067242
0
LINE
8
DEFAULT_255_2_778
10
13.8465411
20
4.1067242
11
13.8465411
21
4.4308242
0
LINE
8
DEFAULT_255_2_778
10
13.8465411
20
4.4308242
11
13.8359411
21
4.5282242
0
LINE
8
DEFAULT_255_2_778
10
13.8359411
20
4.5282242
11
13.8359411
21
4.6684242
0
LINE
8
DEFAULT_255_2_778
10
13.8253411
20
4.7875242
11
13.8253411
21
4.8848242
0
LINE
8
DEFAULT_255_2_778
10
13.8359411
20
4.9605242
11
13.8253411
21
5.2198242
0
LINE
8
DEFAULT_255_2_778
10
13.6851411
20
5.7384242
11
13.5660411
21
5.8463242
0
LINE
8
DEFAULT_255_2_778
10
13.3173411
20
5.9432242
11
13.3605411
21
5.9326242
0
LINE
8
DEFAULT_255_2_778
10
13.3605411
20
5.9326242
11
13.3279411
21
5.9326242
0
LINE
8
DEFAULT_255_2_778
10
12.9501411
20
5.9860242
11
12.6045411
21
5.9860242
0
LINE
8
DEFAULT_255_2_778
10
12.5829411
20
5.9966242
11
12.5829411
21
5.8643242
0
LINE
8
DEFAULT_255_2_778
10
12.5934411
20
5.6590242
11
12.5934411
21
5.5267242
0
LINE
8
DEFAULT_255_2_778
10
12.6043411
20
5.4293242
11
12.6043411
21
5.3645242
0
LINE
8
DEFAULT_255_2_778
10
12.6149411
20
5.2455242
11
12.6149411
21
5.1698242
0
LINE
8
DEFAULT_255_2_778
10
12.6255411
20
5.0507242
11
12.6255411
21
4.8885242
0
LINE
8
DEFAULT_255_2_778
10
12.6360411
20
4.7263242
11
12.6360411
21
4.6398242
0
LINE
8
DEFAULT_255_2_778
10
12.6678411
20
4.3700242
11
12.6678411
21
4.2297242
0
LINE
8
DEFAULT_255_2_778
10
12.6784411
20
4.0461242
11
12.6784411
21
3.7437242
0
LINE
8
DEFAULT_255_2_778
10
12.6890411
20
3.5815242
11
12.6890411
21
3.4413242
0
LINE
8
DEFAULT_255_2_778
10
12.6890411
20
3.1820242
11
12.6890411
21
2.9010242
0
LINE
8
DEFAULT_255_2_778
10
12.6890411
20
2.9010242
11
12.6784411
21
2.1771242
0
LINE
8
DEFAULT_255_2_778
10
12.6784411
20
2.1771242
11
12.6890411
21
2.1771242
0
LINE
8
DEFAULT_255_2_778
10
12.6890411
20
2.1771242
11
12.8292411
21
2.1877242
0
LINE
8
DEFAULT_255_2_778
10
12.8292411
20
2.1877242
11
12.8167411
21
2.1951242
0
LINE
8
DEFAULT_255_2_778
10
15.6779411
20
1.6434242
11
15.6674411
21
2.1408242
0
LINE
8
DEFAULT_255_2_778
10
15.6674411
20
2.1408242
11
15.6674411
21
3.5130242
0
LINE
8
DEFAULT_255_2_778
10
15.6674411
20
3.5130242
11
15.6568411
21
3.7723242
0
LINE
8
DEFAULT_255_2_778
10
15.6568411
20
3.7723242
11
15.6462411
21
4.0533242
0
LINE
8
DEFAULT_255_2_778
10
15.6462411
20
4.0533242
11
15.6568411
21
4.3125242
0
LINE
8
DEFAULT_255_2_778
10
15.6356411
20
4.6150242
11
15.6462411
21
6.0736242
0
LINE
8
DEFAULT_255_2_778
10
15.6462411
20
6.0736242
11
15.6462411
21
6.7004242
0
LINE
8
DEFAULT_255_2_778
10
15.6462411
20
6.7004242
11
15.8084411
21
6.7004242
0
LINE
8
DEFAULT_255_2_778
10
15.9274411
20
6.6464242
11
15.9380411
21
6.6358242
0
LINE
8
DEFAULT_255_2_778
10
16.2516411
20
6.6684242
11
16.2733411
21
6.6684242
0
LINE
8
DEFAULT_255_2_778
10
16.6405411
20
6.6578242
11
17.0511411
21
6.6578242
0
LINE
8
DEFAULT_255_2_778
10
17.0511411
20
6.6578242
11
17.7750411
21
6.6472242
0
LINE
8
DEFAULT_255_2_778
10
17.8184411
20
6.0823242
11
17.8184411
21
6.0606242
0
LINE
8
DEFAULT_255_2_778
10
17.8078411
20
6.0067242
11
17.8078411
21
5.9310242
0
LINE
8
DEFAULT_255_2_778
10
17.8078411
20
5.9310242
11
17.7539411
21
5.9310242
0
LINE
8
DEFAULT_255_2_778
10
17.0300411
20
5.9416242
11
16.9974411
21
5.9416242
0
LINE
8
DEFAULT_255_2_778
10
16.4571411
20
5.9522242
11
16.3923411
21
5.9522242
0
LINE
8
DEFAULT_255_2_778
10
16.3923411
20
5.9522242
11
16.3923411
21
4.7880242
0
LINE
8
DEFAULT_255_2_778
10
16.3923411
20
4.7880242
11
16.4029411
21
4.3774242
0
LINE
8
DEFAULT_255_2_778
10
16.4029411
20
4.3774242
11
16.4029411
21
4.3448242
0
LINE
8
DEFAULT_255_2_778
10
16.7813411
20
4.3554242
11
16.8029411
21
4.3554242
0
LINE
8
DEFAULT_255_2_778
10
17.0517411
20
4.3766242
11
17.3110411
21
4.3872242
0
LINE
8
DEFAULT_255_2_778
10
17.3110411
20
4.3872242
11
17.7078411
21
4.3977242
0
LINE
8
DEFAULT_255_2_778
10
17.1236411
20
3.6633242
11
16.9075411
21
3.6527242
0
LINE
8
DEFAULT_255_2_778
10
16.4132411
20
3.6315242
11
16.4132411
21
2.2027242
0
LINE
8
DEFAULT_255_2_778
10
16.4132411
20
2.2027242
11
17.6885411
21
2.2244242
0
LINE
8
DEFAULT_255_2_778
10
17.8507411
20
2.1919242
11
17.8507411
21
2.0297242
0
LINE
8
DEFAULT_255_2_778
10
17.8401411
20
1.9540242
11
17.8401411
21
1.9001242
0
LINE
8
DEFAULT_255_2_778
10
17.7758411
20
1.5109242
11
17.4840411
21
1.4892242
0
LINE
8
DEFAULT_255_2_778
10
17.1382411
20
1.4998242
11
17.0517411
21
1.4998242
0
LINE
8
DEFAULT_255_2_778
10
17.0517411
20
1.4998242
11
16.1116411
21
1.4781242
0
LINE
8
DEFAULT_255_2_778
10
16.1116411
20
1.4781242
11
16.0907411
21
1.4820242
0
LINE
8
DEFAULT_255_2_778
10
22.1523411
20
1.4820242
11
21.8713411
21
1.4820242
0
LINE
8
DEFAULT_255_2_778
10
21.7848411
20
1.4714242
11
21.7417411
21
1.4714242
0
LINE
8
DEFAULT_255_2_778
10
21.6874411
20
1.5685242
11
21.6874411
21
1.7522242
0
LINE
8
DEFAULT_255_2_778
10
21.6874411
20
1.7522242
11
21.6980411
21
2.7354242
0
LINE
8
DEFAULT_255_2_778
10
21.6980411
20
2.7354242
11
21.6980411
21
3.7080242
0
LINE
8
DEFAULT_255_2_778
10
21.6980411
20
3.7080242
11
21.7086411
21
4.0752242
0
LINE
8
DEFAULT_255_2_778
10
21.7086411
20
4.0752242
11
21.7303411
21
4.9288242
0
LINE
8
DEFAULT_255_2_778
10
21.7303411
20
4.9288242
11
21.7303411
21
4.9827242
0
LINE
8
DEFAULT_255_2_778
10
21.7303411
20
4.9827242
11
21.7086411
21
5.0153242
0
LINE
8
DEFAULT_255_2_778
10
21.6869411
20
4.9613242
11
21.4382411
21
4.4639242
0
LINE
8
DEFAULT_255_2_778
10
21.3059411
20
4.2263242
11
21.1979411
21
3.9887242
0
LINE
8
DEFAULT_255_2_778
10
21.1979411
20
3.9887242
11
21.0577411
21
3.7400242
0
LINE
8
DEFAULT_255_2_778
10
20.1915411
20
4.0099242
11
20.0401411
21
4.2908242
0
LINE
8
DEFAULT_255_2_778
10
19.8348411
20
4.7123242
11
19.6726411
21
5.0147242
0
LINE
8
DEFAULT_255_2_778
10
19.6292411
20
5.0579242
11
19.6292411
21
4.9822242
0
LINE
8
DEFAULT_255_2_778
10
19.6292411
20
4.9822242
11
19.6398411
21
4.1287242
0
LINE
8
DEFAULT_255_2_778
10
19.6398411
20
4.1287242
11
19.6504411
21
3.7614242
0
LINE
8
DEFAULT_255_2_778
10
19.6504411
20
3.7614242
11
19.6610411
21
2.7782242
0
LINE
8
DEFAULT_255_2_778
10
19.6610411
20
2.7782242
11
19.6610411
21
1.5897242
0
LINE
8
DEFAULT_255_2_778
10
19.1641411
20
1.5254242
11
19.0450411
21
1.5254242
0
LINE
8
DEFAULT_255_2_778
10
18.8937411
20
1.5037242
11
18.8937411
21
1.5685242
0
LINE
8
DEFAULT_255_2_778
10
18.9043411
20
1.6876242
11
18.9043411
21
2.8978242
0
LINE
8
DEFAULT_255_2_778
10
18.9043411
20
2.8978242
11
18.8937411
21
4.3266242
0
LINE
8
DEFAULT_255_2_778
10
18.8937411
20
4.3266242
11
18.8831411
21
5.0722242
0
LINE
8
DEFAULT_255_2_778
10
18.8831411
20
5.0722242
11
18.8725411
21
5.6556242
0
LINE
8
DEFAULT_255_2_778
10
18.8619411
20
6.0768242
11
18.8619411
21
6.2390242
0
LINE
8
DEFAULT_255_2_778
10
18.8619411
20
6.2390242
11
18.8514411
21
6.5200242
0
LINE
8
DEFAULT_255_2_778
10
19.0027411
20
6.7364242
11
19.0352411
21
6.7364242
0
LINE
8
DEFAULT_255_2_778
10
19.2300411
20
6.7253242
11
19.2406411
21
6.7253242
0
LINE
8
DEFAULT_255_2_778
10
19.3162411
20
6.7147242
11
19.3919411
21
6.7147242
0
LINE
8
DEFAULT_255_2_778
10
19.4459411
20
6.7041242
11
19.6081411
21
6.7041242
0
LINE
8
DEFAULT_255_2_778
10
19.6081411
20
6.7041242
11
19.6186411
21
6.4448242
0
LINE
8
DEFAULT_255_2_778
10
19.6726411
20
6.3691242
11
19.7700411
21
6.1964242
0
LINE
8
DEFAULT_255_2_778
10
19.8131411
20
6.1207242
11
19.9211411
21
5.9262242
0
LINE
8
DEFAULT_255_2_778
10
20.0833411
20
5.6019242
11
20.3426411
21
5.1264242
0
LINE
8
DEFAULT_255_2_778
10
20.6669411
20
4.5425242
11
20.7317411
21
4.4559242
0
LINE
8
DEFAULT_255_2_778
10
21.3260411
20
5.5907242
11
21.4882411
21
5.9149242
0
LINE
8
DEFAULT_255_2_778
10
21.6610411
20
6.3038242
11
21.8123411
21
6.6710242
0
LINE
8
DEFAULT_255_2_778
10
21.9636411
20
6.7036242
11
22.2446411
21
6.7036242
0
LINE
8
DEFAULT_255_2_778
10
22.3637411
20
6.7142242
11
22.4502411
21
6.7142242
0
LINE
8
DEFAULT_255_2_778
10
22.5473411
20
6.5086242
11
22.5367411
21
6.2387242
0
LINE
8
DEFAULT_255_2_778
10
22.5367411
20
6.2387242
11
22.5367411
21
6.0551242
0
LINE
8
DEFAULT_255_2_778
10
22.5262411
20
5.6339242
11
22.5156411
21
5.0505242
0
LINE
8
DEFAULT_255_2_778
10
22.5156411
20
5.0505242
11
22.5050411
21
4.3049242
0
LINE
8
DEFAULT_255_2_778
10
22.5050411
20
4.3049242
11
22.5050411
21
2.8761242
0
LINE
8
DEFAULT_255_2_778
10
22.5050411
20
2.8761242
11
22.4944411
21
2.3358242
0
LINE
8
DEFAULT_255_2_778
10
22.4944411
20
2.3358242
11
22.5050411
21
1.7847242
0
LINE
8
DEFAULT_255_2_778
10
22.5050411
20
1.7847242
11
22.5050411
21
1.7090242
0
LINE
8
DEFAULT_255_2_778
10
22.2669411
20
1.4712242
11
22.2714411
21
1.4714242
0
ARC
8
DEFAULT_255_2_778
10
13.9234395
20
30.5621225
40
30.7447465
50
268.466075
51
270.298547
0
ARC
8
DEFAULT_255_2_778
10
12.6596663
20
82.1225384
40
82.2941614
50
269.8209682
51
270.0361149
0
ARC
8
DEFAULT_255_2_778
10
12.4360637
20
21.4007313
40
21.5719787
50
268.2344568
51
269.9109138
0
ARC
8
DEFAULT_255_2_778
10
19.0863482
20
-0.270109
40
0.7478018
50
93.0856718
51
99.7943273
0
ARC
8
DEFAULT_255_2_778
10
19.0813744
20
-0.3158891
40
0.7932826
50
89.8160766
51
92.5489588
0
ARC
8
DEFAULT_255_2_778
10
19.0895567
20
-3.672601
40
4.1499943
50
89.974023
51
90.0778086
0
ARC
8
DEFAULT_255_2_778
10
23.5950255
20
0.3364475
40
0.78648
50
170.4970993
51
181.5631437
0
ARC
8
DEFAULT_255_2_778
10
24.056102
20
0.3289386
40
1.2473417
50
180.640575
51
190.3803309
0
ARC
8
DEFAULT_255_2_778
10
26.0927962
20
0.662532
40
3.3110373
50
189.7081924
51
190.4811144
0
ARC
8
DEFAULT_255_2_778
10
19.8853536
20
-0.5213017
40
3.0083887
50
8.6466752
51
11.1453658
0
ARC
8
DEFAULT_255_2_778
10
22.1287668
20
-0.1698577
40
0.7377075
50
5.7688635
51
7.8565366
0
ARC
8
DEFAULT_255_2_778
10
17.3897327
20
1.9216093
40
2.0905032
50
274.696905
51
275.0414384
0
ARC
8
DEFAULT_255_2_778
10
17.2686855
20
4.1531124
40
4.32487
50
269.1726714
51
273.8743741
0
ARC
8
DEFAULT_255_2_778
10
17.1738329
20
9.4332785
40
9.6046397
50
269.0332882
51
270.1933117
0
ARC
8
DEFAULT_255_2_778
10
17.0660571
20
3.0408759
40
3.2113286
50
265.5579669
51
269.0317011
0
LINE
8
DEFAULT_255_2_778
10
13.1004382
20
-0.1716066
11
12.7115382
21
-0.1716066
0
LINE
8
DEFAULT_255_2_778
10
11.7714382
20
-0.1610066
11
9.1131382
21
-0.1610066
0
LINE
8
DEFAULT_255_2_778
10
9.1131382
20
-0.1610066
11
7.5031382
21
-0.1393066
0
LINE
8
DEFAULT_255_2_778
10
7.5031382
20
-0.1393066
11
5.9363382
21
-0.1499066
0
LINE
8
DEFAULT_255_2_778
10
5.9363382
20
-0.1499066
11
3.9590382
21
-0.1499066
0
LINE
8
DEFAULT_255_2_778
10
3.9590382
20
-0.1499066
11
2.9973382
21
-0.1605066
0
LINE
8
DEFAULT_255_2_778
10
2.9973382
20
-0.1605066
11
0.5986382
21
-0.1711066
0
LINE
8
DEFAULT_255_2_778
10
0.5986382
20
-0.1711066
11
0.5986382
21
0.2072934
0
LINE
8
DEFAULT_255_2_778
10
0.5986382
20
0.2072934
11
0.5880382
21
0.4016934
0
LINE
8
DEFAULT_255_2_778
10
0.5880382
20
0.4016934
11
0.5774382
21
0.4773934
0
LINE
8
DEFAULT_255_2_778
10
0.5774382
20
0.4773934
11
1.5497382
21
0.4667934
0
LINE
8
DEFAULT_255_2_778
10
1.5497382
20
0.4667934
11
3.6892382
21
0.4773934
0
LINE
8
DEFAULT_255_2_778
10
3.6892382
20
0.4773934
11
5.4830382
21
0.4773934
0
LINE
8
DEFAULT_255_2_778
10
5.4830382
20
0.4773934
11
7.0930382
21
0.4879934
0
LINE
8
DEFAULT_255_2_778
10
7.0930382
20
0.4879934
11
7.7847382
21
0.4773934
0
LINE
8
DEFAULT_255_2_778
10
7.7847382
20
0.4773934
11
8.6922382
21
0.4773934
0
LINE
8
DEFAULT_255_2_778
10
8.6922382
20
0.4773934
11
9.9455382
21
0.4667934
0
LINE
8
DEFAULT_255_2_778
10
9.9455382
20
0.4667934
11
10.8207382
21
0.4773934
0
LINE
8
DEFAULT_255_2_778
10
10.8207382
20
0.4773934
11
10.9181382
21
0.4773934
0
LINE
8
DEFAULT_255_2_778
10
10.9181382
20
0.4773934
11
12.4199382
21
0.4667934
0
LINE
8
DEFAULT_255_2_778
10
12.4199382
20
0.4667934
11
13.5327382
21
0.4562934
0
LINE
8
DEFAULT_255_2_778
10
13.5327382
20
0.4562934
11
14.0839382
21
0.4667934
0
LINE
8
DEFAULT_255_2_778
10
14.0839382
20
0.4667934
11
14.8723382
21
0.4667934
0
LINE
8
DEFAULT_255_2_778
10
14.8723382
20
0.4667934
11
16.5392382
21
0.4773934
0
LINE
8
DEFAULT_255_2_778
10
16.5392382
20
0.4773934
11
17.5869382
21
0.4773934
0
LINE
8
DEFAULT_255_2_778
10
17.5869382
20
0.4773934
11
18.9591382
21
0.4667934
0
LINE
8
DEFAULT_255_2_778
10
19.0914382
20
0.4773934
11
20.8958382
21
0.4556934
0
LINE
8
DEFAULT_255_2_778
10
20.8958382
20
0.4556934
11
22.8193382
21
0.4662934
0
LINE
8
DEFAULT_255_2_778
10
22.8627382
20
-0.0957066
11
22.8521382
21
-0.1713066
0
LINE
8
DEFAULT_255_2_778
10
22.8521382
20
-0.1713066
11
20.8749382
21
-0.1713066
0
LINE
8
DEFAULT_255_2_778
10
20.8749382
20
-0.1713066
11
19.1461382
21
-0.1608066
0
LINE
8
DEFAULT_255_2_778
10
19.1461382
20
-0.1608066
11
17.5734382
21
-0.1608066
0
LINE
8
DEFAULT_255_2_778
10
16.8173382
20
-0.1608066
11
15.0776382
21
-0.1713066
0
LINE
8
DEFAULT_255_2_778
10
15.0776382
20
-0.1713066
11
14.0836382
21
-0.1713066
0
LINE
8
DEFAULT_255_2_778
10
14.0836382
20
-0.1713066
11
14.0836382
21
-0.1822066
0
ENDSEC
0
EOF