0
SECTION
2
HEADER
9
$MEASUREMENT
70
1
0
ENDSEC
0
SECTION
2
TABLES
0
TABLE
2
LTYPE
0
LTYPE
72
65
70
64
2
CONTINUOUS
3
______
73
0
40
0
0
ENDTAB
0
TABLE
2
LAYER
0
LAYER
2
DEFAULT_255_2_778
70
0
62
255
6
CONTINUOUS
0
ENDTAB
0
ENDSEC
0
SECTION
2
ENTITIES
0
ARC
8
DEFAULT_255_2_778
10
1.9604647
20
6.7944468
40
0.4491893
50
154.7966635
51
156.2629591
0
ARC
8
DEFAULT_255_2_778
10
2.5664934
20
6.52649
40
1.1118136
50
156.1940227
51
158.0869408
0
ARC
8
DEFAULT_255_2_778
10
3.0938393
20
6.3135358
40
1.6805338
50
158.0609115
51
160.2113815
0
ARC
8
DEFAULT_255_2_778
10
3.4937308
20
6.1689617
40
2.1057567
50
160.1936132
51
162.4220634
0
ARC
8
DEFAULT_255_2_778
10
3.7805873
20
6.077754
40
2.4067641
50
162.4145061
51
164.8269381
0
ARC
8
DEFAULT_255_2_778
10
3.996926
20
6.0190812
40
2.6309179
50
164.8268528
51
167.897398
0
ARC
8
DEFAULT_255_2_778
10
4.1455017
20
5.9869702
40
2.7829237
50
167.8923229
51
171.3250631
0
ARC
8
DEFAULT_255_2_778
10
4.2319079
20
5.9736477
40
2.8703508
50
171.3223177
51
175.4660536
0
ARC
8
DEFAULT_255_2_778
10
4.2749388
20
5.970088
40
2.9135283
50
175.4631616
51
180.0034462
0
ARC
8
DEFAULT_255_2_778
10
4.2917577
20
5.9699334
40
2.9303472
50
180.0004046
51
182.0750734
0
ARC
8
DEFAULT_255_2_778
10
4.2994721
20
5.9701931
40
2.9380659
50
182.0746879
51
183.3535299
0
ARC
8
DEFAULT_255_2_778
10
3.158996
20
5.8717735
40
1.7940628
50
182.3463025
51
190.2193163
0
ARC
8
DEFAULT_255_2_778
10
3.5333269
20
5.932662
40
2.1732676
50
190.0482169
51
192.2698446
0
ARC
8
DEFAULT_255_2_778
10
4.2836101
20
6.1263979
40
2.9477358
50
192.8503115
51
206.8640712
0
ARC
8
DEFAULT_255_2_778
10
4.41591
20
6.1716628
40
3.0862732
50
206.5038549
51
211.5482098
0
ARC
8
DEFAULT_255_2_778
10
4.1033696
20
5.9839785
40
2.7217294
50
211.6236043
51
212.3870274
0
ARC
8
DEFAULT_255_2_778
10
3.8669258
20
5.8321281
40
2.4407285
50
212.3498862
51
215.0278526
0
ARC
8
DEFAULT_255_2_778
10
3.4505032
20
5.5392289
40
1.9316148
50
215.0031935
51
218.1804996
0
ARC
8
DEFAULT_255_2_778
10
3.1015757
20
5.2660838
40
1.4884925
50
218.2180661
51
220.5485823
0
ARC
8
DEFAULT_255_2_778
10
4.8769649
20
9.0971744
40
1.291377
50
77.8021501
51
83.9782877
0
ARC
8
DEFAULT_255_2_778
10
4.7801169
20
8.6335506
40
1.7649999
50
71.190138
51
77.9091661
0
ARC
8
DEFAULT_255_2_778
10
4.7715985
20
8.6014902
40
1.7980962
50
66.9247109
51
71.2625897
0
ARC
8
DEFAULT_255_2_778
10
4.9356494
20
8.9518463
40
1.4115393
50
50.9489246
51
67.4770243
0
ARC
8
DEFAULT_255_2_778
10
5.1650708
20
9.3717636
40
0.9448568
50
358.0990398
51
45.7030523
0
ARC
8
DEFAULT_255_2_778
10
4.8787744
20
9.3405301
40
1.2306332
50
357.5305929
51
359.9949161
0
ARC
8
DEFAULT_255_2_778
10
4.8175795
20
9.3444179
40
1.2919393
50
346.7327328
51
357.4752637
0
ARC
8
DEFAULT_255_2_778
10
4.5066035
20
9.4504597
40
1.6192646
50
338.0311664
51
345.6058781
0
ARC
8
DEFAULT_255_2_778
10
5.1776596
20
9.1817208
40
0.8964016
50
313.7698605
51
337.9149393
0
ARC
8
DEFAULT_255_2_778
10
4.8311779
20
9.5257603
40
1.3845781
50
309.0940908
51
314.2750873
0
ARC
8
DEFAULT_255_2_778
10
4.4036034
20
10.0496322
40
2.0607882
50
305.6640689
51
309.1356282
0
ARC
8
DEFAULT_255_2_778
10
3.9571636
20
10.6637203
40
2.8199962
50
304.497787
51
305.7590918
0
ARC
8
DEFAULT_255_2_778
10
4.5244017
20
9.8311871
40
1.8126008
50
297.0736259
51
304.6254052
0
ARC
8
DEFAULT_255_2_778
10
4.6605316
20
9.5642818
40
1.5129851
50
290.0228057
51
297.0836567
0
ARC
8
DEFAULT_255_2_778
10
4.772858
20
9.2544071
40
1.1833805
50
283.8633953
51
290.050028
0
ARC
8
DEFAULT_255_2_778
10
4.8705925
20
8.8544277
40
0.7716352
50
278.7577242
51
283.933993
0
ARC
8
DEFAULT_255_2_778
10
4.9418598
20
8.3890988
40
0.3008811
50
275.5457818
51
278.8363772
0
ARC
8
DEFAULT_255_2_778
10
4.4828375
20
4.3522043
40
0.7704999
50
309.3076773
51
310.8692623
0
ARC
8
DEFAULT_255_2_778
10
3.8168407
20
5.1270038
40
1.7921952
50
310.7622033
51
312.3976864
0
ARC
8
DEFAULT_255_2_778
10
3.2200677
20
5.7805288
40
2.6771996
50
312.3988085
51
314.6328594
0
ARC
8
DEFAULT_255_2_778
10
2.7109844
20
6.2976609
40
3.4028652
50
314.6153242
51
317.057606
0
ARC
8
DEFAULT_255_2_778
10
2.3256935
20
6.6566747
40
3.929496
50
317.0528266
51
320.0279834
0
ARC
8
DEFAULT_255_2_778
10
2.0555827
20
6.8837894
40
4.2823991
50
320.0209132
51
323.442459
0
ARC
8
DEFAULT_255_2_778
10
1.8950732
20
7.0033186
40
4.482525
50
323.4372351
51
327.4655951
0
ARC
8
DEFAULT_255_2_778
10
1.846862
20
7.0349051
40
4.5401578
50
327.4567449
51
327.7405462
0
ARC
8
DEFAULT_255_2_778
10
1.8291727
20
7.0459934
40
4.5610352
50
327.7413628
51
329.9419807
0
ARC
8
DEFAULT_255_2_778
10
1.8105718
20
7.0567922
40
4.5825435
50
329.9416083
51
332.3078187
0
ARC
8
DEFAULT_255_2_778
10
1.8027096
20
7.0609611
40
4.5914426
50
332.3073486
51
333.993347
0
ARC
8
DEFAULT_255_2_778
10
5.359147
20
5.3285106
40
0.6354864
50
333.7785229
51
335.6359631
0
ARC
8
DEFAULT_255_2_778
10
3.9954244
20
5.9504408
40
2.1343298
50
335.5295864
51
337.3997711
0
ARC
8
DEFAULT_255_2_778
10
2.399915
20
6.6215872
40
3.8652442
50
337.3040792
51
338.315957
0
ARC
8
DEFAULT_255_2_778
10
5.0774594
20
5.0296657
40
0.9287295
50
5.8518029
51
10.1558983
0
ARC
8
DEFAULT_255_2_778
10
4.7428834
20
4.9947371
40
1.2651234
50
2.0398692
51
5.8805467
0
ARC
8
DEFAULT_255_2_778
10
4.4773497
20
4.9837165
40
1.5308819
50
359.9783474
51
2.0983254
0
ARC
8
DEFAULT_255_2_778
10
4.1061372
20
4.9881862
40
1.902101
50
353.768883
51
359.8479361
0
ARC
8
DEFAULT_255_2_778
10
3.6275924
20
5.0389004
40
2.3833237
50
347.905189
51
353.8055753
0
ARC
8
DEFAULT_255_2_778
10
3.2431061
20
5.1201263
40
2.7762949
50
342.304566
51
347.9286854
0
ARC
8
DEFAULT_255_2_778
10
2.9066852
20
5.2273337
40
3.1293846
50
336.4045289
51
342.3068107
0
ARC
8
DEFAULT_255_2_778
10
2.7044455
20
5.3123198
40
3.3487352
50
335.0895019
51
336.4570732
0
ARC
8
DEFAULT_255_2_778
10
3.5228311
20
4.8983509
40
2.4323163
50
308.1649685
51
335.8138801
0
ARC
8
DEFAULT_255_2_778
10
3.6923
20
4.7044096
40
2.1751545
50
297.5969319
51
307.8119808
0
ARC
8
DEFAULT_255_2_778
10
2.6225832
20
6.6199315
40
4.3687102
50
293.9102398
51
298.3923926
0
ARC
8
DEFAULT_255_2_778
10
2.9833432
20
5.8020586
40
3.4748084
50
287.8860707
51
293.9380697
0
ARC
8
DEFAULT_255_2_778
10
3.1714468
20
5.2189884
40
2.8621472
50
280.1266779
51
287.8873365
0
ARC
8
DEFAULT_255_2_778
10
3.2173698
20
4.9795891
40
2.6184048
50
269.9716352
51
280.0585117
0
ARC
8
DEFAULT_255_2_778
10
3.2229411
20
5.3053569
40
2.9441802
50
261.962494
51
269.8663517
0
ARC
8
DEFAULT_255_2_778
10
3.3192532
20
6.0395293
40
3.6846144
50
259.0069957
51
262.0758064
0
ARC
8
DEFAULT_255_2_778
10
3.1276677
20
5.3069489
40
2.9293426
50
225.4736378
51
259.9532143
0
ARC
8
DEFAULT_255_2_778
10
3.0715271
20
5.2128759
40
2.8230268
50
212.0640096
51
224.9470899
0
ARC
8
DEFAULT_255_2_778
10
3.2937971
20
5.3617178
40
3.0904168
50
181.9794506
51
212.2149469
0
ARC
8
DEFAULT_255_2_778
10
4.2962168
20
5.4630347
40
4.0962798
50
179.9777431
51
182.9114883
0
ARC
8
DEFAULT_255_2_778
10
3.0259091
20
5.3694883
40
2.8275728
50
138.0549538
51
178.07184
0
ARC
8
DEFAULT_255_2_778
10
3.5486227
20
4.9828061
40
3.4753743
50
110.7230256
51
139.0735588
0
ARC
8
DEFAULT_255_2_778
10
3.413474
20
5.2969906
40
3.1337314
50
110.3240508
51
110.444559
0
ARC
8
DEFAULT_255_2_778
10
1.9945156
20
9.3941766
40
1.2047756
50
285.9228612
51
286.1266301
0
ARC
8
DEFAULT_255_2_778
10
1.9871231
20
9.4161677
40
1.2279549
50
286.1729766
51
289.9704003
0
ARC
8
DEFAULT_255_2_778
10
0.0883144
20
14.5665207
40
6.7171707
50
290.1888289
51
290.7780276
0
ARC
8
DEFAULT_255_2_778
10
2.7748507
20
7.4993424
40
0.8434289
50
102.4182047
51
111.0999107
0
ARC
8
DEFAULT_255_2_778
10
2.807686
20
7.3140298
40
1.0314964
50
96.4293294
51
101.985853
0
ARC
8
DEFAULT_255_2_778
10
2.8543978
20
6.9550298
40
1.3934832
50
96.3640251
51
96.6849961
0
ARC
8
DEFAULT_255_2_778
10
1.7757599
20
9.5719562
40
1.5401307
50
306.8191121
51
306.8745001
0
ARC
8
DEFAULT_255_2_778
10
1.1628578
20
10.4335118
40
2.5972665
50
302.5058804
51
306.2527166
0
ARC
8
DEFAULT_255_2_778
10
10.9140502
20
-4.7718355
40
15.4661993
50
122.6999684
51
123.4562322
0
ARC
8
DEFAULT_255_2_778
10
3.3139211
20
6.7369414
40
1.6743987
50
123.5912015
51
136.8322723
0
ARC
8
DEFAULT_255_2_778
10
4.0281181
20
6.0559722
40
2.6611891
50
136.6587495
51
148.6119174
0
ARC
8
DEFAULT_255_2_778
10
4.0653873
20
6.0204841
40
2.7115094
50
148.3819362
51
153.1385736
0
ARC
8
DEFAULT_255_2_778
10
3.629809
20
6.2399884
40
2.2237498
50
153.1130923
51
157.5225285
0
LINE
8
DEFAULT_255_2_778
10
1.5749977
20
7.0901727
11
1.5749372
21
7.0900259
0
ARC
8
DEFAULT_255_2_778
10
2.7600817
20
4.8152899
40
0.9460529
50
217.7786553
51
223.4977481
0
ARC
8
DEFAULT_255_2_778
10
3.1237268
20
5.1584857
40
1.4460729
50
223.4441921
51
228.0865589
0
ARC
8
DEFAULT_255_2_778
10
3.4836001
20
5.5571398
40
1.9831318
50
228.043289
51
231.9361466
0
ARC
8
DEFAULT_255_2_778
10
3.8388697
20
6.0145018
40
2.5622626
50
231.9868904
51
238.0700631
0
ARC
8
DEFAULT_255_2_778
10
3.8417498
20
5.9868278
40
2.5403564
50
237.6848211
51
252.272197
0
ARC
8
DEFAULT_255_2_778
10
3.57018
20
5.1826997
40
1.6917781
50
252.7402714
51
259.7254196
0
ARC
8
DEFAULT_255_2_778
10
3.5093134
20
4.8661165
40
1.3694193
50
259.8686368
51
263.1312525
0
ARC
8
DEFAULT_255_2_778
10
3.6872562
20
6.3713907
40
2.8851728
50
263.1979394
51
266.2339916
0
ARC
8
DEFAULT_255_2_778
10
3.6843949
20
6.3285647
40
2.8422514
50
266.2348415
51
269.0725506
0
ARC
8
DEFAULT_255_2_778
10
3.6839014
20
6.3069715
40
2.8206531
50
269.0754753
51
269.9993834
0
ARC
8
DEFAULT_255_2_778
10
3.6842803
20
6.2716664
40
2.7853481
50
269.9915821
51
274.9891637
0
ARC
8
DEFAULT_255_2_778
10
3.6891222
20
6.216014
40
2.7294854
50
274.9895062
51
279.3666148
0
ARC
8
DEFAULT_255_2_778
10
3.7011744
20
6.1434725
40
2.6559496
50
279.3647756
51
283.2411059
0
ARC
8
DEFAULT_255_2_778
10
3.7273607
20
6.0328308
40
2.5422513
50
283.2377766
51
286.6684066
0
ARC
8
DEFAULT_255_2_778
10
3.7581958
20
5.927729
40
2.4327213
50
286.6827067
51
287.7621017
0
ARC
8
DEFAULT_255_2_778
10
3.7983384
20
5.8046543
40
2.3032673
50
287.7451063
51
290.384074
0
ARC
8
DEFAULT_255_2_778
10
3.8904744
20
5.5579655
40
2.0399345
50
290.3716637
51
293.0072233
0
ARC
8
DEFAULT_255_2_778
10
4.0353387
20
5.2173996
40
1.6698388
50
292.9992665
51
295.2729672
0
ARC
8
DEFAULT_255_2_778
10
4.2370895
20
4.790985
40
1.1981053
50
295.2543007
51
297.2717993
0
ARC
8
DEFAULT_255_2_778
10
4.5036725
20
4.2751771
40
0.6174817
50
297.2160399
51
298.975912
0
ARC
8
DEFAULT_255_2_778
10
4.7281984
20
3.8689468
40
0.1533325
50
299.1158099
51
299.6006521
0
ARC
8
DEFAULT_255_2_778
10
5.1069518
20
10.7329088
40
2.6603956
50
259.5143818
51
263.4599143
0
ARC
8
DEFAULT_255_2_778
10
5.5017041
20
12.8679693
40
4.8316424
50
256.5042892
51
259.5190872
0
ARC
8
DEFAULT_255_2_778
10
6.4415265
20
16.817743
40
8.8916849
50
254.9121132
51
256.555178
0
ARC
8
DEFAULT_255_2_778
10
7.3087345
20
20.1060568
40
12.2923916
50
254.9779363
51
254.998977
0
ARC
8
DEFAULT_255_2_778
10
11.7526772
20
36.6513991
40
29.4241447
50
254.962076
51
254.9707857
0
ARC
8
DEFAULT_255_2_778
10
11.5977183
20
36.0542565
40
28.8072468
50
254.9427571
51
254.9515718
0
ARC
8
DEFAULT_255_2_778
10
9.7347264
20
29.1164861
40
21.6236973
50
254.9223989
51
254.9340341
0
ARC
8
DEFAULT_255_2_778
10
7.0654977
20
19.2061993
40
11.3602396
50
254.8974555
51
254.9193991
0
ARC
8
DEFAULT_255_2_778
10
7.0069644
20
18.9926364
40
11.1388024
50
254.8797487
51
254.9019223
0
ARC
8
DEFAULT_255_2_778
10
7.3567274
20
20.2913277
40
12.4837679
50
254.8652118
51
254.8848139
0
ARC
8
DEFAULT_255_2_778
10
9.2940831
20
27.4504124
40
19.9003601
50
254.8501874
51
254.8623705
0
ARC
8
DEFAULT_255_2_778
10
9.1899788
20
27.0632395
40
19.4994362
50
254.8358152
51
254.8481336
0
ARC
8
DEFAULT_255_2_778
10
7.1677175
20
19.6014582
40
11.7684775
50
254.8153495
51
254.8355708
0
ARC
8
DEFAULT_255_2_778
10
8.9862504
20
26.3031662
40
18.7125362
50
254.8037934
51
254.8163926
0
ARC
8
DEFAULT_255_2_778
10
10.3333836
20
31.2513545
40
23.8408231
50
254.7868253
51
254.7966224
0
ARC
8
DEFAULT_255_2_778
10
6.6237562
20
17.6115586
40
9.7055706
50
254.7653128
51
254.7891542
0
ARC
8
DEFAULT_255_2_778
10
8.6944193
20
25.2215966
40
17.5922887
50
254.7582104
51
254.7712409
0
ARC
8
DEFAULT_255_2_778
10
8.6004333
20
24.8738858
40
17.2321003
50
254.7426026
51
254.7557812
0
ARC
8
DEFAULT_255_2_778
10
8.5085573
20
24.5358948
40
16.8818447
50
254.7282358
51
254.7415619
0
ARC
8
DEFAULT_255_2_778
10
9.7234867
20
28.982779
40
21.4917072
50
254.7159251
51
254.7262948
0
ARC
8
DEFAULT_255_2_778
10
8.3301645
20
23.8835597
40
16.205557
50
254.7018142
51
254.7154375
0
ARC
8
DEFAULT_255_2_778
10
8.243589
20
23.5689107
40
15.8792151
50
254.6898094
51
254.703582
0
ARC
8
DEFAULT_255_2_778
10
8.1589885
20
23.2632626
40
15.562076
50
254.679177
51
254.6930982
0
ARC
8
DEFAULT_255_2_778
10
8.0750746
20
22.9559105
40
15.2434745
50
254.664054
51
254.6781324
0
ARC
8
DEFAULT_255_2_778
10
7.9935487
20
22.6633467
40
14.9397666
50
254.654604
51
254.6688333
0
ARC
8
DEFAULT_255_2_778
10
9.0671945
20
26.5752071
40
18.9962881
50
254.643083
51
254.6541681
0
ARC
8
DEFAULT_255_2_778
10
7.8336987
20
22.0833419
40
14.3381377
50
254.6280078
51
254.6425556
0
ARC
8
DEFAULT_255_2_778
10
-55.2803732
20
-207.4590743
40
223.7230033
50
74.625968
51
74.6268915
0
ARC
8
DEFAULT_255_2_778
10
25.8424786
20
87.5442736
40
82.2310666
50
254.6147712
51
254.6172601
0
ARC
8
DEFAULT_255_2_778
10
25.2870526
20
85.4876032
40
80.1007413
50
254.6049955
51
254.6075263
0
ARC
8
DEFAULT_255_2_778
10
7.5336247
20
21.0100595
40
13.2237061
50
254.5873098
51
254.6024948
0
ARC
8
DEFAULT_255_2_778
10
8.4838766
20
24.4635592
40
16.8055543
50
254.5814675
51
254.5933027
0
ARC
8
DEFAULT_255_2_778
10
-55.1517542
20
-206.2066694
40
222.4814029
50
74.5769528
51
74.5778383
0
ARC
8
DEFAULT_255_2_778
10
8.3041314
20
23.8179571
40
16.1353991
50
254.5629562
51
254.5750499
0
ARC
8
DEFAULT_255_2_778
10
8.2167497
20
23.5037365
40
15.8092552
50
254.5528696
51
254.5650954
0
ARC
8
DEFAULT_255_2_778
10
-54.8037237
20
-204.5399574
40
220.7821782
50
74.5516407
51
74.5525079
0
ARC
8
DEFAULT_255_2_778
10
-54.7308773
20
-204.1406242
40
220.377871
50
74.5431093
51
74.5439698
0
ARC
8
DEFAULT_255_2_778
10
-54.4640624
20
-203.065149
40
219.2701862
50
74.5362751
51
74.5371317
0
ARC
8
DEFAULT_255_2_778
10
7.884268
20
22.3185579
40
14.5783323
50
254.5199532
51
254.5327133
0
ARC
8
DEFAULT_255_2_778
10
7.8057554
20
22.0421608
40
14.2910069
50
254.5146515
51
254.5275439
0
ARC
8
DEFAULT_255_2_778
10
-53.9862803
20
-200.9820044
40
217.1350806
50
74.5137936
51
74.514634
0
ARC
8
DEFAULT_255_2_778
10
7.6521979
20
21.4990471
40
13.7266101
50
254.5006127
51
254.51378
0
ARC
8
DEFAULT_255_2_778
10
9.0791371
20
26.6490323
40
19.0706257
50
254.4947542
51
254.5041412
0
ARC
8
DEFAULT_255_2_778
10
7.5040589
20
20.9745314
40
13.1815824
50
254.4848232
51
254.498274
0
ARC
8
DEFAULT_255_2_778
10
8.8738416
20
25.9152648
40
18.3086819
50
254.4807
51
254.4902914
0
ARC
8
DEFAULT_255_2_778
10
7.3628307
20
20.4800593
40
12.6673517
50
254.4744795
51
254.4882097
0
ARC
8
DEFAULT_255_2_778
10
11.9038159
20
36.8335092
40
29.6395604
50
254.4696271
51
254.4783409
0
ARC
8
DEFAULT_255_2_778
10
9.8310954
20
29.3789069
40
21.9021665
50
254.4608274
51
254.4724501
0
ARC
8
DEFAULT_255_2_778
10
9.6505915
20
28.7333795
40
21.2318783
50
254.4516309
51
254.4634481
0
ARC
8
DEFAULT_255_2_778
10
11.1916155
20
34.2776965
40
26.9863727
50
254.4457253
51
254.4548889
0
ARC
8
DEFAULT_255_2_778
10
10.9745113
20
33.5069188
40
26.1856068
50
254.4418182
51
254.4511261
0
ARC
8
DEFAULT_255_2_778
10
13.8223531
20
43.7412301
40
36.8087574
50
254.4376596
51
254.4441859
0
ARC
8
DEFAULT_255_2_778
10
10.5506829
20
31.9936064
40
24.6140663
50
254.4280331
51
254.4376521
0
ARC
8
DEFAULT_255_2_778
10
10.348808
20
31.2748598
40
23.8675091
50
254.4219014
51
254.4316783
0
ARC
8
DEFAULT_255_2_778
10
12.9384465
20
40.5765069
40
33.5229148
50
254.4209606
51
254.4278212
0
ARC
8
DEFAULT_255_2_778
10
-10.1746602
20
-42.110925
40
52.3341126
50
74.3587767
51
74.5315254
0
ARC
8
DEFAULT_255_2_778
10
1.8891641
20
1.4817179
40
7.1029909
50
74.5341752
51
75.3432909
0
ARC
8
DEFAULT_255_2_778
10
2.8270822
20
5.0512387
40
3.4123091
50
75.4140179
51
75.9057935
0
ARC
8
DEFAULT_255_2_778
10
4.6069571
20
12.8425495
40
4.5810802
50
257.0792552
51
258.0452635
0
ARC
8
DEFAULT_255_2_778
10
5.532671
20
16.8987552
40
8.7415776
50
256.5822505
51
257.1100921
0
ARC
8
DEFAULT_255_2_778
10
7.2181328
20
23.9526763
40
15.9940654
50
256.0599689
51
256.5729423
0
ARC
8
DEFAULT_255_2_778
10
10.1934897
20
35.9665148
40
28.3708598
50
255.7815887
51
256.073056
0
ARC
8
DEFAULT_255_2_778
10
15.6607605
20
57.5260242
40
50.6127907
50
255.5084072
51
255.776646
0
ARC
8
DEFAULT_255_2_778
10
28.3327923
20
106.5857344
40
101.2826586
50
255.3713565
51
255.5127845
0
ARC
8
DEFAULT_255_2_778
10
46.8228666
20
177.5282721
40
174.5951822
50
255.3704671
51
255.3799137
0
ARC
8
DEFAULT_255_2_778
10
-159.938151
20
-614.4493904
40
643.9271063
50
75.3678576
51
75.3687825
0
ARC
8
DEFAULT_255_2_778
10
-38.1448096
20
-147.8702583
40
161.7137677
50
75.364353
51
75.3670929
0
ARC
8
DEFAULT_255_2_778
10
35.5261562
20
134.268765
40
129.8849973
50
255.3621899
51
255.3644502
0
ARC
8
DEFAULT_255_2_778
10
35.2519587
20
133.2267505
40
128.8075119
50
255.3607973
51
255.3630672
0
ARC
8
DEFAULT_255_2_778
10
34.9787865
20
132.1886823
40
127.734104
50
255.3593932
51
255.3616727
0
ARC
8
DEFAULT_255_2_778
10
34.7066537
20
131.154615
40
126.6648296
50
255.3579774
51
255.3602666
0
ARC
8
DEFAULT_255_2_778
10
-191.2224648
20
-733.544902
40
767.0628812
50
75.3569363
51
75.3576891
0
ARC
8
DEFAULT_255_2_778
10
-14.4096733
20
-56.7836578
40
67.5855445
50
75.3543383
51
75.3585749
0
ARC
8
DEFAULT_255_2_778
10
-14.2758626
20
-56.2397126
40
67.0254403
50
75.3517131
51
75.3559669
0
ARC
8
DEFAULT_255_2_778
10
-14.1409568
20
-55.6971253
40
66.4663733
50
75.3502348
51
75.3545062
0
ARC
8
DEFAULT_255_2_778
10
17.8767806
20
66.8260302
40
60.1711376
50
255.3507863
51
255.3554845
0
ARC
8
DEFAULT_255_2_778
10
-29529.7501796
20
-112878.7547295
40
116686.419701
50
75.3394382
51
75.3395887
0
ARC
8
DEFAULT_255_2_778
10
-24.6100159
20
-94.4357709
40
106.5934056
50
75.3421627
51
75.4547821
0
ARC
8
DEFAULT_255_2_778
10
-8.5381687
20
-32.4953215
40
42.601816
50
75.455816
51
75.6420863
0
ARC
8
DEFAULT_255_2_778
10
-3.3311713
20
-12.1551361
40
21.6057219
50
75.6432377
51
75.8828216
0
ARC
8
DEFAULT_255_2_778
10
-0.4562863
20
-0.7041622
40
9.7993798
50
75.8541813
51
76.4240632
0
ARC
8
DEFAULT_255_2_778
10
1.1269327
20
5.8683734
40
3.0388503
50
76.3521616
51
77.6266605
0
ARC
8
DEFAULT_255_2_778
10
1.5628464
20
7.8442396
40
1.0154743
50
77.7619675
51
78.670508
0
ARC
8
DEFAULT_255_2_778
10
1.5632715
20
6.9426209
40
1.9077195
50
84.0104264
51
89.5900717
0
ARC
8
DEFAULT_255_2_778
10
1.573956
20
7.3875317
40
1.4627629
50
89.883887
51
89.995996
0
ARC
8
DEFAULT_255_2_778
10
1.5480515
20
8.0390944
40
0.8116169
50
88.1637494
51
110.7962976
0
ARC
8
DEFAULT_255_2_778
10
1.4110221
20
8.43623
40
0.3919158
50
112.6825272
51
130.1655143
0
ARC
8
DEFAULT_255_2_778
10
1.5668329
20
8.2797675
40
0.6122487
50
131.8643054
51
159.1426201
0
ARC
8
DEFAULT_255_2_778
10
1.5584706
20
8.273647
40
0.6066759
50
158.3212491
51
176.285936
0
ARC
8
DEFAULT_255_2_778
10
1.4714519
20
8.2826794
40
0.5192657
50
176.6585119
51
179.9861929
0
ARC
8
DEFAULT_255_2_778
10
1.4066569
20
8.2805274
40
0.4544765
50
179.712931
51
196.3847547
0
ARC
8
DEFAULT_255_2_778
10
1.3722601
20
8.2861561
40
0.4233337
50
198.4292831
51
219.6678955
0
ARC
8
DEFAULT_255_2_778
10
1.5509109
20
8.431939
40
0.6539126
50
219.5082637
51
225.3719036
0
ARC
8
DEFAULT_255_2_778
10
21.6225893
20
29.2189879
40
29.5497849
50
225.9890878
51
226.1686406
0
ARC
8
DEFAULT_255_2_778
10
1.1642967
20
8.0671807
40
0.1649661
50
258.5738122
51
267.8949803
0
ARC
8
DEFAULT_255_2_778
10
1.20565
20
8.2858237
40
0.3874782
50
246.9103924
51
258.9849717
0
ARC
8
DEFAULT_255_2_778
10
1.289985
20
8.4885313
40
0.6070241
50
235.9425783
51
247.0913138
0
ARC
8
DEFAULT_255_2_778
10
1.412507
20
8.7755753
40
0.9153679
50
202.6933293
51
239.6534943
0
ARC
8
DEFAULT_255_2_778
10
1.4976732
20
8.8104363
40
1.0073902
50
183.0790378
51
202.6538104
0
ARC
8
DEFAULT_255_2_778
10
1.7845293
20
8.8286809
40
1.2948153
50
180.0009216
51
183.2033905
0
ARC
8
DEFAULT_255_2_778
10
1.7808096
20
8.828609
40
1.2910956
50
125.3763209
51
179.9977316
0
ARC
8
DEFAULT_255_2_778
10
1.9910113
20
8.4354508
40
1.7342706
50
92.7796492
51
123.518464
0
ARC
8
DEFAULT_255_2_778
10
1.9549079
20
8.6377707
40
1.5306628
50
89.9990856
51
91.7970328
0
ARC
8
DEFAULT_255_2_778
10
1.9540909
20
8.5936016
40
1.5748321
50
83.1001044
51
89.9693847
0
ARC
8
DEFAULT_255_2_778
10
1.9468159
20
8.5248814
40
1.643929
50
81.8792396
51
83.1361237
0
ARC
8
DEFAULT_255_2_778
10
1.7100958
20
6.6527637
40
3.5308415
50
77.1950627
51
82.3678286
0
ARC
8
DEFAULT_255_2_778
10
0.9952995
20
3.4928498
40
6.7705921
50
73.8976664
51
77.2231592
0
ARC
8
DEFAULT_255_2_778
10
-2.2988378
20
-7.8861299
40
18.6167936
50
72.2509881
51
73.8702812
0
ARC
8
DEFAULT_255_2_778
10
-85.886765
20
-272.097935
40
295.7354767
50
72.3972623
51
72.4321695
0
ARC
8
DEFAULT_255_2_778
10
16.5175917
20
50.6314058
40
42.8511156
50
252.3824695
51
252.7028914
0
ARC
8
DEFAULT_255_2_778
10
7.7651746
20
22.4049464
40
13.2988963
50
252.548293
51
254.8246664
0
ARC
8
DEFAULT_255_2_778
10
6.2249991
20
16.8146317
40
7.5003781
50
255.0009081
51
256.3103296
0
ARC
8
DEFAULT_255_2_778
10
5.0722722
20
12.3633076
40
2.9034622
50
257.6230525
51
261.7884112
0
ARC
8
DEFAULT_255_2_778
10
4.855668
20
10.8498793
40
1.3746145
50
261.7142921
51
269.5845061
0
ARC
8
DEFAULT_255_2_778
10
4.8615703
20
10.2014918
40
0.7263643
50
268.7480249
51
295.9254053
0
ARC
8
DEFAULT_255_2_778
10
4.9935087
20
9.8548538
40
0.3584392
50
301.1901703
51
308.9026126
0
ARC
8
DEFAULT_255_2_778
10
4.9582122
20
9.9004515
40
0.4160918
50
308.7419061
51
311.6389536
0
ARC
8
DEFAULT_255_2_778
10
4.9725798
20
9.888847
40
0.3978845
50
311.2030365
51
336.6885633
0
ARC
8
DEFAULT_255_2_778
10
5.0626677
20
9.8472528
40
0.2987015
50
337.1773958
51
359.7866431
0
ARC
8
DEFAULT_255_2_778
10
5.0587582
20
9.8450677
40
0.3026106
50
0.2031207
51
19.2919128
0
ARC
8
DEFAULT_255_2_778
10
4.9785188
20
9.816917
40
0.3876449
50
19.300841
51
32.6594379
0
ARC
8
DEFAULT_255_2_778
10
4.9399651
20
9.7954011
40
0.4317223
50
32.3022788
51
32.5095521
0
ARC
8
DEFAULT_255_2_778
10
4.8659068
20
9.7608235
40
0.5128695
50
31.3205197
51
62.0546124
0
ARC
8
DEFAULT_255_2_778
10
4.6420818
20
9.241568
40
1.0774341
50
64.4809319
51
84.8265439
0
ARC
8
DEFAULT_255_2_778
10
3.4854778
20
1.0891187
40
9.3102982
50
82.2608363
51
82.7286894
0
ARC
8
DEFAULT_255_2_778
10
5.250733
20
15.0006246
40
4.7127651
50
261.4999421
51
262.8465148
0
ARC
8
DEFAULT_255_2_778
10
5.938224
20
2.1073205
40
8.3478469
50
98.8261557
51
99.5438067
0
ARC
8
DEFAULT_255_2_778
10
5.1260922
20
7.3689196
40
3.0239462
50
96.9675322
51
98.9172711
0
ARC
8
DEFAULT_255_2_778
10
4.9309765
20
8.9669447
40
1.4140536
50
92.8734901
51
96.9746914
0
ARC
8
DEFAULT_255_2_778
10
4.9582416
20
8.1530317
40
2.2283513
50
89.8655765
51
92.5245396
0
ARC
8
DEFAULT_255_2_778
10
5.0035343
20
-5.1258539
40
15.5072825
50
89.9671057
51
90.1480297
0
LINE
8
DEFAULT_255_2_778
10
2.4915372
20
4.5063259
11
2.4915372
21
7.3607259
0
LINE
8
DEFAULT_255_2_778
10
2.4915372
20
7.3607259
11
1.5540372
21
6.9857259
0
LINE
8
DEFAULT_255_2_778
10
1.9705372
20
4.2984259
11
2.4915372
21
4.5063259
0
LINE
8
DEFAULT_255_2_778
10
4.9709372
20
8.0896259
11
4.9709372
21
6.7145259
0
LINE
8
DEFAULT_255_2_778
10
4.9709372
20
6.7145259
11
5.6167372
21
6.2145259
0
LINE
8
DEFAULT_255_2_778
10
5.6167372
20
6.2145259
11
4.9709372
21
5.6311259
0
LINE
8
DEFAULT_255_2_778
10
4.9709372
20
5.6311259
11
4.9709372
21
3.7560259
0
LINE
8
DEFAULT_255_2_778
10
1.5749372
20
7.0900259
11
3.7416372
21
8.0274259
0
LINE
8
DEFAULT_255_2_778
10
3.7416372
20
8.0274259
11
3.7416372
21
5.0897259
0
LINE
8
DEFAULT_255_2_778
10
3.7416372
20
5.0897259
11
2.0123372
21
4.2357259
0
LINE
8
DEFAULT_255_2_778
10
4.8039372
20
3.7356259
11
4.8039372
21
5.6522259
0
LINE
8
DEFAULT_255_2_778
10
4.8039372
20
5.6522259
11
4.1581372
21
6.2147259
0
LINE
8
DEFAULT_255_2_778
10
4.1581372
20
6.2147259
11
4.8039372
21
6.7148259
0
LINE
8
DEFAULT_255_2_778
10
4.8039372
20
6.7148259
11
4.8039372
21
8.0898259
0
LINE
8
DEFAULT_255_2_778
10
13.4915372
20
5.2564259
11
12.4914372
21
4.5481259
0
LINE
8
DEFAULT_255_2_778
10
12.4914372
20
4.5481259
11
12.4914372
21
6.8815259
0
LINE
8
DEFAULT_255_2_778
10
12.4914372
20
6.8815259
11
13.4915372
21
5.2564259
0
LINE
8
DEFAULT_255_2_778
10
13.4500372
20
7.5064259
11
12.3459372
21
6.8606259
0
LINE
8
DEFAULT_255_2_778
10
12.3459372
20
6.8606259
11
11.3042372
21
6.3190259
0
LINE
8
DEFAULT_255_2_778
10
11.3042372
20
6.3190259
11
11.3042372
21
3.6107259
0
LINE
8
DEFAULT_255_2_778
10
11.3042372
20
3.6107259
11
10.9084372
21
3.2982259
0
LINE
8
DEFAULT_255_2_778
10
10.9084372
20
3.2982259
11
10.9708372
21
3.2358259
0
LINE
8
DEFAULT_255_2_778
10
10.9708372
20
3.2358259
11
11.3666372
21
3.5483259
0
LINE
8
DEFAULT_255_2_778
10
11.3666372
20
3.5483259
11
12.5959372
21
2.4857259
0
LINE
8
DEFAULT_255_2_778
10
12.5959372
20
2.4857259
11
14.7210372
21
4.1108259
0
LINE
8
DEFAULT_255_2_778
10
14.7210372
20
4.1108259
11
14.6795372
21
4.1732259
0
LINE
8
DEFAULT_255_2_778
10
14.6795372
20
4.1732259
11
13.4920372
21
3.2773259
0
LINE
8
DEFAULT_255_2_778
10
13.4920372
20
3.2773259
11
12.4919372
21
4.1314259
0
LINE
8
DEFAULT_255_2_778
10
12.4919372
20
4.1314259
11
12.4919372
21
4.4648259
0
LINE
8
DEFAULT_255_2_778
10
12.4919372
20
4.4648259
11
14.4295372
21
5.8398259
0
LINE
8
DEFAULT_255_2_778
10
14.4295372
20
5.8398259
11
13.4500372
21
7.5064259
0
ARC
8
DEFAULT_255_2_778
10
8.2466858
20
3.0772031
40
1.6972678
50
257.054773
51
260.7588263
0
ARC
8
DEFAULT_255_2_778
10
8.2661258
20
3.1964268
40
1.8180661
50
260.7575196
51
265.2004085
0
ARC
8
DEFAULT_255_2_778
10
8.2741088
20
3.2902492
40
1.9122274
50
265.1972665
51
270.0175759
0
ARC
8
DEFAULT_255_2_778
10
8.2736069
20
3.3865585
40
2.0085368
50
270.0310525
51
276.8349064
0
ARC
8
DEFAULT_255_2_778
10
8.2582938
20
3.5125852
40
2.1354904
50
276.8404321
51
283.7959949
0
ARC
8
DEFAULT_255_2_778
10
8.2163335
20
3.6824002
40
2.3104126
50
283.8023133
51
290.5492248
0
ARC
8
DEFAULT_255_2_778
10
8.1402221
20
3.8871628
40
2.5288625
50
290.5355012
51
295.8151743
0
ARC
8
DEFAULT_255_2_778
10
8.6278437
20
2.9331344
40
1.4578882
50
294.8912441
51
315.9974927
0
ARC
8
DEFAULT_255_2_778
10
8.3461734
20
3.1305286
40
1.7984256
50
317.7081216
51
353.9076864
0
ARC
8
DEFAULT_255_2_778
10
7.5121826
20
3.293931
40
2.6460821
50
352.3058542
51
0.0442798
0
ARC
8
DEFAULT_255_2_778
10
7.1443578
20
3.2981719
40
3.0139069
50
359.9582544
51
360
0
ARC
8
DEFAULT_255_2_778
10
6.510871
20
8.9000534
40
0.0724875
50
236.4073412
51
239.6448239
0
ARC
8
DEFAULT_255_2_778
10
6.5253049
20
8.9246107
40
0.1009726
50
239.6193455
51
242.0551363
0
ARC
8
DEFAULT_255_2_778
10
6.540666
20
8.9534086
40
0.1336111
50
242.0231109
51
243.5395389
0
ARC
8
DEFAULT_255_2_778
10
6.5565045
20
8.9852143
40
0.1691422
50
243.5370509
51
244.7630387
0
ARC
8
DEFAULT_255_2_778
10
6.574024
20
9.0223605
40
0.2102126
50
244.7604599
51
245.7648389
0
ARC
8
DEFAULT_255_2_778
10
6.5952801
20
9.0695676
40
0.2619844
50
245.7637151
51
246.5804889
0
ARC
8
DEFAULT_255_2_778
10
6.6173371
20
9.1204808
40
0.31747
50
246.5797824
51
247.2601245
0
ARC
8
DEFAULT_255_2_778
10
6.6451006
20
9.1866317
40
0.3892109
50
247.2549902
51
247.8131126
0
ARC
8
DEFAULT_255_2_778
10
6.6769569
20
9.2645322
40
0.4733733
50
247.8034129
51
248.2634587
0
ARC
8
DEFAULT_255_2_778
10
6.7201541
20
9.3727362
40
0.5898813
50
248.2582564
51
248.6273084
0
ARC
8
DEFAULT_255_2_778
10
-6.0949042
20
-24.7801824
40
35.8882204
50
69.3315414
51
69.4458461
0
ARC
8
DEFAULT_255_2_778
10
6.2909987
20
8.0612547
40
0.7887876
50
62.6953933
51
69.1150341
0
ARC
8
DEFAULT_255_2_778
10
6.5001105
20
8.4400214
40
0.3565031
50
28.2935777
51
64.6347106
0
ARC
8
DEFAULT_255_2_778
10
6.5316148
20
8.4720706
40
0.3138529
50
1.5488278
51
25.8671208
0
ARC
8
DEFAULT_255_2_778
10
6.4494744
20
8.4648434
40
0.3961903
50
359.9896614
51
2.2725613
0
ARC
8
DEFAULT_255_2_778
10
5.442615
20
3.6551077
40
3.7366509
50
355.1527741
51
359.9549835
0
ARC
8
DEFAULT_255_2_778
10
5.3089874
20
3.6643957
40
3.8705859
50
353.3328643
51
355.1829228
0
ARC
8
DEFAULT_255_2_778
10
5.7513763
20
3.5953962
40
3.423221
50
341.5298102
51
353.6202648
0
ARC
8
DEFAULT_255_2_778
10
6.9647855
20
3.1933241
40
2.1449374
50
330.8656565
51
341.4480477
0
ARC
8
DEFAULT_255_2_778
10
7.683119
20
2.7937208
40
1.3229368
50
318.8492327
51
330.8361456
0
ARC
8
DEFAULT_255_2_778
10
5.9633112
20
4.3302457
40
3.6291057
50
316.1709151
51
318.450325
0
ARC
8
DEFAULT_255_2_778
10
7.0402928
20
3.2937571
40
2.1343844
50
312.5821821
51
316.2222408
0
ARC
8
DEFAULT_255_2_778
10
7.6192619
20
2.6607707
40
1.2765556
50
306.4386305
51
312.6723577
0
ARC
8
DEFAULT_255_2_778
10
7.8272814
20
2.3830122
40
0.9295482
50
300.3932485
51
306.2923901
0
ARC
8
DEFAULT_255_2_778
10
7.7630045
20
2.5190197
40
1.0794671
50
287.1852144
51
299.6837387
0
ARC
8
DEFAULT_255_2_778
10
7.2976278
20
3.8781288
40
2.5157674
50
287.3379756
51
288.1653776
0
ARC
8
DEFAULT_255_2_778
10
6.5159014
20
6.4083451
40
5.1639858
50
286.2637242
51
287.2512525
0
ARC
8
DEFAULT_255_2_778
10
14.5684964
20
-21.0580577
40
23.4585208
50
106.3568791
51
106.3604604
0
ARC
8
DEFAULT_255_2_778
10
7.0889283
20
4.4183538
40
3.093155
50
286.3435001
51
286.3702827
0
ARC
8
DEFAULT_255_2_778
10
14.17816
20
-19.7496703
40
22.0931627
50
106.3486877
51
106.3523852
0
ARC
8
DEFAULT_255_2_778
10
14.7350057
20
-21.6662473
40
24.088988
50
106.3398251
51
106.3448428
0
ARC
8
DEFAULT_255_2_778
10
14.4173761
20
-20.6043695
40
22.9806397
50
106.3299799
51
106.3351292
0
ARC
8
DEFAULT_255_2_778
10
26.5358455
20
-62.2225452
40
66.3272409
50
106.2694414
51
106.3480056
0
ARC
8
DEFAULT_255_2_778
10
17.5521963
20
2.985593
40
1.320279
50
252.4433461
51
263.7457682
0
ARC
8
DEFAULT_255_2_778
10
17.4367983
20
2.6258538
40
0.9424883
50
237.4712582
51
252.5350119
0
ARC
8
DEFAULT_255_2_778
10
17.3016638
20
2.4163385
40
0.6931777
50
216.5287709
51
237.5765345
0
ARC
8
DEFAULT_255_2_778
10
17.195343
20
2.3358833
40
0.5598553
50
193.9012224
51
216.3890293
0
ARC
8
DEFAULT_255_2_778
10
17.1373881
20
2.3197465
40
0.499724
50
180.0888062
51
193.7016543
0
ARC
8
DEFAULT_255_2_778
10
16.9886197
20
2.3141666
40
0.3509879
50
165.405442
51
179.2155491
0
ARC
8
DEFAULT_255_2_778
10
17.179782
20
2.2669021
40
0.5478969
50
153.3028451
51
165.6594709
0
ARC
8
DEFAULT_255_2_778
10
17.2430577
20
2.2381249
40
0.6173618
50
151.8281008
51
153.5551708
0
ARC
8
DEFAULT_255_2_778
10
17.2488204
20
2.236079
40
0.6234083
50
128.3559428
51
151.9123889
0
ARC
8
DEFAULT_255_2_778
10
17.2040705
20
2.2911475
40
0.5524565
50
101.6720396
51
128.2606253
0
ARC
8
DEFAULT_255_2_778
10
17.2083531
20
2.270579
40
0.5734663
50
97.08058
51
101.6753284
0
ARC
8
DEFAULT_255_2_778
10
17.2488209
20
1.9511063
40
0.8954912
50
90.0131327
51
97.130443
0
ARC
8
DEFAULT_255_2_778
10
17.2409752
20
1.8969679
40
0.9496604
50
60.2132102
51
89.5390205
0
ARC
8
DEFAULT_255_2_778
10
17.0496735
20
1.5477027
40
1.3478351
50
45.6531565
51
60.5311397
0
ARC
8
DEFAULT_255_2_778
10
16.7730049
20
1.2479491
40
1.7556256
50
41.100771
51
46.0342152
0
ARC
8
DEFAULT_255_2_778
10
17.1969202
20
1.8039947
40
2.4158029
50
42.747689
51
60.6682098
0
ARC
8
DEFAULT_255_2_778
10
17.4666194
20
2.2558346
40
1.8898236
50
61.0860567
51
82.9012107
0
ARC
8
DEFAULT_255_2_778
10
21.0182229
20
2.5882266
40
0.1520496
50
234.2856178
51
239.386861
0
ARC
8
DEFAULT_255_2_778
10
21.1049564
20
2.7320812
40
0.3200257
50
239.1382375
51
246.5184305
0
ARC
8
DEFAULT_255_2_778
10
21.1313227
20
2.7891451
40
0.3828725
50
246.302117
51
248.232819
0
ARC
8
DEFAULT_255_2_778
10
21.1473995
20
2.8320404
40
0.4286724
50
248.3633555
51
259.1377248
0
ARC
8
DEFAULT_255_2_778
10
21.1576631
20
2.8843652
40
0.481994
50
259.111672
51
270.1071866
0
ARC
8
DEFAULT_255_2_778
10
21.1631177
20
2.5656928
40
0.1633844
50
268.4031578
51
287.03177
0
ARC
8
DEFAULT_255_2_778
10
21.1981147
20
2.4594305
40
0.0515848
50
284.43439
51
336.5160991
0
ARC
8
DEFAULT_255_2_778
10
21.204265
20
2.454702
40
0.0441
50
338.967208
51
345.9848277
0
ARC
8
DEFAULT_255_2_778
10
21.1976647
20
2.4561308
40
0.0508503
50
346.2239031
51
0.273294
0
ARC
8
DEFAULT_255_2_778
10
21.1780625
20
2.4556155
40
0.0704559
50
0.6162743
51
17.6828567
0
ARC
8
DEFAULT_255_2_778
10
21.1805664
20
2.4572067
40
0.0675913
50
17.0424336
51
24.5868926
0
ARC
8
DEFAULT_255_2_778
10
21.2247803
20
2.4772535
40
0.0190458
50
25.0895228
51
26.2318881
0
ARC
8
DEFAULT_255_2_778
10
21.234968
20
9.2868738
40
0.947027
50
270.4172608
51
281.3569395
0
ARC
8
DEFAULT_255_2_778
10
21.1786872
20
9.5939957
40
1.2592291
50
281.1157925
51
287.5828077
0
ARC
8
DEFAULT_255_2_778
10
21.1663967
20
9.6663717
40
1.3319754
50
287.1463088
51
311.5461983
0
ARC
8
DEFAULT_255_2_778
10
21.4257249
20
9.3443303
40
0.919167
50
312.7617372
51
314.9727347
0
ARC
8
DEFAULT_255_2_778
10
20.8727819
20
9.8973453
40
1.7011973
50
314.9835556
51
318.3110464
0
ARC
8
DEFAULT_255_2_778
10
20.9610766
20
9.8187349
40
1.582979
50
318.310321
51
321.8873457
0
ARC
8
DEFAULT_255_2_778
10
21.0164016
20
9.7747251
40
1.512286
50
321.9055223
51
323.3219221
0
ARC
8
DEFAULT_255_2_778
10
21.1061995
20
9.7104215
40
1.4018596
50
323.2374731
51
331.8339779
0
ARC
8
DEFAULT_255_2_778
10
21.2160648
20
9.6511478
40
1.2770255
50
331.8517138
51
341.3373622
0
ARC
8
DEFAULT_255_2_778
10
21.2678942
20
9.6330361
40
1.2221257
50
341.36428
51
351.1682539
0
ARC
8
DEFAULT_255_2_778
10
21.2756222
20
9.6315522
40
1.2142616
50
351.1814559
51
0.0001651
0
ARC
8
DEFAULT_255_2_778
10
21.2838062
20
9.6317294
40
1.2060777
50
359.9917498
51
6.4039352
0
ARC
8
DEFAULT_255_2_778
10
21.3348455
20
9.6377918
40
1.1546809
50
6.3874684
51
11.8481692
0
ARC
8
DEFAULT_255_2_778
10
21.4527027
20
9.662774
40
1.0342054
50
11.8342265
51
16.3149107
0
ARC
8
DEFAULT_255_2_778
10
21.6027112
20
9.7062417
40
0.8780266
50
16.3424803
51
19.0730735
0
ARC
8
DEFAULT_255_2_778
10
21.7764851
20
9.766999
40
0.693939
50
19.0204711
51
22.6510961
0
ARC
8
DEFAULT_255_2_778
10
21.9999752
20
9.8608489
40
0.4515442
50
22.5824786
51
26.8486105
0
ARC
8
DEFAULT_255_2_778
10
22.209235
20
9.9676892
40
0.2165907
50
26.6331957
51
32.8835239
0
ARC
8
DEFAULT_255_2_778
10
22.3085617
20
10.0309627
40
0.0988283
50
33.3428131
51
36.7339684
0
ARC
8
DEFAULT_255_2_778
10
21.6677107
20
10.1927584
40
0.7273392
50
347.4786343
51
351.8838067
0
ARC
8
DEFAULT_255_2_778
10
21.678101
20
10.1820479
40
0.714921
50
301.4490091
51
348.1360715
0
ARC
8
DEFAULT_255_2_778
10
21.7304845
20
10.1275356
40
0.6412916
50
271.8008365
51
299.9972404
0
ARC
8
DEFAULT_255_2_778
10
21.7211533
20
10.2247084
40
0.7387364
50
269.9931323
51
272.2873617
0
ARC
8
DEFAULT_255_2_778
10
21.7206693
20
10.5560321
40
1.0700603
50
257.6893841
51
270.0211718
0
ARC
8
DEFAULT_255_2_778
10
21.7295201
20
10.5919203
40
1.1070108
50
246.6833755
51
257.637862
0
ARC
8
DEFAULT_255_2_778
10
21.7617807
20
10.6674035
40
1.1890986
50
238.1413615
51
246.6954803
0
ARC
8
DEFAULT_255_2_778
10
21.7819834
20
10.701592
40
1.2288007
50
236.791779
51
238.1826888
0
ARC
8
DEFAULT_255_2_778
10
21.7847262
20
10.705896
40
1.2339041
50
231.0406364
51
236.7946741
0
ARC
8
DEFAULT_255_2_778
10
21.7363281
20
10.6468257
40
1.1575404
50
226.9209048
51
231.0650101
0
ARC
8
DEFAULT_255_2_778
10
21.6024915
20
10.503981
40
0.9617936
50
223.9958843
51
226.9323338
0
ARC
8
DEFAULT_255_2_778
10
21.3625098
20
10.2732858
40
0.6289113
50
221.4230901
51
224.0626681
0
ARC
8
DEFAULT_255_2_778
10
21.0576262
20
10.0041138
40
0.2222083
50
220.1041458
51
221.3916752
0
ARC
8
DEFAULT_255_2_778
10
22.0690245
20
11.062968
40
3.0882243
50
227.7289361
51
231.6586102
0
ARC
8
DEFAULT_255_2_778
10
21.4016574
20
10.215509
40
2.0095411
50
231.59353
51
237.4438498
0
ARC
8
DEFAULT_255_2_778
10
21.0469274
20
9.657318
40
1.348173
50
237.3848727
51
246.1934998
0
ARC
8
DEFAULT_255_2_778
10
20.9494697
20
9.4457167
40
1.1152438
50
246.3862962
51
258.1543748
0
ARC
8
DEFAULT_255_2_778
10
21.0876814
20
10.2143932
40
1.896056
50
258.8349721
51
267.147412
0
ARC
8
DEFAULT_255_2_778
10
21.3576188
20
13.9100167
40
5.6011895
50
266.2708905
51
266.4671064
0
ARC
8
DEFAULT_255_2_778
10
17.4185551
20
8.5090734
40
1.4370006
50
30.3781672
51
66.504166
0
ARC
8
DEFAULT_255_2_778
10
17.5860852
20
8.7730285
40
1.1291771
50
68.9610876
51
88.374924
0
ARC
8
DEFAULT_255_2_778
10
17.5751925
20
8.623865
40
1.278607
50
88.0765639
51
90.0057267
0
ARC
8
DEFAULT_255_2_778
10
17.5758621
20
8.8598374
40
1.0426348
50
90.0438163
51
117.6207277
0
ARC
8
DEFAULT_255_2_778
10
17.6642079
20
8.7022231
40
1.2232564
50
117.8645227
51
147.8343265
0
ARC
8
DEFAULT_255_2_778
10
17.6051214
20
8.7318292
40
1.1574952
50
147.517825
51
159.9340935
0
ARC
8
DEFAULT_255_2_778
10
17.4312639
20
8.796956
40
0.971847
50
160.023878
51
167.8598592
0
ARC
8
DEFAULT_255_2_778
10
17.3144724
20
8.8233611
40
0.8521153
50
167.9441017
51
171.8492807
0
ARC
8
DEFAULT_255_2_778
10
20.841574
20
8.3957799
40
4.404879
50
172.8483201
51
174.3843427
0
ARC
8
DEFAULT_255_2_778
10
19.9008634
20
8.4876526
40
3.4596929
50
174.3740526
51
176.2387956
0
ARC
8
DEFAULT_255_2_778
10
19.1367674
20
8.5382045
40
2.6939267
50
176.2455945
51
178.0177553
0
ARC
8
DEFAULT_255_2_778
10
18.5508607
20
8.5583235
40
2.1076745
50
178.013421
51
179.9580077
0
ARC
8
DEFAULT_255_2_778
10
18.0026232
20
8.5576534
40
1.5594377
50
179.9186259
51
182.7388765
0
ARC
8
DEFAULT_255_2_778
10
17.5084573
20
8.5335136
40
1.0646829
50
182.7120242
51
186.0822435
0
ARC
8
DEFAULT_255_2_778
10
17.1225425
20
8.4918419
40
0.6765253
50
186.0359025
51
190.1464186
0
ARC
8
DEFAULT_255_2_778
10
16.9371721
20
8.4601645
40
0.4884756
50
190.3192761
51
190.6278252
0
ARC
8
DEFAULT_255_2_778
10
16.8155293
20
8.435465
40
0.3643688
50
190.3382735
51
195.5541837
0
ARC
8
DEFAULT_255_2_778
10
16.6150378
20
8.3790465
40
0.1560924
50
195.3373761
51
201.5996542
0
ARC
8
DEFAULT_255_2_778
10
16.506673
20
8.3362626
40
0.0395875
50
201.7611607
51
205.5766886
0
ARC
8
DEFAULT_255_2_778
10
16.9525208
20
8.2448382
40
0.4872594
50
169.6330114
51
171.2249921
0
ARC
8
DEFAULT_255_2_778
10
17.4799804
20
8.1497564
40
1.0232195
50
167.3183182
51
169.7107376
0
ARC
8
DEFAULT_255_2_778
10
17.6873522
20
8.1040721
40
1.2355622
50
163.8930411
51
167.3626232
0
ARC
8
DEFAULT_255_2_778
10
17.5744662
20
8.1391676
40
1.1173734
50
157.0297618
51
164.0160898
0
ARC
8
DEFAULT_255_2_778
10
17.4009927
20
8.2097804
40
0.9301019
50
155.1655025
51
156.8643778
0
ARC
8
DEFAULT_255_2_778
10
17.0137452
20
8.4222609
40
0.4903537
50
117.5176074
51
158.6950581
0
ARC
8
DEFAULT_255_2_778
10
16.9070208
20
8.5767896
40
0.3048861
50
89.709846
51
113.1431625
0
ARC
8
DEFAULT_255_2_778
10
16.9170258
20
8.2365885
40
0.6451388
50
75.0847403
51
90.7514625
0
ARC
8
DEFAULT_255_2_778
10
16.9025292
20
8.3080111
40
0.5807581
50
30.9574817
51
71.8874233
0
ARC
8
DEFAULT_255_2_778
10
11.9472446
20
4.6869802
40
6.7158955
50
34.6812658
51
35.7081114
0
ARC
8
DEFAULT_255_2_778
10
25.6559648
20
14.2360012
40
9.9908286
50
214.9797058
51
214.991077
0
ARC
8
DEFAULT_255_2_778
10
17.8820734
20
0.266481
40
6.8775829
50
93.4260732
51
94.2680117
0
ARC
8
DEFAULT_255_2_778
10
17.5724941
20
4.4208569
40
2.7116884
50
94.2776485
51
97.2502424
0
ARC
8
DEFAULT_255_2_778
10
17.4569437
20
5.3100575
40
1.8150164
50
97.1742724
51
103.6084454
0
ARC
8
DEFAULT_255_2_778
10
17.3701982
20
5.6861076
40
1.4291195
50
103.7755822
51
107.1583597
0
ARC
8
DEFAULT_255_2_778
10
17.22677
20
6.0912759
40
0.9998243
50
106.1546267
51
130.8590508
0
ARC
8
DEFAULT_255_2_778
10
17.107977
20
6.2493575
40
0.8026642
50
131.8278537
51
151.6863967
0
ARC
8
DEFAULT_255_2_778
10
17.2244682
20
6.1889241
40
0.9338844
50
151.8120405
51
165.5694752
0
ARC
8
DEFAULT_255_2_778
10
17.509754
20
6.1145657
40
1.2287006
50
165.5266936
51
175.5521676
0
ARC
8
DEFAULT_255_2_778
10
17.7342263
20
6.0907447
40
1.4543581
50
175.3023519
51
175.9140494
0
ARC
8
DEFAULT_255_2_778
10
17.3053402
20
6.2170086
40
1.0220262
50
181.2691385
51
213.2305359
0
ARC
8
DEFAULT_255_2_778
10
17.1500322
20
6.0976795
40
0.8268524
50
212.2114993
51
228.7343515
0
ARC
8
DEFAULT_255_2_778
10
16.958638
20
5.8925709
40
0.5465138
50
229.6342883
51
232.8048691
0
ARC
8
DEFAULT_255_2_778
10
16.8960371
20
5.8084455
40
0.4416579
50
232.6764682
51
239.6759154
0
ARC
8
DEFAULT_255_2_778
10
16.8599598
20
5.7490653
40
0.3721887
50
239.8546217
51
240.9904266
0
ARC
8
DEFAULT_255_2_778
10
17.2336505
20
6.2907567
40
1.0291411
50
237.4188546
51
248.6913694
0
ARC
8
DEFAULT_255_2_778
10
17.1812417
20
6.1556333
40
0.8842102
50
248.6734395
51
257.8913351
0
ARC
8
DEFAULT_255_2_778
10
17.1334539
20
5.9284212
40
0.6520298
50
257.8090124
51
264.7737621
0
ARC
8
DEFAULT_255_2_778
10
17.1011333
20
5.5663286
40
0.2884994
50
264.6156104
51
269.0131968
0
ARC
8
DEFAULT_255_2_778
10
17.1906862
20
5.4490291
40
0.1955227
50
238.1187372
51
241.0903512
0
ARC
8
DEFAULT_255_2_778
10
17.301776
20
5.6293017
40
0.4072743
50
233.2125008
51
238.2427619
0
ARC
8
DEFAULT_255_2_778
10
17.3413255
20
5.6836767
40
0.4745062
50
225.2235762
51
233.3198128
0
ARC
8
DEFAULT_255_2_778
10
17.3286712
20
5.6706996
40
0.4563814
50
222.9077292
51
225.2038032
0
ARC
8
DEFAULT_255_2_778
10
17.2848649
20
5.6331074
40
0.3987085
50
205.4595265
51
223.2367712
0
ARC
8
DEFAULT_255_2_778
10
17.2306797
20
5.6057723
40
0.3380374
50
182.4802903
51
205.2242958
0
ARC
8
DEFAULT_255_2_778
10
17.2430215
20
5.6064711
40
0.3503979
50
179.9966039
51
182.5071149
0
ARC
8
DEFAULT_255_2_778
10
17.2689441
20
5.605782
40
0.3763212
50
169.812264
51
179.8919288
0
ARC
8
DEFAULT_255_2_778
10
17.3231175
20
5.5965451
40
0.4312744
50
163.9928852
51
169.8774383
0
ARC
8
DEFAULT_255_2_778
10
17.2054711
20
5.5988432
40
0.3189916
50
113.9934548
51
158.5544582
0
ARC
8
DEFAULT_255_2_778
10
17.3440586
20
5.3580461
40
0.5960274
50
104.535023
51
116.7531008
0
ARC
8
DEFAULT_255_2_778
10
17.3610685
20
5.3045279
40
0.6521087
50
95.0188311
51
104.8015948
0
ARC
8
DEFAULT_255_2_778
10
17.3508792
20
5.4150303
40
0.5411387
50
90.09014
51
94.9676742
0
ARC
8
DEFAULT_255_2_778
10
17.353951
20
5.6030566
40
0.3531334
50
78.5758284
51
90.63654
0
ARC
8
DEFAULT_255_2_778
10
17.3988262
20
5.814001
40
0.1374974
50
58.0959766
51
79.4943604
0
ARC
8
DEFAULT_255_2_778
10
17.4484917
20
5.8922963
40
0.0447887
50
13.9212461
51
59.0988009
0
ARC
8
DEFAULT_255_2_778
10
17.4865277
20
1.0498163
40
3.1032603
50
89.8996145
51
91.759991
0
ARC
8
DEFAULT_255_2_778
10
17.4643759
20
1.8041708
40
2.3485815
50
91.7850461
51
95.2898022
0
ARC
8
DEFAULT_255_2_778
10
17.4356046
20
2.108931
40
2.0424668
50
95.2743193
51
100.6789205
0
ARC
8
DEFAULT_255_2_778
10
17.3786369
20
2.401693
40
1.7442195
50
100.6220691
51
109.2470278
0
ARC
8
DEFAULT_255_2_778
10
17.3163763
20
2.5889587
40
1.5468998
50
109.3562912
51
113.4336272
0
ARC
8
DEFAULT_255_2_778
10
17.2542522
20
2.7258599
40
1.3965865
50
113.3287474
51
125.1652054
0
ARC
8
DEFAULT_255_2_778
10
17.2020164
20
2.8034539
40
1.303071
50
125.2525591
51
136.9235752
0
ARC
8
DEFAULT_255_2_778
10
17.2379744
20
2.7718236
40
1.3509398
50
136.9852523
51
147.4290859
0
ARC
8
DEFAULT_255_2_778
10
17.3234421
20
2.7151762
40
1.4534625
50
147.3609958
51
150.8176106
0
ARC
8
DEFAULT_255_2_778
10
17.2142151
20
2.7847042
40
1.3242191
50
151.1397307
51
164.0867592
0
ARC
8
DEFAULT_255_2_778
10
17.1690343
20
2.7986899
40
1.2769356
50
164.1344112
51
169.2111765
0
ARC
8
DEFAULT_255_2_778
10
17.1255846
20
2.8061798
40
1.2328522
50
169.1751182
51
179.9516151
0
ARC
8
DEFAULT_255_2_778
10
17.0015878
20
2.8004911
40
1.1088754
50
179.6522679
51
205.4850706
0
ARC
8
DEFAULT_255_2_778
10
16.8904354
20
2.7541835
40
0.9886319
50
205.8342185
51
214.467955
0
ARC
8
DEFAULT_255_2_778
10
17.2471507
20
3.0312466
40
1.4397707
50
215.5242316
51
219.0493243
0
ARC
8
DEFAULT_255_2_778
10
17.2327587
20
3.0196618
40
1.4212956
50
219.0521453
51
220.7534151
0
ARC
8
DEFAULT_255_2_778
10
17.1724997
20
2.9643817
40
1.3395631
50
220.6448286
51
233.1984363
0
ARC
8
DEFAULT_255_2_778
10
17.0980156
20
2.8660306
40
1.2161927
50
233.2325307
51
248.6851701
0
ARC
8
DEFAULT_255_2_778
10
17.1031311
20
2.8871105
40
1.2376935
50
248.8192732
51
262.8323725
0
ARC
8
DEFAULT_255_2_778
10
17.1227604
20
3.0307125
40
1.3826233
50
262.7677963
51
270.0692044
0
ARC
8
DEFAULT_255_2_778
10
17.1235356
20
3.1797081
40
1.5316182
50
270.0334733
51
274.5312613
0
ARC
8
DEFAULT_255_2_778
10
17.1113237
20
3.333594
40
1.6859879
50
274.5318149
51
278.7085975
0
ARC
8
DEFAULT_255_2_778
10
17.0938867
20
3.4539776
40
1.8076241
50
278.6771771
51
280.0285616
0
ARC
8
DEFAULT_255_2_778
10
24.8371159
20
5.7255895
40
1.4464945
50
358.7475243
51
359.6797725
0
ARC
8
DEFAULT_255_2_778
10
24.8666869
20
5.7252926
40
1.4169222
50
359.6850946
51
359.9979773
0
ARC
8
DEFAULT_255_2_778
10
25.097338
20
5.7294775
40
1.1862787
50
359.7954596
51
7.720992
0
ARC
8
DEFAULT_255_2_778
10
25.3863659
20
5.7691667
40
0.894539
50
7.6890517
51
18.5313606
0
ARC
8
DEFAULT_255_2_778
10
25.5003605
20
5.8054413
40
0.7749282
50
18.6671366
51
33.8021238
0
ARC
8
DEFAULT_255_2_778
10
24.9715365
20
5.3818268
40
1.4511818
50
36.0851754
51
52.3611933
0
LINE
8
DEFAULT_255_2_778
10
25.8577465
20
6.530983
11
25.8548816
21
6.5334109
0
ARC
8
DEFAULT_255_2_778
10
26.7449946
20
7.6866521
40
1.4568
50
216.0886776
51
232.3377531
0
ARC
8
DEFAULT_255_2_778
10
26.2194537
20
7.2654168
40
0.7845902
50
199.0028299
51
213.8359615
0
ARC
8
DEFAULT_255_2_778
10
26.3312942
20
7.3016906
40
0.9021495
50
188.0914355
51
198.8681918
0
ARC
8
DEFAULT_255_2_778
10
26.6154443
20
7.3427875
40
1.1892555
50
180.2807776
51
188.124807
0
ARC
8
DEFAULT_255_2_778
10
26.833283
20
7.3486785
40
1.4071287
50
179.9987688
51
180.4771791
0
ARC
8
DEFAULT_255_2_778
10
26.907721
20
7.3484059
40
1.4815669
50
178.297743
51
179.9882899
0
ARC
8
DEFAULT_255_2_778
10
27.0370872
20
7.3445755
40
1.6109898
50
176.6965369
51
178.298248
0
ARC
8
DEFAULT_255_2_778
10
27.1479897
20
7.3384526
40
1.7220608
50
176.4870007
51
176.7057852
0
ARC
8
DEFAULT_255_2_778
10
26.3091113
20
7.3761261
40
0.8825582
50
137.8562565
51
175.59109
0
ARC
8
DEFAULT_255_2_778
10
26.7468586
20
7.0378265
40
1.4347697
50
128.8447064
51
139.5692102
0
ARC
8
DEFAULT_255_2_778
10
26.8398064
20
6.930007
40
1.5770498
50
123.2915107
51
129.017882
0
ARC
8
DEFAULT_255_2_778
10
26.7425536
20
7.0802108
40
1.3981146
50
118.7036857
51
123.3388136
0
ARC
8
DEFAULT_255_2_778
10
26.5698123
20
7.3964185
40
1.0377998
50
114.6201212
51
118.7232355
0
LINE
8
DEFAULT_255_2_778
10
26.1374648
20
8.3398719
11
26.1377645
21
8.3400216
0
ARC
8
DEFAULT_255_2_778
10
26.6615177
20
7.2782817
40
1.1838957
50
103.5553321
51
116.2569881
0
ARC
8
DEFAULT_255_2_778
10
26.697963
20
7.146606
40
1.3204536
50
97.3914556
51
103.7535157
0
ARC
8
DEFAULT_255_2_778
10
26.6753615
20
7.3312264
40
1.1344604
50
93.4030096
51
97.4589956
0
ARC
8
DEFAULT_255_2_778
10
26.6441682
20
7.8827141
40
0.5820956
50
90.6530312
51
93.5602326
0
ARC
8
DEFAULT_255_2_778
10
26.8040069
20
8.1780958
40
0.3314908
50
120.1391475
51
121.8811744
0
ARC
8
DEFAULT_255_2_778
10
27.0100953
20
7.8446453
40
0.7234871
50
121.7927959
51
124.2626098
0
ARC
8
DEFAULT_255_2_778
10
27.1306013
20
7.6669291
40
0.9382068
50
124.2346524
51
128.1263454
0
ARC
8
DEFAULT_255_2_778
10
27.1315212
20
7.6639056
40
0.9411538
50
128.0567599
51
134.2852177
0
ARC
8
DEFAULT_255_2_778
10
27.0795872
20
7.7185712
40
0.8657589
50
134.3508002
51
135.4282038
0
ARC
8
DEFAULT_255_2_778
10
26.9506542
20
7.8362248
40
0.6913734
50
134.8752395
51
151.4919402
0
ARC
8
DEFAULT_255_2_778
10
26.7383296
20
7.9505544
40
0.4502266
50
151.3810195
51
179.4289221
0
ARC
8
DEFAULT_255_2_778
10
26.7088668
20
7.9553486
40
0.4207414
50
180.0417669
51
190.7354366
0
ARC
8
DEFAULT_255_2_778
10
26.7379143
20
7.9605328
40
0.4502464
50
190.6950591
51
195.5578189
0
ARC
8
DEFAULT_255_2_778
10
26.9831956
20
8.0565184
40
0.7127846
50
197.7030709
51
231.8372541
0
ARC
8
DEFAULT_255_2_778
10
28.0352251
20
9.2981917
40
2.3398752
50
230.3693387
51
237.9316043
0
ARC
8
DEFAULT_255_2_778
10
32.8392416
20
16.6345002
40
11.1087679
50
237.0242231
51
237.2586501
0
ARC
8
DEFAULT_255_2_778
10
-206.9926255
20
-356.587283
40
432.5282734
50
57.2669725
51
57.2756752
0
ARC
8
DEFAULT_255_2_778
10
25.8284689
20
5.4734256
40
2.072132
50
45.7416994
51
59.3007186
0
ARC
8
DEFAULT_255_2_778
10
26.7331496
20
6.4236767
40
0.7603427
50
15.419754
51
44.5930798
0
ARC
8
DEFAULT_255_2_778
10
26.7044717
20
6.4261574
40
0.7873923
50
1.2891288
51
14.6908672
0
ARC
8
DEFAULT_255_2_778
10
56.6458893
20
6.7952721
40
0.4469121
50
154.7838601
51
156.2572579
0
ARC
8
DEFAULT_255_2_778
10
57.2536196
20
6.5264334
40
1.1114493
50
156.1853987
51
158.0784513
0
ARC
8
DEFAULT_255_2_778
10
57.7805094
20
6.3135709
40
1.6797124
50
158.0523785
51
160.2033342
0
ARC
8
DEFAULT_255_2_778
10
58.1796024
20
6.1692287
40
2.1041054
50
160.185755
51
162.4153537
0
ARC
8
DEFAULT_255_2_778
10
58.4664784
20
6.0779667
40
2.4051479
50
162.4075379
51
164.8209283
0
ARC
8
DEFAULT_255_2_778
10
58.6827206
20
6.0192972
40
2.6292077
50
164.8208732
51
167.8925576
0
ARC
8
DEFAULT_255_2_778
10
58.8310531
20
5.9872231
40
2.780968
50
167.8874375
51
171.3216214
0
ARC
8
DEFAULT_255_2_778
10
58.9174042
20
5.9739054
40
2.8683397
50
171.3189066
51
175.4643735
0
ARC
8
DEFAULT_255_2_778
10
58.9605456
20
5.9703358
40
2.9116285
50
175.4614838
51
180.0034607
0
ARC
8
DEFAULT_255_2_778
10
58.9775804
20
5.9701866
40
2.9286634
50
180.0005228
51
182.0799867
0
ARC
8
DEFAULT_255_2_778
10
58.9854811
20
5.9704499
40
2.9365684
50
182.0795245
51
183.3613156
0
ARC
8
DEFAULT_255_2_778
10
57.8457089
20
5.8713684
40
1.7932345
50
182.3361586
51
190.2139954
0
ARC
8
DEFAULT_255_2_778
10
58.2191635
20
5.9320597
40
2.1715425
50
190.0426692
51
192.264938
0
ARC
8
DEFAULT_255_2_778
10
58.9689349
20
6.1256061
40
2.9454679
50
192.8456547
51
206.8849902
0
ARC
8
DEFAULT_255_2_778
10
59.0978514
20
6.1692512
40
3.0802478
50
206.524715
51
211.5833375
0
ARC
8
DEFAULT_255_2_778
10
58.7867154
20
5.9822382
40
2.7172541
50
211.6601175
51
212.425355
0
ARC
8
DEFAULT_255_2_778
10
58.5481056
20
5.8288139
40
2.4335801
50
212.3885949
51
215.0653467
0
ARC
8
DEFAULT_255_2_778
10
58.1333235
20
5.536661
40
1.9262374
50
215.0406657
51
218.2169358
0
ARC
8
DEFAULT_255_2_778
10
57.7864939
20
5.2648023
40
1.4855598
50
218.2543671
51
220.5830449
0
ARC
8
DEFAULT_255_2_778
10
59.488822
20
9.0451238
40
1.3423402
50
77.2311541
51
84.5392271
0
ARC
8
DEFAULT_255_2_778
10
59.4202381
20
8.7288453
40
1.6659579
50
68.708477
51
77.3348643
0
ARC
8
DEFAULT_255_2_778
10
59.4204986
20
8.7272733
40
1.6673283
50
67.3387717
51
68.7364326
0
ARC
8
DEFAULT_255_2_778
10
59.5178043
20
8.9333089
40
1.4397464
50
50.7332784
51
67.7531239
0
ARC
8
DEFAULT_255_2_778
10
59.7689938
20
9.3717039
40
0.9450037
50
358.1039664
51
45.6944149
0
ARC
8
DEFAULT_255_2_778
10
59.4838686
20
9.3405466
40
1.2296116
50
357.5252491
51
359.9949172
0
ARC
8
DEFAULT_255_2_778
10
59.4228916
20
9.3444075
40
1.2906992
50
346.7177629
51
357.4708999
0
ARC
8
DEFAULT_255_2_778
10
59.1121387
20
9.449506
40
1.6175806
50
338.0414677
51
345.6234695
0
ARC
8
DEFAULT_255_2_778
10
59.7822516
20
9.1813045
40
0.8957931
50
313.7627223
51
337.9241527
0
ARC
8
DEFAULT_255_2_778
10
59.435572
20
9.5255855
40
1.3842796
50
309.0868161
51
314.2695775
0
ARC
8
DEFAULT_255_2_778
10
59.0080008
20
10.0495771
40
2.0605805
50
305.6560708
51
309.1285786
0
ARC
8
DEFAULT_255_2_778
10
58.5613872
20
10.6640703
40
2.8202181
50
304.4898537
51
305.751308
0
ARC
8
DEFAULT_255_2_778
10
59.3658589
20
9.4855552
40
1.3933209
50
296.0247976
51
304.665833
0
ARC
8
DEFAULT_255_2_778
10
59.4748376
20
9.2622306
40
1.144825
50
287.3220537
51
296.0276591
0
ARC
8
DEFAULT_255_2_778
10
59.5408059
20
9.049858
40
0.9224428
50
279.289773
51
287.3379496
0
ARC
8
DEFAULT_255_2_778
10
59.58076
20
8.8015056
40
0.6708983
50
272.4118696
51
279.3462137
0
ARC
8
DEFAULT_255_2_778
10
59.5918199
20
8.5811821
40
0.4503081
50
270.0518408
51
272.1856076
0
ARC
8
DEFAULT_255_2_778
10
59.5919447
20
8.4592795
40
0.3284054
50
268.3502825
51
270.0493111
0
ARC
8
DEFAULT_255_2_778
10
59.5895692
20
8.371176
40
0.24027
50
267.5641041
51
268.3116791
0
ARC
8
DEFAULT_255_2_778
10
59.5852255
20
8.2749088
40
0.1439054
50
266.0845103
51
267.6629521
0
ARC
8
DEFAULT_255_2_778
10
59.5783095
20
8.1729947
40
0.0417571
50
265.4056075
51
266.0029644
0
ARC
8
DEFAULT_255_2_778
10
59.1961491
20
4.3362979
40
0.641273
50
306.2084425
51
308.1568944
0
ARC
8
DEFAULT_255_2_778
10
58.6109549
20
5.0854015
40
1.5918546
50
308.0612273
51
310.5440042
0
ARC
8
DEFAULT_255_2_778
10
58.0787312
20
5.7097087
40
2.4122329
50
310.5112481
51
313.3267822
0
ARC
8
DEFAULT_255_2_778
10
57.6343682
20
6.1821535
40
3.0608175
50
313.3095745
51
316.4054427
0
ARC
8
DEFAULT_255_2_778
10
57.2718036
20
6.5281481
40
3.5619813
50
316.3961866
51
319.8085633
0
ARC
8
DEFAULT_255_2_778
10
56.9683691
20
6.7847696
40
3.9593817
50
319.8054985
51
323.7255511
0
ARC
8
DEFAULT_255_2_778
10
56.7054196
20
6.978
40
4.285695
50
323.7228001
51
328.0667836
0
ARC
8
DEFAULT_255_2_778
10
56.621112
20
7.0328944
40
4.3862797
50
328.0407358
51
328.1873864
0
ARC
8
DEFAULT_255_2_778
10
56.5321133
20
7.087833
40
4.4908691
50
328.1903141
51
329.922643
0
ARC
8
DEFAULT_255_2_778
10
56.4391934
20
7.1416303
40
4.5982388
50
329.9228311
51
331.7690192
0
ARC
8
DEFAULT_255_2_778
10
56.3648176
20
7.1817883
40
4.6827632
50
331.7665796
51
332.8943987
0
ARC
8
DEFAULT_255_2_778
10
59.9592727
20
5.3308864
40
0.6398393
50
333.7778738
51
335.623305
0
ARC
8
DEFAULT_255_2_778
10
58.5860022
20
5.9574725
40
2.149302
50
335.5184979
51
337.3770434
0
ARC
8
DEFAULT_255_2_778
10
56.9786009
20
6.6343386
40
3.8933958
50
337.2817696
51
338.2873883
0
ARC
8
DEFAULT_255_2_778
10
59.6793318
20
5.0302017
40
0.9309512
50
5.8400472
51
10.1320294
0
ARC
8
DEFAULT_255_2_778
10
59.3446598
20
4.9953409
40
1.2674334
50
2.0362097
51
5.8683651
0
ARC
8
DEFAULT_255_2_778
10
59.0795805
20
4.9843479
40
1.5327369
50
359.9782258
51
2.0948072
0
ARC
8
DEFAULT_255_2_778
10
58.7082602
20
4.9888071
40
1.9040637
50
353.774604
51
359.848288
0
ARC
8
DEFAULT_255_2_778
10
58.2307378
20
5.0393702
40
2.3842537
50
347.911989
51
353.8110741
0
ARC
8
DEFAULT_255_2_778
10
57.8475029
20
5.1202883
40
2.7759368
50
342.3095953
51
347.9353288
0
ARC
8
DEFAULT_255_2_778
10
57.5121734
20
5.2271178
40
3.127872
50
336.4058466
51
342.3117922
0
ARC
8
DEFAULT_255_2_778
10
57.3106803
20
5.3117967
40
3.3464156
50
335.0893535
51
336.4580448
0
ARC
8
DEFAULT_255_2_778
10
58.1265495
20
4.8992301
40
2.432867
50
308.1666265
51
335.8085217
0
ARC
8
DEFAULT_255_2_778
10
58.2975001
20
4.7036655
40
2.1735141
50
297.5876279
51
307.8093015
0
ARC
8
DEFAULT_255_2_778
10
57.2263133
20
6.621219
40
4.3695515
50
293.9104284
51
298.3923522
0
ARC
8
DEFAULT_255_2_778
10
57.5870793
20
5.8033463
40
3.4756475
50
287.886703
51
293.9382086
0
ARC
8
DEFAULT_255_2_778
10
57.7752663
20
5.2200291
40
2.8627257
50
280.1276682
51
287.8880346
0
ARC
8
DEFAULT_255_2_778
10
57.821265
20
4.9801902
40
2.6185372
50
269.9718981
51
280.0596582
0
ARC
8
DEFAULT_255_2_778
10
57.8268887
20
5.3060645
40
2.9444192
50
261.9352708
51
269.8655758
0
ARC
8
DEFAULT_255_2_778
10
57.9232833
20
6.0391571
40
3.6837924
50
259.0060551
51
262.0504525
0
ARC
8
DEFAULT_255_2_778
10
57.7317061
20
5.3073666
40
2.9292992
50
225.473712
51
259.9548343
0
ARC
8
DEFAULT_255_2_778
10
57.6763379
20
5.2141225
40
2.8241156
50
212.0693381
51
224.9479901
0
ARC
8
DEFAULT_255_2_778
10
57.885655
20
5.3572531
40
3.0775036
50
182.4569866
51
212.2583793
0
ARC
8
DEFAULT_255_2_778
10
58.8747031
20
5.4625141
40
4.0706388
50
179.9710356
51
183.3404536
0
ARC
8
DEFAULT_255_2_778
10
57.6299824
20
5.3694636
40
2.8275177
50
138.0649075
51
178.0723969
0
ARC
8
DEFAULT_255_2_778
10
58.1523191
20
4.9831484
40
3.4748027
50
110.8331876
51
139.0821752
0
ARC
8
DEFAULT_255_2_778
10
58.0380672
20
5.2400702
40
3.1940823
50
110.3203017
51
110.5567909
0
ARC
8
DEFAULT_255_2_778
10
56.5108405
20
9.4963324
40
1.3284448
50
288.3410057
51
288.5809898
0
ARC
8
DEFAULT_255_2_778
10
56.0842059
20
10.7008701
40
2.6062212
50
289.0333466
51
291.3776915
0
ARC
8
DEFAULT_255_2_778
10
58.2340406
20
5.1147068
40
3.3794215
50
110.6823897
51
110.7958982
0
ARC
8
DEFAULT_255_2_778
10
57.3981464
20
7.3662398
40
0.9778556
50
102.6520604
51
111.4552498
0
ARC
8
DEFAULT_255_2_778
10
57.4248513
20
7.2012733
40
1.1447101
50
96.1820661
51
102.1477183
0
ARC
8
DEFAULT_255_2_778
10
57.4511224
20
7.0175528
40
1.3302063
50
96.3601667
51
96.4548789
0
ARC
8
DEFAULT_255_2_778
10
55.7642489
20
10.4373597
40
2.6020805
50
302.5213875
51
306.2740471
0
ARC
8
DEFAULT_255_2_778
10
65.7323365
20
-5.0963459
40
15.8548765
50
122.7160119
51
123.4570171
0
ARC
8
DEFAULT_255_2_778
10
57.9167038
20
6.7376228
40
1.6729581
50
123.5810131
51
136.8321771
0
ARC
8
DEFAULT_255_2_778
10
58.6315499
20
6.0560401
40
2.6606418
50
136.6585806
51
148.614305
0
ARC
8
DEFAULT_255_2_778
10
58.6697388
20
6.0199479
40
2.7120617
50
148.3835511
51
153.1398131
0
ARC
8
DEFAULT_255_2_778
10
58.2345317
20
6.2392531
40
2.224723
50
153.1143584
51
157.5181788
0
LINE
8
DEFAULT_255_2_778
10
56.1788856
20
7.0899655
11
56.1787648
21
7.0896719
0
ARC
8
DEFAULT_255_2_778
10
57.3639092
20
4.8152359
40
0.9460529
50
217.7786553
51
223.4977481
0
ARC
8
DEFAULT_255_2_778
10
57.7275543
20
5.1584317
40
1.4460729
50
223.4441921
51
228.0865589
0
ARC
8
DEFAULT_255_2_778
10
58.0874276
20
5.5570858
40
1.9831318
50
228.043289
51
231.9361466
0
ARC
8
DEFAULT_255_2_778
10
58.4426972
20
6.0144478
40
2.5622626
50
231.9868904
51
238.0700631
0
ARC
8
DEFAULT_255_2_778
10
58.4455773
20
5.9867737
40
2.5403564
50
237.6848211
51
252.272197
0
ARC
8
DEFAULT_255_2_778
10
58.1740075
20
5.1826457
40
1.6917781
50
252.7402714
51
259.7254196
0
ARC
8
DEFAULT_255_2_778
10
58.1131409
20
4.8660625
40
1.3694193
50
259.8686368
51
263.1312525
0
ARC
8
DEFAULT_255_2_778
10
58.259674
20
6.1073422
40
2.6193164
50
263.1962149
51
266.2157381
0
ARC
8
DEFAULT_255_2_778
10
58.2559685
20
6.0521382
40
2.5639883
50
266.2169449
51
269.0632547
0
ARC
8
DEFAULT_255_2_778
10
58.2552975
20
6.0214924
40
2.5333357
50
269.0670967
51
269.9996316
0
ARC
8
DEFAULT_255_2_778
10
58.2558682
20
5.97798
40
2.4898233
50
269.9864919
51
275.5557122
0
ARC
8
DEFAULT_255_2_778
10
58.2617829
20
5.9162281
40
2.4277889
50
275.5578726
51
280.6141985
0
ARC
8
DEFAULT_255_2_778
10
58.273603
20
5.8533399
40
2.3637994
50
280.6133689
51
285.0869441
0
ARC
8
DEFAULT_255_2_778
10
58.2974279
20
5.7654303
40
2.2727186
50
285.0838649
51
289.0284894
0
ARC
8
DEFAULT_255_2_778
10
58.325235
20
5.6830277
40
2.1857528
50
289.0436604
51
290.2795846
0
ARC
8
DEFAULT_255_2_778
10
58.3631304
20
5.5822741
40
2.0781101
50
290.2623535
51
293.2523541
0
ARC
8
DEFAULT_255_2_778
10
58.4511782
20
5.3784305
40
1.856064
50
293.2393136
51
296.2086835
0
ARC
8
DEFAULT_255_2_778
10
58.593984
20
5.0888705
40
1.5332043
50
296.1996264
51
298.7459655
0
ARC
8
DEFAULT_255_2_778
10
58.7977727
20
4.7181982
40
1.1102061
50
298.724931
51
300.9705656
0
ARC
8
DEFAULT_255_2_778
10
59.0728845
20
4.2610365
40
0.5766497
50
300.9074513
51
302.8567666
0
ARC
8
DEFAULT_255_2_778
10
59.3129224
20
3.8887729
40
0.1337073
50
302.9978465
51
303.5742016
0
ARC
8
DEFAULT_255_2_778
10
59.8434164
20
12.1441009
40
4.0178524
50
260.3054288
51
263.4753444
0
ARC
8
DEFAULT_255_2_778
10
60.2344312
20
14.4875689
40
6.3937062
50
258.7618935
51
260.3878697
0
ARC
8
DEFAULT_255_2_778
10
61.0195392
20
18.4005542
40
10.3846729
50
257.0999054
51
258.720705
0
ARC
8
DEFAULT_255_2_778
10
63.5274316
20
29.4085771
40
21.6747575
50
256.5613489
51
257.1341771
0
ARC
8
DEFAULT_255_2_778
10
73.5384248
20
71.5434218
40
64.9825409
50
256.6065982
51
256.610217
0
ARC
8
DEFAULT_255_2_778
10
-228.3593774
20
-1193.8178431
40
1235.8946369
50
76.5795293
51
76.5852194
0
ARC
8
DEFAULT_255_2_778
10
54.8423182
20
-6.4033563
40
15.1750285
50
76.5703064
51
76.9771059
0
ARC
8
DEFAULT_255_2_778
10
59.2165853
20
12.8852958
40
4.6040007
50
257.070629
51
258.0318686
0
ARC
8
DEFAULT_255_2_778
10
60.1479182
20
16.9632378
40
8.7869399
50
256.5762618
51
257.1013939
0
ARC
8
DEFAULT_255_2_778
10
61.8423297
20
24.0515684
40
16.0749751
50
256.0567454
51
256.5671466
0
ARC
8
DEFAULT_255_2_778
10
64.8334616
20
36.1262449
40
28.5146157
50
255.7798573
51
256.0698584
0
ARC
8
DEFAULT_255_2_778
10
70.323363
20
57.7718781
40
50.8455906
50
255.5078025
51
255.7748145
0
ARC
8
DEFAULT_255_2_778
10
83.0668407
20
107.1058829
40
101.7989048
50
255.3714488
51
255.5121598
0
ARC
8
DEFAULT_255_2_778
10
103.191937
20
184.3088699
40
181.5818627
50
255.3702809
51
255.3793448
0
ARC
8
DEFAULT_255_2_778
10
91.1008801
20
138.0039867
40
133.7244093
50
255.3696652
51
255.3718924
0
ARC
8
DEFAULT_255_2_778
10
45.4844615
20
-36.7229023
40
46.858933
50
75.3641343
51
75.3704645
0
ARC
8
DEFAULT_255_2_778
10
90.5471521
20
135.8601249
40
131.5101995
50
255.3626684
51
255.3649148
0
ARC
8
DEFAULT_255_2_778
10
73.7923685
20
71.7204587
40
65.2182732
50
255.3607226
51
255.3652338
0
ARC
8
DEFAULT_255_2_778
10
73.6525275
20
71.1991061
40
64.6785035
50
255.3593269
51
255.3638571
0
ARC
8
DEFAULT_255_2_778
10
-30.7557982
20
-328.4897478
40
348.4223054
50
75.3602594
51
75.3615155
0
ARC
8
DEFAULT_255_2_778
10
73.3043335
20
69.9080895
40
63.3413985
50
255.3574052
51
255.3619833
0
ARC
8
DEFAULT_255_2_778
10
73.1663438
20
69.3936849
40
62.8088188
50
255.3559752
51
255.3605728
0
ARC
8
DEFAULT_255_2_778
10
73.0288977
20
68.881331
40
62.2783606
50
255.3545331
51
255.3591505
0
ARC
8
DEFAULT_255_2_778
10
72.8920019
20
68.3710525
40
61.7500494
50
255.3530789
51
255.3577162
0
ARC
8
DEFAULT_255_2_778
10
72.754459
20
67.8533478
40
61.2143895
50
255.3504476
51
255.3551057
0
ARC
8
DEFAULT_255_2_778
10
40.4631853
20
-55.6810752
40
66.4706918
50
75.3514042
51
75.3556757
0
ARC
8
DEFAULT_255_2_778
10
40.5975408
20
-55.1407094
40
65.9139133
50
75.3499184
51
75.3542076
0
ARC
8
DEFAULT_255_2_778
10
40.7313409
20
-54.6026083
40
65.3594664
50
75.3484199
51
75.3527269
0
ARC
8
DEFAULT_255_2_778
10
-2433.2513034
20
-9510.6790347
40
9839.7122054
50
75.3384955
51
75.3402713
0
ARC
8
DEFAULT_255_2_778
10
30.1962457
20
-93.6314638
40
105.7839759
50
75.3426546
51
75.4555297
0
ARC
8
DEFAULT_255_2_778
10
46.0759619
20
-32.4280264
40
42.5540295
50
75.4564948
51
75.6419264
0
ARC
8
DEFAULT_255_2_778
10
51.275467
20
-12.1173439
40
21.5883747
50
75.6430766
51
75.8814877
0
ARC
8
DEFAULT_255_2_778
10
54.1429441
20
-0.6971574
40
9.8136969
50
75.8531869
51
76.4190568
0
ARC
8
DEFAULT_255_2_778
10
55.7275291
20
5.8783069
40
3.05
50
76.3483449
51
77.6117462
0
ARC
8
DEFAULT_255_2_778
10
56.1647333
20
7.8575489
40
1.0230492
50
77.7465847
51
78.6446594
0
ARC
8
DEFAULT_255_2_778
10
56.1671633
20
6.9640123
40
1.9069713
50
84.0100108
51
89.591843
0
ARC
8
DEFAULT_255_2_778
10
56.1780403
20
7.463005
40
1.4079329
50
89.8898158
51
90.0040808
0
ARC
8
DEFAULT_255_2_778
10
56.1519275
20
8.0601558
40
0.8111994
50
88.1623978
51
110.8101823
0
ARC
8
DEFAULT_255_2_778
10
56.0149513
20
8.4569004
40
0.3918863
50
112.6983784
51
130.1886033
0
ARC
8
DEFAULT_255_2_778
10
56.1692537
20
8.301343
40
0.6105434
50
131.8304711
51
158.8127634
0
ARC
8
DEFAULT_255_2_778
10
56.1637164
20
8.2939788
40
0.6081066
50
157.9772292
51
176.2636681
0
ARC
8
DEFAULT_255_2_778
10
56.0755818
20
8.3032283
40
0.5195682
50
176.6481482
51
179.9854445
0
ARC
8
DEFAULT_255_2_778
10
56.0105236
20
8.3010791
40
0.4545156
50
179.7124354
51
196.3840517
0
ARC
8
DEFAULT_255_2_778
10
55.9774719
20
8.3078917
40
0.4250237
50
198.5224364
51
219.77137
0
ARC
8
DEFAULT_255_2_778
10
56.1569215
20
8.4544103
40
0.6566845
50
219.5808242
51
225.2418159
0
ARC
8
DEFAULT_255_2_778
10
79.1434926
20
32.1920473
40
33.6999116
50
225.907686
51
226.0673171
0
ARC
8
DEFAULT_255_2_778
10
55.7681242
20
8.0877267
40
0.1649661
50
258.5738122
51
267.8949803
0
ARC
8
DEFAULT_255_2_778
10
55.8094775
20
8.3063696
40
0.3874782
50
246.9103924
51
258.9849717
0
ARC
8
DEFAULT_255_2_778
10
55.8938125
20
8.5090773
40
0.6070241
50
235.9425783
51
247.0913138
0
ARC
8
DEFAULT_255_2_778
10
56.0164079
20
8.7961269
40
0.9154098
50
202.6876824
51
239.6497031
0
ARC
8
DEFAULT_255_2_778
10
56.1017501
20
8.8311077
40
1.0076407
50
183.0797132
51
202.6511093
0
ARC
8
DEFAULT_255_2_778
10
56.387788
20
8.8493111
40
1.2942464
50
180.000905
51
183.204097
0
ARC
8
DEFAULT_255_2_778
10
56.3849104
20
8.8491139
40
1.2913689
50
125.3825821
51
179.9921565
0
ARC
8
DEFAULT_255_2_778
10
56.5957918
20
8.4523872
40
1.73789
50
92.7938536
51
123.4771238
0
ARC
8
DEFAULT_255_2_778
10
56.559105
20
8.6585
40
1.5304651
50
89.9990529
51
91.7981044
0
ARC
8
DEFAULT_255_2_778
10
56.5582826
20
8.6136462
40
1.5753189
50
83.1043827
51
89.9691682
0
ARC
8
DEFAULT_255_2_778
10
56.5508665
20
8.5437636
40
1.6455869
50
81.8847695
51
83.1401651
0
ARC
8
DEFAULT_255_2_778
10
56.3152212
20
6.6768109
40
3.5272388
50
77.1993372
51
82.3763409
0
ARC
8
DEFAULT_255_2_778
10
55.601382
20
3.5200769
40
6.7636766
50
73.8991377
51
77.2273532
0
ARC
8
DEFAULT_255_2_778
10
52.3108411
20
-7.847524
40
18.597948
50
72.2510926
51
73.8717107
0
ARC
8
DEFAULT_255_2_778
10
-31.0482086
20
-271.340553
40
294.9622954
50
72.3974386
51
72.4324308
0
ARC
8
DEFAULT_255_2_778
10
71.0993786
20
50.5829305
40
42.7785218
50
252.3826261
51
252.7039527
0
ARC
8
DEFAULT_255_2_778
10
62.3624293
20
22.4044126
40
13.276674
50
252.5492354
51
254.8293861
0
ARC
8
DEFAULT_255_2_778
10
60.8251748
20
16.8229578
40
7.487473
50
255.0057562
51
256.3173996
0
ARC
8
DEFAULT_255_2_778
10
59.6757303
20
12.3755192
40
2.8950806
50
257.6002144
51
261.7770149
0
ARC
8
DEFAULT_255_2_778
10
59.4597395
20
10.8684866
40
1.3726507
50
261.7029396
51
269.584686
0
ARC
8
DEFAULT_255_2_778
10
59.4656493
20
10.2216051
40
0.7259065
50
268.7481088
51
295.9472352
0
ARC
8
DEFAULT_255_2_778
10
59.5983153
20
9.8748491
40
0.3575309
50
301.1510754
51
308.8779477
0
ARC
8
DEFAULT_255_2_778
10
59.5629356
20
9.9205975
40
0.4153536
50
308.7162719
51
311.6166299
0
ARC
8
DEFAULT_255_2_778
10
59.5770714
20
9.909205
40
0.3974595
50
311.1839125
51
336.6859969
0
ARC
8
DEFAULT_255_2_778
10
59.6669057
20
9.8677226
40
0.2985535
50
337.1737562
51
359.7872769
0
ARC
8
DEFAULT_255_2_778
10
59.6629174
20
9.8655386
40
0.3025417
50
0.2036931
51
19.3044389
0
ARC
8
DEFAULT_255_2_778
10
59.5825786
20
9.837335
40
0.3876873
50
19.3131492
51
32.6777969
0
ARC
8
DEFAULT_255_2_778
10
59.4939762
20
9.7839633
40
0.4910905
50
32.3378478
51
32.5201804
0
ARC
8
DEFAULT_255_2_778
10
59.4699717
20
9.7819439
40
0.5125392
50
31.267838
51
61.8055455
0
ARC
8
DEFAULT_255_2_778
10
59.2464532
20
9.2658873
40
1.073991
50
64.3041705
51
84.8919528
0
ARC
8
DEFAULT_255_2_778
10
58.0727119
20
0.9773679
40
9.4439416
50
82.2754773
51
82.7306718
0
ARC
8
DEFAULT_255_2_778
10
59.8561964
20
15.037314
40
4.7286763
50
261.5087125
51
262.8507024
0
ARC
8
DEFAULT_255_2_778
10
60.0407486
20
0.7310217
40
9.6698303
50
94.6726757
51
95.2379734
0
ARC
8
DEFAULT_255_2_778
10
59.6202698
20
5.9292971
40
4.4545809
50
93.2969745
51
94.7291003
0
ARC
8
DEFAULT_255_2_778
10
59.5238118
20
7.5526288
40
2.8283902
50
91.3913741
51
93.2374505
0
ARC
8
DEFAULT_255_2_778
10
59.5632707
20
5.4024125
40
4.9789471
50
89.9092601
51
91.2444956
0
ARC
8
DEFAULT_255_2_778
10
59.608597
20
-25.595586
40
35.9769589
50
89.9873107
51
90.0596274
0
ARC
8
DEFAULT_255_2_778
10
75.2747018
20
6.6421377
40
1.8228848
50
308.4514383
51
308.8407215
0
ARC
8
DEFAULT_255_2_778
10
73.5377616
20
8.8010139
40
4.5937524
50
308.8274266
51
309.4006843
0
ARC
8
DEFAULT_255_2_778
10
72.2088962
20
10.4212649
40
6.6892463
50
309.3870753
51
309.9465847
0
ARC
8
DEFAULT_255_2_778
10
71.42379
20
11.3597171
40
7.9128
50
309.9418163
51
310.4801822
0
ARC
8
DEFAULT_255_2_778
10
70.8967147
20
11.9768646
40
8.7243905
50
310.4819334
51
311.4082983
0
ARC
8
DEFAULT_255_2_778
10
70.7296857
20
12.1674529
40
8.9778111
50
311.4032905
51
312.6153378
0
ARC
8
DEFAULT_255_2_778
10
71.0610925
20
11.8092254
40
8.4897994
50
312.6062855
51
314.2204884
0
ARC
8
DEFAULT_255_2_778
10
71.8050922
20
11.0468206
40
7.4245322
50
314.2090797
51
316.2203566
0
ARC
8
DEFAULT_255_2_778
10
73.6595523
20
9.3151721
40
4.8876063
50
315.8356691
51
323.8641454
0
ARC
8
DEFAULT_255_2_778
10
75.1189633
20
8.2126913
40
3.0589652
50
324.4217448
51
326.1920134
0
ARC
8
DEFAULT_255_2_778
10
75.5448627
20
7.9293465
40
2.5474268
50
326.157329
51
329.2166128
0
ARC
8
DEFAULT_255_2_778
10
75.9586087
20
7.6821974
40
2.0654848
50
329.2325675
51
332.0615856
0
ARC
8
DEFAULT_255_2_778
10
77.468255
20
6.956467
40
0.3973107
50
321.0339142
51
322.4767945
0
ARC
8
DEFAULT_255_2_778
10
77.0733089
20
7.274254
40
0.9042332
50
319.2842559
51
321.1150633
0
ARC
8
DEFAULT_255_2_778
10
76.797195
20
7.5115188
40
1.2682845
50
316.7104793
51
319.2966704
0
ARC
8
DEFAULT_255_2_778
10
76.6604968
20
7.6395636
40
1.4555854
50
313.2759205
51
316.7312804
0
ARC
8
DEFAULT_255_2_778
10
76.6575053
20
7.6416331
40
1.459143
50
308.5108483
51
313.3057359
0
ARC
8
DEFAULT_255_2_778
10
76.6974553
20
7.5924143
40
1.3957546
50
307.7032463
51
308.4856545
0
ARC
8
DEFAULT_255_2_778
10
76.7709753
20
7.4930036
40
1.2721418
50
299.4695755
51
307.8216338
0
ARC
8
DEFAULT_255_2_778
10
76.905787
20
7.2467733
40
0.9914546
50
284.2363189
51
299.6872375
0
ARC
8
DEFAULT_255_2_778
10
76.9539208
20
7.0707898
40
0.8090455
50
270.1099971
51
283.9971297
0
ARC
8
DEFAULT_255_2_778
10
76.955506
20
7.0381941
40
0.7764484
50
260.9240668
51
269.9976428
0
ARC
8
DEFAULT_255_2_778
10
76.9608782
20
7.0696911
40
0.8083985
50
252.9853626
51
260.9002137
0
ARC
8
DEFAULT_255_2_778
10
76.967937
20
7.095158
40
0.8348166
50
252.7777082
51
253.0335563
0
ARC
8
DEFAULT_255_2_778
10
77.0162669
20
7.3482376
40
1.0912377
50
241.6058328
51
254.2883952
0
ARC
8
DEFAULT_255_2_778
10
77.082858
20
7.4698558
40
1.2298916
50
230.8237198
51
241.5710684
0
ARC
8
DEFAULT_255_2_778
10
77.1770664
20
7.5889261
40
1.3817095
50
225.643398
51
230.9143992
0
ARC
8
DEFAULT_255_2_778
10
77.2594924
20
7.6727957
40
1.4993025
50
219.1195445
51
225.6319433
0
ARC
8
DEFAULT_255_2_778
10
77.2818778
20
7.6924007
40
1.5290397
50
214.5220933
51
219.1602505
0
ARC
8
DEFAULT_255_2_778
10
77.1483155
20
7.6013522
40
1.3673975
50
211.152669
51
214.5504791
0
ARC
8
DEFAULT_255_2_778
10
76.836274
20
7.4131137
40
1.0029752
50
208.7639629
51
211.1716547
0
ARC
8
DEFAULT_255_2_778
10
76.3523617
20
7.1484352
40
0.4514099
50
206.9754302
51
208.8705906
0
ARC
8
DEFAULT_255_2_778
10
75.1483651
20
3.1860521
40
0.4063192
50
146.2012868
51
147.8996011
0
ARC
8
DEFAULT_255_2_778
10
75.5801193
20
2.8988501
40
0.9248705
50
144.1414906
51
146.2948874
0
ARC
8
DEFAULT_255_2_778
10
75.8671078
20
2.6921244
40
1.2785621
50
141.4824075
51
144.1670147
0
ARC
8
DEFAULT_255_2_778
10
76.0184605
20
2.5721773
40
1.4716806
50
137.964667
51
141.4982536
0
ARC
8
DEFAULT_255_2_778
10
76.0502859
20
2.5442751
40
1.5140013
50
133.1193802
51
137.9868444
0
ARC
8
DEFAULT_255_2_778
10
76.0178545
20
2.5787063
40
1.4667013
50
130.5539462
51
133.1139833
0
ARC
8
DEFAULT_255_2_778
10
75.9475542
20
2.6637203
40
1.3564026
50
122.1688564
51
130.6324786
0
ARC
8
DEFAULT_255_2_778
10
75.8488034
20
2.8229371
40
1.1690524
50
109.9043216
51
122.226632
0
ARC
8
DEFAULT_255_2_778
10
75.8065765
20
2.9354006
40
1.0489319
50
95.9077462
51
109.826966
0
ARC
8
DEFAULT_255_2_778
10
75.8053564
20
2.9383059
40
1.0459169
50
89.9872499
51
95.8576457
0
ARC
8
DEFAULT_255_2_778
10
75.8052379
20
2.9022425
40
1.0819803
50
84.6127375
51
89.9814
0
ARC
8
DEFAULT_255_2_778
10
75.7997975
20
2.8446866
40
1.1397927
50
79.9336384
51
84.6121027
0
ARC
8
DEFAULT_255_2_778
10
75.7935134
20
2.8065043
40
1.1784857
50
79.2927839
51
79.9572925
0
ARC
8
DEFAULT_255_2_778
10
75.7668597
20
2.7398672
40
1.248991
50
65.3355036
51
78.6592953
0
ARC
8
DEFAULT_255_2_778
10
75.7055033
20
2.6118573
40
1.3909283
50
52.6571237
51
65.2391284
0
ARC
8
DEFAULT_255_2_778
10
75.5551606
20
2.4122993
40
1.6407769
50
44.0430255
51
52.7103138
0
ARC
8
DEFAULT_255_2_778
10
75.4506337
20
2.306653
40
1.7893609
50
43.0754213
51
44.147843
0
ARC
8
DEFAULT_255_2_778
10
75.3714006
20
2.2346992
40
1.8963793
50
37.1579387
51
43.0284689
0
ARC
8
DEFAULT_255_2_778
10
75.2980241
20
2.1776726
40
1.9893037
50
32.9358387
51
37.1904346
0
ARC
8
DEFAULT_255_2_778
10
75.3738054
20
2.2259729
40
1.8994413
50
29.7892413
51
32.9558933
0
ARC
8
DEFAULT_255_2_778
10
75.6314622
20
2.3729736
40
1.6028001
50
27.3929559
51
29.8046438
0
ARC
8
DEFAULT_255_2_778
10
76.0597427
20
2.5946518
40
1.1205497
50
25.6394818
51
27.4045097
0
ARC
8
DEFAULT_255_2_778
10
76.6310201
20
2.8681027
40
0.4871998
50
24.2973629
51
25.7183201
0
ARC
8
DEFAULT_255_2_778
10
71.274994
20
10.4050309
40
7.3589603
50
313.3515408
51
314.9141799
0
ARC
8
DEFAULT_255_2_778
10
65.8327755
20
16.1694956
40
15.2865572
50
312.3953016
51
313.3522581
0
ARC
8
DEFAULT_255_2_778
10
18.1842645
20
68.3937305
40
85.9813322
50
312.1545161
51
312.3800872
0
ARC
8
DEFAULT_255_2_778
10
109.4860272
20
-32.3665948
40
49.9916857
50
132.2254851
51
132.3576432
0
ARC
8
DEFAULT_255_2_778
10
90.370156
20
-11.4238126
40
21.6365079
50
132.3168328
51
133.0399793
0
ARC
8
DEFAULT_255_2_778
10
82.0116626
20
-2.503119
40
9.411852
50
132.9146557
51
135.5464698
0
ARC
8
DEFAULT_255_2_778
10
78.598522
20
0.8498376
40
4.6273115
50
135.5845627
51
139.1185301
0
ARC
8
DEFAULT_255_2_778
10
77.0264677
20
2.2083429
40
2.5495998
50
139.0784101
51
144.1152039
0
ARC
8
DEFAULT_255_2_778
10
76.0666019
20
2.8991708
40
1.3669886
50
143.9925856
51
151.7668716
0
ARC
8
DEFAULT_255_2_778
10
75.4621911
20
3.2199835
40
0.6827287
50
151.4918499
51
164.5403117
0
ARC
8
DEFAULT_255_2_778
10
75.4911297
20
2.2628874
40
0.1583518
50
276.5266531
51
285.4689696
0
ARC
8
DEFAULT_255_2_778
10
75.47683
20
2.3803321
40
0.2766622
50
270.525237
51
276.7042787
0
ARC
8
DEFAULT_255_2_778
10
75.4747095
20
2.4603055
40
0.3566544
50
269.9959014
51
270.7480946
0
ARC
8
DEFAULT_255_2_778
10
75.4790591
20
2.6166408
40
0.5130085
50
260.703498
51
269.5113611
0
ARC
8
DEFAULT_255_2_778
10
75.5215963
20
2.8895502
40
0.7892078
50
252.8486918
51
260.8565567
0
ARC
8
DEFAULT_255_2_778
10
75.5685918
20
3.0466483
40
0.9531793
50
243.9941345
51
252.9341684
0
ARC
8
DEFAULT_255_2_778
10
75.5813462
20
3.0749467
40
0.9842053
50
239.742287
51
244.0491336
0
ARC
8
DEFAULT_255_2_778
10
75.5673205
20
3.0528832
40
0.9580807
50
225.9158602
51
239.8019358
0
ARC
8
DEFAULT_255_2_778
10
75.541368
20
3.0249311
40
0.919947
50
210.947194
51
225.865757
0
ARC
8
DEFAULT_255_2_778
10
75.5855333
20
3.0496528
40
0.9705394
50
197.6895529
51
210.8580743
0
ARC
8
DEFAULT_255_2_778
10
75.6821467
20
3.0826315
40
1.0726075
50
193.1028372
51
197.7997282
0
ARC
8
DEFAULT_255_2_778
10
75.6418026
20
3.0833439
40
1.0335222
50
187.5212833
51
193.6483376
0
ARC
8
DEFAULT_255_2_778
10
75.5200202
20
3.0671933
40
0.9106734
50
180.0572939
51
187.5168145
0
ARC
8
DEFAULT_255_2_778
10
75.5326311
20
3.058205
40
0.9233193
50
151.9970947
51
179.498742
0
ARC
8
DEFAULT_255_2_778
10
75.9269135
20
2.8753887
40
1.3574828
50
148.8846254
51
152.9978505
0
ARC
8
DEFAULT_255_2_778
10
76.4478177
20
2.5486581
40
1.9723142
50
141.1230347
51
148.5784561
0
ARC
8
DEFAULT_255_2_778
10
77.8271566
20
1.4452177
40
3.738704
50
137.1180277
51
141.2260004
0
ARC
8
DEFAULT_255_2_778
10
81.2602378
20
-1.7299358
40
8.4149852
50
135.2369758
51
137.1831365
0
ARC
8
DEFAULT_255_2_778
10
101.5700981
20
-21.8336345
40
36.9920556
50
134.8109584
51
135.2796997
0
ARC
8
DEFAULT_255_2_778
10
27.5049536
20
52.5702784
40
67.9917244
50
314.9009891
51
314.9910647
0
ARC
8
DEFAULT_255_2_778
10
77.0669523
20
7.8811452
40
0.4819079
50
220.4373629
51
221.9042568
0
ARC
8
DEFAULT_255_2_778
10
77.5047638
20
8.2721886
40
1.0689282
50
221.8308088
51
223.8863918
0
ARC
8
DEFAULT_255_2_778
10
77.7441339
20
8.5014805
40
1.4003983
50
223.8583896
51
226.6677343
0
ARC
8
DEFAULT_255_2_778
10
77.7885283
20
8.5471924
40
1.4641135
50
226.6316113
51
231.0144108
0
ARC
8
DEFAULT_255_2_778
10
77.7309363
20
8.4767069
40
1.3730923
50
231.0320299
51
232.9573416
0
ARC
8
DEFAULT_255_2_778
10
77.5797679
20
8.2657129
40
1.1136329
50
232.6257967
51
244.3029055
0
ARC
8
DEFAULT_255_2_778
10
77.3932978
20
7.859698
40
0.6669658
50
243.6134562
51
268.8250348
0
ARC
8
DEFAULT_255_2_778
10
77.3796904
20
7.7110056
40
0.5181332
50
269.9923626
51
273.1835393
0
ARC
8
DEFAULT_255_2_778
10
77.3469805
20
8.1211516
40
0.9295154
50
273.792691
51
282.9873603
0
ARC
8
DEFAULT_255_2_778
10
77.4121167
20
7.8445107
40
0.6453139
50
282.8720424
51
296.0893287
0
ARC
8
DEFAULT_255_2_778
10
77.4862358
20
7.6935298
40
0.477121
50
296.0689132
51
314.7699389
0
ARC
8
DEFAULT_255_2_778
10
77.5079038
20
7.6673355
40
0.4432752
50
315.1660684
51
338.4605324
0
ARC
8
DEFAULT_255_2_778
10
77.4345504
20
7.6969309
40
0.522372
50
338.3950041
51
351.3544979
0
ARC
8
DEFAULT_255_2_778
10
77.3725717
20
7.7076782
40
0.5852635
50
351.2263916
51
359.0159421
0
ARC
8
DEFAULT_255_2_778
10
77.3714972
20
7.7078655
40
0.586341
50
358.9994526
51
0.0000787
0
ARC
8
DEFAULT_255_2_778
10
77.4023516
20
7.7083202
40
0.5554869
50
359.9531813
51
4.7484672
0
ARC
8
DEFAULT_255_2_778
10
77.5231539
20
7.7187636
40
0.4342349
50
4.694716
51
8.9571496
0
ARC
8
DEFAULT_255_2_778
10
77.6632475
20
7.740349
40
0.2924893
50
9.0530968
51
11.3021421
0
ARC
8
DEFAULT_255_2_778
10
77.1672557
20
7.3066609
40
0.9240572
50
30.1257199
51
32.097677
0
ARC
8
DEFAULT_255_2_778
10
77.3344981
20
7.4040706
40
0.7305152
50
27.0500403
51
30.1011455
0
ARC
8
DEFAULT_255_2_778
10
77.3720696
20
7.4236387
40
0.6881549
50
26.2081345
51
27.0216252
0
ARC
8
DEFAULT_255_2_778
10
77.3907123
20
7.4325492
40
0.6674936
50
19.4475887
51
26.2286296
0
ARC
8
DEFAULT_255_2_778
10
77.376938
20
7.4281415
40
0.6819498
50
11.8228746
51
19.411478
0
ARC
8
DEFAULT_255_2_778
10
77.316374
20
7.4158208
40
0.7437533
50
4.0272373
51
11.7959499
0
ARC
8
DEFAULT_255_2_778
10
77.2370429
20
7.4094908
40
0.8233334
50
359.9712227
51
4.0789404
0
ARC
8
DEFAULT_255_2_778
10
77.0902927
20
7.4124827
40
0.9700895
50
350.0927597
51
359.7988661
0
ARC
8
DEFAULT_255_2_778
10
76.7912312
20
7.4640899
40
1.2735706
50
342.213394
51
350.1205167
0
ARC
8
DEFAULT_255_2_778
10
76.3853083
20
7.5934516
40
1.6996074
50
335.7287933
51
342.2410381
0
ARC
8
DEFAULT_255_2_778
10
75.8691977
20
7.8247691
40
2.2651839
50
330.5049729
51
335.7611497
0
ARC
8
DEFAULT_255_2_778
10
75.251925
20
8.1722945
40
2.9735609
50
326.2918113
51
330.5324764
0
ARC
8
DEFAULT_255_2_778
10
74.5286331
20
8.6535838
40
3.8423474
50
322.7245866
51
326.3071409
0
ARC
8
DEFAULT_255_2_778
10
73.6964243
20
9.2853723
40
4.8872047
50
319.7626531
51
322.7397046
0
ARC
8
DEFAULT_255_2_778
10
72.8542371
20
9.9945672
40
5.9882185
50
317.6993616
51
319.7878518
0
ARC
8
DEFAULT_255_2_778
10
79.7844099
20
0.3096251
40
3.7165911
50
116.6604922
51
117.0655965
0
ARC
8
DEFAULT_255_2_778
10
81.998692
20
-4.0325223
40
8.5907353
50
117.0393583
51
117.4839139
0
ARC
8
DEFAULT_255_2_778
10
83.8249994
20
-7.5438679
40
12.548632
50
117.4825744
51
118.0752066
0
ARC
8
DEFAULT_255_2_778
10
85.1062707
20
-9.949664
40
15.2743444
50
118.0686975
51
118.6437052
0
ARC
8
DEFAULT_255_2_778
10
85.9069782
20
-11.4156161
40
16.9447183
50
118.6436851
51
119.490215
0
ARC
8
DEFAULT_255_2_778
10
86.1969208
20
-11.9307371
40
17.5358316
50
119.4862825
51
120.5462617
0
ARC
8
DEFAULT_255_2_778
10
85.8586154
20
-11.3613848
40
16.8735563
50
120.5395013
51
121.9558156
0
ARC
8
DEFAULT_255_2_778
10
84.7912155
20
-9.6602919
40
14.8653162
50
121.9353365
51
124.1522211
0
ARC
8
DEFAULT_255_2_778
10
83.7189893
20
-8.0671411
40
12.944967
50
124.1834909
51
125.0690765
0
ARC
8
DEFAULT_255_2_778
10
83.311922
20
-7.4852675
40
12.2348409
50
125.0744855
51
125.4203639
0
ARC
8
DEFAULT_255_2_778
10
75.9150505
20
2.2282839
40
0.3994684
50
40.021476
51
40.8913015
0
ARC
8
DEFAULT_255_2_778
10
75.4621952
20
1.836507
40
0.9982731
50
40.8748889
51
42.3064147
0
ARC
8
DEFAULT_255_2_778
10
75.1295863
20
1.5345632
40
1.4474931
50
42.2837241
51
44.0988811
0
ARC
8
DEFAULT_255_2_778
10
74.973683
20
1.3840854
40
1.664171
50
44.0841163
51
46.5243559
0
ARC
8
DEFAULT_255_2_778
10
74.9824178
20
1.394483
40
1.650616
50
46.4960512
51
50.3289319
0
ARC
8
DEFAULT_255_2_778
10
75.0617899
20
1.4891353
40
1.5270908
50
50.3540828
51
51.8852017
0
ARC
8
DEFAULT_255_2_778
10
75.250896
20
1.7422231
40
1.2112664
50
51.5336666
51
62.5207405
0
ARC
8
DEFAULT_255_2_778
10
75.4968634
20
2.2405864
40
0.6557384
50
61.4947423
51
88.3532532
0
ARC
8
DEFAULT_255_2_778
10
75.5152249
20
2.4367961
40
0.4592581
50
89.9398061
51
98.5258689
0
ARC
8
DEFAULT_255_2_778
10
75.5125693
20
2.4566234
40
0.4392564
50
98.5667236
51
113.3552193
0
ARC
8
DEFAULT_255_2_778
10
75.5276991
20
2.4226732
40
0.476423
50
113.4070865
51
123.8003294
0
ARC
8
DEFAULT_255_2_778
10
75.5570047
20
2.438077
40
0.4810534
50
127.7245043
51
141.6885256
0
ARC
8
DEFAULT_255_2_778
10
75.4390359
20
2.5298157
40
0.3316188
50
141.4898212
51
163.8496707
0
ARC
8
DEFAULT_255_2_778
10
75.3919438
20
2.5459023
40
0.2819205
50
164.3278177
51
179.8659133
0
ARC
8
DEFAULT_255_2_778
10
75.5148839
20
2.5458508
40
0.4048603
50
179.8993399
51
179.9798679
0
ARC
8
DEFAULT_255_2_778
10
75.4463329
20
2.5537973
40
0.3363998
50
181.3293452
51
218.063357
0
ARC
8
DEFAULT_255_2_778
10
75.6388304
20
2.6938965
40
0.5743954
50
217.2277436
51
236.0536388
0
ARC
8
DEFAULT_255_2_778
10
75.8126892
20
2.9447227
40
0.8795666
50
235.782593
51
249.3803401
0
ARC
8
DEFAULT_255_2_778
10
75.8873467
20
3.122439
40
1.0722145
50
248.9907925
51
250.7339876
0
ARC
8
DEFAULT_255_2_778
10
47.8736995
20
7.8310782
40
0.5144607
50
225.3836449
51
227.1023101
0
ARC
8
DEFAULT_255_2_778
10
48.1615249
20
8.1386462
40
0.9356974
50
227.0108567
51
230.260798
0
ARC
8
DEFAULT_255_2_778
10
48.1365322
20
8.1067555
40
0.8951977
50
230.1859722
51
233.8892538
0
ARC
8
DEFAULT_255_2_778
10
47.9330401
20
7.8155229
40
0.5400378
50
233.1210701
51
246.6934575
0
ARC
8
DEFAULT_255_2_778
10
47.838439
20
7.613583
40
0.317224
50
247.9550173
51
248.1868834
0
ARC
8
DEFAULT_255_2_778
10
47.6579412
20
7.1320326
40
0.1972445
50
70.6626969
51
71.4886783
0
ARC
8
DEFAULT_255_2_778
10
47.6309259
20
7.0549471
40
0.2789268
50
70.0679198
51
70.6696785
0
ARC
8
DEFAULT_255_2_778
10
47.6057078
20
6.9852058
40
0.3530875
50
69.7591287
51
70.0789124
0
ARC
8
DEFAULT_255_2_778
10
47.5846163
20
6.927535
40
0.414494
50
69.5067867
51
69.7816991
0
ARC
8
DEFAULT_255_2_778
10
47.5529934
20
6.8424444
40
0.5052706
50
69.2990206
51
69.5258645
0
ARC
8
DEFAULT_255_2_778
10
47.4796866
20
6.6482089
40
0.7128792
50
69.1447232
51
69.3059743
0
ARC
8
DEFAULT_255_2_778
10
47.4059507
20
6.4547725
40
0.9198928
50
69.0172348
51
69.1422368
0
ARC
8
DEFAULT_255_2_778
10
52.9540715
20
20.6961156
40
14.3640176
50
248.6958383
51
248.849295
0
ARC
8
DEFAULT_255_2_778
10
48.2124764
20
8.4473092
40
1.2294863
50
248.9673376
51
251.3085388
0
ARC
8
DEFAULT_255_2_778
10
48.0826013
20
8.0569752
40
0.8181206
50
251.163861
51
258.7209478
0
ARC
8
DEFAULT_255_2_778
10
48.0362682
20
7.8229044
40
0.5795085
50
258.6870237
51
269.6897555
0
ARC
8
DEFAULT_255_2_778
10
48.0347579
20
7.6857515
40
0.4423501
50
269.7891818
51
281.7218208
0
ARC
8
DEFAULT_255_2_778
10
48.0476102
20
7.6221302
40
0.3774446
50
281.7735954
51
298.9923428
0
ARC
8
DEFAULT_255_2_778
10
48.0491038
20
7.6184638
40
0.3735139
50
299.0645379
51
300.9618857
0
ARC
8
DEFAULT_255_2_778
10
47.4934895
20
8.8041243
40
1.6813865
50
296.4065328
51
298.443587
0
ARC
8
DEFAULT_255_2_778
10
47.9308558
20
7.9948507
40
0.761489
50
298.5098888
51
301.4141387
0
ARC
8
DEFAULT_255_2_778
10
48.0636367
20
7.7777641
40
0.5070146
50
301.3951319
51
308.1016782
0
ARC
8
DEFAULT_255_2_778
10
47.8758435
20
8.006306
40
0.802766
50
308.5837282
51
314.1074386
0
ARC
8
DEFAULT_255_2_778
10
45.9211063
20
10.0508668
40
3.631395
50
313.800477
51
315.0232192
0
ARC
8
DEFAULT_255_2_778
10
26.8297109
20
29.2504049
40
30.7072649
50
314.8600655
51
314.9188862
0
ARC
8
DEFAULT_255_2_778
10
46.7497275
20
7.4472588
40
1.7635282
50
0.0050073
51
1.9209025
0
ARC
8
DEFAULT_255_2_778
10
46.9478736
20
7.440934
40
1.5653957
50
345.9197576
51
0.2371385
0
ARC
8
DEFAULT_255_2_778
10
47.1782783
20
7.382832
40
1.3277783
50
327.2632701
51
345.9328494
0
ARC
8
DEFAULT_255_2_778
10
47.3033916
20
7.3016202
40
1.1786199
50
304.0705443
51
327.2950515
0
ARC
8
DEFAULT_255_2_778
10
47.363859
20
7.2193416
40
1.0765974
50
296.5731857
51
303.8579574
0
ARC
8
DEFAULT_255_2_778
10
47.6427891
20
6.6630627
40
0.4543055
50
293.8130847
51
296.4951465
0
ARC
8
DEFAULT_255_2_778
10
47.6082863
20
6.7404037
40
0.5389929
50
292.3610563
51
293.8490858
0
ARC
8
DEFAULT_255_2_778
10
47.5543635
20
6.8767163
40
0.6855727
50
286.0336971
51
292.1946639
0
ARC
8
DEFAULT_255_2_778
10
47.5072268
20
7.0379305
40
0.8535353
50
279.319414
51
286.0857413
0
ARC
8
DEFAULT_255_2_778
10
47.4933465
20
7.1192215
40
0.9360011
50
271.5067369
51
279.3520392
0
ARC
8
DEFAULT_255_2_778
10
47.4922794
20
7.1412399
40
0.95804
50
269.9995998
51
271.5359067
0
ARC
8
DEFAULT_255_2_778
10
47.4926996
20
7.1567859
40
0.9735861
50
258.8436843
51
269.9748797
0
ARC
8
DEFAULT_255_2_778
10
47.5022324
20
7.2022436
40
1.0200295
50
247.3623973
51
258.8123841
0
ARC
8
DEFAULT_255_2_778
10
47.5454395
20
7.3044123
40
1.1309574
50
237.0365072
51
247.3343549
0
ARC
8
DEFAULT_255_2_778
10
47.6417734
20
7.4540159
40
1.3088931
50
229.2750738
51
237.061642
0
ARC
8
DEFAULT_255_2_778
10
47.7512991
20
7.5843278
40
1.479109
50
225.888691
51
229.3531316
0
ARC
8
DEFAULT_255_2_778
10
47.8451527
20
7.6811629
40
1.6139627
50
222.659612
51
225.8892795
0
ARC
8
DEFAULT_255_2_778
10
47.9185504
20
7.7496606
40
1.7143559
50
221.6305229
51
222.6808491
0
LINE
8
DEFAULT_255_2_778
10
10.1582648
20
3.2981719
11
10.1791648
21
4.2774719
0
LINE
8
DEFAULT_255_2_778
10
10.1791648
20
4.2774719
11
10.1791648
21
6.4440719
0
LINE
8
DEFAULT_255_2_778
10
10.1791648
20
6.4440719
11
10.5958648
21
6.7565719
0
LINE
8
DEFAULT_255_2_778
10
10.5958648
20
6.7565719
11
10.5543648
21
6.8190719
0
LINE
8
DEFAULT_255_2_778
10
10.5543648
20
6.8190719
11
10.1375648
21
6.5065719
0
LINE
8
DEFAULT_255_2_778
10
10.1375648
20
6.5065719
11
9.2417648
21
7.5481719
0
LINE
8
DEFAULT_255_2_778
10
9.2417648
20
7.5481719
11
7.8666648
21
6.5274719
0
LINE
8
DEFAULT_255_2_778
10
7.8666648
20
6.5274719
11
7.8666648
21
9.9855719
0
LINE
8
DEFAULT_255_2_778
10
7.8666648
20
9.9855719
11
6.4707648
21
8.8396719
0
LINE
8
DEFAULT_255_2_778
10
6.8456648
20
8.4647719
11
6.8456648
21
3.6106719
0
LINE
8
DEFAULT_255_2_778
10
6.8456648
20
3.6106719
11
6.1164648
21
3.1524719
0
LINE
8
DEFAULT_255_2_778
10
6.1164648
20
3.1524719
11
6.1582648
21
3.0899719
0
LINE
8
DEFAULT_255_2_778
10
6.1582648
20
3.0899719
11
6.4707648
21
3.3190719
0
LINE
8
DEFAULT_255_2_778
10
6.4707648
20
3.3190719
11
7.3457648
21
2.5274719
0
LINE
8
DEFAULT_255_2_778
10
7.3457648
20
2.5274719
11
8.7207648
21
3.5900719
0
LINE
8
DEFAULT_255_2_778
10
8.7207648
20
3.5900719
11
8.6792648
21
3.6524719
0
LINE
8
DEFAULT_255_2_778
10
8.6792648
20
3.6524719
11
8.3458648
21
3.4024719
0
LINE
8
DEFAULT_255_2_778
10
8.3458648
20
3.4024719
11
7.8875648
21
3.7149719
0
LINE
8
DEFAULT_255_2_778
10
7.8875648
20
3.7149719
11
7.8875648
21
6.4229719
0
LINE
8
DEFAULT_255_2_778
10
7.8875648
20
6.4229719
11
8.4291648
21
6.7562719
0
LINE
8
DEFAULT_255_2_778
10
8.4291648
20
6.7562719
11
9.1792648
21
5.9855719
0
LINE
8
DEFAULT_255_2_778
10
9.1792648
20
5.9855719
11
9.1792648
21
3.6521719
0
LINE
8
DEFAULT_255_2_778
10
18.0959648
20
2.4020719
11
19.3667648
21
3.7561719
0
LINE
8
DEFAULT_255_2_778
10
19.3667648
20
3.7561719
11
19.3043648
21
3.8186719
0
LINE
8
DEFAULT_255_2_778
10
19.3043648
20
3.8186719
11
18.9709648
21
3.4437719
0
LINE
8
DEFAULT_255_2_778
10
17.7001648
20
4.1311719
11
17.7001648
21
8.2773719
0
LINE
8
DEFAULT_255_2_778
10
17.7001648
20
8.2773719
11
20.9294648
21
2.4647719
0
LINE
8
DEFAULT_255_2_778
10
21.2418648
20
2.4856719
11
21.2418648
21
8.3398719
0
LINE
8
DEFAULT_255_2_778
10
20.8876648
20
9.8609719
11
19.5750648
21
8.4443719
0
LINE
8
DEFAULT_255_2_778
10
19.5750648
20
8.4443719
11
19.6374648
21
8.3818719
0
LINE
8
DEFAULT_255_2_778
10
19.6374648
20
8.3818719
11
19.9917648
21
8.7777719
0
LINE
8
DEFAULT_255_2_778
10
21.0124648
20
8.3194719
11
21.0124648
21
4.9229719
0
LINE
8
DEFAULT_255_2_778
10
21.0124648
20
4.9229719
11
18.6582648
21
9.2357719
0
LINE
8
DEFAULT_255_2_778
10
17.4710648
20
8.5067719
11
17.4710648
21
7.1317719
0
LINE
8
DEFAULT_255_2_778
10
17.4919648
20
5.9030719
11
17.4919648
21
4.1530719
0
LINE
8
DEFAULT_255_2_778
10
24.4081648
20
5.2563719
11
23.3249648
21
4.5480719
0
LINE
8
DEFAULT_255_2_778
10
23.3249648
20
4.5480719
11
23.3249648
21
6.8814719
0
LINE
8
DEFAULT_255_2_778
10
23.3249648
20
6.8814719
11
24.4081648
21
5.2563719
0
LINE
8
DEFAULT_255_2_778
10
24.3666648
20
7.5063719
11
23.2416648
21
6.8605719
0
LINE
8
DEFAULT_255_2_778
10
23.2416648
20
6.8605719
11
22.2623648
21
6.3189719
0
LINE
8
DEFAULT_255_2_778
10
22.2623648
20
6.3189719
11
22.2623648
21
3.6106719
0
LINE
8
DEFAULT_255_2_778
10
22.2623648
20
3.6106719
11
21.8665648
21
3.2981719
0
LINE
8
DEFAULT_255_2_778
10
21.8665648
20
3.2981719
11
21.9290648
21
3.2357719
0
LINE
8
DEFAULT_255_2_778
10
21.9290648
20
3.2357719
11
22.3248648
21
3.5482719
0
LINE
8
DEFAULT_255_2_778
10
22.3248648
20
3.5482719
11
23.4707648
21
2.4856719
0
LINE
8
DEFAULT_255_2_778
10
23.4707648
20
2.4856719
11
25.5956648
21
4.1107719
0
LINE
8
DEFAULT_255_2_778
10
25.5956648
20
4.1107719
11
25.5540648
21
4.1731719
0
LINE
8
DEFAULT_255_2_778
10
25.5540648
20
4.1731719
11
24.3666648
21
3.2772719
0
LINE
8
DEFAULT_255_2_778
10
24.3666648
20
3.2772719
11
23.4082648
21
4.1522719
0
LINE
8
DEFAULT_255_2_778
10
23.4082648
20
4.1522719
11
23.4082648
21
4.4856719
0
LINE
8
DEFAULT_255_2_778
10
23.4082648
20
4.4856719
11
25.3458648
21
5.8606719
0
LINE
8
DEFAULT_255_2_778
10
25.3458648
20
5.8606719
11
24.3666648
21
7.5063719
0
LINE
8
DEFAULT_255_2_778
10
27.3664648
20
2.4229719
11
26.3247648
21
3.2563719
0
LINE
8
DEFAULT_255_2_778
10
26.3247648
20
3.2563719
11
25.8665648
21
2.9439719
0
LINE
8
DEFAULT_255_2_778
10
25.8665648
20
2.9439719
11
25.8250648
21
3.0063719
0
LINE
8
DEFAULT_255_2_778
10
25.8250648
20
3.0063719
11
26.2832648
21
3.3397719
0
LINE
8
DEFAULT_255_2_778
10
26.2832648
20
3.3397719
11
26.2832648
21
5.6939719
0
LINE
8
DEFAULT_255_2_778
10
27.4916648
20
6.4438719
11
27.4916648
21
3.7770719
0
LINE
8
DEFAULT_255_2_778
10
27.4916648
20
3.7770719
11
28.1374648
21
3.1936719
0
LINE
8
DEFAULT_255_2_778
10
28.1374648
20
3.1936719
11
28.3250648
21
3.3394719
0
LINE
8
DEFAULT_255_2_778
10
28.3250648
20
3.3394719
11
28.3250648
21
6.2355719
0
LINE
8
DEFAULT_255_2_778
10
28.3250648
20
6.2355719
11
28.0334648
21
6.6314719
0
LINE
8
DEFAULT_255_2_778
10
28.0334648
20
6.6314719
11
29.0751648
21
7.5272719
0
LINE
8
DEFAULT_255_2_778
10
29.0751648
20
7.5272719
11
30.0334648
21
6.7147719
0
LINE
8
DEFAULT_255_2_778
10
30.0334648
20
6.7147719
11
29.5958648
21
6.3398719
0
LINE
8
DEFAULT_255_2_778
10
29.5958648
20
6.3398719
11
29.5958648
21
3.7773719
0
LINE
8
DEFAULT_255_2_778
10
29.5958648
20
3.7773719
11
30.5541648
21
3.0690719
0
LINE
8
DEFAULT_255_2_778
10
30.5541648
20
3.0690719
11
30.7208648
21
3.1733719
0
LINE
8
DEFAULT_255_2_778
10
30.7208648
20
3.1733719
11
30.7208648
21
6.2355719
0
LINE
8
DEFAULT_255_2_778
10
30.7208648
20
6.2355719
11
30.3250648
21
6.6105719
0
LINE
8
DEFAULT_255_2_778
10
30.3250648
20
6.6105719
11
31.3666648
21
7.5272719
0
LINE
8
DEFAULT_255_2_778
10
31.3666648
20
7.5272719
11
32.3459648
21
6.7565719
0
LINE
8
DEFAULT_255_2_778
10
32.3459648
20
6.7565719
11
32.7417648
21
7.0899719
0
LINE
8
DEFAULT_255_2_778
10
32.7417648
20
7.0899719
11
32.7832648
21
7.0274719
0
LINE
8
DEFAULT_255_2_778
10
32.7832648
20
7.0274719
11
31.9083648
21
6.2774719
0
LINE
8
DEFAULT_255_2_778
10
31.9083648
20
6.2774719
11
31.9083648
21
3.7773719
0
LINE
8
DEFAULT_255_2_778
10
31.9083648
20
3.7773719
11
29.6789648
21
2.4438719
0
LINE
8
DEFAULT_255_2_778
10
29.6789648
20
2.4438719
11
28.5330648
21
3.2979719
0
LINE
8
DEFAULT_255_2_778
10
28.5330648
20
3.2979719
11
27.3664648
21
2.4229719
0
LINE
8
DEFAULT_255_2_778
10
73.1790648
20
5.2563719
11
72.0749648
21
4.5480719
0
LINE
8
DEFAULT_255_2_778
10
72.0749648
20
4.5480719
11
72.0749648
21
6.8814719
0
LINE
8
DEFAULT_255_2_778
10
72.0749648
20
6.8814719
11
73.1790648
21
5.2563719
0
LINE
8
DEFAULT_255_2_778
10
73.1581648
20
7.5063719
11
72.0331648
21
6.8605719
0
LINE
8
DEFAULT_255_2_778
10
72.0331648
20
6.8605719
11
71.0123648
21
6.3189719
0
LINE
8
DEFAULT_255_2_778
10
71.0123648
20
6.3189719
11
71.0123648
21
3.6106719
0
LINE
8
DEFAULT_255_2_778
10
71.0123648
20
3.6106719
11
70.5747648
21
3.2981719
0
LINE
8
DEFAULT_255_2_778
10
70.5747648
20
3.2981719
11
70.6372648
21
3.2357719
0
LINE
8
DEFAULT_255_2_778
10
70.6372648
20
3.2357719
11
71.0330648
21
3.5482719
0
LINE
8
DEFAULT_255_2_778
10
71.0330648
20
3.5482719
11
72.2622648
21
2.4856719
0
LINE
8
DEFAULT_255_2_778
10
72.2622648
20
2.4856719
11
74.3874648
21
4.1107719
0
LINE
8
DEFAULT_255_2_778
10
74.3874648
20
4.1107719
11
74.3458648
21
4.1731719
0
LINE
8
DEFAULT_255_2_778
10
74.3458648
20
4.1731719
11
73.1584648
21
3.2772719
0
LINE
8
DEFAULT_255_2_778
10
73.1584648
20
3.2772719
11
72.1791648
21
4.1522719
0
LINE
8
DEFAULT_255_2_778
10
72.1791648
20
4.1522719
11
72.1791648
21
4.4856719
0
LINE
8
DEFAULT_255_2_778
10
72.1791648
20
4.4856719
11
74.1167648
21
5.8606719
0
LINE
8
DEFAULT_255_2_778
10
74.1167648
20
5.8606719
11
73.1581648
21
7.5063719
0
LINE
8
DEFAULT_255_2_778
10
65.8249648
20
6.4853719
11
66.0541648
21
6.6729719
0
LINE
8
DEFAULT_255_2_778
10
66.0541648
20
6.6729719
11
66.6584648
21
5.9228719
0
LINE
8
DEFAULT_255_2_778
10
66.6584648
20
5.9228719
11
66.6584648
21
3.6937719
0
LINE
8
DEFAULT_255_2_778
10
66.6584648
20
3.6937719
11
66.4708648
21
3.4437719
0
LINE
8
DEFAULT_255_2_778
10
66.4708648
20
3.4437719
11
67.3458648
21
2.5062719
0
LINE
8
DEFAULT_255_2_778
10
67.3458648
20
2.5062719
11
68.2832648
21
3.4021719
0
LINE
8
DEFAULT_255_2_778
10
68.2832648
20
3.4021719
11
67.9082648
21
3.7564719
0
LINE
8
DEFAULT_255_2_778
10
67.9082648
20
3.7564719
11
67.9082648
21
6.4644719
0
LINE
8
DEFAULT_255_2_778
10
67.9082648
20
6.4644719
11
68.1792648
21
6.6726719
0
LINE
8
DEFAULT_255_2_778
10
68.1792648
20
6.6726719
11
68.9499648
21
5.9434719
0
LINE
8
DEFAULT_255_2_778
10
68.9499648
20
5.9434719
11
68.9499648
21
3.7143719
0
LINE
8
DEFAULT_255_2_778
10
68.9499648
20
3.7143719
11
68.6374648
21
3.5061719
0
LINE
8
DEFAULT_255_2_778
10
68.6374648
20
3.5061719
11
69.6167648
21
2.4853719
0
LINE
8
DEFAULT_255_2_778
10
69.6167648
20
2.4853719
11
70.9084648
21
3.6313719
0
LINE
8
DEFAULT_255_2_778
10
70.9084648
20
3.6313719
11
70.8459648
21
3.6937719
0
LINE
8
DEFAULT_255_2_778
10
70.8459648
20
3.6937719
11
70.5334648
21
3.4228719
0
LINE
8
DEFAULT_255_2_778
10
70.5334648
20
3.4228719
11
69.9918648
21
3.9228719
0
LINE
8
DEFAULT_255_2_778
10
69.9918648
20
3.9228719
11
69.9918648
21
6.4644719
0
LINE
8
DEFAULT_255_2_778
10
69.9918648
20
6.4644719
11
70.5128648
21
6.8187719
0
LINE
8
DEFAULT_255_2_778
10
70.5128648
20
6.8187719
11
70.4710648
21
6.8811719
0
LINE
8
DEFAULT_255_2_778
10
70.4710648
20
6.8811719
11
69.9918648
21
6.5269719
0
LINE
8
DEFAULT_255_2_778
10
69.9918648
20
6.5269719
11
69.1169648
21
7.4852719
0
LINE
8
DEFAULT_255_2_778
10
69.1169648
20
7.4852719
11
67.8670648
21
6.5269719
0
LINE
8
DEFAULT_255_2_778
10
67.8670648
20
6.5269719
11
66.9711648
21
7.4436719
0
LINE
8
DEFAULT_255_2_778
10
66.9711648
20
7.4436719
11
65.7627648
21
6.5269719
0
LINE
8
DEFAULT_255_2_778
10
65.7627648
20
6.5269719
11
64.8669648
21
7.4436719
0
LINE
8
DEFAULT_255_2_778
10
64.8669648
20
7.4436719
11
63.5752648
21
6.3604719
0
LINE
8
DEFAULT_255_2_778
10
63.5752648
20
6.3604719
11
63.6167648
21
6.2980719
0
LINE
8
DEFAULT_255_2_778
10
63.6167648
20
6.2980719
11
64.0334648
21
6.6314719
0
LINE
8
DEFAULT_255_2_778
10
64.0334648
20
6.6314719
11
64.6168648
21
5.9855719
0
LINE
8
DEFAULT_255_2_778
10
64.6168648
20
5.9855719
11
64.6168648
21
3.7355719
0
LINE
8
DEFAULT_255_2_778
10
64.6168648
20
3.7355719
11
64.3253648
21
3.4855719
0
LINE
8
DEFAULT_255_2_778
10
64.3253648
20
3.4855719
11
65.2627648
21
2.4647719
0
LINE
8
DEFAULT_255_2_778
10
65.2627648
20
2.4647719
11
66.2210648
21
3.3815719
0
LINE
8
DEFAULT_255_2_778
10
66.2210648
20
3.3815719
11
65.8252648
21
3.7773719
0
LINE
8
DEFAULT_255_2_778
10
65.8252648
20
3.7773719
11
65.8249648
21
6.4853719
0
LINE
8
DEFAULT_255_2_778
10
64.0125648
20
3.5479719
11
63.9710648
21
3.6103719
0
LINE
8
DEFAULT_255_2_778
10
63.9710648
20
3.6103719
11
63.5961648
21
3.2979719
0
LINE
8
DEFAULT_255_2_778
10
63.5961648
20
3.2979719
11
63.0960648
21
3.8604719
0
LINE
8
DEFAULT_255_2_778
10
63.0960648
20
3.8604719
11
63.0960648
21
6.3813719
0
LINE
8
DEFAULT_255_2_778
10
63.0960648
20
6.3813719
11
63.5336648
21
6.7356719
0
LINE
8
DEFAULT_255_2_778
10
63.5336648
20
6.7356719
11
63.4712648
21
6.7980719
0
LINE
8
DEFAULT_255_2_778
10
63.4712648
20
6.7980719
11
63.0545648
21
6.4438719
0
LINE
8
DEFAULT_255_2_778
10
63.0545648
20
6.4438719
11
62.1586648
21
7.4645719
0
LINE
8
DEFAULT_255_2_778
10
62.1586648
20
7.4645719
11
60.8253648
21
6.4229719
0
LINE
8
DEFAULT_255_2_778
10
60.8253648
20
6.4229719
11
60.9920648
21
6.3813719
0
LINE
8
DEFAULT_255_2_778
10
60.9920648
20
6.3813719
11
61.3254648
21
6.6523719
0
LINE
8
DEFAULT_255_2_778
10
61.3254648
20
6.6523719
11
61.8670648
21
6.0482719
0
LINE
8
DEFAULT_255_2_778
10
61.8670648
20
6.0482719
11
61.8670648
21
3.4857719
0
LINE
8
DEFAULT_255_2_778
10
61.8670648
20
3.4857719
11
61.4921648
21
3.1733719
0
LINE
8
DEFAULT_255_2_778
10
61.4921648
20
3.1733719
11
61.5336648
21
3.1108719
0
LINE
8
DEFAULT_255_2_778
10
61.5336648
20
3.1108719
11
61.9295648
21
3.4442719
0
LINE
8
DEFAULT_255_2_778
10
61.9295648
20
3.4442719
11
62.7835648
21
2.4859719
0
LINE
8
DEFAULT_255_2_778
10
62.7835648
20
2.4859719
11
64.0125648
21
3.5479719
0
LINE
8
DEFAULT_255_2_778
10
62.2208648
20
9.3812719
11
62.9709648
21
8.5686719
0
LINE
8
DEFAULT_255_2_778
10
62.9709648
20
8.5686719
11
62.0334648
21
7.7561719
0
LINE
8
DEFAULT_255_2_778
10
62.0334648
20
7.7561719
11
61.2833648
21
8.5477719
0
LINE
8
DEFAULT_255_2_778
10
61.2833648
20
8.5477719
11
62.2208648
21
9.3812719
0
LINE
8
DEFAULT_255_2_778
10
57.1164648
20
4.5062719
11
57.1164648
21
7.3606719
0
LINE
8
DEFAULT_255_2_778
10
57.1164648
20
7.3606719
11
56.2415648
21
6.9856719
0
LINE
8
DEFAULT_255_2_778
10
56.6582648
20
4.2983719
11
57.1164648
21
4.5062719
0
LINE
8
DEFAULT_255_2_778
10
59.5749648
20
8.1313719
11
59.5749648
21
6.7562719
0
LINE
8
DEFAULT_255_2_778
10
59.5749648
20
6.7562719
11
60.1999648
21
6.2146719
0
LINE
8
DEFAULT_255_2_778
10
60.1999648
20
6.2146719
11
59.5749648
21
5.6730719
0
LINE
8
DEFAULT_255_2_778
10
59.5749648
20
5.6730719
11
59.5749648
21
3.8188719
0
LINE
8
DEFAULT_255_2_778
10
56.1787648
20
7.0896719
11
58.3245648
21
7.9855719
0
LINE
8
DEFAULT_255_2_778
10
58.3245648
20
7.9855719
11
58.3245648
21
5.0481719
0
LINE
8
DEFAULT_255_2_778
10
58.3245648
20
5.0481719
11
56.6161648
21
4.2356719
0
LINE
8
DEFAULT_255_2_778
10
59.3868648
20
3.7773719
11
59.3868648
21
5.6939719
0
LINE
8
DEFAULT_255_2_778
10
59.3868648
20
5.6939719
11
58.7619648
21
6.2355719
0
LINE
8
DEFAULT_255_2_778
10
58.7619648
20
6.2355719
11
59.3868648
21
6.7771719
0
LINE
8
DEFAULT_255_2_778
10
59.3868648
20
6.7771719
11
59.3868648
21
8.1522719
0
LINE
8
DEFAULT_255_2_778
10
75.8249648
20
6.9645719
11
75.8249648
21
5.6103719
0
LINE
8
DEFAULT_255_2_778
10
75.8249648
20
5.6103719
11
76.4082648
21
5.2145719
0
LINE
8
DEFAULT_255_2_778
10
77.0750648
20
3.0685719
11
77.0750648
21
4.7769719
0
LINE
8
DEFAULT_255_2_778
10
77.0750648
20
4.7769719
11
76.4707648
21
5.1936719
0
LINE
8
DEFAULT_255_2_778
10
75.5748648
20
4.4853719
11
74.8041648
21
5.1727719
0
LINE
8
DEFAULT_255_2_778
10
74.8041648
20
5.1727719
11
74.8041648
21
6.4644719
0
LINE
8
DEFAULT_255_2_778
10
74.8041648
20
6.4644719
11
75.8042648
21
7.0060719
0
LINE
8
DEFAULT_255_2_778
10
75.8042648
20
7.0060719
11
76.7001648
21
7.5685719
0
LINE
8
DEFAULT_255_2_778
10
77.2832648
20
5.9643719
11
78.1167648
21
5.3185719
0
LINE
8
DEFAULT_255_2_778
10
78.1167648
20
5.3185719
11
78.1167648
21
3.6310719
0
LINE
8
DEFAULT_255_2_778
10
41.8666648
20
4.0273719
11
42.9498648
21
3.0899719
0
LINE
8
DEFAULT_255_2_778
10
42.9498648
20
3.0899719
11
42.9498648
21
5.9649719
0
LINE
8
DEFAULT_255_2_778
10
42.9498648
20
5.9649719
11
41.8666648
21
6.9232719
0
LINE
8
DEFAULT_255_2_778
10
41.8666648
20
6.9232719
11
41.8666648
21
4.0273719
0
LINE
8
DEFAULT_255_2_778
10
44.1791648
20
6.3816719
11
44.5540648
21
6.7150719
0
LINE
8
DEFAULT_255_2_778
10
44.5540648
20
6.7150719
11
44.6165648
21
6.6525719
0
LINE
8
DEFAULT_255_2_778
10
44.6165648
20
6.6525719
11
44.1582648
21
6.3192719
0
LINE
8
DEFAULT_255_2_778
10
44.1582648
20
6.3192719
11
44.1582648
21
3.6318719
0
LINE
8
DEFAULT_255_2_778
10
44.1582648
20
3.6318719
11
43.0750648
21
3.0068719
0
LINE
8
DEFAULT_255_2_778
10
43.0750648
20
3.0068719
11
42.0751648
21
2.4234719
0
LINE
8
DEFAULT_255_2_778
10
42.0751648
20
2.4234719
11
40.8043648
21
3.4651719
0
LINE
8
DEFAULT_255_2_778
10
40.8043648
20
3.4651719
11
40.4710648
21
3.1735719
0
LINE
8
DEFAULT_255_2_778
10
40.4710648
20
3.1735719
11
40.4085648
21
3.2360719
0
LINE
8
DEFAULT_255_2_778
10
40.4085648
20
3.2360719
11
40.8461648
21
3.5275719
0
LINE
8
DEFAULT_255_2_778
10
40.8461648
20
3.5275719
11
40.8461648
21
6.4440719
0
LINE
8
DEFAULT_255_2_778
10
40.8461648
20
6.4440719
11
40.7837648
21
6.4440719
0
LINE
8
DEFAULT_255_2_778
10
40.7837648
20
6.4440719
11
41.8878648
21
6.9856719
0
LINE
8
DEFAULT_255_2_778
10
41.8878648
20
6.9856719
11
42.8461648
21
7.5272719
0
LINE
8
DEFAULT_255_2_778
10
42.8461648
20
7.5272719
11
44.1791648
21
6.3816719
0
LINE
8
DEFAULT_255_2_778
10
46.6998648
20
6.6523719
11
47.5123648
21
7.4648719
0
LINE
8
DEFAULT_255_2_778
10
46.6371648
20
6.6107719
11
46.6371648
21
3.7149719
0
LINE
8
DEFAULT_255_2_778
10
46.6371648
20
3.7149719
11
47.2411648
21
3.2772719
0
LINE
8
DEFAULT_255_2_778
10
47.2411648
20
3.2772719
11
47.6785648
21
3.6106719
0
LINE
8
DEFAULT_255_2_778
10
47.6785648
20
3.6106719
11
47.7203648
21
3.5482719
0
LINE
8
DEFAULT_255_2_778
10
47.7203648
20
3.5482719
11
46.3870648
21
2.4650719
0
LINE
8
DEFAULT_255_2_778
10
46.3870648
20
2.4650719
11
45.3663648
21
3.3608719
0
LINE
8
DEFAULT_255_2_778
10
45.3663648
20
3.3608719
11
44.9914648
21
3.0275719
0
LINE
8
DEFAULT_255_2_778
10
44.9914648
20
3.0275719
11
44.9289648
21
3.0899719
0
LINE
8
DEFAULT_255_2_778
10
44.9289648
20
3.0899719
11
45.3872648
21
3.5691719
0
LINE
8
DEFAULT_255_2_778
10
45.3872648
20
3.5691719
11
45.3872648
21
6.0482719
0
LINE
8
DEFAULT_255_2_778
10
45.3872648
20
6.0482719
11
45.0538648
21
6.5898719
0
LINE
8
DEFAULT_255_2_778
10
45.0538648
20
6.5898719
11
44.6789648
21
6.2774719
0
LINE
8
DEFAULT_255_2_778
10
44.6789648
20
6.2774719
11
44.6165648
21
6.3398719
0
LINE
8
DEFAULT_255_2_778
10
44.6165648
20
6.3398719
11
45.9081648
21
7.4648719
0
LINE
8
DEFAULT_255_2_778
10
45.9081648
20
7.4648719
11
46.6998648
21
6.6523719
0
ARC
8
DEFAULT_255_2_778
10
52.4601666
20
8.3846862
40
1.188104
50
224.7676826
51
255.2788057
0
ARC
8
DEFAULT_255_2_778
10
52.3253319
20
7.8487073
40
0.635482
50
254.7565764
51
265.474273
0
ARC
8
DEFAULT_255_2_778
10
52.3271871
20
7.8703922
40
0.6572456
50
265.4622163
51
270.0140143
0
ARC
8
DEFAULT_255_2_778
10
52.3176498
20
8.0071228
40
0.7940354
50
270.6998034
51
292.1085106
0
ARC
8
DEFAULT_255_2_778
10
52.2001432
20
8.3201506
40
1.1283076
50
291.654275
51
301.5427012
0
ARC
8
DEFAULT_255_2_778
10
52.1127148
20
8.4708103
40
1.3024511
50
301.3533511
51
303.1677964
0
ARC
8
DEFAULT_255_2_778
10
52.0700997
20
8.535127
40
1.3796035
50
303.1879256
51
307.5970911
0
ARC
8
DEFAULT_255_2_778
10
52.0719233
20
8.5339395
40
1.3775501
50
307.5671312
51
310.8986254
0
ARC
8
DEFAULT_255_2_778
10
52.1929166
20
8.3947265
40
1.1931064
50
310.8837732
51
313.1799726
0
ARC
8
DEFAULT_255_2_778
10
52.4267012
20
8.1458493
40
0.8516462
50
313.1683457
51
314.8254916
0
ARC
8
DEFAULT_255_2_778
10
52.7628956
20
7.8082839
40
0.3752257
50
314.7519561
51
316.0748634
0
ARC
8
DEFAULT_255_2_778
10
50.5637036
20
7.9134816
40
2.496349
50
346.9243685
51
351.580878
0
ARC
8
DEFAULT_255_2_778
10
50.6216438
20
7.900578
40
2.436992
50
346.2185434
51
346.9116914
0
ARC
8
DEFAULT_255_2_778
10
51.237811
20
7.703868
40
1.7922501
50
320.070474
51
347.6337527
0
ARC
8
DEFAULT_255_2_778
10
51.8845607
20
7.1814093
40
0.9610716
50
280.1514782
51
319.2075724
0
ARC
8
DEFAULT_255_2_778
10
51.9022423
20
7.2290892
40
1.0052199
50
270.1861257
51
278.680279
0
ARC
8
DEFAULT_255_2_778
10
51.9008216
20
7.2596429
40
1.0357789
50
269.9976413
51
270.2592226
0
ARC
8
DEFAULT_255_2_778
10
51.9090145
20
7.4476792
40
1.2238428
50
254.637999
51
269.6144392
0
ARC
8
DEFAULT_255_2_778
10
51.996281
20
7.789099
40
1.576195
50
247.0732456
51
254.8669803
0
ARC
8
DEFAULT_255_2_778
10
52.0763054
20
7.9854048
40
1.7881692
50
243.4452694
51
247.1619695
0
ARC
8
DEFAULT_255_2_778
10
52.1136122
20
8.0608628
40
1.8723451
50
239.6349666
51
243.4563598
0
ARC
8
DEFAULT_255_2_778
10
52.0767466
20
7.9991646
40
1.8004749
50
236.8237834
51
239.6546828
0
ARC
8
DEFAULT_255_2_778
10
51.9257852
20
7.768958
40
1.5251856
50
234.6877697
51
236.8380855
0
ARC
8
DEFAULT_255_2_778
10
51.661423
20
7.3960913
40
1.0681113
50
233.126187
51
234.6982048
0
ARC
8
DEFAULT_255_2_778
10
51.2987837
20
6.9135903
40
0.4645272
50
231.9308608
51
233.1964342
0
ARC
8
DEFAULT_255_2_778
10
47.9466976
20
8.2843231
40
1.0031764
50
359.6093409
51
15.6435787
0
ARC
8
DEFAULT_255_2_778
10
48.2033014
20
8.3584005
40
0.7361056
50
15.4770354
51
36.2278856
0
ARC
8
DEFAULT_255_2_778
10
48.3901902
20
8.5000898
40
0.5016242
50
35.7885999
51
65.3425445
0
ARC
8
DEFAULT_255_2_778
10
48.4517444
20
8.6217819
40
0.3653849
50
66.153675
51
85.0105279
0
ARC
8
DEFAULT_255_2_778
10
48.4561691
20
8.654801
40
0.3321097
50
85.2755503
51
89.9893064
0
ARC
8
DEFAULT_255_2_778
10
48.4561868
20
8.6621717
40
0.324739
50
89.9921872
51
94.775683
0
ARC
8
DEFAULT_255_2_778
10
38.1582731
20
6.6979666
40
0.2828554
50
314.9081033
51
317.4205208
0
ARC
8
DEFAULT_255_2_778
10
37.930044
20
6.9251767
40
0.6048993
50
311.239678
51
315.0252752
0
ARC
8
DEFAULT_255_2_778
10
37.8305186
20
7.0375082
40
0.7549766
50
305.8024655
51
311.2995481
0
ARC
8
DEFAULT_255_2_778
10
37.8244639
20
7.0451965
40
0.7647541
50
302.8156732
51
305.8334129
0
ARC
8
DEFAULT_255_2_778
10
37.8578322
20
6.9903618
40
0.7005884
50
291.5009056
51
302.9525465
0
ARC
8
DEFAULT_255_2_778
10
37.9037498
20
6.8700659
40
0.5718356
50
272.5797637
51
291.6379792
0
ARC
8
DEFAULT_255_2_778
10
37.9082411
20
6.8277155
40
0.5293324
50
270.0010413
51
272.3004463
0
ARC
8
DEFAULT_255_2_778
10
37.9059758
20
6.8514238
40
0.5530453
50
255.5906051
51
270.235679
0
ARC
8
DEFAULT_255_2_778
10
37.8932593
20
6.7979083
40
0.4980498
50
240.2558541
51
255.4754753
0
ARC
8
DEFAULT_255_2_778
10
37.8911966
20
6.7936908
40
0.4933647
50
232.460908
51
240.2208349
0
ARC
8
DEFAULT_255_2_778
10
37.8848465
20
6.7860154
40
0.4834097
50
222.8524016
51
232.5034128
0
ARC
8
DEFAULT_255_2_778
10
37.827542
20
6.7336358
40
0.4057756
50
216.4423956
51
222.9333918
0
ARC
8
DEFAULT_255_2_778
10
37.6761359
20
6.6226169
40
0.2180304
50
212.2284522
51
216.6073598
0
ARC
8
DEFAULT_255_2_778
10
37.5267003
20
6.5278866
40
0.0411015
50
211.2192263
51
211.6129411
0
ARC
8
DEFAULT_255_2_778
10
37.6509223
20
5.5535506
40
0.1876347
50
144.0235944
51
148.1434235
0
ARC
8
DEFAULT_255_2_778
10
37.8147184
20
5.4363012
40
0.3890688
50
137.9300238
51
144.2205272
0
ARC
8
DEFAULT_255_2_778
10
37.881061
20
5.3774269
40
0.4777652
50
128.9850675
51
138.0197275
0
ARC
8
DEFAULT_255_2_778
10
37.8900206
20
5.367069
40
0.4914533
50
127.5539611
51
129.0373014
0
ARC
8
DEFAULT_255_2_778
10
37.8906673
20
5.3662279
40
0.4925143
50
113.8660118
51
127.5539711
0
ARC
8
DEFAULT_255_2_778
10
37.8974766
20
5.348886
40
0.5111289
50
98.3571194
51
113.7775106
0
ARC
8
DEFAULT_255_2_778
10
37.9073456
20
5.2861904
40
0.5745936
50
89.9097522
51
98.4221282
0
ARC
8
DEFAULT_255_2_778
10
37.9091126
20
5.2040347
40
0.656749
50
76.0498063
51
90.0751985
0
ARC
8
DEFAULT_255_2_778
10
37.9090078
20
5.2065123
40
0.65437
50
63.7030161
51
75.9886007
0
ARC
8
DEFAULT_255_2_778
10
37.9050272
20
5.1978154
40
0.6639305
50
59.0114281
51
63.7275472
0
ARC
8
DEFAULT_255_2_778
10
37.9150595
20
5.2136451
40
0.645195
50
51.7779499
51
59.051411
0
ARC
8
DEFAULT_255_2_778
10
37.9814547
20
5.2970512
40
0.5385906
50
46.5875599
51
51.8372068
0
ARC
8
DEFAULT_255_2_778
10
38.13649
20
5.4602293
40
0.313507
50
43.045117
51
46.6749677
0
ARC
8
DEFAULT_255_2_778
10
38.3070218
20
5.619949
40
0.0798596
50
41.8048925
51
42.8117455
0
ARC
8
DEFAULT_255_2_778
10
37.7065645
20
6.8112803
40
0.2802819
50
219.902782
51
222.5792531
0
ARC
8
DEFAULT_255_2_778
10
37.9414845
20
7.0253515
40
0.5981073
50
222.4528501
51
226.4892474
0
ARC
8
DEFAULT_255_2_778
10
38.0422843
20
7.1303257
40
0.7436396
50
226.4252392
51
232.3022349
0
ARC
8
DEFAULT_255_2_778
10
38.0479331
20
7.1369237
40
0.7523146
50
232.2691088
51
235.4984483
0
ARC
8
DEFAULT_255_2_778
10
38.016422
20
7.0883732
40
0.6944564
50
235.3720723
51
247.0798893
0
ARC
8
DEFAULT_255_2_778
10
37.975298
20
6.9892666
40
0.5871592
50
247.0096671
51
265.0140362
0
ARC
8
DEFAULT_255_2_778
10
37.9707458
20
6.9584134
40
0.5560302
50
265.2050311
51
270.0005042
0
ARC
8
DEFAULT_255_2_778
10
37.9742619
20
6.8657418
40
0.4633719
50
269.5658411
51
284.2937114
0
ARC
8
DEFAULT_255_2_778
10
38.0008646
20
6.7597133
40
0.3540581
50
284.3581974
51
303.2883551
0
ARC
8
DEFAULT_255_2_778
10
38.0129667
20
6.7389594
40
0.3300696
50
303.5095818
51
317.7269118
0
ARC
8
DEFAULT_255_2_778
10
38.0077325
20
6.7437163
40
0.3371424
50
317.7270873
51
331.0722574
0
ARC
8
DEFAULT_255_2_778
10
38.0419477
20
6.72571
40
0.2984874
50
330.9205139
51
339.1739665
0
ARC
8
DEFAULT_255_2_778
10
38.1794675
20
6.6739934
40
0.1515666
50
338.9641858
51
343.7116226
0
ARC
8
DEFAULT_255_2_778
10
37.5521712
20
2.8548937
40
0.2313924
50
254.8123413
51
256.3585193
0
ARC
8
DEFAULT_255_2_778
10
37.6259481
20
3.1558226
40
0.5412327
50
256.2819874
51
258.3326292
0
ARC
8
DEFAULT_255_2_778
10
37.6715346
20
3.3747551
40
0.7648607
50
258.304914
51
260.7977654
0
ARC
8
DEFAULT_255_2_778
10
37.6924357
20
3.5021135
40
0.8939224
50
260.7807808
51
263.8189063
0
ARC
8
DEFAULT_255_2_778
10
37.6977788
20
3.5491398
40
0.9412506
50
263.8037703
51
267.8904186
0
ARC
8
DEFAULT_255_2_778
10
37.6974958
20
3.5398628
40
0.9319695
50
267.8868121
51
269.9964681
0
ARC
8
DEFAULT_255_2_778
10
37.6984798
20
3.4857343
40
0.8778415
50
269.9320255
51
277.9704608
0
ARC
8
DEFAULT_255_2_778
10
37.715911
20
3.3687221
40
0.7595433
50
277.892192
51
290.1496166
0
ARC
8
DEFAULT_255_2_778
10
37.7344966
20
3.3121774
40
0.7000598
50
290.3157592
51
291.7725774
0
ARC
8
DEFAULT_255_2_778
10
37.7464687
20
3.2840207
40
0.6694713
50
291.7148924
51
302.6885462
0
ARC
8
DEFAULT_255_2_778
10
37.7533455
20
3.2723488
40
0.6559342
50
302.7336176
51
308.1300011
0
ARC
8
DEFAULT_255_2_778
10
37.7711646
20
3.2422879
40
0.6213023
50
308.5490778
51
316.9396452
0
ARC
8
DEFAULT_255_2_778
10
37.8382212
20
3.1795361
40
0.5294632
50
316.946626
51
326.7237036
0
ARC
8
DEFAULT_255_2_778
10
37.8692907
20
3.1581859
40
0.4917744
50
326.817187
51
330.0812709
0
ARC
8
DEFAULT_255_2_778
10
37.8873771
20
3.1482595
40
0.4711475
50
330.0305117
51
344.5718106
0
ARC
8
DEFAULT_255_2_778
10
37.8716211
20
3.1517489
40
0.4872648
50
344.6691578
51
357.9693829
0
ARC
8
DEFAULT_255_2_778
10
37.8435233
20
3.153572
40
0.5154101
50
357.8775234
51
0.0026056
0
ARC
8
DEFAULT_255_2_778
10
37.8232361
20
3.1532225
40
0.5356975
50
0.0398943
51
8.0168503
0
ARC
8
DEFAULT_255_2_778
10
37.8170486
20
3.1527301
40
0.5418931
50
7.9771621
51
13.6460201
0
ARC
8
DEFAULT_255_2_778
10
37.8406694
20
3.1582646
40
0.5176336
50
13.6675406
51
14.4437825
0
ARC
8
DEFAULT_255_2_778
10
37.8821122
20
3.1694579
40
0.474709
50
14.383142
51
18.2925381
0
ARC
8
DEFAULT_255_2_778
10
38.004199
20
3.209946
40
0.3460837
50
18.2721916
51
21.053354
0
ARC
8
DEFAULT_255_2_778
10
38.1820243
20
3.2787546
40
0.1554107
50
20.9302313
51
23.1221282
0
ARC
8
DEFAULT_255_2_778
10
38.1563762
20
5.4421821
40
0.1804217
50
20.8788577
51
25.1312339
0
ARC
8
DEFAULT_255_2_778
10
37.9996522
20
5.3700455
40
0.352948
50
24.9280484
51
31.9837972
0
ARC
8
DEFAULT_255_2_778
10
37.9634914
20
5.3486265
40
0.394966
50
31.8407573
51
43.6161004
0
ARC
8
DEFAULT_255_2_778
10
37.9847747
20
5.3697595
40
0.3649799
50
43.5190608
51
62.5034683
0
ARC
8
DEFAULT_255_2_778
10
37.982596
20
5.3615722
40
0.3732529
50
62.7870629
51
82.2119684
0
ARC
8
DEFAULT_255_2_778
10
37.9715646
20
5.2923138
40
0.4433702
50
82.0123683
51
90.1051788
0
ARC
8
DEFAULT_255_2_778
10
37.9718771
20
5.1657754
40
0.5699089
50
90.1132426
51
108.9575493
0
ARC
8
DEFAULT_255_2_778
10
38.0032552
20
5.0749946
40
0.6659596
50
108.9734165
51
122.2203919
0
ARC
8
DEFAULT_255_2_778
10
38.0376433
20
5.0163069
40
0.7339477
50
122.0487669
51
124.5123156
0
ARC
8
DEFAULT_255_2_778
10
38.0499115
20
4.9986419
40
0.7554548
50
124.5199239
51
131.5142043
0
ARC
8
DEFAULT_255_2_778
10
38.0001822
20
5.0537489
40
0.6812306
50
131.4543532
51
135.9937565
0
ARC
8
DEFAULT_255_2_778
10
37.8230181
20
5.2238632
40
0.4356188
50
135.8983568
51
139.2405537
0
ARC
8
DEFAULT_255_2_778
10
37.5891806
20
5.4258809
40
0.1266029
50
139.3993545
51
140.4572701
0
ARC
8
DEFAULT_255_2_778
10
34.0948501
20
8.3916165
40
1.105247
50
359.4746833
51
13.5109616
0
ARC
8
DEFAULT_255_2_778
10
34.5305077
20
8.5009871
40
0.6561098
50
13.1126997
51
34.9945955
0
ARC
8
DEFAULT_255_2_778
10
34.7440359
20
8.6557184
40
0.3924713
50
34.3670541
51
90.3336143
0
ARC
8
DEFAULT_255_2_778
10
34.7389539
20
8.6361703
40
0.4120224
50
89.6110776
51
113.5615082
0
ARC
8
DEFAULT_255_2_778
10
34.8077628
20
8.5316903
40
0.5357212
50
115.8410412
51
151.1780488
0
ARC
8
DEFAULT_255_2_778
10
35.0483595
20
8.3654887
40
0.8271679
50
149.1256506
51
150.9662979
0
ARC
8
DEFAULT_255_2_778
10
35.1858166
20
8.293118
40
0.9824806
50
151.1666179
51
159.7312176
0
ARC
8
DEFAULT_255_2_778
10
35.299855
20
8.248025
40
1.1050823
50
159.5863012
51
164.0803217
0
ARC
8
DEFAULT_255_2_778
10
35.1506165
20
8.2897452
40
0.9501244
50
164.0312113
51
166.9717054
0
ARC
8
DEFAULT_255_2_778
10
34.7539324
20
8.3811997
40
0.5430348
50
166.9374138
51
168.7769364
0
ARC
8
DEFAULT_255_2_778
10
34.3641127
20
8.4588817
40
0.1455509
50
168.9053109
51
169.3891003
0
ARC
8
DEFAULT_255_2_778
10
34.3697606
20
8.5129937
40
0.1511969
50
188.8964729
51
190.4063941
0
ARC
8
DEFAULT_255_2_778
10
34.563998
20
8.5440513
40
0.3479012
50
187.4809015
51
189.0027321
0
ARC
8
DEFAULT_255_2_778
10
34.7185564
20
8.5645114
40
0.5038079
50
185.8762194
51
187.4994534
0
ARC
8
DEFAULT_255_2_778
10
34.8550023
20
8.5785316
40
0.6409723
50
183.7961289
51
185.8741837
0
ARC
8
DEFAULT_255_2_778
10
34.9752576
20
8.5865255
40
0.761493
50
181.2175614
51
183.7972338
0
ARC
8
DEFAULT_255_2_778
10
35.0449188
20
8.5883758
40
0.831178
50
179.9953205
51
181.2430478
0
ARC
8
DEFAULT_255_2_778
10
35.130854
20
8.5872529
40
0.9171139
50
173.0926018
51
179.9256046
0
ARC
8
DEFAULT_255_2_778
10
35.1959043
20
8.5798671
40
0.9825804
50
164.609826
51
173.1212378
0
ARC
8
DEFAULT_255_2_778
10
35.2264358
20
8.5713764
40
1.0142704
50
154.0267168
51
164.6051129
0
ARC
8
DEFAULT_255_2_778
10
35.2824288
20
8.5433794
40
1.0768697
50
143.1220195
51
153.9922898
0
ARC
8
DEFAULT_255_2_778
10
35.3370446
20
8.5045812
40
1.1438424
50
141.6172181
51
143.2091961
0
ARC
8
DEFAULT_255_2_778
10
35.3703551
20
8.4778048
40
1.1865796
50
137.6663395
51
141.6024115
0
ARC
8
DEFAULT_255_2_778
10
35.4154858
20
8.4369428
40
1.2474604
50
134.9900874
51
137.6749082
0
ARC
8
DEFAULT_255_2_778
10
35.7612059
20
8.2043542
40
1.6583066
50
134.8397269
51
137.7575326
0
ARC
8
DEFAULT_255_2_778
10
35.6778918
20
8.287832
40
1.5403672
50
132.1994225
51
134.8317596
0
ARC
8
DEFAULT_255_2_778
10
35.5563146
20
8.4271363
40
1.3555085
50
121.5398261
51
132.3476519
0
ARC
8
DEFAULT_255_2_778
10
35.4559853
20
8.5896618
40
1.1645106
50
106.9271143
51
121.5155824
0
ARC
8
DEFAULT_255_2_778
10
35.4455761
20
8.6133529
40
1.1388193
50
92.5775853
51
106.7731399
0
ARC
8
DEFAULT_255_2_778
10
35.4507521
20
8.5407292
40
1.2116039
50
89.9932121
51
92.6676572
0
ARC
8
DEFAULT_255_2_778
10
35.4499635
20
8.4697587
40
1.2825748
50
84.0878875
51
89.9583604
0
ARC
8
DEFAULT_255_2_778
10
35.4361056
20
8.3366212
40
1.4164316
50
78.7092162
51
84.0850294
0
ARC
8
DEFAULT_255_2_778
10
35.4144238
20
8.2221402
40
1.5329424
50
76.8660901
51
78.7522667
0
ARC
8
DEFAULT_255_2_778
10
35.4670192
20
8.3707106
40
1.3764178
50
64.3497065
51
77.5929257
0
ARC
8
DEFAULT_255_2_778
10
35.5933675
20
8.6329518
40
1.0853264
50
45.7600333
51
64.3697023
0
ARC
8
DEFAULT_255_2_778
10
35.6381642
20
8.6871031
40
1.0152939
50
16.4866185
51
45.439154
0
ARC
8
DEFAULT_255_2_778
10
35.553031
20
8.657783
40
1.1052547
50
7.3427777
51
16.6916212
0
ARC
8
DEFAULT_255_2_778
10
35.5159297
20
8.6525461
40
1.1427211
50
359.9918295
51
7.3654535
0
ARC
8
DEFAULT_255_2_778
10
37.4061575
20
5.870194
40
3.1616479
50
256.3240989
51
262.4738802
0
ARC
8
DEFAULT_255_2_778
10
36.384182
20
-0.005145
40
2.807524
50
74.3230687
51
77.495625
0
ARC
8
DEFAULT_255_2_778
10
36.5864812
20
0.7122368
40
2.0621648
50
71.5774815
51
74.3488534
0
ARC
8
DEFAULT_255_2_778
10
36.8956182
20
1.6357951
40
1.088244
50
69.2736672
51
71.6527506
0
ARC
8
DEFAULT_255_2_778
10
37.1863371
20
2.406423
40
0.2646045
50
68.4218563
51
69.0950768
0
ARC
8
DEFAULT_255_2_778
10
38.3561417
20
3.4046732
40
1.406311
50
333.0373836
51
359.902627
0
ARC
8
DEFAULT_255_2_778
10
38.9436652
20
3.1572134
40
0.771811
50
303.1900484
51
329.6333937
0
ARC
8
DEFAULT_255_2_778
10
38.8696803
20
3.2594464
40
0.8978859
50
300.4599268
51
303.5697801
0
ARC
8
DEFAULT_255_2_778
10
38.6846377
20
3.6126349
40
1.2962807
50
286.5587749
51
299.5962202
0
ARC
8
DEFAULT_255_2_778
10
38.62435
20
3.8565102
40
1.5472682
50
269.4458117
51
286.1248979
0
ARC
8
DEFAULT_255_2_778
10
38.6300724
20
4.8438485
40
2.5346185
50
260.1442166
51
269.5323384
0
ARC
8
DEFAULT_255_2_778
10
39.0925327
20
7.5429449
40
5.2730434
50
255.5453167
51
260.2133872
0
ARC
8
DEFAULT_255_2_778
10
42.2877461
20
20.2388752
40
18.3648127
50
254.9418057
51
255.7793521
0
ARC
8
DEFAULT_255_2_778
10
34.3808311
20
-8.9191376
40
11.8463544
50
74.6508382
51
76.9431023
0
ARC
8
DEFAULT_255_2_778
10
36.1866782
20
-1.2061906
40
3.9248776
50
77.1863259
51
81.2572837
0
ARC
8
DEFAULT_255_2_778
10
29.4870064
20
-52.0112609
40
55.1689465
50
82.4002111
51
82.4570789
0
ARC
8
DEFAULT_255_2_778
10
33.6031673
20
-20.9272232
40
23.8135614
50
82.457504
51
82.5928201
0
ARC
8
DEFAULT_255_2_778
10
35.1994806
20
-8.5567808
40
11.3405599
50
82.5331845
51
83.562124
0
ARC
8
DEFAULT_255_2_778
10
35.8205505
20
-2.9409313
40
5.6904997
50
83.4359798
51
87.0352517
0
ARC
8
DEFAULT_255_2_778
10
35.9359455
20
-0.8889504
40
3.6353081
50
87.1788169
51
89.9319671
0
ARC
8
DEFAULT_255_2_778
10
35.9195405
20
0.5201148
40
2.2263368
50
89.4667132
51
99.4855428
0
ARC
8
DEFAULT_255_2_778
10
35.7409226
20
1.5805156
40
1.1509997
50
99.4147085
51
114.1923039
0
ARC
8
DEFAULT_255_2_778
10
35.5129622
20
2.0613438
40
0.6190777
50
113.183809
51
155.427552
0
ARC
8
DEFAULT_255_2_778
10
35.4490835
20
2.0946051
40
0.5471648
50
155.8134841
51
178.3277446
0
ARC
8
DEFAULT_255_2_778
10
35.3934864
20
2.0995512
40
0.4914583
50
178.7149784
51
179.999097
0
ARC
8
DEFAULT_255_2_778
10
35.3691738
20
2.0988353
40
0.4671464
50
179.9112401
51
192.7316525
0
ARC
8
DEFAULT_255_2_778
10
35.3616498
20
2.0986551
40
0.4597701
50
192.9163873
51
216.2711226
0
ARC
8
DEFAULT_255_2_778
10
35.4521944
20
2.1660369
40
0.5726336
50
216.346994
51
231.9843331
0
ARC
8
DEFAULT_255_2_778
10
35.5522743
20
2.2872428
40
0.7297737
50
231.6546377
51
237.3214119
0
ARC
8
DEFAULT_255_2_778
10
35.356638
20
1.9927696
40
0.3763255
50
238.1855966
51
249.4913989
0
ARC
8
DEFAULT_255_2_778
10
35.4235226
20
2.1681027
40
0.56398
50
249.3676737
51
256.8944591
0
ARC
8
DEFAULT_255_2_778
10
35.4828094
20
2.4183459
40
0.8211491
50
256.8246098
51
262.1912694
0
ARC
8
DEFAULT_255_2_778
10
35.5316834
20
2.7722804
40
1.1784418
50
262.1750829
51
266.5586633
0
ARC
8
DEFAULT_255_2_778
10
35.5622682
20
3.2672361
40
1.674341
50
266.5306294
51
269.8956568
0
ARC
8
DEFAULT_255_2_778
10
35.5661149
20
3.6077621
40
2.0148759
50
269.8039059
51
269.9985855
0
ARC
8
DEFAULT_255_2_778
10
35.5592739
20
4.1627794
40
2.5699021
50
270.1514112
51
273.7940607
0
ARC
8
DEFAULT_255_2_778
10
35.4604551
20
5.6826399
40
4.0929707
50
273.7665169
51
276.4162024
0
ARC
8
DEFAULT_255_2_778
10
35.1891021
20
8.113321
40
6.5387509
50
276.3988944
51
278.2964484
0
ARC
8
DEFAULT_255_2_778
10
34.6327634
20
11.9631069
40
10.4285258
50
278.2690446
51
279.399166
0
ARC
8
DEFAULT_255_2_778
10
33.0666078
20
21.3540306
40
19.9491466
50
279.4321447
51
280.3660028
0
ARC
8
DEFAULT_255_2_778
10
18.754241
20
99.6992679
40
99.5909697
50
280.3554613
51
280.5498664
0
ARC
8
DEFAULT_255_2_778
10
47.0870028
20
-52.6127868
40
55.333881
50
100.2891517
51
100.5155137
0
ARC
8
DEFAULT_255_2_778
10
40.4143713
20
-15.6587168
40
17.7822708
50
98.7687731
51
100.4027535
0
ARC
8
DEFAULT_255_2_778
10
39.0340446
20
-6.778438
40
8.7953674
50
96.6694752
51
98.7008995
0
ARC
8
DEFAULT_255_2_778
10
38.666177
20
-3.6338806
40
5.6293655
50
94.0727727
51
96.6678039
0
ARC
8
DEFAULT_255_2_778
10
38.5355087
20
-1.7930466
40
3.7838998
50
90.8333288
51
94.0788914
0
ARC
8
DEFAULT_255_2_778
10
38.5186743
20
-1.0140102
40
3.0047059
50
90.0045511
51
90.728405
0
ARC
8
DEFAULT_255_2_778
10
38.5217641
20
-0.5107222
40
2.5014201
50
86.8556677
51
90.0762387
0
ARC
8
DEFAULT_255_2_778
10
38.55759
20
0.1327757
40
1.8569259
50
82.9050625
51
86.8703286
0
ARC
8
DEFAULT_255_2_778
10
38.618857
20
0.6205882
40
1.3652815
50
77.9300154
51
82.9279894
0
ARC
8
DEFAULT_255_2_778
10
38.6972221
20
0.9842946
40
0.9932291
50
71.5100745
51
77.9634385
0
ARC
8
DEFAULT_255_2_778
10
38.7683089
20
1.2008941
40
0.7652673
50
66.3862942
51
71.4146445
0
ARC
8
DEFAULT_255_2_778
10
38.3094713
20
0.2256712
40
1.842868
50
58.7507313
51
65.4605481
0
ARC
8
DEFAULT_255_2_778
10
38.534686
20
0.5951251
40
1.4101824
50
50.247059
51
58.7865478
0
ARC
8
DEFAULT_255_2_778
10
38.732008
20
0.8315182
40
1.1022581
50
39.2983429
51
50.2748476
0
ARC
8
DEFAULT_255_2_778
10
38.8736955
20
0.9478541
40
0.9189297
50
24.8477438
51
39.2803531
0
ARC
8
DEFAULT_255_2_778
10
38.9112011
20
0.9672854
40
0.8767329
50
17.2829796
51
24.7253824
0
ARC
8
DEFAULT_255_2_778
10
38.8716561
20
0.9563723
40
0.9177355
50
5.3057622
51
17.2000661
0
ARC
8
DEFAULT_255_2_778
10
38.7754015
20
0.9461538
40
1.0145233
50
359.9622811
51
5.3777084
0
ARC
8
DEFAULT_255_2_778
10
38.6147035
20
0.9493066
40
1.1752275
50
349.7074577
51
359.8137313
0
ARC
8
DEFAULT_255_2_778
10
38.384849
20
0.9882886
40
1.4083509
50
344.4349709
51
349.8178847
0
ARC
8
DEFAULT_255_2_778
10
38.837596
20
0.8760548
40
0.9421865
50
326.9286089
51
343.6219751
0
ARC
8
DEFAULT_255_2_778
10
38.6948601
20
0.9789101
40
1.1179552
50
307.0790846
51
326.5030621
0
ARC
8
DEFAULT_255_2_778
10
38.464233
20
1.2682669
40
1.4878848
50
299.1470948
51
307.4463471
0
ARC
8
DEFAULT_255_2_778
10
38.2942024
20
1.5726585
40
1.836546
50
291.6813676
51
299.1547381
0
ARC
8
DEFAULT_255_2_778
10
38.2021118
20
1.7961093
40
2.0782129
50
287.4548163
51
291.7647053
0
ARC
8
DEFAULT_255_2_778
10
38.2025384
20
1.7914895
40
2.0736781
50
284.3669851
51
287.4818596
0
ARC
8
DEFAULT_255_2_778
10
38.2679633
20
1.5338078
40
1.8078211
50
282.0636533
51
284.3847366
0
ARC
8
DEFAULT_255_2_778
10
38.374917
20
1.0320512
40
1.2947922
50
280.4044702
51
282.0758009
0
ARC
8
DEFAULT_255_2_778
10
38.5049006
20
0.3199872
40
0.5709622
50
279.1455148
51
280.479688
0
ARC
8
DEFAULT_255_2_778
10
38.4508047
20
0.0169838
40
0.2982368
50
299.0566622
51
301.0038714
0
ARC
8
DEFAULT_255_2_778
10
38.2678292
20
0.3236245
40
0.6553193
50
300.9063778
51
303.6532256
0
ARC
8
DEFAULT_255_2_778
10
38.1571242
20
0.4907566
40
0.8557902
50
303.621946
51
307.746584
0
ARC
8
DEFAULT_255_2_778
10
38.1423131
20
0.5113656
40
0.8811537
50
307.6877596
51
314.0622455
0
ARC
8
DEFAULT_255_2_778
10
38.1794412
20
0.4721381
40
0.8271453
50
314.1038497
51
315.87009
0
ARC
8
DEFAULT_255_2_778
10
38.2688034
20
0.3907759
40
0.7063633
50
315.5599883
51
329.6493526
0
ARC
8
DEFAULT_255_2_778
10
38.4218733
20
0.3021004
40
0.5294654
50
329.5603679
51
352.2600082
0
ARC
8
DEFAULT_255_2_778
10
38.4555113
20
0.2944203
40
0.4951089
50
352.6164247
51
0.0139797
0
ARC
8
DEFAULT_255_2_778
10
38.4314307
20
0.294034
40
0.5191897
50
0.0559589
51
9.1289996
0
ARC
8
DEFAULT_255_2_778
10
38.3774261
20
0.285437
40
0.5738742
50
9.1210031
51
16.0067569
0
ARC
8
DEFAULT_255_2_778
10
38.6547474
20
0.3843704
40
0.2806426
50
12.2012541
51
73.1555326
0
ARC
8
DEFAULT_255_2_778
10
38.5487531
20
0.056611
40
0.6250873
50
72.5624503
51
85.5766995
0
ARC
8
DEFAULT_255_2_778
10
38.478656
20
-0.6656113
40
1.3506392
50
84.9748473
51
90.2681394
0
ARC
8
DEFAULT_255_2_778
10
38.4751257
20
-1.5631117
40
2.2481265
50
90.0711201
51
92.2591415
0
ARC
8
DEFAULT_255_2_778
10
38.5099808
20
-2.4857032
40
3.1713753
50
92.2313218
51
93.6641145
0
ARC
8
DEFAULT_255_2_778
10
38.5836909
20
-3.643195
40
4.3312116
50
93.6586546
51
94.8068201
0
ARC
8
DEFAULT_255_2_778
10
38.9899029
20
-5.7338366
40
6.4526252
50
96.8459279
51
99.9096784
0
ARC
8
DEFAULT_255_2_778
10
39.9805177
20
-11.4445373
40
12.2486062
50
99.8771646
51
101.4750718
0
ARC
8
DEFAULT_255_2_778
10
45.8378965
20
-40.3341775
40
41.7260584
50
101.4653874
51
101.9439
0
ARC
8
DEFAULT_255_2_778
10
20.850928
20
78.3003307
40
79.5113163
50
281.7710812
51
281.8676239
0
ARC
8
DEFAULT_255_2_778
10
34.2600208
20
13.5864115
40
13.4230261
50
279.2997497
51
282.0897691
0
ARC
8
DEFAULT_255_2_778
10
35.556503
20
5.7578841
40
5.4879016
50
274.7457036
51
279.1498715
0
ARC
8
DEFAULT_255_2_778
10
35.7271923
20
3.7710457
40
3.4937575
50
270.1340665
51
274.6517999
0
ARC
8
DEFAULT_255_2_778
10
35.7279098
20
2.7644063
40
2.4871197
50
263.8218963
51
270.1717985
0
ARC
8
DEFAULT_255_2_778
10
35.6516794
20
2.0773189
40
1.7958198
50
254.6607709
51
263.8807208
0
ARC
8
DEFAULT_255_2_778
10
35.559719
20
1.7275114
40
1.4341522
50
247.5673563
51
254.5069064
0
ARC
8
DEFAULT_255_2_778
10
35.4887703
20
1.4562493
40
1.1569651
50
212.5337496
51
245.6884896
0
ARC
8
DEFAULT_255_2_778
10
35.6852851
20
1.6054626
40
1.4030326
50
180.2059297
51
213.3551364
0
ARC
8
DEFAULT_255_2_778
10
35.6143208
20
1.6004622
40
1.3320592
50
177.7919888
51
180.0018188
0
ARC
8
DEFAULT_255_2_778
10
35.1741253
20
1.6284426
40
0.8911804
50
161.6127897
51
178.499218
0
ARC
8
DEFAULT_255_2_778
10
35.2816512
20
1.5829918
40
1.0075957
50
139.1472149
51
161.0889103
0
ARC
8
DEFAULT_255_2_778
10
35.5994859
20
1.3151401
40
1.42322
50
126.7473301
51
139.3605922
0
ARC
8
DEFAULT_255_2_778
10
35.7179741
20
1.1716378
40
1.6091216
50
126.9024825
51
127.070884
0
ARC
8
DEFAULT_255_2_778
10
35.8460032
20
0.9965058
40
1.8260452
50
120.5160419
51
126.8152774
0
ARC
8
DEFAULT_255_2_778
10
35.9364457
20
0.8470216
40
2.0007498
50
116.731195
51
120.5736026
0
ARC
8
DEFAULT_255_2_778
10
35.9143781
20
0.8925406
40
1.9501695
50
113.8679816
51
116.7536865
0
ARC
8
DEFAULT_255_2_778
10
35.7979649
20
1.1565664
40
1.6616188
50
111.7857448
51
113.8809247
0
ARC
8
DEFAULT_255_2_778
10
35.6160094
20
1.6124059
40
1.1708059
50
110.2712757
51
111.7964583
0
ARC
8
DEFAULT_255_2_778
10
35.3878172
20
2.2320081
40
0.5105198
50
109.1137018
51
110.3399767
0
ARC
8
DEFAULT_255_2_778
10
35.1671197
20
5.510877
40
0.0558727
50
16.6470514
51
68.2070275
0
ARC
8
DEFAULT_255_2_778
10
35.095506
20
5.3703089
40
0.2134617
50
64.3634045
51
81.1378292
0
ARC
8
DEFAULT_255_2_778
10
35.0463523
20
5.0939147
40
0.4941651
50
80.4437485
51
90.4447378
0
ARC
8
DEFAULT_255_2_778
10
35.0445166
20
4.8536939
40
0.7343737
50
90.1560461
51
97.6782018
0
ARC
8
DEFAULT_255_2_778
10
35.0501698
20
4.8012764
40
0.7870779
50
97.5762152
51
101.4644886
0
ARC
8
DEFAULT_255_2_778
10
34.9964918
20
5.0024962
40
0.5793409
50
100.2170482
51
124.2084461
0
ARC
8
DEFAULT_255_2_778
10
34.8304266
20
5.2557171
40
0.2766107
50
125.2496757
51
148.0769678
0
ARC
8
DEFAULT_255_2_778
10
34.9517224
20
5.2103052
40
0.4043853
50
151.7058446
51
161.0502406
0
ARC
8
DEFAULT_255_2_778
10
34.8581755
20
5.242143
40
0.3055694
50
161.000364
51
173.6705855
0
ARC
8
DEFAULT_255_2_778
10
34.8160467
20
5.2478105
40
0.2630744
50
173.8858785
51
179.9676581
0
ARC
8
DEFAULT_255_2_778
10
34.8093478
20
5.2492724
40
0.2563788
50
180.2935285
51
214.8430518
0
ARC
8
DEFAULT_255_2_778
10
34.9171848
20
5.3229632
40
0.3869861
50
214.6755848
51
231.9114799
0
ARC
8
DEFAULT_255_2_778
10
35.013211
20
5.4391218
40
0.5376605
50
231.4934786
51
240.1671629
0
ARC
8
DEFAULT_255_2_778
10
35.0195464
20
5.4473922
40
0.5479883
50
240.0227114
51
244.715777
0
ARC
8
DEFAULT_255_2_778
10
34.9398382
20
5.2772617
40
0.3601128
50
244.6215669
51
247.6137071
0
ARC
8
DEFAULT_255_2_778
10
34.8410325
20
5.0382193
40
0.1014557
50
247.794644
51
248.5617947
0
ARC
8
DEFAULT_255_2_778
10
34.7894748
20
5.0496154
40
0.1068177
50
276.1774441
51
277.788678
0
ARC
8
DEFAULT_255_2_778
10
34.7729246
20
5.1988177
40
0.2569349
50
274.3245897
51
276.2663598
0
ARC
8
DEFAULT_255_2_778
10
34.7635182
20
5.3206968
40
0.3791762
50
272.2420854
51
274.3531735
0
ARC
8
DEFAULT_255_2_778
10
34.7597942
20
5.4130631
40
0.4716174
50
269.9690955
51
272.2551538
0
ARC
8
DEFAULT_255_2_778
10
34.7610217
20
5.5254511
40
0.5840072
50
262.2332196
51
269.8546145
0
ARC
8
DEFAULT_255_2_778
10
34.7695895
20
5.5929734
40
0.6520683
50
251.5641033
51
262.2890895
0
ARC
8
DEFAULT_255_2_778
10
34.7783441
20
5.6188193
40
0.6793565
50
237.880641
51
251.5529975
0
ARC
8
DEFAULT_255_2_778
10
34.7991541
20
5.6531614
40
0.7195069
50
232.1114368
51
237.9311494
0
ARC
8
DEFAULT_255_2_778
10
34.8269171
20
5.6886545
40
0.7645683
50
226.1976916
51
232.102936
0
ARC
8
DEFAULT_255_2_778
10
34.8625631
20
5.7262618
40
0.816384
50
222.6751665
51
226.219016
0
ARC
8
DEFAULT_255_2_778
10
34.5374078
20
5.4452188
40
0.3870699
50
218.8819437
51
224.7151474
0
ARC
8
DEFAULT_255_2_778
10
34.6954847
20
5.5738358
40
0.5908593
50
214.1625305
51
218.9685439
0
ARC
8
DEFAULT_255_2_778
10
34.8125963
20
5.6547509
40
0.7332013
50
211.6400589
51
214.2555172
0
ARC
8
DEFAULT_255_2_778
10
34.9383283
20
5.730041
40
0.8797422
50
203.3268579
51
211.5190722
0
ARC
8
DEFAULT_255_2_778
10
34.9930993
20
5.7555336
40
0.9401323
50
192.8137923
51
203.4317379
0
ARC
8
DEFAULT_255_2_778
10
34.9262228
20
5.7412866
40
0.8717623
50
180.1072424
51
192.8755635
0
ARC
8
DEFAULT_255_2_778
10
34.8630398
20
5.7404108
40
0.8085781
50
166.5226997
51
180.0535612
0
ARC
8
DEFAULT_255_2_778
10
34.8751067
20
5.7363324
40
0.821264
50
154.4415269
51
166.4422063
0
ARC
8
DEFAULT_255_2_778
10
34.9307942
20
5.7106486
40
0.8825836
50
149.4198015
51
154.4970237
0
ARC
8
DEFAULT_255_2_778
10
34.9799151
20
5.6817389
40
0.9395803
50
145.398817
51
149.4259646
0
ARC
8
DEFAULT_255_2_778
10
35.016395
20
5.6569466
40
0.9836863
50
143.9827004
51
145.4167767
0
ARC
8
DEFAULT_255_2_778
10
35.1323222
20
5.5882643
40
1.1179112
50
129.46249
51
144.6292987
0
ARC
8
DEFAULT_255_2_778
10
35.1606282
20
5.4681245
40
1.2298629
50
94.4392312
51
126.9224641
0
ARC
8
DEFAULT_255_2_778
10
35.7073845
20
1.8955549
40
4.8414909
50
95.5213708
51
97.6194815
0
LINE
8
DEFAULT_255_2_778
10
50.1166507
20
5.4437832
11
51.6166507
21
7.5479832
0
LINE
8
DEFAULT_255_2_778
10
51.0123507
20
6.5478832
11
50.9080507
21
6.4020832
0
LINE
8
DEFAULT_255_2_778
10
50.9080507
20
6.4020832
11
52.9913507
21
3.3604832
0
LINE
8
DEFAULT_255_2_778
10
52.9913507
20
3.3604832
11
53.4081507
21
3.7147832
0
LINE
8
DEFAULT_255_2_778
10
53.4081507
20
3.7147832
11
53.4705507
21
3.6522832
0
LINE
8
DEFAULT_255_2_778
10
53.4705507
20
3.6522832
11
52.0333507
21
2.4439832
0
LINE
8
DEFAULT_255_2_778
10
52.0333507
20
2.4439832
11
50.1166507
21
5.4437832
0
LINE
8
DEFAULT_255_2_778
10
48.4291507
20
8.9857832
11
49.9918507
21
10.0898832
0
LINE
8
DEFAULT_255_2_778
10
49.9918507
20
10.0898832
11
49.9918507
21
3.7980832
0
LINE
8
DEFAULT_255_2_778
10
49.9918507
20
3.7980832
11
50.4918507
21
3.3604832
0
LINE
8
DEFAULT_255_2_778
10
50.4918507
20
3.3604832
11
50.8252507
21
3.6313832
0
LINE
8
DEFAULT_255_2_778
10
50.8252507
20
3.6313832
11
50.8876507
21
3.5689832
0
LINE
8
DEFAULT_255_2_778
10
50.8876507
20
3.5689832
11
49.5750507
21
2.4648832
0
LINE
8
DEFAULT_255_2_778
10
49.5750507
20
2.4648832
11
48.6792507
21
3.2773832
0
LINE
8
DEFAULT_255_2_778
10
48.6792507
20
3.2773832
11
48.3249507
21
2.9648832
0
LINE
8
DEFAULT_255_2_778
10
48.3249507
20
2.9648832
11
48.2624507
21
3.0273832
0
LINE
8
DEFAULT_255_2_778
10
48.2624507
20
3.0273832
11
48.9707507
21
3.5480832
0
LINE
8
DEFAULT_255_2_778
10
48.9707507
20
3.5480832
11
48.9707507
21
8.2774832
0
LINE
8
DEFAULT_255_2_778
10
48.9707507
20
8.2774832
11
48.9498507
21
8.2774832
0
LINE
8
DEFAULT_255_2_778
10
37.4915507
20
6.5065832
11
37.4915507
21
5.6525832
0
LINE
8
DEFAULT_255_2_778
10
38.3665507
20
5.6731832
11
38.3665507
21
6.5065832
0
LINE
8
DEFAULT_255_2_778
10
38.3249507
20
8.3398832
11
37.8040507
21
8.8814832
0
LINE
8
DEFAULT_255_2_778
10
37.8040507
20
8.8814832
11
37.4915507
21
8.6523832
0
LINE
8
DEFAULT_255_2_778
10
37.4915507
20
8.6523832
11
37.4915507
21
6.6314832
0
LINE
8
DEFAULT_255_2_778
10
38.3249507
20
6.6314832
11
38.3249507
21
8.3398832
0
LINE
8
DEFAULT_255_2_778
10
38.3249507
20
3.3397832
11
38.3249507
21
5.5064832
0
LINE
8
DEFAULT_255_2_778
10
37.4915507
20
5.5064832
11
37.4915507
21
2.6315832
0
LINE
8
DEFAULT_255_2_778
10
36.6586507
20
8.6523832
11
36.6586507
21
2.7981832
0
LINE
8
DEFAULT_255_2_778
10
37.2836507
20
2.6524832
11
37.2836507
21
9.6940832
0
LINE
8
DEFAULT_255_2_778
10
37.2836507
20
9.6940832
11
37.4918507
21
9.6940832
0
LINE
8
DEFAULT_255_2_778
10
37.4918507
20
9.6940832
11
37.4918507
21
8.7357832
0
LINE
8
DEFAULT_255_2_778
10
37.4918507
20
8.7357832
11
38.7626507
21
9.7564832
0
LINE
8
DEFAULT_255_2_778
10
38.7626507
20
9.7564832
11
39.7209507
21
8.9230832
0
LINE
8
DEFAULT_255_2_778
10
39.7209507
20
8.9230832
11
40.1792507
21
9.2979832
0
LINE
8
DEFAULT_255_2_778
10
40.1792507
20
9.2979832
11
40.2207507
21
9.2355832
0
LINE
8
DEFAULT_255_2_778
10
40.2207507
20
9.2355832
11
39.7624507
21
8.8396832
0
LINE
8
DEFAULT_255_2_778
10
39.7624507
20
8.8396832
11
39.7624507
21
3.4022832
0
LINE
8
DEFAULT_255_2_778
10
35.2206507
20
2.7143832
11
35.2206507
21
5.5268832
0
LINE
8
DEFAULT_255_2_778
10
35.2415507
20
6.7145832
11
35.2000507
21
8.3814832
0
ENDSEC
0
EOF