0
SECTION
2
HEADER
9
$MEASUREMENT
70
1
0
ENDSEC
0
SECTION
2
TABLES
0
TABLE
2
LTYPE
0
LTYPE
72
65
70
64
2
CONTINUOUS
3
______
73
0
40
0
0
ENDTAB
0
TABLE
2
LAYER
0
LAYER
2
DEFAULT_255_2_778
70
0
62
255
6
CONTINUOUS
0
ENDTAB
0
ENDSEC
0
SECTION
2
ENTITIES
0
LINE
8
DEFAULT_255_2_778
10
2.0810125
20
-0.1598631
11
5.9439125
21
-0.1598631
0
LINE
8
DEFAULT_255_2_778
10
5.9439125
20
-0.1598631
11
7.8669125
21
3.1548369
0
LINE
8
DEFAULT_255_2_778
10
7.8669125
20
3.1548369
11
6.5744125
21
3.1548369
0
LINE
8
DEFAULT_255_2_778
10
6.5744125
20
3.1548369
11
5.2972125
21
0.9839369
0
LINE
8
DEFAULT_255_2_778
10
5.2972125
20
0.9839369
11
2.7247125
21
0.9839369
0
LINE
8
DEFAULT_255_2_778
10
2.7247125
20
0.9839369
11
1.4404125
21
3.1853369
0
LINE
8
DEFAULT_255_2_778
10
1.4404125
20
3.1853369
11
2.2934125
21
4.7664369
0
LINE
8
DEFAULT_255_2_778
10
2.2934125
20
4.7664369
11
1.0089125
21
4.7664369
0
LINE
8
DEFAULT_255_2_778
10
1.0089125
20
4.7664369
11
0.1503125
21
3.1715369
0
LINE
8
DEFAULT_255_2_778
10
0.1503125
20
3.1715369
11
2.0810125
21
-0.1598631
0
LINE
8
DEFAULT_255_2_778
10
5.9415206
20
6.6642701
11
2.0256206
21
6.6642701
0
LINE
8
DEFAULT_255_2_778
10
2.0256206
20
6.6642701
11
1.4208206
21
5.5334701
0
LINE
8
DEFAULT_255_2_778
10
1.4208206
20
5.5334701
11
3.3967206
21
5.5334701
0
LINE
8
DEFAULT_255_2_778
10
3.3967206
20
5.5334701
11
3.3967206
21
1.7377701
0
LINE
8
DEFAULT_255_2_778
10
3.3967206
20
1.7377701
11
4.5275206
21
1.7377701
0
LINE
8
DEFAULT_255_2_778
10
4.5275206
20
1.7377701
11
4.5275206
21
5.5334701
0
LINE
8
DEFAULT_255_2_778
10
4.5275206
20
5.5334701
11
5.2948206
21
5.5334701
0
LINE
8
DEFAULT_255_2_778
10
5.2948206
20
5.5334701
11
6.1635206
21
3.9215701
0
LINE
8
DEFAULT_255_2_778
10
6.1635206
20
3.9215701
11
7.4462206
21
3.9215701
0
LINE
8
DEFAULT_255_2_778
10
7.4462206
20
3.9215701
11
5.9415206
21
6.6642701
0
ARC
8
DEFAULT_255_2_778
10
9.862295
20
3.2683517
40
0.9348973
50
105.8413041
51
180.9866583
0
ARC
8
DEFAULT_255_2_778
10
9.8638565
20
3.2185295
40
0.9833281
50
89.8263729
51
105.136369
0
ARC
8
DEFAULT_255_2_778
10
9.873911
20
3.2467566
40
0.9551228
50
65.5220665
51
90.4243965
0
ARC
8
DEFAULT_255_2_778
10
9.8673118
20
3.2736173
40
0.9335679
50
358.9956351
51
64.4703432
0
ARC
8
DEFAULT_255_2_778
10
9.8657747
20
3.235797
40
0.9351012
50
285.8565949
51
0.9899742
0
ARC
8
DEFAULT_255_2_778
10
9.8645142
20
3.2850318
40
0.9828833
50
269.8264094
51
285.1430689
0
ARC
8
DEFAULT_255_2_778
10
9.8544478
20
3.2577383
40
0.9556115
50
245.535173
51
270.4250153
0
ARC
8
DEFAULT_255_2_778
10
9.8607437
20
3.2302479
40
0.9333534
50
178.986735
51
244.4844501
0
ARC
8
DEFAULT_255_2_778
10
9.7983608
20
3.2592283
40
0.7873092
50
359.4705496
51
37.6985452
0
ARC
8
DEFAULT_255_2_778
10
9.8694199
20
3.3097853
40
0.7001771
50
37.9808991
51
87.5439995
0
ARC
8
DEFAULT_255_2_778
10
9.8616183
20
3.2446534
40
0.7655998
50
87.1695489
51
90.0061292
0
ARC
8
DEFAULT_255_2_778
10
9.8545483
20
3.3068683
40
0.7034196
50
89.4307927
51
125.6855575
0
ARC
8
DEFAULT_255_2_778
10
9.8879169
20
3.2820417
40
0.7431568
50
126.6586359
51
173.6505904
0
ARC
8
DEFAULT_255_2_778
10
9.9954145
20
3.2576808
40
0.8527782
50
172.8226032
51
180.028731
0
ARC
8
DEFAULT_255_2_778
10
9.9296369
20
3.2447201
40
0.7870338
50
179.4734304
51
217.7102975
0
ARC
8
DEFAULT_255_2_778
10
9.8589772
20
3.1944157
40
0.7003725
50
217.9903985
51
267.5426669
0
ARC
8
DEFAULT_255_2_778
10
9.8667545
20
3.2593666
40
0.7656134
50
267.1695764
51
270.0061265
0
ARC
8
DEFAULT_255_2_778
10
9.8738369
20
3.1969978
40
0.7032794
50
269.4296629
51
305.6892513
0
ARC
8
DEFAULT_255_2_778
10
9.8403631
20
3.2219052
40
0.7431451
50
306.665095
51
353.6550992
0
ARC
8
DEFAULT_255_2_778
10
9.7325539
20
3.2463287
40
0.8530826
50
352.8249619
51
0.0285065
0
ARC
8
DEFAULT_255_2_778
10
11.9375456
20
3.2391664
40
0.9310543
50
72.0651048
51
90.6898152
0
ARC
8
DEFAULT_255_2_778
10
12.076128
20
3.6097386
40
0.5361082
50
6.0622775
51
73.9609338
0
ARC
8
DEFAULT_255_2_778
10
11.9397653
20
3.5886128
40
0.6739716
50
359.9269174
51
6.6239109
0
ARC
8
DEFAULT_255_2_778
10
12.0393854
20
3.5731119
40
0.5744269
50
331.6920682
51
0.9317821
0
ARC
8
DEFAULT_255_2_778
10
12.0157558
20
3.6156633
40
0.615969
50
283.3303386
51
329.2489381
0
ARC
8
DEFAULT_255_2_778
10
11.8976003
20
3.9728006
40
0.9912636
50
269.6726179
51
285.2166397
0
ARC
8
DEFAULT_255_2_778
10
11.9104302
20
3.838974
40
0.6685001
50
269.1177031
51
291.1058361
0
ARC
8
DEFAULT_255_2_778
10
12.0270109
20
3.5712304
40
0.3769401
50
289.2286011
51
0.5050717
0
ARC
8
DEFAULT_255_2_778
10
12.0256607
20
3.5915206
40
0.3784555
50
358.2333524
51
35.5237941
0
ARC
8
DEFAULT_255_2_778
10
12.0138292
20
3.5573042
40
0.4085048
50
38.4667391
51
77.9056171
0
ARC
8
DEFAULT_255_2_778
10
11.9179704
20
3.2141106
40
0.764477
50
76.2697187
51
90.5421854
0
LINE
8
DEFAULT_255_2_778
10
8.9275364
20
3.2469532
11
8.9275364
21
3.2522532
0
LINE
8
DEFAULT_255_2_778
10
10.8007364
20
3.2572532
11
10.8007364
21
3.2519532
0
LINE
8
DEFAULT_255_2_778
10
10.5856364
20
3.2467532
11
10.5856364
21
3.2519532
0
LINE
8
DEFAULT_255_2_778
10
9.1426364
20
3.2572532
11
9.1426364
21
3.2519532
0
LINE
8
DEFAULT_255_2_778
10
11.2389364
20
4.1701532
11
11.9263364
21
4.1701532
0
LINE
8
DEFAULT_255_2_778
10
12.6137364
20
3.5877532
11
12.6137364
21
3.5824532
0
LINE
8
DEFAULT_255_2_778
10
11.8919364
20
2.9815532
11
11.4458364
21
2.9815532
0
LINE
8
DEFAULT_255_2_778
10
11.4458364
20
2.9815532
11
11.4458364
21
2.3336532
0
LINE
8
DEFAULT_255_2_778
10
11.4458364
20
2.3336532
11
11.2386364
21
2.3336532
0
LINE
8
DEFAULT_255_2_778
10
11.2386364
20
2.3336532
11
11.2389364
21
4.1701532
0
LINE
8
DEFAULT_255_2_778
10
12.4039364
20
3.5745532
11
12.4039364
21
3.5798532
0
LINE
8
DEFAULT_255_2_778
10
11.9107364
20
3.9785532
11
11.4463364
21
3.9785532
0
LINE
8
DEFAULT_255_2_778
10
11.4463364
20
3.9785532
11
11.4463364
21
3.1705532
0
LINE
8
DEFAULT_255_2_778
10
11.4463364
20
3.1705532
11
11.9001364
21
3.1705532
0
LINE
8
DEFAULT_255_2_778
10
14.2009364
20
3.1654532
11
13.1987364
21
3.1654532
0
LINE
8
DEFAULT_255_2_778
10
13.1987364
20
3.1654532
11
13.1987364
21
2.5228532
0
LINE
8
DEFAULT_255_2_778
10
13.1987364
20
2.5228532
11
14.3321364
21
2.5228532
0
LINE
8
DEFAULT_255_2_778
10
14.3321364
20
2.5228532
11
14.3321364
21
2.3338532
0
LINE
8
DEFAULT_255_2_778
10
14.3321364
20
2.3338532
11
12.9915364
21
2.3338532
0
LINE
8
DEFAULT_255_2_778
10
12.9915364
20
2.3338532
11
12.9915364
21
4.1703532
0
LINE
8
DEFAULT_255_2_778
10
12.9915364
20
4.1703532
11
14.3189364
21
4.1703532
0
LINE
8
DEFAULT_255_2_778
10
14.3189364
20
4.1703532
11
14.3189364
21
3.9814532
0
LINE
8
DEFAULT_255_2_778
10
14.3189364
20
3.9814532
11
13.1987364
21
3.9814532
0
LINE
8
DEFAULT_255_2_778
10
13.1987364
20
3.9814532
11
13.1987364
21
3.3543532
0
LINE
8
DEFAULT_255_2_778
10
13.1987364
20
3.3543532
11
14.2009364
21
3.3543532
0
LINE
8
DEFAULT_255_2_778
10
14.2009364
20
3.3543532
11
14.2009364
21
3.1654532
0
LINE
8
DEFAULT_255_2_778
10
14.9513364
20
2.3338532
11
14.7491364
21
2.3338532
0
LINE
8
DEFAULT_255_2_778
10
14.7491364
20
2.3338532
11
14.7491364
21
4.1703532
0
LINE
8
DEFAULT_255_2_778
10
14.7491364
20
4.1703532
11
14.9433364
21
4.1703532
0
LINE
8
DEFAULT_255_2_778
10
14.9433364
20
4.1703532
11
16.1004364
21
2.6984532
0
LINE
8
DEFAULT_255_2_778
10
16.1004364
20
2.6984532
11
16.1004364
21
4.1703532
0
LINE
8
DEFAULT_255_2_778
10
16.1004364
20
4.1703532
11
16.3022364
21
4.1703532
0
LINE
8
DEFAULT_255_2_778
10
16.3022364
20
4.1703532
11
16.3022364
21
2.3338532
0
LINE
8
DEFAULT_255_2_778
10
16.3022364
20
2.3338532
11
16.1369364
21
2.3338532
0
LINE
8
DEFAULT_255_2_778
10
16.1369364
20
2.3338532
11
14.9510364
21
3.8399532
0
LINE
8
DEFAULT_255_2_778
10
14.9510364
20
3.8399532
11
14.9513364
21
2.3338532
0
ARC
8
DEFAULT_255_2_778
10
19.5287434
20
3.2615034
40
0.9088656
50
72.3296686
51
90.621003
0
ARC
8
DEFAULT_255_2_778
10
19.6262603
20
3.5594598
40
0.5953719
50
45.8590313
51
72.5677905
0
ARC
8
DEFAULT_255_2_778
10
19.6759909
20
3.6351925
40
0.5066773
50
359.5767679
51
43.9301612
0
ARC
8
DEFAULT_255_2_778
10
19.5931146
20
3.6247209
40
0.5895781
50
359.9994799
51
0.6539333
0
ARC
8
DEFAULT_255_2_778
10
19.6622734
20
3.6094888
40
0.520514
50
330.170843
51
1.0927619
0
ARC
8
DEFAULT_255_2_778
10
19.6394934
20
3.6507426
40
0.5613293
50
284.800558
51
327.6736826
0
ARC
8
DEFAULT_255_2_778
10
19.5312672
20
3.9341413
40
0.863574
50
280.199991
51
286.9400738
0
ARC
8
DEFAULT_255_2_778
10
19.5116789
20
3.8513929
40
0.6177804
50
268.953214
51
293.3539851
0
ARC
8
DEFAULT_255_2_778
10
19.6258804
20
3.6054195
40
0.3467659
50
292.141305
51
1.007301
0
ARC
8
DEFAULT_255_2_778
10
19.642582
20
3.6267881
40
0.3301614
50
358.2691222
51
75.0017309
0
ARC
8
DEFAULT_255_2_778
10
19.5161704
20
3.282157
40
0.6965445
50
72.2929638
51
90.4252858
0
ARC
8
DEFAULT_255_2_778
10
19.5029839
20
3.0166943
40
0.9620213
50
89.5225624
51
89.9994733
0
ARC
8
DEFAULT_255_2_778
10
23.4841497
20
3.2585557
40
0.9738796
50
143.1387045
51
180.3906582
0
ARC
8
DEFAULT_255_2_778
10
23.4232466
20
3.299815
40
0.9004078
50
98.0089586
51
142.9144979
0
ARC
8
DEFAULT_255_2_778
10
23.4380695
20
3.2199827
40
0.9815333
50
89.9519444
51
98.2165072
0
ARC
8
DEFAULT_255_2_778
10
23.4484454
20
3.0874996
40
1.114057
50
77.1026546
51
90.4912968
0
ARC
8
DEFAULT_255_2_778
10
23.4576699
20
3.2265786
40
0.9766769
50
44.4239821
51
75.8089253
0
ARC
8
DEFAULT_255_2_778
10
23.4226693
20
3.1965099
40
0.8150074
50
43.5573675
51
83.4700658
0
ARC
8
DEFAULT_255_2_778
10
23.4370778
20
3.1769282
40
0.8329877
50
84.6079464
51
90.0539958
0
ARC
8
DEFAULT_255_2_778
10
23.435435
20
3.3083446
40
0.7015715
50
89.9299502
51
165.9319547
0
ARC
8
DEFAULT_255_2_778
10
23.5602222
20
3.2588585
40
0.8348317
50
164.7191872
51
180.1333453
0
ARC
8
DEFAULT_255_2_778
10
23.528024
20
3.2447628
40
0.8026605
50
179.5108233
51
212.1637073
0
ARC
8
DEFAULT_255_2_778
10
23.4336548
20
3.183657
40
0.6902465
50
212.0399146
51
270.2189754
0
ARC
8
DEFAULT_255_2_778
10
23.4461701
20
3.2511978
40
0.7578466
50
269.2532179
51
289.3768251
0
ARC
8
DEFAULT_255_2_778
10
23.388781
20
3.3426045
40
0.8634446
50
290.9570955
51
312.5722501
0
ARC
8
DEFAULT_255_2_778
10
22.8548396
20
3.9856178
40
1.6987119
50
311.162126
51
313.7346783
0
ARC
8
DEFAULT_255_2_778
10
23.4409601
20
3.2731313
40
0.9727277
50
280.1955066
51
318.1635584
0
ARC
8
DEFAULT_255_2_778
10
23.4357144
20
3.4126832
40
1.1111765
50
269.7720087
51
279.1879718
0
ARC
8
DEFAULT_255_2_778
10
23.4245752
20
3.2211067
40
0.9196157
50
239.5561012
51
270.4185345
0
ARC
8
DEFAULT_255_2_778
10
23.4351519
20
3.2171849
40
0.9216606
50
188.4947734
51
238.8656962
0
ARC
8
DEFAULT_255_2_778
10
23.5462186
20
3.245308
40
1.0357261
50
179.9553264
51
189.1258686
0
ARC
8
DEFAULT_255_2_778
10
28.2170957
20
3.2722517
40
0.9345352
50
108.1901621
51
181.2775534
0
ARC
8
DEFAULT_255_2_778
10
28.2001314
20
3.2584354
40
0.9425866
50
89.7895985
51
106.9482406
0
ARC
8
DEFAULT_255_2_778
10
28.2147481
20
2.9818534
40
1.2192132
50
78.3418781
51
90.52424
0
ARC
8
DEFAULT_255_2_778
10
28.256123
20
3.2496152
40
0.9487117
50
48.2143667
51
77.5213669
0
ARC
8
DEFAULT_255_2_778
10
28.2215351
20
3.2294459
40
0.7804043
50
46.9374012
51
89.9927887
0
ARC
8
DEFAULT_255_2_778
10
28.2216296
20
3.2293448
40
0.7805053
50
89.9997304
51
91.9116819
0
ARC
8
DEFAULT_255_2_778
10
28.2004564
20
3.3184065
40
0.6910262
50
90.4032657
51
164.4153281
0
ARC
8
DEFAULT_255_2_778
10
28.3296181
20
3.2579086
40
0.8320266
50
162.791815
51
180.1028105
0
ARC
8
DEFAULT_255_2_778
10
28.3593487
20
3.2402685
40
0.8618242
50
179.2788436
51
205.1528874
0
ARC
8
DEFAULT_255_2_778
10
28.1838713
20
3.1609815
40
0.6692922
50
205.3938995
51
261.740255
0
ARC
8
DEFAULT_255_2_778
10
28.2227336
20
3.3357182
40
0.8479044
50
260.8376872
51
270.1188767
0
ARC
8
DEFAULT_255_2_778
10
28.221284
20
3.3535666
40
0.865757
50
270.2123605
51
308.0080337
0
ARC
8
DEFAULT_255_2_778
10
28.2135142
20
3.4167682
40
1.1157833
50
293.6172618
51
311.5712196
0
ARC
8
DEFAULT_255_2_778
10
28.2170036
20
3.4040281
40
1.1027139
50
272.5688038
51
293.7163406
0
ARC
8
DEFAULT_255_2_778
10
28.2168243
20
3.413543
40
1.1122274
50
269.9983751
51
272.5560631
0
ARC
8
DEFAULT_255_2_778
10
28.2078813
20
3.3228145
40
1.0215377
50
249.7640063
51
270.4998325
0
ARC
8
DEFAULT_255_2_778
10
28.173377
20
3.1913087
40
0.8863114
50
184.8935376
51
248.9163703
0
ARC
8
DEFAULT_255_2_778
10
28.4018224
20
3.2450751
40
1.1190298
50
179.9620867
51
186.6388994
0
LINE
8
DEFAULT_255_2_778
10
16.8978928
20
4.1703156
11
18.3408928
21
4.1703156
0
LINE
8
DEFAULT_255_2_778
10
18.3408928
20
4.1703156
11
18.3408928
21
3.9787156
0
LINE
8
DEFAULT_255_2_778
10
18.3408928
20
3.9787156
11
17.7244928
21
3.9787156
0
LINE
8
DEFAULT_255_2_778
10
17.7244928
20
3.9787156
11
17.7244928
21
2.3338156
0
LINE
8
DEFAULT_255_2_778
10
17.7244928
20
2.3338156
11
17.5146928
21
2.3338156
0
LINE
8
DEFAULT_255_2_778
10
17.5146928
20
2.3338156
11
17.5146928
21
3.9787156
0
LINE
8
DEFAULT_255_2_778
10
17.5146928
20
3.9787156
11
16.8981928
21
3.9787156
0
LINE
8
DEFAULT_255_2_778
10
16.8981928
20
3.9787156
11
16.8978928
21
4.1703156
0
LINE
8
DEFAULT_255_2_778
10
18.7290928
20
4.1703156
11
19.5188928
21
4.1703156
0
LINE
8
DEFAULT_255_2_778
10
20.1826928
20
3.6247156
11
20.1826928
21
3.6194156
0
LINE
8
DEFAULT_255_2_778
10
19.6841928
20
3.0842156
11
20.2482928
21
2.3338156
0
LINE
8
DEFAULT_255_2_778
10
20.2482928
20
2.3338156
11
19.9934928
21
2.3338156
0
LINE
8
DEFAULT_255_2_778
10
19.9934928
20
2.3338156
11
19.4608928
21
3.0474156
0
LINE
8
DEFAULT_255_2_778
10
19.4608928
20
3.0474156
11
18.9362928
21
3.0474156
0
LINE
8
DEFAULT_255_2_778
10
18.9362928
20
3.0474156
11
18.9362928
21
2.3338156
0
LINE
8
DEFAULT_255_2_778
10
18.9362928
20
2.3338156
11
18.7290928
21
2.3338156
0
LINE
8
DEFAULT_255_2_778
10
18.7290928
20
2.3338156
11
18.7290928
21
4.1703156
0
LINE
8
DEFAULT_255_2_778
10
18.7290928
20
4.1703156
11
18.7290928
21
4.1703156
0
LINE
8
DEFAULT_255_2_778
10
19.9725928
20
3.6115156
11
19.9725928
21
3.6168156
0
LINE
8
DEFAULT_255_2_778
10
19.5029928
20
3.9787156
11
18.9362928
21
3.9787156
0
LINE
8
DEFAULT_255_2_778
10
18.9362928
20
3.9787156
11
18.9362928
21
3.2337156
0
LINE
8
DEFAULT_255_2_778
10
18.9362928
20
3.2337156
11
19.5003928
21
3.2337156
0
LINE
8
DEFAULT_255_2_778
10
21.3055928
20
4.1835156
11
21.4997928
21
4.1835156
0
LINE
8
DEFAULT_255_2_778
10
21.4997928
20
4.1835156
11
22.3366928
21
2.3338156
0
LINE
8
DEFAULT_255_2_778
10
22.3366928
20
2.3338156
11
22.1135928
21
2.3338156
0
LINE
8
DEFAULT_255_2_778
10
22.1135928
20
2.3338156
11
21.8984928
21
2.8191156
0
LINE
8
DEFAULT_255_2_778
10
21.8984928
20
2.8191156
11
20.8988928
21
2.8191156
0
LINE
8
DEFAULT_255_2_778
10
20.8988928
20
2.8191156
11
20.6808928
21
2.3338156
0
LINE
8
DEFAULT_255_2_778
10
20.6808928
20
2.3338156
11
20.4684928
21
2.3338156
0
LINE
8
DEFAULT_255_2_778
10
20.4684928
20
2.3338156
11
21.3055928
21
4.1835156
0
LINE
8
DEFAULT_255_2_778
10
21.8172928
20
3.0082156
11
21.4000928
21
3.9422156
0
LINE
8
DEFAULT_255_2_778
10
21.4000928
20
3.9422156
11
20.9803928
21
3.0082156
0
LINE
8
DEFAULT_255_2_778
10
20.9803928
20
3.0082156
11
21.8172928
21
3.0082156
0
LINE
8
DEFAULT_255_2_778
10
22.5102928
20
3.2466156
11
22.5102928
21
3.2519156
0
LINE
8
DEFAULT_255_2_778
10
24.1551928
20
3.9102156
11
24.0132928
21
3.7581156
0
LINE
8
DEFAULT_255_2_778
10
22.7253928
20
3.2569156
11
22.7253928
21
3.2516156
0
LINE
8
DEFAULT_255_2_778
10
24.0291928
20
2.7582156
11
24.1656928
21
2.6243156
0
LINE
8
DEFAULT_255_2_778
10
24.5461928
20
4.1698156
11
24.7533928
21
4.1698156
0
LINE
8
DEFAULT_255_2_778
10
24.7533928
20
4.1698156
11
24.7533928
21
2.3333156
0
LINE
8
DEFAULT_255_2_778
10
24.7533928
20
2.3333156
11
24.5461928
21
2.3333156
0
LINE
8
DEFAULT_255_2_778
10
24.5461928
20
2.3333156
11
24.5461928
21
4.1698156
0
LINE
8
DEFAULT_255_2_778
10
25.4931928
20
2.3333156
11
25.2912928
21
2.3333156
0
LINE
8
DEFAULT_255_2_778
10
25.2912928
20
2.3333156
11
25.2912928
21
4.1706156
0
LINE
8
DEFAULT_255_2_778
10
25.2912928
20
4.1706156
11
25.4854928
21
4.1706156
0
LINE
8
DEFAULT_255_2_778
10
25.4854928
20
4.1706156
11
26.6424928
21
2.6987156
0
LINE
8
DEFAULT_255_2_778
10
26.6424928
20
2.6987156
11
26.6424928
21
4.1706156
0
LINE
8
DEFAULT_255_2_778
10
26.6424928
20
4.1706156
11
26.8443928
21
4.1706156
0
LINE
8
DEFAULT_255_2_778
10
26.8443928
20
4.1706156
11
26.8443928
21
2.3341156
0
LINE
8
DEFAULT_255_2_778
10
26.8443928
20
2.3341156
11
26.6789928
21
2.3341156
0
LINE
8
DEFAULT_255_2_778
10
26.6789928
20
2.3341156
11
25.4931928
21
3.8401156
0
LINE
8
DEFAULT_255_2_778
10
25.4931928
20
3.8401156
11
25.4931928
21
2.3333156
0
LINE
8
DEFAULT_255_2_778
10
27.2827928
20
3.2461156
11
27.2827928
21
3.2514156
0
LINE
8
DEFAULT_255_2_778
10
28.8882928
20
3.9570156
11
28.7543928
21
3.7996156
0
LINE
8
DEFAULT_255_2_778
10
27.4975928
20
3.2564156
11
27.4975928
21
3.2511156
0
LINE
8
DEFAULT_255_2_778
10
28.7543928
20
2.6714156
11
28.7543928
21
3.1278156
0
LINE
8
DEFAULT_255_2_778
10
28.7543928
20
3.1278156
11
28.1955928
21
3.1278156
0
LINE
8
DEFAULT_255_2_778
10
28.1955928
20
3.1278156
11
28.1955928
21
3.3141156
0
LINE
8
DEFAULT_255_2_778
10
28.1955928
20
3.3141156
11
28.9538928
21
3.3141156
0
LINE
8
DEFAULT_255_2_778
10
28.9538928
20
3.3141156
11
28.9538928
21
2.5820156
0
ENDSEC
0
EOF