0
SECTION
2
HEADER
9
$MEASUREMENT
70
1
0
ENDSEC
0
SECTION
2
TABLES
0
TABLE
2
LTYPE
0
LTYPE
72
65
70
64
2
CONTINUOUS
3
______
73
0
40
0
0
ENDTAB
0
TABLE
2
LAYER
0
LAYER
2
DEFAULT_255_2_778
70
0
62
255
6
CONTINUOUS
0
ENDTAB
0
ENDSEC
0
SECTION
2
ENTITIES
0
ARC
8
DEFAULT_255_2_778
10
13.7233575
20
5.0172126
40
0.7562157
50
359.1468902
51
11.1893094
0
ARC
8
DEFAULT_255_2_778
10
14.1894137
20
5.1163353
40
0.2798663
50
9.7970984
51
39.9095193
0
ARC
8
DEFAULT_255_2_778
10
14.2357409
20
5.1258197
40
0.2393007
50
45.2920029
51
94.8786512
0
ARC
8
DEFAULT_255_2_778
10
14.1954626
20
5.1214783
40
0.2435913
50
85.307727
51
133.3274989
0
ARC
8
DEFAULT_255_2_778
10
14.2315831
20
5.1205718
40
0.2702558
50
138.7744179
51
170.0856614
0
ARC
8
DEFAULT_255_2_778
10
14.6661362
20
5.0260677
40
0.7148242
50
168.6208226
51
180.8428012
0
ARC
8
DEFAULT_255_2_778
10
14.284666
20
5.2582589
40
0.4842324
50
89.9935219
51
133.4923366
0
ARC
8
DEFAULT_255_2_778
10
14.2847147
20
5.257256
40
0.4852352
50
87.0615445
51
89.99928
0
ARC
8
DEFAULT_255_2_778
10
14.3210571
20
5.1111389
40
0.6308186
50
69.2574027
51
91.0416409
0
ARC
8
DEFAULT_255_2_778
10
14.3555771
20
5.2483838
40
0.4905155
50
14.2281807
51
67.3500957
0
ARC
8
DEFAULT_255_2_778
10
13.8235488
20
5.0705294
40
1.0507625
50
1.8338043
51
16.4990189
0
ARC
8
DEFAULT_255_2_778
10
13.327399
20
5.0356504
40
1.5478906
50
359.9704926
51
2.536524
0
ARC
8
DEFAULT_255_2_778
10
15.8824103
20
4.8278364
40
0.3025026
50
181.9859632
51
227.7683686
0
ARC
8
DEFAULT_255_2_778
10
15.8843211
20
4.8295421
40
0.30505
50
227.7179742
51
269.9543696
0
ARC
8
DEFAULT_255_2_778
10
15.8840759
20
4.8276944
40
0.3032022
50
270.0004204
51
273.1599325
0
ARC
8
DEFAULT_255_2_778
10
15.9191215
20
4.8669314
40
0.3424692
50
266.9315343
51
270.0004039
0
ARC
8
DEFAULT_255_2_778
10
15.9192143
20
4.8659722
40
0.34151
50
269.9848304
51
316.003228
0
ARC
8
DEFAULT_255_2_778
10
15.9206337
20
4.8480384
40
0.7094582
50
269.9879002
51
319.1134718
0
ARC
8
DEFAULT_255_2_778
10
15.920474
20
4.8490707
40
0.7104904
50
269.1786594
51
270.0008007
0
ARC
8
DEFAULT_255_2_778
10
15.8990063
20
4.9030451
40
0.7644751
50
245.1563922
51
270.8456731
0
ARC
8
DEFAULT_255_2_778
10
15.8700808
20
4.8064216
40
0.6647953
50
197.0767805
51
243.9197893
0
ARC
8
DEFAULT_255_2_778
10
16.2078793
20
4.9270166
40
1.0232404
50
179.9153814
51
197.9773628
0
ARC
8
DEFAULT_255_2_778
10
16.4434939
20
4.939815
40
1.2589045
50
179.9982608
51
180.513715
0
ARC
8
DEFAULT_255_2_778
10
16.1632187
20
4.9487492
40
0.9786698
50
159.5450165
51
180.5208155
0
ARC
8
DEFAULT_255_2_778
10
15.9126324
20
5.0486563
40
0.7089947
50
122.9257394
51
160.0327243
0
ARC
8
DEFAULT_255_2_778
10
15.8674221
20
5.0978291
40
0.643244
50
89.5486317
51
121.9262402
0
ARC
8
DEFAULT_255_2_778
10
15.8809739
20
5.1549609
40
0.5861538
50
55.7738576
51
90.8293834
0
ARC
8
DEFAULT_255_2_778
10
15.7935907
20
5.0667349
40
0.7086122
50
16.3401523
51
53.9440119
0
ARC
8
DEFAULT_255_2_778
10
15.4595115
20
4.945981
40
1.0633955
50
359.6698334
51
17.5195005
0
ARC
8
DEFAULT_255_2_778
10
16.8558501
20
4.8266346
40
0.3516835
50
161.2201173
51
179.9990506
0
ARC
8
DEFAULT_255_2_778
10
16.8555841
20
4.8266351
40
0.3514174
50
179.9991197
51
181.5134996
0
ARC
8
DEFAULT_255_2_778
10
15.8607843
20
5.1285738
40
0.2640776
50
93.1464699
51
172.676632
0
ARC
8
DEFAULT_255_2_778
10
15.9950866
20
5.0752818
40
0.4056547
50
167.6223653
51
173.8197489
0
ARC
8
DEFAULT_255_2_778
10
15.8505479
20
5.1252039
40
0.2691141
50
358.6690809
51
359.9973726
0
ARC
8
DEFAULT_255_2_778
10
15.8529131
20
5.1252897
40
0.2667489
50
359.9789274
51
45.043636
0
ARC
8
DEFAULT_255_2_778
10
15.8526258
20
5.125577
40
0.2667489
50
44.956364
51
90.0210726
0
ARC
8
DEFAULT_255_2_778
10
15.8525401
20
5.1232117
40
0.2691142
50
90.0026274
51
91.3309191
0
ARC
8
DEFAULT_255_2_778
10
10.0864503
20
2.3917911
40
1.6442691
50
254.1383977
51
270.3533076
0
ARC
8
DEFAULT_255_2_778
10
10.0372281
20
2.1730446
40
1.4204528
50
204.7628647
51
253.6366649
0
ARC
8
DEFAULT_255_2_778
10
10.5791698
20
2.4631612
40
2.0344083
50
190.9582496
51
205.7892047
0
ARC
8
DEFAULT_255_2_778
10
11.2200257
20
2.5922696
40
2.6881259
50
179.9283865
51
191.0633652
0
ARC
8
DEFAULT_255_2_778
10
11.5981966
20
2.6044201
40
3.0663073
50
180.0012486
51
180.1642576
0
ARC
8
DEFAULT_255_2_778
10
11.237121
20
2.6152965
40
2.7052538
50
169.3930572
51
180.2317725
0
ARC
8
DEFAULT_255_2_778
10
10.586721
20
2.7407678
40
2.0428748
50
155.0506826
51
169.4942493
0
ARC
8
DEFAULT_255_2_778
10
10.1023667
20
2.9747006
40
1.5050633
50
129.2685069
51
155.3473857
0
ARC
8
DEFAULT_255_2_778
10
10.0193308
20
3.049381
40
1.3947925
50
101.4035214
51
128.5694989
0
ARC
8
DEFAULT_255_2_778
10
10.0902867
20
2.7326872
40
1.7192776
50
89.7899589
51
101.6347739
0
ARC
8
DEFAULT_255_2_778
10
10.1068266
20
2.8010073
40
1.6509777
50
74.1763472
51
90.3552742
0
ARC
8
DEFAULT_255_2_778
10
10.1588305
20
3.0272883
40
1.4191392
50
24.8591075
51
73.7052431
0
ARC
8
DEFAULT_255_2_778
10
9.6246969
20
2.7413928
40
2.0242696
50
10.8016933
51
25.8459086
0
ARC
8
DEFAULT_255_2_778
10
8.9913412
20
2.61514
40
2.6700698
50
359.7685322
51
10.9158192
0
ARC
8
DEFAULT_255_2_778
10
8.9890668
20
2.5933588
40
2.6723452
50
348.8227603
51
0.235725
0
ARC
8
DEFAULT_255_2_778
10
9.618827
20
2.4650741
40
2.0296662
50
333.8205363
51
348.9293453
0
ARC
8
DEFAULT_255_2_778
10
10.1019142
20
2.2161974
40
1.4863705
50
304.5424498
51
334.2143271
0
ARC
8
DEFAULT_255_2_778
10
10.1576046
20
2.1688497
40
1.4159204
50
279.5587122
51
303.772547
0
ARC
8
DEFAULT_255_2_778
10
10.1009179
20
2.4604134
40
1.7128656
50
269.8552109
51
279.8090274
0
ARC
8
DEFAULT_255_2_778
10
10.0862127
20
2.9245273
40
0.8112924
50
89.2671477
51
110.2975865
0
ARC
8
DEFAULT_255_2_778
10
10.0841415
20
3.0000225
40
0.740164
50
112.1748318
51
159.7649354
0
ARC
8
DEFAULT_255_2_778
10
10.7266783
20
2.7141718
40
1.4426449
50
157.9387861
51
173.0998086
0
ARC
8
DEFAULT_255_2_778
10
11.4869813
20
2.6051504
40
2.2106033
50
172.6620698
51
180.1839493
0
ARC
8
DEFAULT_255_2_778
10
11.2823018
20
2.582884
40
2.0059698
50
179.5667215
51
191.6789328
0
ARC
8
DEFAULT_255_2_778
10
10.4847269
20
2.4118168
40
1.1902936
50
191.3865186
51
209.6535778
0
ARC
8
DEFAULT_255_2_778
10
10.0604765
20
2.1600227
40
0.6970868
50
208.9206077
51
263.7046157
0
ARC
8
DEFAULT_255_2_778
10
10.0949782
20
2.3703758
40
0.910024
50
262.9977047
51
270.1014445
0
ARC
8
DEFAULT_255_2_778
10
10.1070358
20
2.2558443
40
0.7955596
50
269.2476355
51
291.287046
0
ARC
8
DEFAULT_255_2_778
10
10.1015142
20
2.2011693
40
0.7470378
50
293.2043873
51
339.0284238
0
ARC
8
DEFAULT_255_2_778
10
9.4820064
20
2.4831838
40
1.4270493
50
337.3576088
51
352.8459478
0
ARC
8
DEFAULT_255_2_778
10
8.7548352
20
2.5911255
40
2.1620655
50
352.4075942
51
0.1835899
0
ARC
8
DEFAULT_255_2_778
10
8.8770295
20
2.6139054
40
2.0399215
50
359.5547538
51
11.4611337
0
ARC
8
DEFAULT_255_2_778
10
9.711173
20
2.789413
40
1.1875537
50
11.1590585
51
29.4424384
0
ARC
8
DEFAULT_255_2_778
10
10.1377491
20
3.0392609
40
0.6933024
50
28.789795
51
82.8937574
0
ARC
8
DEFAULT_255_2_778
10
10.0986876
20
2.8168188
40
0.918937
50
82.1927239
51
90.1308212
0
ARC
8
DEFAULT_255_2_778
10
13.4120089
20
2.2290825
40
0.61883
50
45.2219631
51
88.0478399
0
ARC
8
DEFAULT_255_2_778
10
13.4109873
20
2.3310134
40
0.5170125
50
87.5498747
51
114.8880592
0
ARC
8
DEFAULT_255_2_778
10
13.3481943
20
2.5086472
40
0.3299294
50
117.9798815
51
158.471692
0
ARC
8
DEFAULT_255_2_778
10
13.6677539
20
2.3708451
40
0.6778511
50
157.5484069
51
173.019138
0
ARC
8
DEFAULT_255_2_778
10
14.3530703
20
2.2748044
40
1.3698127
50
172.51566
51
180.3911391
0
ARC
8
DEFAULT_255_2_778
10
13.521337
20
2.8296689
40
0.7303241
50
90.012983
51
137.3951525
0
ARC
8
DEFAULT_255_2_778
10
13.5211822
20
2.8301776
40
0.7298155
50
88.5311893
51
90.0008373
0
ARC
8
DEFAULT_255_2_778
10
13.5535675
20
2.8380176
40
0.7218652
50
90.0004958
51
91.0857242
0
ARC
8
DEFAULT_255_2_778
10
13.5536039
20
2.8400602
40
0.7198226
50
47.5452796
51
90.0033891
0
ARC
8
DEFAULT_255_2_778
10
15.5097038
20
1.9566218
40
1.211787
50
209.8003468
51
270.3161104
0
ARC
8
DEFAULT_255_2_778
10
15.7246344
20
2.0929933
40
1.4661148
50
190.1374766
51
210.2506336
0
ARC
8
DEFAULT_255_2_778
10
15.9835935
20
2.1456364
40
1.730308
50
179.8802338
51
190.3441564
0
ARC
8
DEFAULT_255_2_778
10
15.9361143
20
2.1581831
40
1.6828486
50
164.0534004
51
180.304036
0
ARC
8
DEFAULT_255_2_778
10
15.6202026
20
2.2517725
40
1.3533847
50
139.7961066
51
164.1886154
0
ARC
8
DEFAULT_255_2_778
10
15.5121902
20
2.3322519
40
1.2189677
50
96.2900904
51
139.408006
0
ARC
8
DEFAULT_255_2_778
10
15.5433835
20
2.1600597
40
1.3935938
50
89.9586455
51
96.7892049
0
ARC
8
DEFAULT_255_2_778
10
15.5528024
20
2.2421574
40
1.3115228
50
74.9320363
51
90.3675348
0
ARC
8
DEFAULT_255_2_778
10
15.582568
20
2.3881729
40
1.1628261
50
44.1065992
51
74.4779055
0
ARC
8
DEFAULT_255_2_778
10
15.2822442
20
2.0831711
40
1.5907836
50
33.4468842
51
44.4661003
0
ARC
8
DEFAULT_255_2_778
10
15.1492143
20
1.8286416
40
1.1896237
50
33.7205873
51
50.5377603
0
ARC
8
DEFAULT_255_2_778
10
15.537921
20
2.2836045
40
0.5914236
50
51.597466
51
88.3941492
0
ARC
8
DEFAULT_255_2_778
10
15.5260335
20
2.1484576
40
0.7268957
50
87.7560296
51
90.011359
0
ARC
8
DEFAULT_255_2_778
10
15.5185399
20
2.3691079
40
0.5062987
50
89.1682529
51
157.9444627
0
ARC
8
DEFAULT_255_2_778
10
15.8651869
20
2.1969503
40
0.8927083
50
156.0577261
51
174.7427884
0
ARC
8
DEFAULT_255_2_778
10
16.2106561
20
2.1514533
40
1.2409681
50
174.1124918
51
180.0877277
0
ARC
8
DEFAULT_255_2_778
10
16.0503059
20
2.1389168
40
1.0806688
50
179.4360562
51
194.7749135
0
ARC
8
DEFAULT_255_2_778
10
15.642997
20
2.0261355
40
0.6580861
50
194.3239774
51
219.931235
0
ARC
8
DEFAULT_255_2_778
10
15.5128264
20
1.9286665
40
0.4957853
50
220.9496166
51
271.5098128
0
ARC
8
DEFAULT_255_2_778
10
15.5359812
20
2.1426591
40
0.7096776
50
269.1852148
51
291.9541778
0
ARC
8
DEFAULT_255_2_778
10
15.456359
20
2.2717653
40
0.8595701
50
293.6594924
51
315.9420129
0
ARC
8
DEFAULT_255_2_778
10
15.0213245
20
2.7493125
40
1.5048308
50
314.3934908
51
315.3240328
0
ARC
8
DEFAULT_255_2_778
10
14.7285654
20
3.0340571
40
1.9132161
50
315.4245819
51
318.5341822
0
ARC
8
DEFAULT_255_2_778
10
14.3924322
20
3.3368809
40
2.3656235
50
318.4289961
51
318.6028147
0
ARC
8
DEFAULT_255_2_778
10
15.3349406
20
2.2379268
40
1.5602812
50
299.0096963
51
325.2402423
0
ARC
8
DEFAULT_255_2_778
10
15.5709087
20
1.9032376
40
1.1539896
50
278.2857895
51
296.821929
0
ARC
8
DEFAULT_255_2_778
10
15.5188664
20
2.2293343
40
1.4841891
50
269.811726
51
278.4597017
0
ARC
8
DEFAULT_255_2_778
10
17.238697
20
2.2746013
40
1.538938
50
359.5588836
51
7.7165168
0
ARC
8
DEFAULT_255_2_778
10
18.03185
20
2.3873255
40
0.7378502
50
7.3123117
51
22.2090942
0
ARC
8
DEFAULT_255_2_778
10
18.387196
20
2.539552
40
0.3513897
50
21.130184
51
87.5517606
0
ARC
8
DEFAULT_255_2_778
10
18.3298119
20
2.1909478
40
0.7034084
50
84.0926925
51
90.1647437
0
ARC
8
DEFAULT_255_2_778
10
18.3089689
20
2.3773765
40
0.5173192
50
87.9150752
51
114.745905
0
ARC
8
DEFAULT_255_2_778
10
18.2545822
20
2.5346854
40
0.3520744
50
117.4249219
51
158.6813826
0
ARC
8
DEFAULT_255_2_778
10
18.5926411
20
2.3892044
40
0.7200018
50
157.6767806
51
173.0200759
0
ARC
8
DEFAULT_255_2_778
10
19.2947308
20
2.2910072
40
1.4288728
50
172.5328575
51
180.3790944
0
ARC
8
DEFAULT_255_2_778
10
18.4598251
20
2.6904969
40
0.864779
50
90.0095819
51
133.3778327
0
ARC
8
DEFAULT_255_2_778
10
18.4596832
20
2.6906789
40
0.864597
50
87.5004662
51
90.0001827
0
ARC
8
DEFAULT_255_2_778
10
18.5089426
20
2.3558096
40
1.1986993
50
75.331345
51
90.552231
0
ARC
8
DEFAULT_255_2_778
10
18.6035271
20
2.7134802
40
0.8287356
50
21.7873844
51
75.3955873
0
ARC
8
DEFAULT_255_2_778
10
18.0714512
20
2.4681539
40
1.414185
50
8.6027722
51
23.0156912
0
ARC
8
DEFAULT_255_2_778
10
17.2315636
20
2.3323011
40
2.2649611
50
359.6800519
51
8.8226327
0
ARC
8
DEFAULT_255_2_778
10
21.0260245
20
1.6238535
40
0.8784131
50
269.998824
51
312.9454939
0
ARC
8
DEFAULT_255_2_778
10
21.0260452
20
1.6428868
40
0.8974462
50
269.6963741
51
269.997531
0
ARC
8
DEFAULT_255_2_778
10
21.0212932
20
1.9483365
40
1.2028833
50
268.6783647
51
269.999819
0
ARC
8
DEFAULT_255_2_778
10
20.9782856
20
1.736752
40
0.9910965
50
210.4375984
51
270.8824125
0
ARC
8
DEFAULT_255_2_778
10
20.9509782
20
1.6725762
40
0.9359615
50
186.5582181
51
207.8964661
0
ARC
8
DEFAULT_255_2_778
10
21.1685151
20
1.7052112
40
1.155827
50
179.9136458
51
186.9337742
0
ARC
8
DEFAULT_255_2_778
10
20.9211669
20
1.7167868
40
0.9085307
50
159.6632025
51
180.6201595
0
ARC
8
DEFAULT_255_2_778
10
20.8484527
20
1.7181865
40
0.8402044
50
108.0948146
51
158.0291887
0
ARC
8
DEFAULT_255_2_778
10
21.0735572
20
1.1632081
40
1.4382527
50
92.361278
51
109.7522955
0
ARC
8
DEFAULT_255_2_778
10
21.105687
20
0.7967428
40
1.8058105
50
89.984059
51
92.9007984
0
ARC
8
DEFAULT_255_2_778
10
21.1347445
20
1.4888169
40
1.1141023
50
89.9997207
51
91.4686853
0
ARC
8
DEFAULT_255_2_778
10
21.1349511
20
1.4919136
40
1.1110058
50
63.8561608
51
90.0103766
0
ARC
8
DEFAULT_255_2_778
10
21.3047371
20
2.6319946
40
0.3199227
50
358.1296949
51
77.2194097
0
ARC
8
DEFAULT_255_2_778
10
21.2428277
20
2.4372391
40
0.523834
50
75.327696
51
90.4963986
0
ARC
8
DEFAULT_255_2_778
10
21.1726451
20
1.6317063
40
1.3309668
50
87.1729835
51
89.9999054
0
ARC
8
DEFAULT_255_2_778
10
21.1727713
20
1.63003
40
1.3326429
50
90.0053303
51
120.1868681
0
ARC
8
DEFAULT_255_2_778
10
21.1867205
20
1.7369283
40
1.8092535
50
90.0022742
51
121.9467197
0
ARC
8
DEFAULT_255_2_778
10
21.1866449
20
1.7366995
40
1.8094823
50
88.3740012
51
89.9998815
0
ARC
8
DEFAULT_255_2_778
10
21.2498809
20
1.9935885
40
1.5519103
50
75.9700585
51
90.439034
0
ARC
8
DEFAULT_255_2_778
10
21.3802968
20
2.4922577
40
1.0365155
50
53.0405094
51
76.2814733
0
ARC
8
DEFAULT_255_2_778
10
21.4993482
20
2.6667524
40
0.825562
50
10.2465557
51
52.3613426
0
ARC
8
DEFAULT_255_2_778
10
21.2399782
20
2.6068881
40
1.0915191
50
359.782955
51
10.9169812
0
ARC
8
DEFAULT_255_2_778
10
21.2008854
20
1.2163806
40
0.8323301
50
59.4069196
51
90.0059531
0
ARC
8
DEFAULT_255_2_778
10
21.2008068
20
1.2149469
40
0.8337638
50
90.0005409
51
94.5759035
0
ARC
8
DEFAULT_255_2_778
10
21.1226524
20
1.4458568
40
0.6003092
50
88.8892501
51
108.7173277
0
ARC
8
DEFAULT_255_2_778
10
21.0225347
20
1.7251447
40
0.3037087
50
107.7363744
51
183.4906315
0
ARC
8
DEFAULT_255_2_778
10
21.0405519
20
1.6833013
40
0.3220104
50
175.8412931
51
246.84438
0
ARC
8
DEFAULT_255_2_778
10
21.1080668
20
1.8654898
40
0.5161592
50
247.9063146
51
267.4943211
0
ARC
8
DEFAULT_255_2_778
10
21.1336112
20
2.1358835
40
0.7875304
50
266.4976329
51
270.0493438
0
ARC
8
DEFAULT_255_2_778
10
21.1578874
20
1.9154164
40
0.5675539
50
267.6170415
51
269.9998422
0
ARC
8
DEFAULT_255_2_778
10
21.1578241
20
1.9141609
40
0.5662985
50
270.0062465
51
325.4935358
0
ARC
8
DEFAULT_255_2_778
10
24.1426391
20
2.2379683
40
0.6101893
50
44.8562305
51
87.4497909
0
ARC
8
DEFAULT_255_2_778
10
24.1461086
20
2.3313809
40
0.5167153
50
87.3732392
51
116.8442239
0
ARC
8
DEFAULT_255_2_778
10
24.086148
20
2.4940338
40
0.3450912
50
120.1583056
51
158.5162173
0
ARC
8
DEFAULT_255_2_778
10
24.3938588
20
2.3620593
40
0.679832
50
157.6641417
51
172.9127155
0
ARC
8
DEFAULT_255_2_778
10
25.0172351
20
2.2738434
40
1.3093726
50
172.4476095
51
180.3671411
0
ARC
8
DEFAULT_255_2_778
10
24.245363
20
2.8298374
40
0.7301556
50
90.0072
51
137.400955
0
ARC
8
DEFAULT_255_2_778
10
24.2452821
20
2.8301754
40
0.7298177
50
88.5311878
51
90.0008515
0
ARC
8
DEFAULT_255_2_778
10
24.284849
20
2.8585513
40
0.7015122
50
89.9995557
51
91.7039537
0
ARC
8
DEFAULT_255_2_778
10
24.2847706
20
2.858793
40
0.7012706
50
46.9381463
51
89.9931468
0
ARC
8
DEFAULT_255_2_778
10
26.0430838
20
1.5465865
40
0.8017659
50
269.9891025
51
314.1344837
0
ARC
8
DEFAULT_255_2_778
10
26.0429553
20
1.5545624
40
0.8097417
50
269.4858679
51
269.9983002
0
ARC
8
DEFAULT_255_2_778
10
26.0128367
20
1.6632571
40
0.9186881
50
217.0717112
51
271.4253982
0
ARC
8
DEFAULT_255_2_778
10
26.2427243
20
1.8347476
40
1.2054893
50
200.8502609
51
216.9885217
0
ARC
8
DEFAULT_255_2_778
10
26.7300202
20
2.0244944
40
1.7284144
50
189.8576143
51
200.978856
0
ARC
8
DEFAULT_255_2_778
10
27.4607366
20
2.1554874
40
2.4707719
50
181.7853346
51
189.9494499
0
ARC
8
DEFAULT_255_2_778
10
28.0709261
20
2.1859916
40
3.0816369
50
179.9839802
51
181.9987598
0
ARC
8
DEFAULT_255_2_778
10
27.1668262
20
2.1985398
40
2.1775682
50
168.6554682
51
180.3074961
0
ARC
8
DEFAULT_255_2_778
10
26.5159622
20
2.333242
40
1.512929
50
153.0580416
51
168.8084679
0
ARC
8
DEFAULT_255_2_778
10
26.0119501
20
2.6167716
40
0.9354736
50
99.8633384
51
154.5523716
0
ARC
8
DEFAULT_255_2_778
10
26.0330158
20
2.4673822
40
1.0862743
50
89.8589783
51
99.6082677
0
ARC
8
DEFAULT_255_2_778
10
26.043531
20
2.6948614
40
0.8588276
50
90.0015771
51
90.523154
0
ARC
8
DEFAULT_255_2_778
10
26.0432877
20
2.6991908
40
0.8544983
50
49.2217079
51
89.9852709
0
ARC
8
DEFAULT_255_2_778
10
26.14138
20
2.3192366
40
0.5662029
50
35.6643674
51
89.9862426
0
ARC
8
DEFAULT_255_2_778
10
26.1415177
20
2.3184867
40
0.5669529
50
90.0001824
51
92.1154788
0
ARC
8
DEFAULT_255_2_778
10
26.113517
20
2.5223823
40
0.3627399
50
88.8828242
51
159.9560941
0
ARC
8
DEFAULT_255_2_778
10
26.5388791
20
2.3175621
40
0.8338426
50
156.7506377
51
171.8377187
0
ARC
8
DEFAULT_255_2_778
10
27.2373607
20
2.207499
40
1.5409061
50
171.4740774
51
180.3846896
0
ARC
8
DEFAULT_255_2_778
10
27.5960328
20
2.1865365
40
1.8995731
50
179.6797712
51
187.3244964
0
ARC
8
DEFAULT_255_2_778
10
26.7812724
20
2.0779053
40
1.0776188
50
187.118623
51
198.8314908
0
ARC
8
DEFAULT_255_2_778
10
26.3021504
20
1.9092525
40
0.5697261
50
198.3315378
51
219.5092846
0
ARC
8
DEFAULT_255_2_778
10
26.1472929
20
1.7875198
40
0.3728318
50
220.2164274
51
271.7055267
0
ARC
8
DEFAULT_255_2_778
10
26.1736017
20
1.914331
40
0.4997094
50
268.2555178
51
269.9997715
0
ARC
8
DEFAULT_255_2_778
10
26.1728545
20
1.9164959
40
0.5018747
50
270.0850724
51
326.7133863
0
LINE
8
DEFAULT_255_2_778
10
12.6696894
20
5.8259533
11
12.6696894
21
4.1762533
0
LINE
8
DEFAULT_255_2_778
10
12.6696894
20
4.1762533
11
12.2548894
21
4.1762533
0
LINE
8
DEFAULT_255_2_778
10
12.2548894
20
4.1762533
11
12.2548894
21
5.8259533
0
LINE
8
DEFAULT_255_2_778
10
12.2548894
20
5.8259533
11
11.6727894
21
5.8259533
0
LINE
8
DEFAULT_255_2_778
10
11.6727894
20
5.8259533
11
11.6727894
21
6.2312533
0
LINE
8
DEFAULT_255_2_778
10
11.6727894
20
6.2312533
11
13.2562894
21
6.2312533
0
LINE
8
DEFAULT_255_2_778
10
13.2562894
20
6.2312533
11
13.2562894
21
5.8259533
0
LINE
8
DEFAULT_255_2_778
10
13.2562894
20
5.8259533
11
12.6696894
21
5.8259533
0
LINE
8
DEFAULT_255_2_778
10
14.4794894
20
4.1765533
11
14.4794894
21
5.0059533
0
LINE
8
DEFAULT_255_2_778
10
13.9513894
20
5.0155533
11
13.9513894
21
4.1767533
0
LINE
8
DEFAULT_255_2_778
10
13.9513894
20
4.1767533
11
13.5459894
21
4.1767533
0
LINE
8
DEFAULT_255_2_778
10
13.5459894
20
4.1767533
11
13.5459894
21
6.1090533
0
LINE
8
DEFAULT_255_2_778
10
13.5459894
20
6.1090533
11
13.9513894
21
6.3069533
0
LINE
8
DEFAULT_255_2_778
10
13.9513894
20
6.3069533
11
13.9513894
21
5.6095533
0
LINE
8
DEFAULT_255_2_778
10
14.8752894
20
5.0348533
11
14.8752894
21
4.1675533
0
LINE
8
DEFAULT_255_2_778
10
14.8752894
20
4.1675533
11
14.4794894
21
4.1675533
0
LINE
8
DEFAULT_255_2_778
10
14.4794894
20
4.1675533
11
14.4794894
21
4.1765533
0
LINE
8
DEFAULT_255_2_778
10
16.5061894
20
4.8173533
11
15.5800894
21
4.8173533
0
LINE
8
DEFAULT_255_2_778
10
16.1648894
20
4.6287533
11
16.4569894
21
4.3836533
0
LINE
8
DEFAULT_255_2_778
10
16.5042894
20
4.8173533
11
16.5061894
21
4.8173533
0
LINE
8
DEFAULT_255_2_778
10
15.5917894
20
5.1189533
11
16.1195894
21
5.1189533
0
LINE
8
DEFAULT_255_2_778
10
15.8462894
20
5.3922533
11
15.8462894
21
5.3922533
0
LINE
8
DEFAULT_255_2_778
10
10.0965894
20
0.7475533
11
10.0965894
21
0.7475533
0
LINE
8
DEFAULT_255_2_778
10
10.0965894
20
3.7357533
11
10.0965894
21
3.7357533
0
LINE
8
DEFAULT_255_2_778
10
12.9832894
20
2.2654533
11
12.9832894
21
0.8044533
0
LINE
8
DEFAULT_255_2_778
10
12.9832894
20
0.8044533
11
12.2767894
21
0.8044533
0
LINE
8
DEFAULT_255_2_778
10
12.2767894
20
0.8044533
11
12.2767894
21
3.5031533
0
LINE
8
DEFAULT_255_2_778
10
12.2767894
20
3.5031533
11
12.9837894
21
3.5031533
0
LINE
8
DEFAULT_255_2_778
10
12.9837894
20
3.5031533
11
12.9837894
21
3.3240533
0
LINE
8
DEFAULT_255_2_778
10
14.0394894
20
3.3711533
11
13.8478894
21
2.6683533
0
LINE
8
DEFAULT_255_2_778
10
16.6095894
20
2.9599533
11
16.1386894
21
2.4890533
0
LINE
8
DEFAULT_255_2_778
10
16.1669894
20
1.7725533
11
16.6167894
21
1.3483533
0
LINE
8
DEFAULT_255_2_778
10
15.5139894
20
0.7451533
11
15.5163894
21
0.7448533
0
LINE
8
DEFAULT_255_2_778
10
18.7775894
20
0.8017533
11
18.7775894
21
2.2627533
0
LINE
8
DEFAULT_255_2_778
10
17.8658894
20
2.2815533
11
17.8658894
21
0.8110533
0
LINE
8
DEFAULT_255_2_778
10
17.8658894
20
0.8110533
11
17.1588894
21
0.8110533
0
LINE
8
DEFAULT_255_2_778
10
17.1588894
20
0.8110533
11
17.1588894
21
4.1857533
0
LINE
8
DEFAULT_255_2_778
10
17.1588894
20
4.1857533
11
17.8658894
21
4.5440533
0
LINE
8
DEFAULT_255_2_778
10
17.8658894
20
4.5440533
11
17.8658894
21
3.3190533
0
LINE
8
DEFAULT_255_2_778
10
19.4964894
20
2.3196533
11
19.4964894
21
0.8020533
0
LINE
8
DEFAULT_255_2_778
10
19.4964894
20
0.8020533
11
18.7775894
21
0.8017533
0
LINE
8
DEFAULT_255_2_778
10
21.6244894
20
0.8017533
11
21.6244894
21
0.9808533
0
LINE
8
DEFAULT_255_2_778
10
21.6244894
20
2.4892533
11
21.6244894
21
2.6215533
0
LINE
8
DEFAULT_255_2_778
10
20.5026894
20
2.7819533
11
20.2293894
21
3.2721533
0
LINE
8
DEFAULT_255_2_778
10
22.3314894
20
2.6027533
11
22.3314894
21
0.7930533
0
LINE
8
DEFAULT_255_2_778
10
22.3314894
20
0.7930533
11
21.6244894
21
0.7930533
0
LINE
8
DEFAULT_255_2_778
10
21.6244894
20
0.7930533
11
21.6244894
21
0.8017533
0
LINE
8
DEFAULT_255_2_778
10
21.6244894
20
1.5933533
11
21.6244894
21
1.9328533
0
LINE
8
DEFAULT_255_2_778
10
23.7078894
20
2.2654533
11
23.7078894
21
0.8044533
0
LINE
8
DEFAULT_255_2_778
10
23.7078894
20
0.8044533
11
23.0008894
21
0.8044533
0
LINE
8
DEFAULT_255_2_778
10
23.0008894
20
0.8044533
11
23.0008894
21
3.5031533
0
LINE
8
DEFAULT_255_2_778
10
23.0008894
20
3.5031533
11
23.7078894
21
3.5031533
0
LINE
8
DEFAULT_255_2_778
10
23.7078894
20
3.5031533
11
23.7078894
21
3.3240533
0
LINE
8
DEFAULT_255_2_778
10
24.7635894
20
3.3711533
11
24.5751894
21
2.6683533
0
LINE
8
DEFAULT_255_2_778
10
26.6013894
20
0.8017533
11
26.6013894
21
0.9711533
0
LINE
8
DEFAULT_255_2_778
10
26.6013894
20
3.3462533
11
26.6013894
21
4.1950533
0
LINE
8
DEFAULT_255_2_778
10
26.6013894
20
4.1950533
11
27.3082894
21
4.5532533
0
LINE
8
DEFAULT_255_2_778
10
27.3082894
20
4.5532533
11
27.3082894
21
0.8110533
0
LINE
8
DEFAULT_255_2_778
10
27.3082894
20
0.8110533
11
26.6013894
21
0.8110533
0
LINE
8
DEFAULT_255_2_778
10
26.6013894
20
0.8110533
11
26.6013894
21
0.8017533
0
LINE
8
DEFAULT_255_2_778
10
26.5923894
20
1.6410533
11
26.5923894
21
2.6525533
0
LINE
8
DEFAULT_255_2_778
10
26.5923894
20
2.6525533
11
26.6013894
21
2.6493533
0
ARC
8
DEFAULT_255_2_778
10
3.8363965
20
3.3918991
40
3.6302451
50
343.4517834
51
0.0367431
0
ARC
8
DEFAULT_255_2_778
10
3.8333186
20
3.3990404
40
3.6352346
50
307.6622691
51
343.357707
0
ARC
8
DEFAULT_255_2_778
10
3.8418841
20
3.380453
40
3.6152898
50
282.6711245
51
307.7347965
0
ARC
8
DEFAULT_255_2_778
10
3.8387438
20
3.4072878
40
3.642161
50
269.9826498
51
282.6267219
0
LINE
8
DEFAULT_255_2_778
10
3.8376409
20
-0.2348729
11
3.8367163
21
-0.234873
0
ARC
8
DEFAULT_255_2_778
10
3.8334959
20
3.3917747
40
3.6266491
50
253.4530374
51
270.0508779
0
ARC
8
DEFAULT_255_2_778
10
3.844229
20
3.400871
40
3.6384337
50
198.9403635
51
253.3318136
0
ARC
8
DEFAULT_255_2_778
10
3.8297391
20
3.3902967
40
3.6213
50
181.4571979
51
198.8565299
0
ARC
8
DEFAULT_255_2_778
10
3.9070487
20
3.3951055
40
3.698708
50
180.0136065
51
181.5012112
0
LINE
8
DEFAULT_255_2_778
10
0.2083409
20
3.3942271
11
0.2083408
21
3.3951518
0
ARC
8
DEFAULT_255_2_778
10
3.8348119
20
3.3983928
40
3.6264726
50
163.4517757
51
180.0512054
0
ARC
8
DEFAULT_255_2_778
10
3.8436993
20
3.3876429
40
3.6380621
50
108.9354953
51
163.3293532
0
ARC
8
DEFAULT_255_2_778
10
3.8334219
20
3.4015976
40
3.6215314
50
91.4570643
51
108.85334
0
ARC
8
DEFAULT_255_2_778
10
3.838204
20
3.3255893
40
3.6976379
50
90.0133733
51
91.501191
0
ARC
8
DEFAULT_255_2_778
10
3.8414881
20
3.4400365
40
3.583193
50
90.0000005
51
90.066315
0
ARC
8
DEFAULT_255_2_778
10
3.841465
20
3.3981103
40
3.6251191
50
45.0015746
51
89.9996349
0
ARC
8
DEFAULT_255_2_778
10
3.8415564
20
3.3983473
40
3.624887
50
0.0004262
51
44.9999464
0
ARC
8
DEFAULT_255_2_778
10
3.8832508
20
3.3983743
40
3.5831925
50
359.933685
51
359.9999995
0
LINE
8
DEFAULT_255_2_778
10
7.4664409
20
3.3942271
11
7.4666409
21
3.3942271
0
ARC
8
DEFAULT_255_2_778
10
3.7372424
20
14.3968067
40
4.9331372
50
263.6972841
51
264.9180458
0
ARC
8
DEFAULT_255_2_778
10
3.6636391
20
13.7423581
40
4.2745641
50
261.5811218
51
263.7148711
0
ARC
8
DEFAULT_255_2_778
10
3.5188024
20
12.7894008
40
3.3106723
50
257.7488606
51
261.6460987
0
ARC
8
DEFAULT_255_2_778
10
3.1850538
20
11.3471791
40
1.8305846
50
246.5667258
51
258.3783871
0
ARC
8
DEFAULT_255_2_778
10
2.7681205
20
10.3813104
40
0.7785723
50
230.7016455
51
246.4518335
0
ARC
8
DEFAULT_255_2_778
10
2.5364143
20
10.0941058
40
0.4095717
50
211.7042641
51
230.338528
0
ARC
8
DEFAULT_255_2_778
10
1.7558147
20
9.8925945
40
0.4323657
50
355.1389639
51
358.1798494
0
ARC
8
DEFAULT_255_2_778
10
1.8351489
20
9.883728
40
0.3525716
50
346.8406564
51
355.4821614
0
ARC
8
DEFAULT_255_2_778
10
4.0939277
20
9.686441
40
1.9190367
50
176.504003
51
177.9965994
0
ARC
8
DEFAULT_255_2_778
10
4.0936052
20
9.6864353
40
1.9187147
50
177.9960929
51
180.0000557
0
ARC
8
DEFAULT_255_2_778
10
4.0927799
20
9.6864009
40
1.9178893
50
179.9990267
51
194.3901176
0
ARC
8
DEFAULT_255_2_778
10
4.9930132
20
9.8549198
40
2.8324059
50
193.1662568
51
208.2965081
0
ARC
8
DEFAULT_255_2_778
10
3.6125109
20
9.0824275
40
1.2509425
50
207.1157151
51
212.7885835
0
ARC
8
DEFAULT_255_2_778
10
-38.1340899
20
-17.837478
40
48.4225919
50
32.6620478
51
32.8162653
0
ARC
8
DEFAULT_255_2_778
10
4.2185928
20
9.3785509
40
1.9216139
50
214.3111817
51
236.4967967
0
ARC
8
DEFAULT_255_2_778
10
4.487313
20
9.7812986
40
2.4057769
50
236.4547978
51
247.9091762
0
ARC
8
DEFAULT_255_2_778
10
4.801768
20
10.545634
40
3.2322629
50
247.8396471
51
255.7847216
0
ARC
8
DEFAULT_255_2_778
10
4.9909131
20
11.2404999
40
3.9523201
50
255.6003497
51
257.5606908
0
ARC
8
DEFAULT_255_2_778
10
22.1580893
20
86.7424864
40
81.3813181
50
257.2082172
51
257.3725962
0
ARC
8
DEFAULT_255_2_778
10
2.7814625
20
-0.4758824
40
7.9649486
50
70.9011642
51
78.5153952
0
ARC
8
DEFAULT_255_2_778
10
4.3733559
20
4.2081233
40
3.0180389
50
52.9874979
51
70.3632883
0
ARC
8
DEFAULT_255_2_778
10
4.5212237
20
4.4458133
40
2.7393419
50
41.7074985
51
52.4643062
0
ARC
8
DEFAULT_255_2_778
10
4.3183575
20
4.2593743
40
3.014838
50
38.2867786
51
41.7875782
0
ARC
8
DEFAULT_255_2_778
10
6.2532866
20
6.243557
40
0.4444717
50
346.1105177
51
350.4249775
0
ARC
8
DEFAULT_255_2_778
10
6.0545961
20
6.2773477
40
0.6460151
50
350.401026
51
353.9741882
0
ARC
8
DEFAULT_255_2_778
10
5.8216543
20
6.3025548
40
0.880316
50
353.9342022
51
356.5276746
0
ARC
8
DEFAULT_255_2_778
10
5.5541074
20
6.3187681
40
1.1483537
50
356.5287135
51
359.0348383
0
ARC
8
DEFAULT_255_2_778
10
5.3282954
20
6.3236199
40
1.3742156
50
358.9911655
51
0.0085495
0
ARC
8
DEFAULT_255_2_778
10
4.9071809
20
6.3192235
40
1.7953359
50
0.1468488
51
4.2414003
0
ARC
8
DEFAULT_255_2_778
10
4.1914908
20
6.2677821
40
2.5128712
50
4.2042112
51
7.7478509
0
ARC
8
DEFAULT_255_2_778
10
3.5380339
20
6.1799556
40
3.1722031
50
7.7285197
51
11.1312162
0
ARC
8
DEFAULT_255_2_778
10
3.0379986
20
6.0824842
40
3.6816491
50
11.1172518
51
14.6273201
0
ARC
8
DEFAULT_255_2_778
10
2.7542157
20
6.0093269
40
3.9747088
50
14.6146674
51
18.5089135
0
ARC
8
DEFAULT_255_2_778
10
2.707735
20
5.9948934
40
4.0233673
50
18.4936979
51
22.9281649
0
ARC
8
DEFAULT_255_2_778
10
2.8122559
20
6.0389883
40
3.9099259
50
22.9297437
51
25.7864805
0
ARC
8
DEFAULT_255_2_778
10
3.0797947
20
6.1738749
40
3.6103537
50
25.7060132
51
34.1855465
0
ARC
8
DEFAULT_255_2_778
10
3.5284838
20
6.4836956
40
3.0651104
50
34.107344
51
46.3205812
0
ARC
8
DEFAULT_255_2_778
10
3.8124341
20
6.7760647
40
2.6575642
50
46.394756
51
59.0285864
0
ARC
8
DEFAULT_255_2_778
10
3.8714733
20
6.8668843
40
2.549314
50
59.1158992
51
69.6049764
0
ARC
8
DEFAULT_255_2_778
10
3.835032
20
6.7650756
40
2.6574406
50
69.6334908
51
78.1778454
0
ARC
8
DEFAULT_255_2_778
10
3.8001811
20
6.609737
40
2.8166252
50
78.1313292
51
80.945132
0
LINE
8
DEFAULT_255_2_778
10
4.2429622
20
9.3888616
11
3.3002622
21
9.4830616
0
LINE
8
DEFAULT_255_2_778
10
6.6847622
20
6.1273616
11
6.6847622
21
6.1368616
0
LINE
8
DEFAULT_255_2_778
10
4.2434622
20
9.3912616
11
4.2429622
21
9.3888616
0
ENDSEC
0
EOF