0
SECTION
2
HEADER
9
$MEASUREMENT
70
1
0
ENDSEC
0
SECTION
2
TABLES
0
TABLE
2
LTYPE
0
LTYPE
72
65
70
64
2
CONTINUOUS
3
______
73
0
40
0
0
ENDTAB
0
TABLE
2
LAYER
0
LAYER
2
DEFAULT_255_2_778
70
0
62
255
6
CONTINUOUS
0
ENDTAB
0
ENDSEC
0
SECTION
2
ENTITIES
0
ARC
8
DEFAULT_255_2_778
10
4.7682934
20
4.3802621
40
1.579447
50
270.0758212
51
308.6160536
0
ARC
8
DEFAULT_255_2_778
10
4.7741091
20
4.3843506
40
1.5790278
50
308.3585802
51
349.4274412
0
ARC
8
DEFAULT_255_2_778
10
4.7653938
20
4.3821163
40
1.5871899
50
349.5644522
51
0.0324946
0
ARC
8
DEFAULT_255_2_778
10
4.7730879
20
4.3809482
40
1.5794969
50
0.0750273
51
38.613589
0
ARC
8
DEFAULT_255_2_778
10
4.7691401
20
4.3868375
40
1.5789222
50
38.3571987
51
79.4291017
0
ARC
8
DEFAULT_255_2_778
10
4.7712868
20
4.3777713
40
1.5874453
50
79.5652959
51
90.0326017
0
ARC
8
DEFAULT_255_2_778
10
4.7724518
20
4.3857209
40
1.5794969
50
90.0750273
51
128.613589
0
ARC
8
DEFAULT_255_2_778
10
4.7665625
20
4.3817731
40
1.5789222
50
128.3571987
51
169.4291017
0
ARC
8
DEFAULT_255_2_778
10
4.7756287
20
4.3839198
40
1.5874453
50
169.5652959
51
180.0326017
0
ARC
8
DEFAULT_255_2_778
10
4.777383
20
4.3991371
40
1.5892812
50
180.58118
51
230.7548848
0
ARC
8
DEFAULT_255_2_778
10
4.7798101
20
4.3664628
40
1.5656747
50
229.929613
51
269.6550315
0
LINE
8
DEFAULT_255_2_778
10
4.7703835
20
1.3451165
11
4.7711387
21
1.3451164
0
ARC
8
DEFAULT_255_2_778
10
4.7712615
20
4.350624
40
3.0055076
50
269.9976585
51
314.9974993
0
ARC
8
DEFAULT_255_2_778
10
4.7710884
20
4.3508575
40
3.005795
50
314.9966851
51
0.0015534
0
LINE
8
DEFAULT_255_2_778
10
7.7768835
20
4.350939
11
7.7768835
21
4.3513165
0
ARC
8
DEFAULT_255_2_778
10
4.8209294
20
4.3522338
40
2.9559543
50
359.9822203
51
20.8616476
0
ARC
8
DEFAULT_255_2_778
10
4.7405214
20
4.3186164
40
3.0430639
50
20.9139757
51
79.7303091
0
ARC
8
DEFAULT_255_2_778
10
4.7713153
20
4.3986897
40
2.9588267
50
80.0406244
51
90.012235
0
ARC
8
DEFAULT_255_2_778
10
4.7698261
20
4.401263
40
2.9562536
50
89.983383
51
110.9461889
0
ARC
8
DEFAULT_255_2_778
10
4.803431
20
4.3206306
40
3.043572
50
110.9943584
51
169.4585854
0
ARC
8
DEFAULT_255_2_778
10
4.7224153
20
4.351979
40
2.9582317
50
169.7684366
51
180.0128323
0
ARC
8
DEFAULT_255_2_778
10
4.7243756
20
4.3502311
40
2.9601923
50
179.9789926
51
200.6493289
0
ARC
8
DEFAULT_255_2_778
10
4.7979763
20
4.3810362
40
3.0399294
50
200.7034386
51
259.3176712
0
ARC
8
DEFAULT_255_2_778
10
4.7696138
20
4.3112043
40
2.9660878
50
259.6060109
51
270.0148678
0
ARC
8
DEFAULT_255_2_778
10
4.784367
20
4.3551156
40
4.5708851
50
165.9104167
51
180.047622
0
ARC
8
DEFAULT_255_2_778
10
4.7405851
20
4.3623492
40
4.5266609
50
144.4127801
51
165.8643147
0
ARC
8
DEFAULT_255_2_778
10
4.7806985
20
4.3375596
40
4.5737096
50
107.1205594
51
144.4526668
0
ARC
8
DEFAULT_255_2_778
10
4.7661412
20
4.3635344
40
4.5446047
50
91.3143359
51
107.0415645
0
ARC
8
DEFAULT_255_2_778
10
4.7703394
20
4.2888676
40
4.6193488
50
89.9994527
51
91.3451514
0
ARC
8
DEFAULT_255_2_778
10
4.7724633
20
4.4077212
40
4.5004957
50
74.3696466
51
90.0264784
0
ARC
8
DEFAULT_255_2_778
10
4.7427023
20
4.3322539
40
4.5811982
50
44.9699595
51
74.2654994
0
ARC
8
DEFAULT_255_2_778
10
4.7511736
20
4.323554
40
4.5813695
50
15.7515237
51
45.1218095
0
ARC
8
DEFAULT_255_2_778
10
4.8267318
20
4.3534063
40
4.5005524
50
359.9733946
51
15.6468784
0
ARC
8
DEFAULT_255_2_778
10
4.8263862
20
4.3492222
40
4.5008977
50
344.3703476
51
0.0266604
0
ARC
8
DEFAULT_255_2_778
10
4.7515246
20
4.3787998
40
4.5809674
50
314.9692426
51
344.2663509
0
ARC
8
DEFAULT_255_2_778
10
4.7427674
20
4.3704308
40
4.5812514
50
285.7500386
51
315.1206997
0
ARC
8
DEFAULT_255_2_778
10
4.7724794
20
4.2952986
40
4.5008825
50
269.9733198
51
285.6456216
0
ARC
8
DEFAULT_255_2_778
10
4.7688362
20
4.361411
40
4.5669947
50
255.5827701
51
270.0194123
0
ARC
8
DEFAULT_255_2_778
10
4.7663381
20
4.3362161
40
4.5419729
50
232.2633394
51
255.5341578
0
ARC
8
DEFAULT_255_2_778
10
4.7783395
20
4.3596673
40
4.5678666
50
198.7397097
51
232.3243214
0
ARC
8
DEFAULT_255_2_778
10
4.7561315
20
4.3458593
40
4.5424037
50
182.9311352
51
198.6647695
0
ARC
8
DEFAULT_255_2_778
10
4.8466291
20
4.3529479
40
4.6331461
50
180.020175
51
182.9614544
0
LINE
8
DEFAULT_255_2_778
10
4.7703835
20
2.8008165
11
4.7703835
21
2.8008165
0
LINE
8
DEFAULT_255_2_778
10
4.7703835
20
1.3451165
11
4.7703835
21
1.3451165
0
LINE
8
DEFAULT_255_2_778
10
0.2134835
20
4.3513165
11
0.2134835
21
4.3513165
0
ARC
8
DEFAULT_255_2_778
10
17.9517287
20
5.4855511
40
0.7470905
50
268.8432731
51
287.5655322
0
ARC
8
DEFAULT_255_2_778
10
18.0782201
20
5.1081031
40
0.3491313
50
286.4690585
51
355.7767455
0
ARC
8
DEFAULT_255_2_778
10
17.8434788
20
5.1520335
40
0.58707
50
353.187217
51
0.1443729
0
ARC
8
DEFAULT_255_2_778
10
17.8300767
20
5.1942959
40
0.6018536
50
356.1145231
51
359.9573539
0
ARC
8
DEFAULT_255_2_778
10
18.0201351
20
5.2029562
40
0.4118958
50
358.732906
51
24.9912598
0
ARC
8
DEFAULT_255_2_778
10
18.0650579
20
5.193115
40
0.3763722
50
29.2422331
51
94.5276531
0
ARC
8
DEFAULT_255_2_778
10
18.0817601
20
4.3761209
40
2.0220024
50
82.8539627
51
90.1845574
0
ARC
8
DEFAULT_255_2_778
10
18.1490865
20
4.9023405
40
1.4914956
50
73.2960553
51
82.9055302
0
ARC
8
DEFAULT_255_2_778
10
18.2541721
20
5.249572
40
1.128712
50
60.4592897
51
73.3390886
0
ARC
8
DEFAULT_255_2_778
10
18.3477203
20
5.4165028
40
0.9373584
50
42.6926584
51
60.4032754
0
ARC
8
DEFAULT_255_2_778
10
18.2966836
20
5.3814345
40
0.998688
50
19.3959396
51
42.1860121
0
ARC
8
DEFAULT_255_2_778
10
18.1080479
20
5.3037915
40
1.2024494
50
16.9576542
51
19.9006281
0
ARC
8
DEFAULT_255_2_778
10
17.9413844
20
5.2567278
40
1.3755981
50
7.838404
51
16.8080188
0
ARC
8
DEFAULT_255_2_778
10
17.6963373
20
5.2204031
40
1.6233115
50
2.6409343
51
7.9289698
0
ARC
8
DEFAULT_255_2_778
10
17.5608595
20
5.212989
40
1.7589874
50
359.9910045
51
2.6788451
0
ARC
8
DEFAULT_255_2_778
10
18.2487336
20
5.2106404
40
1.0711154
50
347.4237919
51
0.1108574
0
ARC
8
DEFAULT_255_2_778
10
18.2793055
20
5.2056055
40
1.0401822
50
333.6667152
51
347.3278085
0
ARC
8
DEFAULT_255_2_778
10
18.2085889
20
5.2417202
40
1.1195811
50
321.7311345
51
333.6156553
0
ARC
8
DEFAULT_255_2_778
10
18.1406997
20
5.2930915
40
1.2046998
50
316.9349354
51
321.8127008
0
ARC
8
DEFAULT_255_2_778
10
18.1151406
20
5.3167787
40
1.2395471
50
310.3020132
51
316.9417368
0
ARC
8
DEFAULT_255_2_778
10
18.1608979
20
5.2615649
40
1.1678424
50
305.3264629
51
310.3420776
0
ARC
8
DEFAULT_255_2_778
10
18.309001
20
5.050732
40
0.9101923
50
300.8546566
51
305.3943134
0
ARC
8
DEFAULT_255_2_778
10
18.5439196
20
4.6535231
40
0.4487238
50
295.5765457
51
301.1154559
0
ARC
8
DEFAULT_255_2_778
10
18.6897249
20
4.3493542
40
0.111414
50
289.6262043
51
295.4721657
0
ARC
8
DEFAULT_255_2_778
10
18.6219601
20
3.9608892
40
0.3024069
50
67.1566791
51
69.6452272
0
ARC
8
DEFAULT_255_2_778
10
18.4854022
20
3.6331247
40
0.6574798
50
63.7381955
51
67.2782103
0
ARC
8
DEFAULT_255_2_778
10
18.4005784
20
3.4595907
40
0.8506345
50
58.9077219
51
63.7864076
0
ARC
8
DEFAULT_255_2_778
10
18.3803927
20
3.4246022
40
0.891021
50
51.8939384
51
58.9580656
0
ARC
8
DEFAULT_255_2_778
10
18.4033945
20
3.4542138
40
0.8535257
50
48.0332048
51
51.882229
0
ARC
8
DEFAULT_255_2_778
10
18.4554225
20
3.5092912
40
0.7777849
50
34.8219728
51
48.1698014
0
ARC
8
DEFAULT_255_2_778
10
18.5151252
20
3.5520414
40
0.7043623
50
18.6079074
51
34.7403792
0
ARC
8
DEFAULT_255_2_778
10
18.4805044
20
3.5424382
40
0.74024
50
4.1273583
51
18.4572863
0
ARC
8
DEFAULT_255_2_778
10
18.3893316
20
3.5336003
40
0.8318155
50
359.9733079
51
4.2825413
0
ARC
8
DEFAULT_255_2_778
10
19.8474484
20
2.7590014
40
0.6263124
50
179.6604728
51
192.310634
0
ARC
8
DEFAULT_255_2_778
10
19.7314372
20
2.7349365
40
0.5078392
50
192.4486624
51
207.8442891
0
ARC
8
DEFAULT_255_2_778
10
19.7763891
20
2.7612306
40
0.5598724
50
208.0749666
51
217.705847
0
ARC
8
DEFAULT_255_2_778
10
19.8743872
20
2.8332181
40
0.6814393
50
217.4550591
51
217.7378047
0
ARC
8
DEFAULT_255_2_778
10
19.9026523
20
2.8550935
40
0.7171808
50
217.7377974
51
218.0005538
0
ARC
8
DEFAULT_255_2_778
10
19.8929528
20
2.8474546
40
0.7048347
50
217.9966627
51
218.2581654
0
ARC
8
DEFAULT_255_2_778
10
19.9092901
20
2.8602621
40
0.7255937
50
218.2534814
51
218.5019508
0
ARC
8
DEFAULT_255_2_778
10
19.929731
20
2.8764715
40
0.7516815
50
218.4988958
51
218.7335109
0
ARC
8
DEFAULT_255_2_778
10
19.9831944
20
2.9193665
40
0.8202259
50
218.7341328
51
218.944462
0
ARC
8
DEFAULT_255_2_778
10
19.9518361
20
2.8940807
40
0.779943
50
218.9477386
51
219.1641263
0
ARC
8
DEFAULT_255_2_778
10
19.9980631
20
2.9316292
40
0.8394982
50
219.1585636
51
219.4531271
0
ARC
8
DEFAULT_255_2_778
10
20.015207
20
2.9457036
40
0.8616793
50
219.4513609
51
219.7290492
0
ARC
8
DEFAULT_255_2_778
10
20.0602583
20
2.9830476
40
0.9201959
50
219.7244086
51
219.9760407
0
ARC
8
DEFAULT_255_2_778
10
20.129702
20
3.0413904
40
1.0108948
50
219.9813412
51
220.2030182
0
ARC
8
DEFAULT_255_2_778
10
20.1556855
20
3.0634045
40
1.0449502
50
220.2052823
51
220.412844
0
ARC
8
DEFAULT_255_2_778
10
20.2385496
20
3.1339607
40
1.1537834
50
220.4128908
51
220.6250184
0
ARC
8
DEFAULT_255_2_778
10
17.1277242
20
0.3895085
40
2.994774
50
40.1567249
51
41.7256987
0
ARC
8
DEFAULT_255_2_778
10
19.2755548
20
2.2029163
40
0.1837936
50
27.7921285
51
39.8877144
0
ARC
8
DEFAULT_255_2_778
10
18.6989199
20
2.8303847
40
0.5441739
50
250.233703
51
264.6146281
0
ARC
8
DEFAULT_255_2_778
10
18.6255014
20
2.6300592
40
0.3308253
50
225.7424472
51
250.466761
0
ARC
8
DEFAULT_255_2_778
10
18.6447315
20
2.6314421
40
0.3454738
50
188.1348643
51
223.6178596
0
ARC
8
DEFAULT_255_2_778
10
19.0637619
20
2.709399
40
0.7715261
50
180.1975626
51
189.4626625
0
ARC
8
DEFAULT_255_2_778
10
20.0484523
20
2.7320095
40
1.7563937
50
179.9610472
51
180.8243943
0
ARC
8
DEFAULT_255_2_778
10
22.72727
20
2.7295936
40
4.4352123
50
179.6240645
51
179.9533654
0
ARC
8
DEFAULT_255_2_778
10
14.0495773
20
2.787347
40
4.2426725
50
359.6130512
51
359.9347157
0
ARC
8
DEFAULT_255_2_778
10
17.0668665
20
3.3011987
40
1.2345897
50
7.0025946
51
9.2299177
0
ARC
8
DEFAULT_255_2_778
10
17.9833091
20
3.4791697
40
0.3028271
50
3.7968535
51
58.5075042
0
ARC
8
DEFAULT_255_2_778
10
17.956722
20
3.3891299
40
0.3942474
50
62.0506595
51
82.524462
0
ARC
8
DEFAULT_255_2_778
10
17.9017174
20
3.050222
40
0.7375049
50
81.7130385
51
90.3550728
0
ARC
8
DEFAULT_255_2_778
10
23.9692013
20
3.787422
40
1.6913544
50
179.9901486
51
180.0295542
0
ARC
8
DEFAULT_255_2_778
10
26.185564
20
3.7954356
40
3.9077268
50
180.1302882
51
180.6969551
0
ARC
8
DEFAULT_255_2_778
10
18.4709863
20
3.7013044
40
3.8074252
50
0.0979403
51
0.7012468
0
ARC
8
DEFAULT_255_2_778
10
21.5964
20
3.6875859
40
0.6823057
50
343.0936004
51
1.6987698
0
ARC
8
DEFAULT_255_2_778
10
21.6188861
20
3.6966145
40
0.6635905
50
327.5251506
51
341.7830253
0
ARC
8
DEFAULT_255_2_778
10
21.3223022
20
3.8802284
40
1.0123936
50
320.1946491
51
327.770935
0
ARC
8
DEFAULT_255_2_778
10
21.5492957
20
3.7838703
40
0.7795918
50
311.028861
51
314.9477065
0
ARC
8
DEFAULT_255_2_778
10
21.465255
20
3.8797601
40
0.9070965
50
306.0440586
51
311.0574557
0
ARC
8
DEFAULT_255_2_778
10
21.4476367
20
3.9032427
40
0.9364506
50
303.5273264
51
306.0702622
0
ARC
8
DEFAULT_255_2_778
10
21.4590658
20
3.8845825
40
0.9145827
50
292.6833523
51
303.5761359
0
ARC
8
DEFAULT_255_2_778
10
21.4850786
20
3.8215818
40
0.8464238
50
277.7607096
51
292.7033053
0
ARC
8
DEFAULT_255_2_778
10
21.4877735
20
3.809749
40
0.8343362
50
269.9844449
51
277.6870667
0
ARC
8
DEFAULT_255_2_778
10
21.4769858
20
4.1105928
40
1.1352291
50
256.2723958
51
270.5330348
0
ARC
8
DEFAULT_255_2_778
10
21.4158769
20
3.8420458
40
0.8598626
50
229.0697724
51
255.9815716
0
ARC
8
DEFAULT_255_2_778
10
21.7075551
20
4.1457904
40
1.2806122
50
196.6271681
51
228.1136076
0
ARC
8
DEFAULT_255_2_778
10
22.2285627
20
4.356096
40
1.8407591
50
196.7839981
51
198.2593222
0
ARC
8
DEFAULT_255_2_778
10
22.4416157
20
4.4157752
40
2.061974
50
188.4484278
51
196.6621447
0
ARC
8
DEFAULT_255_2_778
10
22.5355416
20
4.433641
40
2.157509
50
183.2685858
51
188.5512653
0
ARC
8
DEFAULT_255_2_778
10
22.2793917
20
4.4190778
40
1.9009453
50
180.050183
51
183.2705532
0
ARC
8
DEFAULT_255_2_778
10
22.0931999
20
4.4149658
40
1.7147547
50
176.320488
51
179.9182373
0
ARC
8
DEFAULT_255_2_778
10
22.3694724
20
4.3983493
40
1.9915245
50
172.2392647
51
176.3535063
0
ARC
8
DEFAULT_255_2_778
10
22.3644569
20
4.4005183
40
1.9862626
50
166.6793568
51
172.2817229
0
ARC
8
DEFAULT_255_2_778
10
22.1662412
20
4.4479605
40
1.7824491
50
161.1294902
51
166.6953245
0
ARC
8
DEFAULT_255_2_778
10
21.6927387
20
4.6320053
40
1.275044
50
137.1599566
51
162.0735417
0
ARC
8
DEFAULT_255_2_778
10
21.4433796
20
4.8422081
40
0.9493971
50
114.6458033
51
136.2292923
0
ARC
8
DEFAULT_255_2_778
10
21.4743407
20
4.7657555
40
1.0318029
50
100.1152232
51
114.4380859
0
ARC
8
DEFAULT_255_2_778
10
21.5154114
20
4.5504203
40
1.2510069
50
92.3073024
51
100.234915
0
ARC
8
DEFAULT_255_2_778
10
21.4700239
20
5.7137418
40
0.0868138
50
92.5915175
51
93.2865012
0
ARC
8
DEFAULT_255_2_778
10
21.4757989
20
5.5883961
40
0.2122926
50
91.7825678
51
92.6189211
0
ARC
8
DEFAULT_255_2_778
10
21.4793818
20
5.4753342
40
0.3254112
50
90.9037647
51
91.7938749
0
ARC
8
DEFAULT_255_2_778
10
21.4810395
20
5.3739547
40
0.4268043
50
89.9820983
51
90.9116096
0
ARC
8
DEFAULT_255_2_778
10
21.4796416
20
5.1868757
40
0.6138853
50
85.9271801
51
89.8570818
0
ARC
8
DEFAULT_255_2_778
10
21.4683841
20
5.0206994
40
0.7804416
50
80.4777322
51
85.9692872
0
ARC
8
DEFAULT_255_2_778
10
21.4616027
20
4.9762983
40
0.8253531
50
72.8474805
51
80.5233637
0
ARC
8
DEFAULT_255_2_778
10
21.4717559
20
5.0072517
40
0.7927822
50
62.3096943
51
72.8888858
0
ARC
8
DEFAULT_255_2_778
10
21.4852135
20
5.0343634
40
0.7625221
50
58.2101124
51
62.2584343
0
ARC
8
DEFAULT_255_2_778
10
21.4905806
20
5.0430376
40
0.7523216
50
45.2958875
51
58.2095292
0
ARC
8
DEFAULT_255_2_778
10
21.456581
20
5.0102153
40
0.7995676
50
33.044082
51
45.2187508
0
ARC
8
DEFAULT_255_2_778
10
21.346285
20
4.938757
40
0.9309885
50
23.0532416
51
33.0291459
0
ARC
8
DEFAULT_255_2_778
10
21.1519566
20
4.8558132
40
1.1422778
50
14.8682574
51
23.064459
0
ARC
8
DEFAULT_255_2_778
10
20.9469247
20
4.7984429
40
1.355169
50
11.5298892
51
14.9882819
0
ARC
8
DEFAULT_255_2_778
10
22.3658222
20
5.024232
40
0.7991972
50
3.2336346
51
10.0625812
0
ARC
8
DEFAULT_255_2_778
10
21.929725
20
4.9492965
40
1.2416814
50
9.9512043
51
15.481714
0
ARC
8
DEFAULT_255_2_778
10
21.5615662
20
4.8485689
40
1.6233697
50
15.4393542
51
20.9449333
0
ARC
8
DEFAULT_255_2_778
10
21.3424985
20
4.7660355
40
1.857466
50
20.9069822
51
26.7132955
0
ARC
8
DEFAULT_255_2_778
10
21.2884374
20
4.7399232
40
1.9174955
50
26.684115
51
31.4169675
0
ARC
8
DEFAULT_255_2_778
10
21.3546247
20
4.7831366
40
1.8384876
50
31.3428815
51
42.6398601
0
ARC
8
DEFAULT_255_2_778
10
21.4956371
20
4.9143355
40
1.6458829
50
42.6052845
51
56.9838944
0
ARC
8
DEFAULT_255_2_778
10
21.5460495
20
4.986562
40
1.5578539
50
57.0911877
51
70.8227727
0
ARC
8
DEFAULT_255_2_778
10
21.5172849
20
4.8979681
40
1.6509816
50
70.8898917
51
82.3794291
0
ARC
8
DEFAULT_255_2_778
10
21.4873102
20
4.6817116
40
1.8693034
50
82.3478052
51
90.0877612
0
ARC
8
DEFAULT_255_2_778
10
21.4832605
20
4.4207432
40
2.13027
50
89.968088
51
97.9143362
0
ARC
8
DEFAULT_255_2_778
10
21.463625
20
4.5575265
40
1.9920858
50
97.8966641
51
107.7372182
0
ARC
8
DEFAULT_255_2_778
10
21.4376726
20
4.6432816
40
1.9025015
50
107.7795846
51
114.412036
0
ARC
8
DEFAULT_255_2_778
10
21.4313514
20
4.6583898
40
1.8861316
50
114.4268616
51
123.23433
0
ARC
8
DEFAULT_255_2_778
10
21.4694548
20
4.6016138
40
1.9545044
50
123.2564378
51
131.342484
0
ARC
8
DEFAULT_255_2_778
10
21.5418198
20
4.5176731
40
2.0653266
50
131.3114712
51
134.9947653
0
ARC
8
DEFAULT_255_2_778
10
21.3987153
20
4.6706769
40
1.8559587
50
135.2102692
51
146.2312508
0
ARC
8
DEFAULT_255_2_778
10
21.6439621
20
4.5041293
40
2.1524047
50
146.1745405
51
157.3753111
0
ARC
8
DEFAULT_255_2_778
10
21.8460498
20
4.4191913
40
2.371616
50
157.3593692
51
168.3200008
0
ARC
8
DEFAULT_255_2_778
10
22.0961058
20
4.367887
40
2.6268807
50
168.3283054
51
178.6415054
0
ARC
8
DEFAULT_255_2_778
10
22.2928961
20
4.3582216
40
2.8238492
50
178.5401137
51
180.0022081
0
ARC
8
DEFAULT_255_2_778
10
22.657829
20
4.3521837
40
3.1887876
50
179.893466
51
187.2115405
0
ARC
8
DEFAULT_255_2_778
10
22.1840922
20
4.2920996
40
2.7112557
50
187.2086001
51
195.4179218
0
ARC
8
DEFAULT_255_2_778
10
21.8465918
20
4.1993044
40
2.3612311
50
195.4245062
51
204.1483174
0
ARC
8
DEFAULT_255_2_778
10
21.6033832
20
4.0901916
40
2.0946676
50
204.1464681
51
213.3363001
0
ARC
8
DEFAULT_255_2_778
10
21.4197272
20
3.9705615
40
1.8754877
50
213.3663134
51
220.3117716
0
ARC
8
DEFAULT_255_2_778
10
21.312726
20
3.8820916
40
1.736661
50
220.3699244
51
222.3318012
0
ARC
8
DEFAULT_255_2_778
10
21.2753017
20
3.8481798
40
1.6861579
50
222.3363168
51
222.9911817
0
ARC
8
DEFAULT_255_2_778
10
21.5493926
20
4.1390275
40
2.085129
50
223.7013583
51
232.9315678
0
ARC
8
DEFAULT_255_2_778
10
21.3394303
20
3.8617695
40
1.7373418
50
232.9450868
51
243.5634324
0
ARC
8
DEFAULT_255_2_778
10
21.2615303
20
3.708561
40
1.5654736
50
243.6199564
51
254.5144153
0
ARC
8
DEFAULT_255_2_778
10
21.257457
20
3.7006092
40
1.5567242
50
254.5807479
51
263.8520844
0
ARC
8
DEFAULT_255_2_778
10
21.2791435
20
3.9219016
40
1.7790677
50
263.9209286
51
269.901317
0
ARC
8
DEFAULT_255_2_778
10
21.2865218
20
4.4530713
40
2.3102585
50
269.7410221
51
270.000625
0
ARC
8
DEFAULT_255_2_778
10
21.2861728
20
3.623103
40
1.4802902
50
270.0144819
51
275.9750897
0
ARC
8
DEFAULT_255_2_778
10
21.2689425
20
3.7776621
40
1.6358036
50
276.0117884
51
283.3794272
0
ARC
8
DEFAULT_255_2_778
10
21.2122227
20
4.0141788
40
1.8790259
50
283.3931704
51
291.1604857
0
ARC
8
DEFAULT_255_2_778
10
21.0926479
20
4.3226615
40
2.2098728
50
291.1645212
51
298.6241609
0
ARC
8
DEFAULT_255_2_778
10
20.9023262
20
4.6748198
40
2.6101672
50
298.5880544
51
304.2979672
0
LINE
8
DEFAULT_255_2_778
10
12.009947
20
5.5683128
11
12.009947
21
2.2888128
0
LINE
8
DEFAULT_255_2_778
10
12.009947
20
2.2888128
11
11.022547
21
2.2888128
0
LINE
8
DEFAULT_255_2_778
10
11.022547
20
2.2888128
11
11.022547
21
5.5683128
0
LINE
8
DEFAULT_255_2_778
10
11.022547
20
5.5683128
11
9.896447
21
5.5683128
0
LINE
8
DEFAULT_255_2_778
10
9.896447
20
5.5683128
11
9.896447
21
6.3981128
0
LINE
8
DEFAULT_255_2_778
10
9.896447
20
6.3981128
11
13.156147
21
6.3981128
0
LINE
8
DEFAULT_255_2_778
10
13.156147
20
6.3981128
11
13.156147
21
5.5683128
0
LINE
8
DEFAULT_255_2_778
10
13.156147
20
5.5683128
11
12.009947
21
5.5683128
0
LINE
8
DEFAULT_255_2_778
10
18.035847
20
5.5683128
11
17.126947
21
5.5683128
0
LINE
8
DEFAULT_255_2_778
10
17.126947
20
5.5683128
11
17.126947
21
4.7386128
0
LINE
8
DEFAULT_255_2_778
10
17.126947
20
4.7386128
11
17.936647
21
4.7386128
0
LINE
8
DEFAULT_255_2_778
10
18.035347
20
5.5683128
11
18.035847
21
5.5683128
0
LINE
8
DEFAULT_255_2_778
10
16.158847
20
6.3981128
11
18.075247
21
6.3981128
0
LINE
8
DEFAULT_255_2_778
10
19.221147
20
3.5332128
11
19.221147
21
2.7627128
0
LINE
8
DEFAULT_255_2_778
10
19.438147
20
2.2886128
11
18.647847
21
2.2886128
0
LINE
8
DEFAULT_255_2_778
10
18.292247
20
2.7825128
11
18.292247
21
3.4517128
0
LINE
8
DEFAULT_255_2_778
10
17.897147
20
3.7877128
11
17.106847
21
3.7877128
0
LINE
8
DEFAULT_255_2_778
10
17.106847
20
3.7877128
11
17.106847
21
2.2862128
0
LINE
8
DEFAULT_255_2_778
10
17.106847
20
2.2862128
11
16.180847
21
2.2862128
0
LINE
8
DEFAULT_255_2_778
10
16.180847
20
2.2862128
11
16.180847
21
6.3952128
0
LINE
8
DEFAULT_255_2_778
10
16.180847
20
6.3952128
11
16.158847
21
6.3981128
0
LINE
8
DEFAULT_255_2_778
10
26.175247
20
4.8354128
11
24.495847
21
4.8354128
0
LINE
8
DEFAULT_255_2_778
10
24.495847
20
4.8354128
11
24.495847
21
5.5683128
0
LINE
8
DEFAULT_255_2_778
10
24.495847
20
5.5683128
11
26.471547
21
5.5683128
0
LINE
8
DEFAULT_255_2_778
10
26.471547
20
5.5683128
11
26.471547
21
6.3981128
0
LINE
8
DEFAULT_255_2_778
10
26.471547
20
6.3981128
11
23.528047
21
6.3981128
0
LINE
8
DEFAULT_255_2_778
10
23.528047
20
6.3981128
11
23.528047
21
2.2891128
0
LINE
8
DEFAULT_255_2_778
10
23.528047
20
2.2891128
11
26.471847
21
2.2891128
0
LINE
8
DEFAULT_255_2_778
10
26.471847
20
2.2891128
11
26.471847
21
3.1188128
0
LINE
8
DEFAULT_255_2_778
10
26.471847
20
3.1188128
11
24.496147
21
3.1188128
0
LINE
8
DEFAULT_255_2_778
10
24.496147
20
3.1188128
11
24.496147
21
4.0449128
0
LINE
8
DEFAULT_255_2_778
10
24.496147
20
4.0449128
11
26.175447
21
4.0449128
0
LINE
8
DEFAULT_255_2_778
10
26.175447
20
4.0449128
11
26.175247
21
4.8354128
0
LINE
8
DEFAULT_255_2_778
10
28.743747
20
2.2864128
11
28.743747
21
5.5683128
0
LINE
8
DEFAULT_255_2_778
10
28.743747
20
5.5683128
11
29.948947
21
5.5683128
0
LINE
8
DEFAULT_255_2_778
10
29.948947
20
5.5683128
11
29.948947
21
6.3981128
0
LINE
8
DEFAULT_255_2_778
10
29.948947
20
6.3981128
11
26.609947
21
6.3981128
0
LINE
8
DEFAULT_255_2_778
10
26.609947
20
6.3981128
11
26.609947
21
5.5683128
0
LINE
8
DEFAULT_255_2_778
10
26.609947
20
5.5683128
11
27.775647
21
5.5683128
0
LINE
8
DEFAULT_255_2_778
10
27.775647
20
5.5683128
11
27.775647
21
2.2888128
0
LINE
8
DEFAULT_255_2_778
10
27.775647
20
2.2888128
11
28.743747
21
2.2864128
0
LINE
8
DEFAULT_255_2_778
10
14.163147
20
4.9339128
11
13.827147
21
3.8671128
0
LINE
8
DEFAULT_255_2_778
10
13.827147
20
3.8671128
11
14.538347
21
3.8671128
0
LINE
8
DEFAULT_255_2_778
10
14.538347
20
3.8671128
11
14.163147
21
4.9339128
0
LINE
8
DEFAULT_255_2_778
10
13.607447
20
6.3957128
11
14.674347
21
6.3957128
0
LINE
8
DEFAULT_255_2_778
10
14.674347
20
6.3957128
11
16.116247
21
2.3060128
0
LINE
8
DEFAULT_255_2_778
10
16.116247
20
2.3060128
11
15.091847
21
2.3060128
0
LINE
8
DEFAULT_255_2_778
10
15.091847
20
2.3060128
11
14.795447
21
3.1527128
0
LINE
8
DEFAULT_255_2_778
10
14.795447
20
3.1527128
11
13.590247
21
3.1527128
0
LINE
8
DEFAULT_255_2_778
10
13.590247
20
3.1527128
11
13.293947
21
2.3060128
0
LINE
8
DEFAULT_255_2_778
10
13.293947
20
2.3060128
11
12.286447
21
2.3060128
0
LINE
8
DEFAULT_255_2_778
10
12.286447
20
2.3060128
11
13.607447
21
6.3957128
0
LINE
8
DEFAULT_255_2_778
10
23.189647
20
4.5780128
11
21.431247
21
4.5780128
0
LINE
8
DEFAULT_255_2_778
10
21.431247
20
4.5780128
11
21.431247
21
3.7877128
0
LINE
8
DEFAULT_255_2_778
10
21.431247
20
3.7877128
11
22.277847
21
3.7877128
0
LINE
8
DEFAULT_255_2_778
10
22.274747
20
5.0693128
11
23.163747
21
5.0693128
0
LINE
8
DEFAULT_255_2_778
10
22.373147
20
2.5185128
11
22.491647
21
2.2814128
0
LINE
8
DEFAULT_255_2_778
10
22.491647
20
2.2814128
11
23.163747
21
2.2814128
0
LINE
8
DEFAULT_255_2_778
10
23.163747
20
2.2814128
11
23.189647
21
4.5780128
0
ENDSEC
0
EOF