0
SECTION
2
HEADER
9
$MEASUREMENT
70
1
0
ENDSEC
0
SECTION
2
TABLES
0
TABLE
2
LTYPE
0
LTYPE
72
65
70
64
2
CONTINUOUS
3
______
73
0
40
0
0
ENDTAB
0
TABLE
2
LAYER
0
LAYER
2
DEFAULT_255_2_778
70
0
62
255
6
CONTINUOUS
0
LAYER
2
DEFAULT_255_1_234
70
0
62
255
6
CONTINUOUS
0
ENDTAB
0
ENDSEC
0
SECTION
2
ENTITIES
0
ARC
8
DEFAULT_255_2_778
10
3.5700693
20
181.6384682
40
0.7914215
50
129.1312896
51
180.1450914
0
ARC
8
DEFAULT_255_2_778
10
3.5703345
20
181.6389553
40
0.7912112
50
89.854026
51
129.1684493
0
ARC
8
DEFAULT_255_2_778
10
25.7993937
20
181.6386419
40
0.7915249
50
39.4792447
51
90.147911
0
ARC
8
DEFAULT_255_2_778
10
25.7999935
20
181.6384885
40
0.7911595
50
359.8533901
51
39.5154338
0
ARC
8
DEFAULT_255_2_778
10
25.7997714
20
-1.9864442
40
0.7913815
50
309.1282118
51
0.1454017
0
ARC
8
DEFAULT_255_2_778
10
25.7993889
20
-1.9867615
40
0.7913769
50
269.8524075
51
309.1641908
0
ARC
8
DEFAULT_255_2_778
10
3.5703462
20
-1.9867169
40
0.7914215
50
219.1312896
51
270.1450914
0
ARC
8
DEFAULT_255_2_778
10
3.5698591
20
-1.9864517
40
0.7912112
50
179.854026
51
219.1684493
0
LINE
8
DEFAULT_255_2_778
10
3.5723503
20
182.4301641
11
25.7973503
21
182.4301641
0
LINE
8
DEFAULT_255_2_778
10
26.5911503
20
181.6364641
11
26.5911503
21
-1.9844359
0
LINE
8
DEFAULT_255_2_778
10
25.7973503
20
-2.7781359
11
3.5723503
21
-2.7781359
0
LINE
8
DEFAULT_255_2_778
10
2.7786503
20
-1.9844359
11
2.7786503
21
181.6364641
0
LINE
8
DEFAULT_255_1_234
10
9.9060364
20
0.5181211
11
10.1052235
21
0.5181211
0
LINE
8
DEFAULT_255_1_234
10
10.1052235
20
0.5181211
11
10.4875342
21
-0.4360494
0
LINE
8
DEFAULT_255_1_234
10
10.4875342
20
-0.4360494
11
10.869845
21
0.5181211
0
LINE
8
DEFAULT_255_1_234
10
10.869845
20
0.5181211
11
11.0698353
21
0.5181211
0
LINE
8
DEFAULT_255_1_234
10
11.0698353
20
0.5181211
11
11.0698353
21
-0.6513
0
LINE
8
DEFAULT_255_1_234
10
11.0698353
20
-0.6513
11
10.9156259
21
-0.6513
0
LINE
8
DEFAULT_255_1_234
10
10.9156259
20
-0.6513
11
10.9156259
21
-0.1959004
0
LINE
8
DEFAULT_255_1_234
10
10.9156259
20
-0.1959004
11
10.930083
21
0.2956419
0
LINE
8
DEFAULT_255_1_234
10
10.930083
20
0.2956419
11
10.5461659
21
-0.6513
0
LINE
8
DEFAULT_255_1_234
10
10.5461659
20
-0.6513
11
10.4280994
21
-0.6513
0
LINE
8
DEFAULT_255_1_234
10
10.4280994
20
-0.6513
11
10.0449854
21
0.2932324
0
LINE
8
DEFAULT_255_1_234
10
10.0449854
20
0.2932324
11
10.0602458
21
-0.1959004
0
LINE
8
DEFAULT_255_1_234
10
10.0602458
20
-0.1959004
11
10.0602458
21
-0.6513
0
LINE
8
DEFAULT_255_1_234
10
10.0602458
20
-0.6513
11
9.9060364
21
-0.6513
0
LINE
8
DEFAULT_255_1_234
10
9.9060364
20
-0.6513
11
9.9060364
21
0.5181211
0
LINE
8
DEFAULT_255_1_234
10
11.4971237
20
0.5181211
11
11.4971237
21
-0.5252017
0
LINE
8
DEFAULT_255_1_234
10
11.4971237
20
-0.5252017
11
12.0513137
21
-0.5252017
0
LINE
8
DEFAULT_255_1_234
10
12.0513137
20
-0.5252017
11
12.0513137
21
-0.6513
0
LINE
8
DEFAULT_255_1_234
10
12.0513137
20
-0.6513
11
11.3421112
21
-0.6513
0
LINE
8
DEFAULT_255_1_234
10
11.3421112
20
-0.6513
11
11.3421112
21
0.5181211
0
LINE
8
DEFAULT_255_1_234
10
11.3421112
20
0.5181211
11
11.4971237
21
0.5181211
0
LINE
8
DEFAULT_255_1_234
10
12.8882208
20
0.0153343
11
12.8882208
21
-0.110764
0
LINE
8
DEFAULT_255_1_234
10
12.8882208
20
-0.110764
11
12.3814181
21
-0.110764
0
LINE
8
DEFAULT_255_1_234
10
12.3814181
20
-0.110764
11
12.3814181
21
-0.5252017
0
LINE
8
DEFAULT_255_1_234
10
12.3814181
20
-0.5252017
11
12.9701445
21
-0.5252017
0
LINE
8
DEFAULT_255_1_234
10
12.9701445
20
-0.5252017
11
12.9701445
21
-0.6513
0
LINE
8
DEFAULT_255_1_234
10
12.9701445
20
-0.6513
11
12.2272087
21
-0.6513
0
LINE
8
DEFAULT_255_1_234
10
12.2272087
20
-0.6513
11
12.2272087
21
0.5181211
0
LINE
8
DEFAULT_255_1_234
10
12.2272087
20
0.5181211
11
12.9621128
21
0.5181211
0
LINE
8
DEFAULT_255_1_234
10
12.9621128
20
0.5181211
11
12.9621128
21
0.3912196
0
LINE
8
DEFAULT_255_1_234
10
12.9621128
20
0.3912196
11
12.3814181
21
0.3912196
0
LINE
8
DEFAULT_255_1_234
10
12.3814181
20
0.3912196
11
12.3814181
21
0.0153343
0
LINE
8
DEFAULT_255_1_234
10
12.3814181
20
0.0153343
11
12.8882208
21
0.0153343
0
LINE
8
DEFAULT_255_1_234
10
13.448033
20
-0.0938974
11
13.448033
21
-0.2151766
0
LINE
8
DEFAULT_255_1_234
10
13.448033
20
-0.2151766
11
13.0560841
21
-0.2151766
0
LINE
8
DEFAULT_255_1_234
10
13.0560841
20
-0.2151766
11
13.0560841
21
-0.0938974
0
LINE
8
DEFAULT_255_1_234
10
13.0560841
20
-0.0938974
11
13.448033
21
-0.0938974
0
LINE
8
DEFAULT_255_1_234
10
13.9395753
20
-0.6513
11
13.6158963
21
-0.6513
0
LINE
8
DEFAULT_255_1_234
10
13.6158963
20
-0.6513
11
13.6158963
21
0.5181211
0
LINE
8
DEFAULT_255_1_234
10
13.6158963
20
0.5181211
11
13.9460007
21
0.5181211
0
LINE
8
DEFAULT_255_1_234
10
14.4616383
20
-0.0272339
11
14.4616383
21
-0.1019291
0
LINE
8
DEFAULT_255_1_234
10
13.9500166
20
0.3912196
11
13.7701057
21
0.3912196
0
LINE
8
DEFAULT_255_1_234
10
13.7701057
20
0.3912196
11
13.7701057
21
-0.5252017
0
LINE
8
DEFAULT_255_1_234
10
13.7701057
20
-0.5252017
11
13.9323468
21
-0.5252017
0
LINE
8
DEFAULT_255_1_234
10
14.3090353
20
-0.0987164
11
14.3090353
21
-0.0304466
0
ARC
8
DEFAULT_255_1_234
10
13.949895
20
-0.0684106
40
0.5865446
50
75.4101064
51
90.3804066
0
ARC
8
DEFAULT_255_1_234
10
13.9728464
20
0.0272492
40
0.4881916
50
60.145586
51
75.1888407
0
ARC
8
DEFAULT_255_1_234
10
13.9887239
20
0.0549199
40
0.4562893
50
26.5253612
51
60.1450928
0
ARC
8
DEFAULT_255_1_234
10
13.8766988
20
-0.0044842
40
0.5830602
50
7.4030428
51
26.8320788
0
ARC
8
DEFAULT_255_1_234
10
13.7172745
20
-0.0293196
40
0.7443669
50
0.1605367
51
7.7176192
0
ARC
8
DEFAULT_255_1_234
10
13.7336649
20
-0.1057566
40
0.7279835
50
348.7289388
51
0.3012466
0
ARC
8
DEFAULT_255_1_234
10
13.899308
20
-0.1386614
40
0.559104
50
333.0706509
51
348.7181832
0
ARC
8
DEFAULT_255_1_234
10
13.9959837
20
-0.1911681
40
0.4491417
50
299.2531685
51
333.4571258
0
ARC
8
DEFAULT_255_1_234
10
13.9598977
20
-0.1226172
40
0.5265881
50
278.107187
51
299.0339503
0
ARC
8
DEFAULT_255_1_234
10
13.9343056
20
0.0281216
40
0.679442
50
270.4443897
51
278.4511052
0
ARC
8
DEFAULT_255_1_234
10
13.9363886
20
-0.0647787
40
0.4604407
50
269.4970433
51
284.0205042
0
ARC
8
DEFAULT_255_1_234
10
13.9719187
20
-0.2013022
40
0.3193797
50
283.7700273
51
318.1555492
0
ARC
8
DEFAULT_255_1_234
10
13.9381945
20
-0.1760633
40
0.3613588
50
318.7415601
51
343.6873628
0
ARC
8
DEFAULT_255_1_234
10
13.7577969
20
-0.1197168
40
0.5503313
50
343.3325091
51
355.8548958
0
ARC
8
DEFAULT_255_1_234
10
13.5479653
20
-0.0997681
40
0.7610708
50
355.4988528
51
0.0791727
0
ARC
8
DEFAULT_255_1_234
10
13.6262276
20
-0.026222
40
0.6828208
50
359.6455037
51
9.8607896
0
ARC
8
DEFAULT_255_1_234
10
13.8622973
20
0.0164099
40
0.4429406
50
9.6571907
51
26.1932807
0
ARC
8
DEFAULT_255_1_234
10
13.9550962
20
0.0595118
40
0.3406537
50
26.5777228
51
40.1532208
0
ARC
8
DEFAULT_255_1_234
10
13.9806688
20
0.0794619
40
0.308246
50
40.3840491
51
80.1431104
0
ARC
8
DEFAULT_255_1_234
10
13.9479806
20
-0.0654667
40
0.4566909
50
79.2152159
51
89.7445637
0
LINE
8
DEFAULT_255_1_234
10
15.3997454
20
-0.2802337
11
15.5547579
21
-0.2802337
0
LINE
8
DEFAULT_255_1_234
10
14.6544
20
-0.1212053
11
14.6544
21
-0.0087609
0
LINE
8
DEFAULT_255_1_234
10
15.5547579
20
0.1422357
11
15.3997454
21
0.1422357
0
LINE
8
DEFAULT_255_1_234
10
14.8094126
20
-0.0127768
11
14.8094126
21
-0.1260243
0
ARC
8
DEFAULT_255_1_234
10
15.0066966
20
-0.2205154
40
0.5513052
50
340.1774281
51
353.7814284
0
ARC
8
DEFAULT_255_1_234
10
15.1638318
20
-0.2790418
40
0.3836379
50
311.4558989
51
340.4421614
0
ARC
8
DEFAULT_255_1_234
10
15.1604987
20
-0.2679472
40
0.3941894
50
282.4333181
51
310.7513653
0
ARC
8
DEFAULT_255_1_234
10
15.1165726
20
-0.0864321
40
0.5809175
50
269.9358511
51
282.809604
0
ARC
8
DEFAULT_255_1_234
10
15.1113792
20
0.0593212
40
0.7266847
50
270.0021091
51
270.3581957
0
ARC
8
DEFAULT_255_1_234
10
15.1061209
20
-0.2007415
40
0.4666519
50
250.7884749
51
270.6489167
0
ARC
8
DEFAULT_255_1_234
10
15.0893043
20
-0.2644681
40
0.4009729
50
219.3627325
51
250.0611886
0
ARC
8
DEFAULT_255_1_234
10
15.1722255
20
-0.1939958
40
0.5097822
50
193.5479632
51
219.5756669
0
ARC
8
DEFAULT_255_1_234
10
15.4093875
20
-0.1324081
40
0.7547848
50
181.1218675
51
193.87563
0
ARC
8
DEFAULT_255_1_234
10
15.6164056
20
-0.121342
40
0.9620055
50
179.9918545
51
181.5394234
0
ARC
8
DEFAULT_255_1_234
10
15.4313158
20
-0.0050212
40
0.7769248
50
169.5837241
51
180.2757934
0
ARC
8
DEFAULT_255_1_234
10
15.2476097
20
0.0289229
40
0.590109
50
155.0365899
51
169.6003176
0
ARC
8
DEFAULT_255_1_234
10
15.1340561
20
0.0836677
40
0.4640625
50
136.783148
51
155.2472683
0
ARC
8
DEFAULT_255_1_234
10
15.0951037
20
0.1167562
40
0.4130255
50
121.7633186
51
136.428115
0
ARC
8
DEFAULT_255_1_234
10
15.1086
20
0.0918227
40
0.4413323
50
95.6459699
51
121.5490577
0
ARC
8
DEFAULT_255_1_234
10
15.1243281
20
-0.0190051
40
0.55319
50
89.924208
51
96.1377933
0
ARC
8
DEFAULT_255_1_234
10
15.1293714
20
-0.0071458
40
0.5413475
50
76.6779277
51
90.4563316
0
ARC
8
DEFAULT_255_1_234
10
15.1687338
20
0.1519114
40
0.3775041
50
47.485847
51
76.9287264
0
ARC
8
DEFAULT_255_1_234
10
15.154031
20
0.1419159
40
0.3948286
50
16.5424086
51
46.8933463
0
ARC
8
DEFAULT_255_1_234
10
14.9932467
20
0.0890861
40
0.564021
50
5.4072051
51
17.0365086
0
ARC
8
DEFAULT_255_1_234
10
14.8493485
20
0.0659679
40
0.5556559
50
7.8891745
51
15.9239216
0
ARC
8
DEFAULT_255_1_234
10
15.0480498
20
0.1236631
40
0.3487515
50
15.7653144
51
27.9410532
0
ARC
8
DEFAULT_255_1_234
10
15.1584716
20
0.182779
40
0.2235026
50
27.8166557
51
46.4008329
0
ARC
8
DEFAULT_255_1_234
10
15.1634359
20
0.1822082
40
0.2205286
50
47.4371857
51
75.0698205
0
ARC
8
DEFAULT_255_1_234
10
15.1325753
20
0.0747765
40
0.3322915
50
74.7008593
51
87.8124495
0
ARC
8
DEFAULT_255_1_234
10
15.1252441
20
-0.0308156
40
0.4380987
50
87.3814673
51
90.0240855
0
ARC
8
DEFAULT_255_1_234
10
15.1213984
20
0.0869291
40
0.3203749
50
89.3451631
51
108.5745436
0
ARC
8
DEFAULT_255_1_234
10
15.1077089
20
0.1382908
40
0.2673494
50
109.2998449
51
143.3037509
0
ARC
8
DEFAULT_255_1_234
10
15.1839162
20
0.0796881
40
0.3634757
50
143.0753173
51
163.1916937
0
ARC
8
DEFAULT_255_1_234
10
15.3790889
20
0.0180967
40
0.5681262
50
162.9373603
51
174.6208611
0
ARC
8
DEFAULT_255_1_234
10
15.6416932
20
-0.010699
40
0.8322832
50
174.3419979
51
180.1430411
0
ARC
8
DEFAULT_255_1_234
10
15.5486088
20
-0.1301302
40
0.7392076
50
179.6817502
51
189.150529
0
ARC
8
DEFAULT_255_1_234
10
15.2985336
20
-0.171781
40
0.4856932
50
188.9910863
51
203.5773039
0
ARC
8
DEFAULT_255_1_234
10
15.1905669
20
-0.2165789
40
0.3688271
50
203.9077269
51
215.1312379
0
ARC
8
DEFAULT_255_1_234
10
15.0982762
20
-0.2881059
40
0.2522457
50
213.9071664
51
263.8849284
0
ARC
8
DEFAULT_255_1_234
10
15.1108092
20
-0.2096482
40
0.3316174
50
263.1758525
51
270.1031083
0
ARC
8
DEFAULT_255_1_234
10
15.1140183
20
-0.0849635
40
0.4563091
50
269.6719807
51
279.0609165
0
ARC
8
DEFAULT_255_1_234
10
15.1406951
20
-0.2462093
40
0.2928759
50
278.8750225
51
293.6346586
0
ARC
8
DEFAULT_255_1_234
10
15.172716
20
-0.32141
40
0.2111472
50
293.8553404
51
310.0518804
0
ARC
8
DEFAULT_255_1_234
10
15.1732013
20
-0.3276484
40
0.2060917
50
311.0646779
51
332.0108348
0
ARC
8
DEFAULT_255_1_234
10
15.053974
20
-0.2619022
40
0.3422352
50
331.6588543
51
343.2878891
0
ARC
8
DEFAULT_255_1_234
10
14.8477255
20
-0.1985202
40
0.5580003
50
343.1446044
51
351.010618
0
ARC
8
DEFAULT_255_1_234
10
14.6935902
20
-0.1704129
40
0.7146438
50
350.7157277
51
351.1602153
0
LINE
8
DEFAULT_255_1_234
10
15.9426909
20
-0.1155831
11
15.9426909
21
0.0056962
0
LINE
8
DEFAULT_255_1_234
10
15.9426909
20
0.0056962
11
16.054332
21
0.0056962
0
LINE
8
DEFAULT_255_1_234
10
15.8639798
20
0.2113087
11
15.7153927
21
0.2113087
0
LINE
8
DEFAULT_255_1_234
10
15.7049514
20
-0.3428812
11
15.8543417
21
-0.3428812
0
LINE
8
DEFAULT_255_1_234
10
16.054332
20
-0.1155831
11
15.9426909
21
-0.1155831
0
ARC
8
DEFAULT_255_1_234
10
16.0514187
20
0.3449713
40
0.3392876
50
270.4919872
51
281.8951556
0
ARC
8
DEFAULT_255_1_234
10
16.0755448
20
0.2347702
40
0.2264817
50
281.6691735
51
301.2943132
0
ARC
8
DEFAULT_255_1_234
10
16.0925659
20
0.2036304
40
0.1910381
50
301.7833094
51
311.7545298
0
ARC
8
DEFAULT_255_1_234
10
16.1017234
20
0.1934748
40
0.1773635
50
311.7323931
51
354.2802411
0
ARC
8
DEFAULT_255_1_234
10
16.029086
20
0.2059722
40
0.2509385
50
353.0937916
51
0.1181479
0
ARC
8
DEFAULT_255_1_234
10
15.9829645
20
0.2107386
40
0.2970898
50
359.1805295
51
15.0453146
0
ARC
8
DEFAULT_255_1_234
10
16.1175482
20
0.2499992
40
0.1569564
50
13.9577229
51
77.6713066
0
ARC
8
DEFAULT_255_1_234
10
16.0789011
20
0.1114949
40
0.3006298
50
76.1116566
51
90.7026153
0
ARC
8
DEFAULT_255_1_234
10
16.0729849
20
0.1388545
40
0.2732568
50
89.5324876
51
103.531937
0
ARC
8
DEFAULT_255_1_234
10
16.0529293
20
0.2187884
40
0.1908508
50
103.2931773
51
133.5619022
0
ARC
8
DEFAULT_255_1_234
10
16.0484781
20
0.2247375
40
0.1834746
50
133.8349307
51
173.5344437
0
ARC
8
DEFAULT_255_1_234
10
16.1207825
20
0.2119213
40
0.2568033
50
172.5096846
51
180.1366907
0
ARC
8
DEFAULT_255_1_234
10
16.0256718
20
0.2153622
40
0.3103056
50
155.3484492
51
180.7484736
0
ARC
8
DEFAULT_255_1_234
10
16.0207807
20
0.2124846
40
0.3070957
50
131.5744599
51
154.4798489
0
ARC
8
DEFAULT_255_1_234
10
16.0520955
20
0.180831
40
0.3515643
50
96.9875458
51
131.9690667
0
ARC
8
DEFAULT_255_1_234
10
16.0740435
20
0.0562636
40
0.4779224
50
89.8596053
51
97.7825159
0
ARC
8
DEFAULT_255_1_234
10
16.0788498
20
0.0300616
40
0.5041361
50
78.3655447
51
90.4131539
0
ARC
8
DEFAULT_255_1_234
10
16.1146416
20
0.1959887
40
0.3344039
50
56.6229102
51
78.638727
0
ARC
8
DEFAULT_255_1_234
10
16.1361359
20
0.2335805
40
0.2912001
50
47.0253525
51
56.0854072
0
ARC
8
DEFAULT_255_1_234
10
16.1381139
20
0.2375223
40
0.2869704
50
10.9208013
51
46.7778124
0
ARC
8
DEFAULT_255_1_234
10
16.0017206
20
0.2059857
40
0.426899
50
359.6364486
51
11.6087304
0
ARC
8
DEFAULT_255_1_234
10
16.185205
20
0.2044752
40
0.243409
50
332.3549906
51
359.7179418
0
ARC
8
DEFAULT_255_1_234
10
16.1201651
20
0.2353142
40
0.3153459
50
325.2333722
51
332.8745602
0
ARC
8
DEFAULT_255_1_234
10
16.1354275
20
0.2246828
40
0.2967456
50
292.9802137
51
325.2392345
0
ARC
8
DEFAULT_255_1_234
10
16.1079649
20
0.2780863
40
0.3566604
50
292.5402179
51
293.6924929
0
ARC
8
DEFAULT_255_1_234
10
16.1472245
20
-0.3673909
40
0.3307468
50
57.6435486
51
72.8625112
0
ARC
8
DEFAULT_255_1_234
10
16.1826745
20
-0.3099451
40
0.2632492
50
36.7248896
51
57.4697979
0
ARC
8
DEFAULT_255_1_234
10
16.1815377
20
-0.308678
40
0.2634081
50
8.0545065
51
36.356114
0
ARC
8
DEFAULT_255_1_234
10
16.0952563
20
-0.3241826
40
0.3510261
50
359.8320645
51
8.5869982
0
ARC
8
DEFAULT_255_1_234
10
16.0577339
20
-0.3289899
40
0.3885653
50
343.9829931
51
0.5571613
0
ARC
8
DEFAULT_255_1_234
10
16.1463536
20
-0.3532562
40
0.2966924
50
311.6359546
51
343.7651759
0
ARC
8
DEFAULT_255_1_234
10
16.1085105
20
-0.3105898
40
0.3537231
50
279.7829875
51
311.6255694
0
ARC
8
DEFAULT_255_1_234
10
16.0783881
20
-0.166872
40
0.5004971
50
269.7286406
51
280.3856417
0
ARC
8
DEFAULT_255_1_234
10
16.0721954
20
-0.1710004
40
0.4963778
50
256.6828919
51
270.4412052
0
ARC
8
DEFAULT_255_1_234
10
16.038325
20
-0.3094606
40
0.3538406
50
229.4223008
51
256.8556159
0
ARC
8
DEFAULT_255_1_234
10
15.9968643
20
-0.3561264
40
0.2914296
50
181.818294
51
229.6455059
0
ARC
8
DEFAULT_255_1_234
10
16.1008599
20
-0.3430504
40
0.3959084
50
179.9755256
51
183.2323064
0
ARC
8
DEFAULT_255_1_234
10
16.0836345
20
-0.3450963
40
0.2293034
50
179.4465117
51
196.2869258
0
ARC
8
DEFAULT_255_1_234
10
16.0348753
20
-0.3584349
40
0.1787621
50
196.5661473
51
227.705904
0
ARC
8
DEFAULT_255_1_234
10
16.0512847
20
-0.3400845
40
0.2033784
50
227.7652068
51
257.8762805
0
ARC
8
DEFAULT_255_1_234
10
16.0737818
20
-0.2457844
40
0.3003081
50
257.4584385
51
270.426602
0
ARC
8
DEFAULT_255_1_234
10
16.0783384
20
-0.2168004
40
0.329292
50
269.5962073
51
280.8789248
0
ARC
8
DEFAULT_255_1_234
10
16.1012913
20
-0.3314315
40
0.2123908
50
280.6346389
51
299.8595945
0
ARC
8
DEFAULT_255_1_234
10
16.1203819
20
-0.3676788
40
0.171457
50
300.3576302
51
314.5517981
0
ARC
8
DEFAULT_255_1_234
10
16.1120879
20
-0.3616081
40
0.1816095
50
315.0728369
51
345.0431014
0
ARC
8
DEFAULT_255_1_234
10
16.0197694
20
-0.3347159
40
0.2777492
50
344.5986631
51
357.9269593
0
ARC
8
DEFAULT_255_1_234
10
15.930202
20
-0.3285724
40
0.3674917
50
357.4748886
51
0.0231117
0
ARC
8
DEFAULT_255_1_234
10
16.0325129
20
-0.3261321
40
0.2651907
50
359.5047933
51
13.4239635
0
ARC
8
DEFAULT_255_1_234
10
16.1191773
20
-0.3039522
40
0.1757509
50
12.9498199
51
48.7551375
0
ARC
8
DEFAULT_255_1_234
10
16.1009507
20
-0.32886
40
0.2065134
50
49.5088623
51
72.1836453
0
ARC
8
DEFAULT_255_1_234
10
16.0651659
20
-0.4350709
40
0.3185836
50
71.9010081
51
84.3554254
0
ARC
8
DEFAULT_255_1_234
10
16.0490291
20
-0.5711674
40
0.4556151
50
84.0193428
51
89.333121
0
LINE
8
DEFAULT_255_1_234
10
17.4165148
20
-0.5300208
11
17.4165148
21
-0.6513
0
LINE
8
DEFAULT_255_1_234
10
17.4165148
20
-0.6513
11
16.650287
21
-0.6513
0
LINE
8
DEFAULT_255_1_234
10
16.650287
20
-0.6513
11
16.650287
21
-0.5444779
0
LINE
8
DEFAULT_255_1_234
10
16.650287
20
-0.5444779
11
17.0550866
21
-0.0947005
0
LINE
8
DEFAULT_255_1_234
10
16.7763853
20
0.1735595
11
16.6277981
21
0.1735595
0
LINE
8
DEFAULT_255_1_234
10
17.1426326
20
-0.1902782
11
16.8293948
21
-0.5300208
0
LINE
8
DEFAULT_255_1_234
10
16.8293948
20
-0.5300208
11
17.4165148
21
-0.5300208
0
ARC
8
DEFAULT_255_1_234
10
15.7060699
20
1.0982527
40
1.8008286
50
318.5132453
51
320.7828378
0
ARC
8
DEFAULT_255_1_234
10
16.2347674
20
0.6679426
40
1.1191493
50
320.7372736
51
323.9737074
0
ARC
8
DEFAULT_255_1_234
10
16.626753
20
0.3839361
40
0.6350923
50
323.8961724
51
328.6421089
0
ARC
8
DEFAULT_255_1_234
10
16.8314126
20
0.2577031
40
0.3946393
50
328.8299013
51
331.789948
0
ARC
8
DEFAULT_255_1_234
10
16.9311304
20
0.2062509
40
0.2824501
50
331.4255242
51
352.9364833
0
ARC
8
DEFAULT_255_1_234
10
16.9447805
20
0.2031976
40
0.2685315
50
353.2248685
51
0.0169286
0
ARC
8
DEFAULT_255_1_234
10
16.9657682
20
0.205495
40
0.2475536
50
359.4866256
51
15.9339782
0
ARC
8
DEFAULT_255_1_234
10
17.0164667
20
0.2191286
40
0.1950618
50
16.1714718
51
43.5284424
0
ARC
8
DEFAULT_255_1_234
10
17.0241976
20
0.2268573
40
0.184134
50
43.4415429
51
83.1661404
0
ARC
8
DEFAULT_255_1_234
10
17.0107894
20
0.1531771
40
0.258926
50
82.160215
51
90.1505798
0
ARC
8
DEFAULT_255_1_234
10
17.0076321
20
0.0994865
40
0.3126255
50
89.5460705
51
102.5418777
0
ARC
8
DEFAULT_255_1_234
10
16.9833407
20
0.2025665
40
0.2067346
50
102.1739365
51
129.2061916
0
ARC
8
DEFAULT_255_1_234
10
16.9754479
20
0.2150094
40
0.1921118
50
129.7279328
51
135.7542026
0
ARC
8
DEFAULT_255_1_234
10
16.9876006
20
0.2053045
40
0.2075944
50
136.175737
51
166.3674722
0
ARC
8
DEFAULT_255_1_234
10
17.0882926
20
0.1783182
40
0.3118201
50
165.9092917
51
178.8683903
0
ARC
8
DEFAULT_255_1_234
10
17.1747787
20
0.1736179
40
0.3983935
50
178.438168
51
180.0083905
0
ARC
8
DEFAULT_255_1_234
10
17.0346389
20
0.1775231
40
0.4068601
50
163.2878735
51
180.5581814
0
ARC
8
DEFAULT_255_1_234
10
16.954465
20
0.199584
40
0.3237344
50
133.454115
51
162.9470031
0
ARC
8
DEFAULT_255_1_234
10
16.9723192
20
0.1806
40
0.349795
50
100.7869394
51
133.4384016
0
ARC
8
DEFAULT_255_1_234
10
17.0070963
20
0.0257319
40
0.5084616
50
89.6605301
51
101.3704185
0
ARC
8
DEFAULT_255_1_234
10
17.0137302
20
0.0318496
40
0.502348
50
78.2171172
51
90.4130393
0
ARC
8
DEFAULT_255_1_234
10
17.0492381
20
0.1942637
40
0.3361092
50
55.9268222
51
78.4888551
0
ARC
8
DEFAULT_255_1_234
10
17.0688821
20
0.2281324
40
0.2970617
50
47.9292255
51
55.4054003
0
ARC
8
DEFAULT_255_1_234
10
17.0790381
20
0.2384502
40
0.2825983
50
4.3347696
51
48.0560701
0
ARC
8
DEFAULT_255_1_234
10
16.9694775
20
0.2214601
40
0.393225
50
359.925209
51
5.5967654
0
ARC
8
DEFAULT_255_1_234
10
17.0123667
20
0.2270816
40
0.3503892
50
337.8914096
51
358.9967724
0
ARC
8
DEFAULT_255_1_234
10
16.7410079
20
0.3317706
40
0.6412172
50
326.9135351
51
338.3505194
0
ARC
8
DEFAULT_255_1_234
10
16.3424383
20
0.5872284
40
1.1146189
50
319.6472867
51
327.095818
0
ARC
8
DEFAULT_255_1_234
10
15.9591386
20
0.9034
40
1.6114559
50
317.2586784
51
319.9046139
0
LINE
8
DEFAULT_255_1_234
10
18.3698822
20
-0.6513
11
18.258241
21
-0.3460939
0
LINE
8
DEFAULT_255_1_234
10
18.258241
20
-0.3460939
11
17.768305
21
-0.3460939
0
LINE
8
DEFAULT_255_1_234
10
17.768305
20
-0.3460939
11
17.6582702
21
-0.6513
0
LINE
8
DEFAULT_255_1_234
10
17.6582702
20
-0.6513
11
17.4992417
21
-0.6513
0
LINE
8
DEFAULT_255_1_234
10
17.4992417
20
-0.6513
11
17.9458064
21
0.5181211
0
LINE
8
DEFAULT_255_1_234
10
17.9458064
20
0.5181211
11
18.0807396
21
0.5181211
0
LINE
8
DEFAULT_255_1_234
10
18.0807396
20
0.5181211
11
18.5281074
21
-0.6513
0
LINE
8
DEFAULT_255_1_234
10
18.5281074
20
-0.6513
11
18.3698822
21
-0.6513
0
LINE
8
DEFAULT_255_1_234
10
18.013273
20
0.3277689
11
17.8148891
21
-0.2191925
0
LINE
8
DEFAULT_255_1_234
10
17.8148891
20
-0.2191925
11
18.2124601
21
-0.2191925
0
LINE
8
DEFAULT_255_1_234
10
18.2124601
20
-0.2191925
11
18.013273
21
0.3277689
0
ARC
8
DEFAULT_255_2_778
10
12.6050348
20
179.9371041
40
0.3813723
50
156.9728279
51
180.9672924
0
ARC
8
DEFAULT_255_2_778
10
12.4650905
20
179.9997556
40
0.2280903
50
120.6143155
51
157.7057572
0
ARC
8
DEFAULT_255_2_778
10
12.423185
20
180.0616889
40
0.1535155
50
105.6024085
51
118.9253865
0
ARC
8
DEFAULT_255_2_778
10
12.4163051
20
180.086458
40
0.1278087
50
90.2188612
51
105.6183161
0
ARC
8
DEFAULT_255_2_778
10
12.4186564
20
179.9193412
40
0.2949385
50
82.1187511
51
90.5516271
0
ARC
8
DEFAULT_255_2_778
10
12.4470429
20
180.0840036
40
0.128059
50
23.164146
51
84.5981403
0
ARC
8
DEFAULT_255_2_778
10
12.3195078
20
180.0322267
40
0.2656921
50
1.2065942
51
22.6109196
0
ARC
8
DEFAULT_255_2_778
10
12.1068205
20
180.0143377
40
0.4788966
50
359.9555286
51
2.8107684
0
ARC
8
DEFAULT_255_2_778
10
12.4802764
20
180.0029207
40
0.6523641
50
359.5121336
51
18.1513483
0
ARC
8
DEFAULT_255_2_778
10
12.6313291
20
180.0539245
40
0.4929411
50
17.987628
51
47.7515239
0
ARC
8
DEFAULT_255_2_778
10
12.6654537
20
180.0856389
40
0.4465388
50
48.2567149
51
90.320171
0
ARC
8
DEFAULT_255_2_778
10
12.6638541
20
180.0375874
40
0.4945841
50
90.103751
51
104.0317339
0
ARC
8
DEFAULT_255_2_778
10
12.6706581
20
180.0062342
40
0.5266526
50
103.9228462
51
106.737064
0
ARC
8
DEFAULT_255_2_778
10
12.6850928
20
179.9635316
40
0.5717052
50
106.8899656
51
120.2615348
0
ARC
8
DEFAULT_255_2_778
10
12.7341581
20
179.8790122
40
0.6694339
50
120.2432243
51
131.2854864
0
ARC
8
DEFAULT_255_2_778
10
12.785036
20
179.818252
40
0.7486631
50
131.143212
51
134.0802792
0
ARC
8
DEFAULT_255_2_778
10
15.2709404
20
178.8452131
40
0.1197666
50
309.5218924
51
339.9060311
0
ARC
8
DEFAULT_255_2_778
10
15.3039085
20
178.8077254
40
0.0698871
50
287.710739
51
308.230668
0
ARC
8
DEFAULT_255_2_778
10
15.3092212
20
178.7920982
40
0.0533853
50
270.2503717
51
287.3813074
0
ARC
8
DEFAULT_255_2_778
10
15.3118783
20
178.7929536
40
0.0542942
50
194.7346052
51
267.4414086
0
ARC
8
DEFAULT_255_2_778
10
15.3603123
20
178.815972
40
0.107451
50
190.9475811
51
200.0439116
0
ARC
8
DEFAULT_255_2_778
10
14.9941035
20
178.8030621
40
0.2608211
50
358.353068
51
64.1268931
0
ARC
8
DEFAULT_255_2_778
10
15.0249058
20
178.8487249
40
0.206441
50
66.2890109
51
89.9969258
0
ARC
8
DEFAULT_255_2_778
10
15.0382115
20
178.8134645
40
0.2420668
50
93.1483498
51
177.0819403
0
ARC
8
DEFAULT_255_2_778
10
15.0906424
20
178.7956292
40
0.2957256
50
174.1467469
51
180.0122521
0
ARC
8
DEFAULT_255_2_778
10
15.0902349
20
178.799093
40
0.2953391
50
180.6842551
51
197.2976119
0
ARC
8
DEFAULT_255_2_778
10
15.1427344
20
178.8152135
40
0.3502574
50
197.2618666
51
237.3003567
0
ARC
8
DEFAULT_255_2_778
10
15.1574152
20
178.843855
40
0.3823034
50
237.7678185
51
267.0989043
0
ARC
8
DEFAULT_255_2_778
10
15.1676437
20
178.929185
40
0.468079
50
266.3770992
51
270.0209723
0
ARC
8
DEFAULT_255_2_778
10
15.1676985
20
178.9594308
40
0.4983248
50
270.0133909
51
272.716577
0
ARC
8
DEFAULT_255_2_778
10
15.1758148
20
178.8448424
40
0.3834899
50
272.3167324
51
299.1303886
0
ARC
8
DEFAULT_255_2_778
10
15.1234049
20
178.9183329
40
0.4733038
50
300.3417229
51
327.7658215
0
ARC
8
DEFAULT_255_2_778
10
14.9406676
20
179.0468134
40
0.6964958
50
326.843622
51
335.4998036
0
ARC
8
DEFAULT_255_2_778
10
14.8514976
20
179.0890766
40
0.7951648
50
335.3932154
51
340.0324022
0
ARC
8
DEFAULT_255_2_778
10
14.8370312
20
179.0946094
40
0.8106509
50
340.0140149
51
340.5492811
0
ARC
8
DEFAULT_255_2_778
10
10.7612214
20
179.7927581
40
0.768197
50
90.8730151
51
175.0627552
0
ARC
8
DEFAULT_255_2_778
10
10.8136126
20
179.7763058
40
0.8218958
50
174.2343992
51
180.0097514
0
ARC
8
DEFAULT_255_2_778
10
10.7889867
20
179.7730729
40
0.7972759
50
179.7777162
51
222.1414196
0
ARC
8
DEFAULT_255_2_778
10
10.7511509
20
179.735135
40
0.7437709
50
221.9300285
51
269.8741254
0
ARC
8
DEFAULT_255_2_778
10
10.7376549
20
179.7595244
40
0.7682501
50
270.8846918
51
355.0667038
0
ARC
8
DEFAULT_255_2_778
10
10.6852873
20
179.7760267
40
0.8219296
50
354.2345114
51
0.0097094
0
ARC
8
DEFAULT_255_2_778
10
10.7100678
20
179.7792703
40
0.7971551
50
359.7768758
51
42.1436072
0
ARC
8
DEFAULT_255_2_778
10
10.7478782
20
179.8171788
40
0.7436889
50
41.9327014
51
89.8737509
0
ARC
8
DEFAULT_255_2_778
10
10.7319112
20
179.3999045
40
0.2064136
50
282.3154686
51
2.5716381
0
ARC
8
DEFAULT_255_2_778
10
10.749558
20
179.3648913
40
0.1687253
50
269.98603
51
278.995025
0
ARC
8
DEFAULT_255_2_778
10
10.7617107
20
179.3963042
40
0.2005094
50
178.6786273
51
266.5134562
0
ARC
8
DEFAULT_255_2_778
10
10.8074017
20
179.4091655
40
0.2462849
50
179.9999044
51
181.9167359
0
ARC
8
DEFAULT_255_2_778
10
10.7673954
20
180.1524548
40
0.2064787
50
103.0315545
51
182.5228891
0
ARC
8
DEFAULT_255_2_778
10
10.7494718
20
180.1875048
40
0.1685611
50
89.9846994
51
99.7807169
0
ARC
8
DEFAULT_255_2_778
10
10.7371616
20
180.1555176
40
0.2009286
50
358.490526
51
86.4746259
0
ARC
8
DEFAULT_255_2_778
10
10.6939639
20
180.1433644
40
0.244153
50
0.0003602
51
1.6101146
0
ARC
8
DEFAULT_255_2_778
10
13.7769085
20
179.7756122
40
1.0339085
50
353.7729731
51
0.0306848
0
ARC
8
DEFAULT_255_2_778
10
14.0136678
20
179.7792703
40
0.7971551
50
359.7768758
51
42.1436072
0
ARC
8
DEFAULT_255_2_778
10
14.0514782
20
179.8171788
40
0.7436889
50
41.9327014
51
89.8737509
0
ARC
8
DEFAULT_255_2_778
10
14.0648214
20
179.7927581
40
0.768197
50
90.8730151
51
175.0627552
0
ARC
8
DEFAULT_255_2_778
10
14.1172126
20
179.7763058
40
0.8218958
50
174.2343992
51
180.0097514
0
ARC
8
DEFAULT_255_2_778
10
14.0925867
20
179.7730729
40
0.7972759
50
179.7777162
51
222.1414196
0
ARC
8
DEFAULT_255_2_778
10
14.0547509
20
179.735135
40
0.7437709
50
221.9300285
51
269.8741254
0
ARC
8
DEFAULT_255_2_778
10
14.0479775
20
179.7451375
40
0.753789
50
270.3906469
51
332.9011285
0
ARC
8
DEFAULT_255_2_778
10
14.0503073
20
179.7566988
40
0.5766383
50
270.2493497
51
330.3649047
0
ARC
8
DEFAULT_255_2_778
10
14.0738266
20
179.3850117
40
0.2060198
50
188.4673322
51
264.146848
0
ARC
8
DEFAULT_255_2_778
10
14.1170452
20
179.4091502
40
0.2529285
50
180.0643852
51
192.4374066
0
ARC
8
DEFAULT_255_2_778
10
14.070552
20
180.1526297
40
0.2060435
50
102.2220352
51
182.5768883
0
ARC
8
DEFAULT_255_2_778
10
14.0532765
20
180.1868306
40
0.1692354
50
89.9863487
51
98.9553742
0
ARC
8
DEFAULT_255_2_778
10
14.0410627
20
180.1557487
40
0.2006917
50
358.1298546
51
86.4993767
0
ARC
8
DEFAULT_255_2_778
10
13.9951604
20
180.1433582
40
0.2465564
50
0.0018041
51
1.3574921
0
ARC
8
DEFAULT_255_2_778
10
18.8395085
20
179.7756122
40
1.0339085
50
353.7729731
51
0.0306848
0
ARC
8
DEFAULT_255_2_778
10
19.0763127
20
179.7792756
40
0.7971102
50
359.7764759
51
42.1460177
0
ARC
8
DEFAULT_255_2_778
10
19.1140101
20
179.8170511
40
0.7438166
50
41.9370909
51
89.8762358
0
ARC
8
DEFAULT_255_2_778
10
19.1273214
20
179.7927581
40
0.768197
50
90.8730151
51
175.0627552
0
ARC
8
DEFAULT_255_2_778
10
19.1797126
20
179.7763058
40
0.8218958
50
174.2343992
51
180.0097514
0
ARC
8
DEFAULT_255_2_778
10
19.1550867
20
179.7730729
40
0.7972759
50
179.7777162
51
222.1414196
0
ARC
8
DEFAULT_255_2_778
10
19.1172509
20
179.735135
40
0.7437709
50
221.9300285
51
269.8741254
0
ARC
8
DEFAULT_255_2_778
10
19.1104966
20
179.7455973
40
0.7542487
50
270.3889576
51
332.8797533
0
ARC
8
DEFAULT_255_2_778
10
19.1131073
20
179.7566988
40
0.5766383
50
270.2493497
51
330.3649047
0
ARC
8
DEFAULT_255_2_778
10
19.1366787
20
179.384607
40
0.2056225
50
188.7424888
51
264.120891
0
ARC
8
DEFAULT_255_2_778
10
19.180402
20
179.4091673
40
0.2531853
50
180.0682018
51
192.7352383
0
ARC
8
DEFAULT_255_2_778
10
19.1332623
20
180.152331
40
0.2062492
50
102.479692
51
182.5468765
0
ARC
8
DEFAULT_255_2_778
10
19.1155784
20
180.1873755
40
0.1684904
50
89.986931
51
99.1816697
0
ARC
8
DEFAULT_255_2_778
10
19.1031384
20
180.1551685
40
0.201085
50
358.3379179
51
86.4421934
0
ARC
8
DEFAULT_255_2_778
10
19.0609425
20
180.1431683
40
0.2432745
50
359.9994511
51
1.4527903
0
LINE
8
DEFAULT_255_2_778
10
20.0578169
20
179.0876659
11
20.5605169
21
179.0876659
0
LINE
8
DEFAULT_255_2_778
10
20.5605169
20
179.0876659
11
20.5605169
21
181.1072659
0
LINE
8
DEFAULT_255_2_778
10
20.5605169
20
181.1072659
11
20.0578169
21
181.1072659
0
LINE
8
DEFAULT_255_2_778
10
20.0578169
20
181.1072659
11
20.0578169
21
179.0876659
0
LINE
8
DEFAULT_255_2_778
10
20.0578169
20
179.0876659
11
20.0578169
21
179.0876659
0
LINE
8
DEFAULT_255_2_778
10
20.0578169
20
179.0876659
11
20.0578169
21
179.0876659
0
LINE
8
DEFAULT_255_2_778
10
21.2995169
20
181.1072659
11
21.2995169
21
179.0876659
0
LINE
8
DEFAULT_255_2_778
10
21.2995169
20
179.0876659
11
20.7970169
21
179.0876659
0
LINE
8
DEFAULT_255_2_778
10
20.7970169
20
179.0876659
11
20.7970169
21
181.1072659
0
LINE
8
DEFAULT_255_2_778
10
20.7970169
20
181.1072659
11
21.2995169
21
181.1072659
0
LINE
8
DEFAULT_255_2_778
10
21.2995169
20
181.1072659
11
21.2995169
21
181.1072659
0
LINE
8
DEFAULT_255_2_778
10
21.2995169
20
181.1072659
11
21.2995169
21
181.1072659
0
LINE
8
DEFAULT_255_2_778
10
9.1419169
20
180.3227659
11
8.7355169
21
180.3227659
0
LINE
8
DEFAULT_255_2_778
10
8.7355169
20
180.3227659
11
8.7355169
21
181.1072659
0
LINE
8
DEFAULT_255_2_778
10
8.7355169
20
181.1072659
11
8.0703169
21
181.1072659
0
LINE
8
DEFAULT_255_2_778
10
8.0703169
20
181.1072659
11
8.0703169
21
179.0876659
0
LINE
8
DEFAULT_255_2_778
10
8.0703169
20
179.0876659
11
8.7355169
21
179.0876659
0
LINE
8
DEFAULT_255_2_778
10
8.7355169
20
179.0876659
11
8.7355169
21
180.0891659
0
LINE
8
DEFAULT_255_2_778
10
8.7355169
20
180.0891659
11
9.1419169
21
180.0891659
0
LINE
8
DEFAULT_255_2_778
10
9.1419169
20
180.0891659
11
9.1419169
21
179.0876659
0
LINE
8
DEFAULT_255_2_778
10
9.1419169
20
179.0876659
11
9.8070169
21
179.0876659
0
LINE
8
DEFAULT_255_2_778
10
9.8070169
20
179.0876659
11
9.8070169
21
181.1072659
0
LINE
8
DEFAULT_255_2_778
10
9.8070169
20
181.1072659
11
9.1419169
21
181.1072659
0
LINE
8
DEFAULT_255_2_778
10
9.1419169
20
181.1072659
11
9.1419169
21
180.3227659
0
LINE
8
DEFAULT_255_2_778
10
9.1419169
20
180.3227659
11
9.1419169
21
180.3227659
0
LINE
8
DEFAULT_255_2_778
10
9.1419169
20
180.3227659
11
9.1419169
21
180.3227659
0
LINE
8
DEFAULT_255_2_778
10
12.2645169
20
180.3563659
11
12.2237169
21
180.4899659
0
LINE
8
DEFAULT_255_2_778
10
12.2237169
20
180.4899659
11
11.6768169
21
180.4899659
0
LINE
8
DEFAULT_255_2_778
10
11.6768169
20
180.4899659
11
11.6768169
21
179.0879659
0
LINE
8
DEFAULT_255_2_778
10
11.6768169
20
179.0879659
11
12.2237169
21
179.0879659
0
LINE
8
DEFAULT_255_2_778
10
12.2237169
20
179.0879659
11
12.2237169
21
179.9306659
0
LINE
8
DEFAULT_255_2_778
10
12.2237169
20
179.9306659
11
12.2237169
21
179.9306659
0
LINE
8
DEFAULT_255_2_778
10
12.5857169
20
180.0139659
11
12.5857169
21
180.0139659
0
LINE
8
DEFAULT_255_2_778
10
12.5857169
20
180.0139659
11
12.5857169
21
179.0876659
0
LINE
8
DEFAULT_255_2_778
10
12.5857169
20
179.0876659
11
13.1326169
21
179.0876659
0
LINE
8
DEFAULT_255_2_778
10
13.1326169
20
179.0876659
11
13.1326169
21
179.9973659
0
LINE
8
DEFAULT_255_2_778
10
13.1326169
20
179.9973659
11
13.1326169
21
179.9973659
0
LINE
8
DEFAULT_255_2_778
10
12.2642169
20
180.3560659
11
12.2642169
21
180.3560659
0
LINE
8
DEFAULT_255_2_778
10
12.2642169
20
180.3560659
11
12.2642169
21
180.3560659
0
LINE
8
DEFAULT_255_2_778
10
12.2642169
20
180.3560659
11
12.2642169
21
180.3560659
0
LINE
8
DEFAULT_255_2_778
10
12.2642169
20
180.3560659
11
12.2645169
21
180.3563659
0
LINE
8
DEFAULT_255_2_778
10
17.8816169
20
179.6761659
11
17.6265169
21
180.4897659
0
LINE
8
DEFAULT_255_2_778
10
17.6265169
20
180.4897659
11
17.2532169
21
180.4897659
0
LINE
8
DEFAULT_255_2_778
10
17.2532169
20
180.4897659
11
16.9981169
21
179.6427659
0
LINE
8
DEFAULT_255_2_778
10
16.9981169
20
179.6427659
11
16.7322169
21
180.4897659
0
LINE
8
DEFAULT_255_2_778
10
16.7322169
20
180.4897659
11
16.2113169
21
180.4897659
0
LINE
8
DEFAULT_255_2_778
10
16.2113169
20
180.4897659
11
16.2076169
21
180.4897659
0
LINE
8
DEFAULT_255_2_778
10
16.2076169
20
180.4897659
11
16.0007169
21
180.4897659
0
LINE
8
DEFAULT_255_2_778
10
16.0007169
20
180.4897659
11
15.7382169
21
179.7763659
0
LINE
8
DEFAULT_255_2_778
10
15.7382169
20
179.7763659
11
15.3688169
21
180.4897659
0
LINE
8
DEFAULT_255_2_778
10
15.3688169
20
180.4897659
11
14.7441169
21
180.4897659
0
LINE
8
DEFAULT_255_2_778
10
14.7441169
20
180.4897659
11
15.4794169
21
179.0710659
0
LINE
8
DEFAULT_255_2_778
10
15.4794169
20
179.0710659
11
15.3834169
21
178.8040659
0
LINE
8
DEFAULT_255_2_778
10
15.3834169
20
178.8040659
11
15.3834169
21
178.8040659
0
LINE
8
DEFAULT_255_2_778
10
15.6014169
20
178.8246659
11
15.6014169
21
178.8246659
0
LINE
8
DEFAULT_255_2_778
10
15.6014169
20
178.8246659
11
16.2091169
21
180.4838659
0
LINE
8
DEFAULT_255_2_778
10
16.2091169
20
180.4838659
11
16.6473169
21
179.0874659
0
LINE
8
DEFAULT_255_2_778
10
16.6473169
20
179.0874659
11
17.0463169
21
179.0874659
0
LINE
8
DEFAULT_255_2_778
10
17.0463169
20
179.0874659
11
17.2902169
21
179.8928659
0
LINE
8
DEFAULT_255_2_778
10
17.2902169
20
179.8928659
11
17.5416169
21
179.0874659
0
LINE
8
DEFAULT_255_2_778
10
17.5416169
20
179.0874659
11
17.9186169
21
179.0874659
0
LINE
8
DEFAULT_255_2_778
10
17.9186169
20
179.0874659
11
18.3435169
21
180.4894659
0
LINE
8
DEFAULT_255_2_778
10
18.3435169
20
180.4894659
11
18.1255169
21
180.4894659
0
LINE
8
DEFAULT_255_2_778
10
18.1255169
20
180.4894659
11
17.8816169
21
179.6758659
0
LINE
8
DEFAULT_255_2_778
10
17.8816169
20
179.6758659
11
17.8816169
21
179.6758659
0
LINE
8
DEFAULT_255_2_778
10
17.8816169
20
179.6758659
11
17.8816169
21
179.6758659
0
LINE
8
DEFAULT_255_2_778
10
17.8816169
20
179.6758659
11
17.8816169
21
179.6761659
0
LINE
8
DEFAULT_255_2_778
10
10.7495169
20
180.5608659
11
10.7495169
21
180.5608659
0
LINE
8
DEFAULT_255_2_778
10
10.7495169
20
180.5608659
11
10.7495169
21
180.5608659
0
LINE
8
DEFAULT_255_2_778
10
10.7495169
20
180.5608659
11
10.7495169
21
180.5608659
0
LINE
8
DEFAULT_255_2_778
10
10.7495169
20
180.5608659
11
10.7495169
21
180.5608659
0
LINE
8
DEFAULT_255_2_778
10
10.5611169
20
179.4091659
11
10.5611169
21
179.4091659
0
LINE
8
DEFAULT_255_2_778
10
10.5611169
20
179.4091659
11
10.5611169
21
180.1433659
0
LINE
8
DEFAULT_255_2_778
10
10.5611169
20
180.1433659
11
10.5611169
21
180.1433659
0
LINE
8
DEFAULT_255_2_778
10
10.9381169
20
180.1433659
11
10.9381169
21
180.1433659
0
LINE
8
DEFAULT_255_2_778
10
10.9381169
20
180.1433659
11
10.9381169
21
179.4091659
0
LINE
8
DEFAULT_255_2_778
10
10.9381169
20
179.4091659
11
10.9381169
21
179.4091659
0
LINE
8
DEFAULT_255_2_778
10
10.9381169
20
179.4091659
11
10.9381169
21
179.4091659
0
LINE
8
DEFAULT_255_2_778
10
10.9381169
20
179.4091659
11
10.9381169
21
179.4091659
0
LINE
8
DEFAULT_255_2_778
10
14.7190169
20
179.4017659
11
14.7190169
21
179.4017659
0
LINE
8
DEFAULT_255_2_778
10
14.7190169
20
179.4017659
11
14.5515169
21
179.4715659
0
LINE
8
DEFAULT_255_2_778
10
14.5515169
20
179.4715659
11
14.5515169
21
179.4715659
0
LINE
8
DEFAULT_255_2_778
10
13.8641169
20
179.4088659
11
13.8641169
21
179.4088659
0
LINE
8
DEFAULT_255_2_778
10
13.8641169
20
179.4088659
11
13.8641169
21
179.6634659
0
LINE
8
DEFAULT_255_2_778
10
13.8641169
20
179.6634659
11
14.8042169
21
179.6634659
0
LINE
8
DEFAULT_255_2_778
10
14.8042169
20
179.6634659
11
14.8042169
21
179.6634659
0
LINE
8
DEFAULT_255_2_778
10
14.8042169
20
179.6634659
11
14.8042169
21
179.6634659
0
LINE
8
DEFAULT_255_2_778
10
14.8042169
20
179.6634659
11
14.8047169
21
179.6634659
0
LINE
8
DEFAULT_255_2_778
10
14.2417169
20
180.1433659
11
14.2417169
21
180.1433659
0
LINE
8
DEFAULT_255_2_778
10
14.2417169
20
180.1433659
11
14.2417169
21
179.8637659
0
LINE
8
DEFAULT_255_2_778
10
14.2417169
20
179.8637659
11
13.8647169
21
179.8637659
0
LINE
8
DEFAULT_255_2_778
10
13.8647169
20
179.8637659
11
13.8647169
21
180.1433659
0
LINE
8
DEFAULT_255_2_778
10
13.8647169
20
180.1433659
11
13.8647169
21
180.1433659
0
LINE
8
DEFAULT_255_2_778
10
13.8647169
20
180.1433659
11
13.8647169
21
180.1433659
0
LINE
8
DEFAULT_255_2_778
10
13.8647169
20
180.1433659
11
13.8647169
21
180.1433659
0
LINE
8
DEFAULT_255_2_778
10
19.7818169
20
179.4017659
11
19.7818169
21
179.4017659
0
LINE
8
DEFAULT_255_2_778
10
19.7818169
20
179.4017659
11
19.6143169
21
179.4715659
0
LINE
8
DEFAULT_255_2_778
10
19.6143169
20
179.4715659
11
19.6143169
21
179.4715659
0
LINE
8
DEFAULT_255_2_778
10
18.9272169
20
179.4088659
11
18.9272169
21
179.4088659
0
LINE
8
DEFAULT_255_2_778
10
18.9272169
20
179.4088659
11
18.9272169
21
179.6634659
0
LINE
8
DEFAULT_255_2_778
10
18.9272169
20
179.6634659
11
19.8673169
21
179.6634659
0
LINE
8
DEFAULT_255_2_778
10
19.8673169
20
179.6634659
11
19.8673169
21
179.6634659
0
LINE
8
DEFAULT_255_2_778
10
19.8673169
20
179.6634659
11
19.8673169
21
179.6634659
0
LINE
8
DEFAULT_255_2_778
10
19.8673169
20
179.6634659
11
19.8673169
21
179.6634659
0
LINE
8
DEFAULT_255_2_778
10
19.3042169
20
180.1431659
11
19.3042169
21
180.1431659
0
LINE
8
DEFAULT_255_2_778
10
19.3042169
20
180.1431659
11
19.3042169
21
179.8637659
0
LINE
8
DEFAULT_255_2_778
10
19.3042169
20
179.8637659
11
18.9272169
21
179.8637659
0
LINE
8
DEFAULT_255_2_778
10
18.9272169
20
179.8637659
11
18.9272169
21
180.1433659
0
LINE
8
DEFAULT_255_2_778
10
18.9272169
20
180.1433659
11
18.9272169
21
180.1433659
0
LINE
8
DEFAULT_255_2_778
10
18.9272169
20
180.1433659
11
18.9272169
21
180.1433659
0
LINE
8
DEFAULT_255_2_778
10
18.9272169
20
180.1433659
11
18.9272169
21
180.1431659
0
LINE
8
DEFAULT_255_1_234
10
7.4354364
20
177.1274211
11
7.6346235
21
177.1274211
0
LINE
8
DEFAULT_255_1_234
10
7.6346235
20
177.1274211
11
8.0169342
21
176.1732506
0
LINE
8
DEFAULT_255_1_234
10
8.0169342
20
176.1732506
11
8.399245
21
177.1274211
0
LINE
8
DEFAULT_255_1_234
10
8.399245
20
177.1274211
11
8.5992353
21
177.1274211
0
LINE
8
DEFAULT_255_1_234
10
8.5992353
20
177.1274211
11
8.5992353
21
175.958
0
LINE
8
DEFAULT_255_1_234
10
8.5992353
20
175.958
11
8.4450259
21
175.958
0
LINE
8
DEFAULT_255_1_234
10
8.4450259
20
175.958
11
8.4450259
21
176.4133996
0
LINE
8
DEFAULT_255_1_234
10
8.4450259
20
176.4133996
11
8.459483
21
176.9049419
0
LINE
8
DEFAULT_255_1_234
10
8.459483
20
176.9049419
11
8.0755659
21
175.958
0
LINE
8
DEFAULT_255_1_234
10
8.0755659
20
175.958
11
7.9574994
21
175.958
0
LINE
8
DEFAULT_255_1_234
10
7.9574994
20
175.958
11
7.5743854
21
176.9025324
0
LINE
8
DEFAULT_255_1_234
10
7.5743854
20
176.9025324
11
7.5896458
21
176.4133996
0
LINE
8
DEFAULT_255_1_234
10
7.5896458
20
176.4133996
11
7.5896458
21
175.958
0
LINE
8
DEFAULT_255_1_234
10
7.5896458
20
175.958
11
7.4354364
21
175.958
0
LINE
8
DEFAULT_255_1_234
10
7.4354364
20
175.958
11
7.4354364
21
177.1274211
0
LINE
8
DEFAULT_255_1_234
10
9.540555
20
175.958
11
9.3847393
21
175.958
0
LINE
8
DEFAULT_255_1_234
10
9.2168759
20
176.484882
11
9.3614472
21
176.484882
0
LINE
8
DEFAULT_255_1_234
10
9.3614472
20
176.484882
11
9.3614472
21
176.5531518
0
LINE
8
DEFAULT_255_1_234
10
8.9903809
20
176.5860819
11
8.8409906
21
176.5860819
0
LINE
8
DEFAULT_255_1_234
10
9.5100344
20
176.5611835
11
9.5100344
21
176.161203
0
LINE
8
DEFAULT_255_1_234
10
9.540555
20
175.9708508
11
9.540555
21
175.958
0
LINE
8
DEFAULT_255_1_234
10
9.3614472
20
176.2013617
11
9.3614472
21
176.3796663
0
LINE
8
DEFAULT_255_1_234
10
9.3614472
20
176.3796663
11
9.244987
21
176.3796663
0
ARC
8
DEFAULT_255_1_234
10
9.4886931
20
176.0084194
40
0.1155358
50
197.0791116
51
205.8741701
0
ARC
8
DEFAULT_255_1_234
10
9.612553
20
176.0476654
40
0.2454626
50
192.2918602
51
197.3448991
0
ARC
8
DEFAULT_255_1_234
10
9.8078979
20
176.0910663
40
0.4455697
50
189.1576348
51
192.3971359
0
ARC
8
DEFAULT_255_1_234
10
10.089326
20
176.1369549
40
0.7307142
50
186.8689952
51
189.1979448
0
ARC
8
DEFAULT_255_1_234
10
9.1064414
20
176.2916258
40
0.353352
50
294.0080019
51
316.7604136
0
ARC
8
DEFAULT_255_1_234
10
9.1193478
20
176.2734572
40
0.3315331
50
269.5042461
51
293.2479736
0
ARC
8
DEFAULT_255_1_234
10
9.1133963
20
176.3135491
40
0.3716254
50
255.403374
51
270.4753162
0
ARC
8
DEFAULT_255_1_234
10
9.0903935
20
176.2242825
40
0.2794431
50
228.6140946
51
255.354999
0
ARC
8
DEFAULT_255_1_234
10
9.0571459
20
176.1924491
40
0.2336109
50
181.8953303
51
229.5703879
0
ARC
8
DEFAULT_255_1_234
10
9.1162964
20
176.1988708
40
0.2929755
50
179.984097
51
182.7679515
0
ARC
8
DEFAULT_255_1_234
10
9.1079906
20
176.2023413
40
0.28469
50
161.0341165
51
180.6820968
0
ARC
8
DEFAULT_255_1_234
10
9.0640452
20
176.2137729
40
0.2394402
50
125.0523775
51
160.2033967
0
ARC
8
DEFAULT_255_1_234
10
9.1302461
20
176.1234431
40
0.3514152
50
106.2671988
51
125.4298572
0
ARC
8
DEFAULT_255_1_234
10
9.1874917
20
175.9363842
40
0.5470269
50
95.4857064
51
106.534858
0
ARC
8
DEFAULT_255_1_234
10
9.2148071
20
175.6864758
40
0.7984089
50
89.8515322
51
95.7224983
0
ARC
8
DEFAULT_255_1_234
10
9.1508666
20
176.5549759
40
0.2105886
50
359.503704
51
14.3184734
0
ARC
8
DEFAULT_255_1_234
10
9.208279
20
176.5699017
40
0.1512684
50
14.2187004
51
45.2025693
0
ARC
8
DEFAULT_255_1_234
10
9.2118986
20
176.5713251
40
0.1477163
50
45.8098026
51
73.0032427
0
ARC
8
DEFAULT_255_1_234
10
9.1869954
20
176.4951896
40
0.2278113
50
72.610967
51
85.7232876
0
ARC
8
DEFAULT_255_1_234
10
9.1779948
20
176.4038569
40
0.3195681
50
85.3352114
51
90.0850615
0
ARC
8
DEFAULT_255_1_234
10
9.1756351
20
176.4629391
40
0.2604924
50
89.5853149
51
103.4592217
0
ARC
8
DEFAULT_255_1_234
10
9.1603954
20
176.5264597
40
0.1951693
50
103.44851
51
126.5404292
0
ARC
8
DEFAULT_255_1_234
10
9.1364834
20
176.557043
40
0.1563639
50
126.1729825
51
141.5004088
0
ARC
8
DEFAULT_255_1_234
10
9.0986435
20
176.5867385
40
0.1082645
50
141.3333588
51
180.3474677
0
ARC
8
DEFAULT_255_1_234
10
9.0312145
20
176.5850174
40
0.1902269
50
151.6374668
51
179.6793754
0
ARC
8
DEFAULT_255_1_234
10
9.0914387
20
176.5550334
40
0.2574753
50
142.4988163
51
152.1325379
0
ARC
8
DEFAULT_255_1_234
10
9.1232347
20
176.5300735
40
0.2978957
50
120.8284787
51
142.4132259
0
ARC
8
DEFAULT_255_1_234
10
9.1648456
20
176.4649301
40
0.3751664
50
113.9638113
51
121.1869885
0
ARC
8
DEFAULT_255_1_234
10
9.1784608
20
176.4317544
40
0.4110136
50
93.3784663
51
113.8198047
0
ARC
8
DEFAULT_255_1_234
10
9.186139
20
176.3552446
40
0.487853
50
89.9745882
51
93.7491274
0
ARC
8
DEFAULT_255_1_234
10
9.1896276
20
176.3588605
40
0.4842481
50
79.1325877
51
90.3871757
0
ARC
8
DEFAULT_255_1_234
10
9.2221396
20
176.5213435
40
0.3185522
50
60.1435559
51
79.3654871
0
ARC
8
DEFAULT_255_1_234
10
9.2478085
20
176.570643
40
0.2630271
50
48.6192091
51
59.646742
0
ARC
8
DEFAULT_255_1_234
10
9.2525823
20
176.5769691
40
0.2551253
50
9.0349315
51
48.4844544
0
ARC
8
DEFAULT_255_1_234
10
9.1449667
20
176.5534793
40
0.3651489
50
1.2089744
51
10.0233366
0
ARC
8
DEFAULT_255_1_234
10
10.2736412
20
176.1587518
40
0.7636108
50
179.8160804
51
185.3206488
0
ARC
8
DEFAULT_255_1_234
10
10.0040894
20
176.1330155
40
0.4928344
50
185.2474014
51
192.7953707
0
ARC
8
DEFAULT_255_1_234
10
9.8279151
20
176.0925824
40
0.3120807
50
192.7197759
51
202.9585048
0
ARC
8
DEFAULT_255_1_234
10
9.1381334
20
176.3323928
40
0.2611453
50
270.0069004
51
300.5035019
0
ARC
8
DEFAULT_255_1_234
10
9.1503942
20
176.3195927
40
0.2439274
50
299.5482464
51
315.6095048
0
ARC
8
DEFAULT_255_1_234
10
9.1794039
20
176.2899155
40
0.2024389
50
315.868035
51
334.0596869
0
ARC
8
DEFAULT_255_1_234
10
9.2406399
20
175.6822943
40
0.6973855
50
89.6428514
51
97.2870891
0
ARC
8
DEFAULT_255_1_234
10
9.1965162
20
176.0126571
40
0.3640992
50
96.9938028
51
109.7781797
0
ARC
8
DEFAULT_255_1_234
10
9.1299787
20
176.1907891
40
0.1739759
50
109.0087453
51
135.326626
0
ARC
8
DEFAULT_255_1_234
10
9.1026392
20
176.2246473
40
0.1308198
50
137.4539381
51
182.1082805
0
ARC
8
DEFAULT_255_1_234
10
9.1400382
20
176.2181893
40
0.1681384
50
179.4392907
51
195.7200177
0
ARC
8
DEFAULT_255_1_234
10
9.098881
20
176.2069426
40
0.1254738
50
195.8684065
51
230.1572205
0
ARC
8
DEFAULT_255_1_234
10
9.1231237
20
176.2359769
40
0.1632985
50
230.1530708
51
259.7485588
0
ARC
8
DEFAULT_255_1_234
10
9.1369941
20
176.3013386
40
0.230094
50
259.2463819
51
270.291543
0
LINE
8
DEFAULT_255_1_234
10
10.3895097
20
176.5716248
11
10.2401194
21
176.5716248
0
LINE
8
DEFAULT_255_1_234
10
9.706812
20
176.2254569
11
9.8553991
21
176.2254569
0
ARC
8
DEFAULT_255_1_234
10
10.1213012
20
176.1899959
40
0.1276617
50
359.3334982
51
18.5871358
0
ARC
8
DEFAULT_255_1_234
10
10.142165
20
176.1955133
40
0.1061371
50
19.3540742
51
54.6485071
0
ARC
8
DEFAULT_255_1_234
10
10.0917552
20
176.1259919
40
0.1920087
50
54.3827097
51
65.0622807
0
ARC
8
DEFAULT_255_1_234
10
10.0148948
20
175.96429
40
0.3710447
50
64.8282493
51
71.4200025
0
ARC
8
DEFAULT_255_1_234
10
9.9246823
20
175.6996107
40
0.6506741
50
71.3164301
51
75.8006402
0
ARC
8
DEFAULT_255_1_234
10
9.8405643
20
175.3755561
40
0.9854641
50
75.6809531
51
78.0061883
0
ARC
8
DEFAULT_255_1_234
10
10.2854177
20
177.473477
40
1.1591028
50
254.6901892
51
258.0466452
0
ARC
8
DEFAULT_255_1_234
10
10.1816085
20
177.0975781
40
0.7691345
50
249.9010773
51
254.755261
0
ARC
8
DEFAULT_255_1_234
10
10.0812427
20
176.8249982
40
0.478665
50
243.3097214
51
249.9709442
0
ARC
8
DEFAULT_255_1_234
10
10.0183448
20
176.6995778
40
0.3383568
50
234.4047477
51
243.2862168
0
ARC
8
DEFAULT_255_1_234
10
9.9560972
20
176.6136232
40
0.2322322
50
220.8667099
51
234.5493881
0
ARC
8
DEFAULT_255_1_234
10
9.9218913
20
176.5824817
40
0.1859923
50
214.3062465
51
220.5065136
0
ARC
8
DEFAULT_255_1_234
10
9.9192992
20
176.579388
40
0.1821108
50
186.912965
51
213.9618616
0
ARC
8
DEFAULT_255_1_234
10
9.9725087
20
176.5880009
40
0.2359799
50
179.8808832
51
187.4339886
0
ARC
8
DEFAULT_255_1_234
10
9.957022
20
176.5900088
40
0.2204978
50
132.005434
51
180.3942919
0
ARC
8
DEFAULT_255_1_234
10
10.0226834
20
176.5294083
40
0.3095791
50
129.2319861
51
133.5302299
0
ARC
8
DEFAULT_255_1_234
10
10.0280342
20
176.5199928
40
0.3202615
50
100.4410011
51
128.9081242
0
ARC
8
DEFAULT_255_1_234
10
10.0554225
20
176.3914455
40
0.4516583
50
89.6985377
51
100.9026564
0
ARC
8
DEFAULT_255_1_234
10
10.0611267
20
176.3754166
40
0.4676928
50
77.6965325
51
90.4076836
0
ARC
8
DEFAULT_255_1_234
10
10.0942252
20
176.5181413
40
0.3211988
50
50.7276602
51
78.0399361
0
ARC
8
DEFAULT_255_1_234
10
10.138671
20
176.5699296
40
0.2529778
50
25.7545084
51
51.0957453
0
ARC
8
DEFAULT_255_1_234
10
10.1387935
20
176.5749206
40
0.250738
50
359.2468627
51
24.7394243
0
ARC
8
DEFAULT_255_1_234
10
10.1103387
20
176.5720664
40
0.1297815
50
359.8050318
51
45.1544908
0
ARC
8
DEFAULT_255_1_234
10
10.0696528
20
176.5372794
40
0.1831883
50
43.8047702
51
49.6271585
0
ARC
8
DEFAULT_255_1_234
10
10.070443
20
176.5373678
40
0.18261
50
49.7980766
51
82.1218353
0
ARC
8
DEFAULT_255_1_234
10
10.0585402
20
176.4726998
40
0.2483163
50
81.4465357
51
90.1710293
0
ARC
8
DEFAULT_255_1_234
10
10.0561005
20
176.420088
40
0.300932
50
89.6766211
51
99.1264602
0
ARC
8
DEFAULT_255_1_234
10
10.0389466
20
176.5234537
40
0.1961547
50
98.968313
51
113.4570237
0
ARC
8
DEFAULT_255_1_234
10
10.0193551
20
176.5702965
40
0.1453859
50
113.722589
51
127.4763106
0
ARC
8
DEFAULT_255_1_234
10
10.0025198
20
176.5903124
40
0.1192639
50
126.9083309
51
150.3165862
0
ARC
8
DEFAULT_255_1_234
10
9.997753
20
176.5953981
40
0.112623
50
151.3635175
51
180.0701457
0
ARC
8
DEFAULT_255_1_234
10
10.0286315
20
176.593299
40
0.1435149
50
179.2169974
51
179.9954013
0
ARC
8
DEFAULT_255_1_234
10
9.9925372
20
176.5920056
40
0.1074286
50
179.3040112
51
198.4225446
0
ARC
8
DEFAULT_255_1_234
10
9.9733506
20
176.5870127
40
0.0876573
50
199.2895851
51
238.6034594
0
ARC
8
DEFAULT_255_1_234
10
10.0336352
20
176.681645
40
0.1998512
50
237.9846301
51
246.8744712
0
ARC
8
DEFAULT_255_1_234
10
10.1194297
20
176.8779205
40
0.4140547
50
246.6234531
51
251.8168941
0
ARC
8
DEFAULT_255_1_234
10
10.2224841
20
177.1873905
40
0.7402308
50
251.713434
51
255.0778414
0
ARC
8
DEFAULT_255_1_234
10
10.3424104
20
177.6340563
40
1.2027155
50
255.0367487
51
257.4705983
0
ARC
8
DEFAULT_255_1_234
10
9.8316113
20
175.3326863
40
1.1546601
50
73.6837552
51
77.5016755
0
ARC
8
DEFAULT_255_1_234
10
9.9404888
20
175.7026581
40
0.7690009
50
68.7044154
51
73.7249639
0
ARC
8
DEFAULT_255_1_234
10
10.0307909
20
175.9353654
40
0.5193873
50
63.590599
51
68.6626804
0
ARC
8
DEFAULT_255_1_234
10
10.1078928
20
176.0891123
40
0.3473927
50
54.7106439
51
63.7013633
0
ARC
8
DEFAULT_255_1_234
10
10.1703382
20
176.17634
40
0.2401192
50
41.0622434
51
54.8487496
0
ARC
8
DEFAULT_255_1_234
10
10.2044769
20
176.2076592
40
0.1938094
50
34.4950568
51
40.7105546
0
ARC
8
DEFAULT_255_1_234
10
10.2091576
20
176.2125078
40
0.1872106
50
9.3763373
51
34.0833615
0
ARC
8
DEFAULT_255_1_234
10
10.1438447
20
176.1999728
40
0.2536988
50
359.7694872
51
9.7663171
0
ARC
8
DEFAULT_255_1_234
10
10.1635947
20
176.1956764
40
0.2339696
50
335.8654732
51
0.8022045
0
ARC
8
DEFAULT_255_1_234
10
10.1710992
20
176.1970197
40
0.2277108
50
307.7357725
51
334.7849066
0
ARC
8
DEFAULT_255_1_234
10
10.1310168
20
176.2420645
40
0.2878951
50
307.0241536
51
308.5578354
0
ARC
8
DEFAULT_255_1_234
10
10.1052499
20
176.2806801
40
0.3342515
50
282.9362969
51
306.5646424
0
ARC
8
DEFAULT_255_1_234
10
10.0690796
20
176.4274108
40
0.4853615
50
271.1026298
51
283.2200835
0
ARC
8
DEFAULT_255_1_234
10
10.062704
20
176.5515418
40
0.6096052
50
269.9919117
51
271.4772449
0
ARC
8
DEFAULT_255_1_234
10
10.0600795
20
176.4437436
40
0.5018135
50
259.0723564
51
270.289833
0
ARC
8
DEFAULT_255_1_234
10
10.0388528
20
176.3320271
40
0.388099
50
245.4963068
51
259.0227342
0
ARC
8
DEFAULT_255_1_234
10
10.0110484
20
176.2738615
40
0.3236422
50
228.9684658
51
245.7044727
0
ARC
8
DEFAULT_255_1_234
10
9.9844928
20
176.2411575
40
0.2815426
50
214.4011705
51
228.6759915
0
ARC
8
DEFAULT_255_1_234
10
9.9555668
20
176.225329
40
0.2487548
50
179.9705531
51
215.1572795
0
ARC
8
DEFAULT_255_1_234
10
10.0256268
20
176.2326806
40
0.1703809
50
182.4299387
51
203.0329699
0
ARC
8
DEFAULT_255_1_234
10
10.0071926
20
176.2270396
40
0.1512226
50
203.798802
51
232.548466
0
ARC
8
DEFAULT_255_1_234
10
10.0348447
20
176.2621826
40
0.1959374
50
232.3782728
51
256.3934612
0
ARC
8
DEFAULT_255_1_234
10
10.0578809
20
176.3511842
40
0.2878639
50
256.104506
51
268.4626716
0
ARC
8
DEFAULT_255_1_234
10
10.0625293
20
176.4308487
40
0.3676329
50
268.0715632
51
270.0138206
0
ARC
8
DEFAULT_255_1_234
10
10.0643818
20
176.4036083
40
0.3403971
50
269.7031147
51
278.8341955
0
ARC
8
DEFAULT_255_1_234
10
10.0825911
20
176.2905876
40
0.2259217
50
278.6728789
51
292.8232582
0
ARC
8
DEFAULT_255_1_234
10
10.1026449
20
176.2404449
40
0.171929
50
293.1452328
51
303.6655899
0
ARC
8
DEFAULT_255_1_234
10
10.1291328
20
176.2028204
40
0.1259367
50
303.1248165
51
321.742847
0
ARC
8
DEFAULT_255_1_234
10
10.1477208
20
176.1865156
40
0.1012531
50
322.4748573
51
1.1291126
0
LINE
8
DEFAULT_255_1_234
10
10.6441158
20
177.0374656
11
10.792703
21
177.0374656
0
LINE
8
DEFAULT_255_1_234
10
10.792703
20
177.0374656
11
10.792703
21
176.8270341
0
LINE
8
DEFAULT_255_1_234
10
10.792703
20
176.8270341
11
10.9549441
21
176.8270341
0
LINE
8
DEFAULT_255_1_234
10
10.9549441
20
176.8270341
11
10.9549441
21
176.7121802
0
LINE
8
DEFAULT_255_1_234
10
10.9549441
20
176.7121802
11
10.792703
21
176.7121802
0
LINE
8
DEFAULT_255_1_234
10
10.792703
20
176.7121802
11
10.792703
21
176.1732506
0
LINE
8
DEFAULT_255_1_234
10
10.95896
20
176.0784761
11
10.95896
21
175.958
0
LINE
8
DEFAULT_255_1_234
10
10.6441158
20
176.1732506
11
10.6441158
21
176.7121802
0
LINE
8
DEFAULT_255_1_234
10
10.6441158
20
176.7121802
11
10.4858906
21
176.7121802
0
LINE
8
DEFAULT_255_1_234
10
10.4858906
20
176.7121802
11
10.4858906
21
176.8270341
0
LINE
8
DEFAULT_255_1_234
10
10.4858906
20
176.8270341
11
10.6441158
21
176.8270341
0
LINE
8
DEFAULT_255_1_234
10
10.6441158
20
176.8270341
11
10.6441158
21
177.0374656
0
ARC
8
DEFAULT_255_1_234
10
10.9934533
20
176.1722084
40
0.200753
50
179.7025659
51
187.917967
0
ARC
8
DEFAULT_255_1_234
10
10.9188559
20
176.1614724
40
0.1253883
50
187.7545981
51
200.2447476
0
ARC
8
DEFAULT_255_1_234
10
10.876788
20
176.1457859
40
0.0804913
50
200.130383
51
219.174133
0
ARC
8
DEFAULT_255_1_234
10
10.8632056
20
176.1365515
40
0.0641445
50
220.4434483
51
249.6172
0
ARC
8
DEFAULT_255_1_234
10
10.8786907
20
176.1754968
40
0.1060489
50
249.1032952
51
262.775154
0
ARC
8
DEFAULT_255_1_234
10
10.8875079
20
176.2383715
40
0.1695354
50
262.4913187
51
270.2611758
0
ARC
8
DEFAULT_255_1_234
10
10.8872496
20
176.2599103
40
0.191075
50
270.3091804
51
275.6625139
0
ARC
8
DEFAULT_255_1_234
10
10.872972
20
176.4100435
40
0.3418851
50
275.5610264
51
279.0879356
0
ARC
8
DEFAULT_255_1_234
10
10.8399598
20
176.6195699
40
0.5539959
50
279.0365489
51
281.5011378
0
ARC
8
DEFAULT_255_1_234
10
10.8042674
20
176.7999423
40
0.7378639
50
281.4243939
51
282.1017894
0
ARC
8
DEFAULT_255_1_234
10
10.8385921
20
176.3917858
40
0.4501761
50
275.2597045
51
285.5083879
0
ARC
8
DEFAULT_255_1_234
10
10.8447246
20
176.3361606
40
0.3942242
50
270.0268409
51
275.1132796
0
ARC
8
DEFAULT_255_1_234
10
10.8427211
20
176.2034614
40
0.261534
50
257.3573315
51
270.479383
0
ARC
8
DEFAULT_255_1_234
10
10.8214102
20
176.1136406
40
0.1692304
50
230.8037497
51
257.741658
0
ARC
8
DEFAULT_255_1_234
10
10.8146005
20
176.1026777
40
0.1564393
50
219.974146
51
230.1990686
0
ARC
8
DEFAULT_255_1_234
10
10.8477952
20
176.1280579
40
0.1981916
50
196.5084186
51
219.4318458
0
ARC
8
DEFAULT_255_1_234
10
10.9493397
20
176.1599194
40
0.3046086
50
184.6404872
51
196.8269686
0
ARC
8
DEFAULT_255_1_234
10
11.0738461
20
176.1724908
40
0.4297309
50
179.8986958
51
184.9681077
0
LINE
8
DEFAULT_255_1_234
10
11.0906805
20
176.3684218
11
11.0906805
21
176.3957297
0
LINE
8
DEFAULT_255_1_234
10
11.827994
20
176.4117932
11
11.827994
21
176.3499488
0
LINE
8
DEFAULT_255_1_234
10
11.827994
20
176.3499488
11
11.2392676
21
176.3499488
0
LINE
8
DEFAULT_255_1_234
10
11.725991
20
176.1804792
11
11.8167496
21
176.1097999
0
LINE
8
DEFAULT_255_1_234
10
11.2440867
20
176.4720313
11
11.6794069
21
176.4720313
0
LINE
8
DEFAULT_255_1_234
10
11.6794069
20
176.4720313
11
11.6794069
21
176.4832757
0
ARC
8
DEFAULT_255_1_234
10
11.484617
20
176.3795332
40
0.4376191
50
252.3266134
51
270.5810217
0
ARC
8
DEFAULT_255_1_234
10
11.4641259
20
176.3054644
40
0.3608374
50
223.3000567
51
251.8561855
0
ARC
8
DEFAULT_255_1_234
10
11.4852619
20
176.3259937
40
0.3902993
50
190.9374509
51
223.3654032
0
ARC
8
DEFAULT_255_1_234
10
11.6577592
20
176.3649885
40
0.5670891
50
179.6531105
51
191.4989439
0
ARC
8
DEFAULT_255_1_234
10
11.6699604
20
176.3989417
40
0.5792888
50
167.4007466
51
180.3176909
0
ARC
8
DEFAULT_255_1_234
10
11.5647666
20
176.4211885
40
0.471777
50
154.1835823
51
167.250763
0
ARC
8
DEFAULT_255_1_234
10
11.5016133
20
176.4544417
40
0.4004528
50
134.3149965
51
154.5315275
0
ARC
8
DEFAULT_255_1_234
10
11.4798628
20
176.4735228
40
0.371612
50
122.8616532
51
133.9707695
0
ARC
8
DEFAULT_255_1_234
10
11.4695202
20
176.4957703
40
0.3473289
50
89.8249009
51
123.4199222
0
ARC
8
DEFAULT_255_1_234
10
11.4745243
20
176.4310967
40
0.4120197
50
74.7876118
51
90.5482747
0
ARC
8
DEFAULT_255_1_234
10
11.5038987
20
176.539603
40
0.2996077
50
39.8178249
51
74.7633718
0
ARC
8
DEFAULT_255_1_234
10
11.4526307
20
176.4996351
40
0.3645855
50
16.8990863
51
39.4829761
0
ARC
8
DEFAULT_255_1_234
10
11.2631603
20
176.4389526
40
0.5635218
50
4.9636328
51
17.2026414
0
ARC
8
DEFAULT_255_1_234
10
11.0213673
20
176.413434
40
0.8066286
50
359.8834553
51
5.2834307
0
ARC
8
DEFAULT_255_1_234
10
11.6251198
20
176.3565803
40
0.3859091
50
180.9846213
51
194.9401313
0
ARC
8
DEFAULT_255_1_234
10
11.5201476
20
176.3278849
40
0.2770883
50
194.80314
51
222.0412631
0
ARC
8
DEFAULT_255_1_234
10
11.4897357
20
176.2977116
40
0.2343055
50
221.5417084
51
268.8614402
0
ARC
8
DEFAULT_255_1_234
10
11.4970352
20
176.3653686
40
0.3021528
50
267.732405
51
270.0097136
0
ARC
8
DEFAULT_255_1_234
10
11.4988162
20
176.3855105
40
0.3222994
50
269.6924892
51
280.4117579
0
ARC
8
DEFAULT_255_1_234
10
11.5164569
20
176.2936193
40
0.2287344
50
280.2255091
51
298.6338936
0
ARC
8
DEFAULT_255_1_234
10
11.5281361
20
176.2692223
40
0.2017294
50
299.0430333
51
300.4643464
0
ARC
8
DEFAULT_255_1_234
10
11.4601366
20
176.3826038
40
0.3339357
50
300.6577328
51
322.0378878
0
ARC
8
DEFAULT_255_1_234
10
11.4250905
20
176.4130021
40
0.3802736
50
321.6750233
51
322.3046845
0
ARC
8
DEFAULT_255_1_234
10
11.5181867
20
176.296337
40
0.3520454
50
276.9728461
51
328.0035423
0
ARC
8
DEFAULT_255_1_234
10
11.490492
20
176.4443841
40
0.5024498
50
269.8361028
51
278.0581756
0
ARC
8
DEFAULT_255_1_234
10
11.4677657
20
176.5188757
40
0.202159
50
89.2018686
51
117.2851756
0
ARC
8
DEFAULT_255_1_234
10
11.4730826
20
176.5146752
40
0.2083484
50
118.0551165
51
137.4540413
0
ARC
8
DEFAULT_255_1_234
10
11.5105566
20
176.4806304
40
0.2589774
50
137.5109581
51
158.8516286
0
ARC
8
DEFAULT_255_1_234
10
11.6243402
20
176.4347074
40
0.38167
50
158.5845963
51
170.1721436
0
ARC
8
DEFAULT_255_1_234
10
11.7412791
20
176.4114823
40
0.5008657
50
169.8376422
51
173.0566086
0
ARC
8
DEFAULT_255_1_234
10
11.2715865
20
176.4625509
40
0.4083467
50
2.9091802
51
12.8847116
0
ARC
8
DEFAULT_255_1_234
10
11.4086541
20
176.4948101
40
0.2675383
50
12.6957781
51
28.6404489
0
ARC
8
DEFAULT_255_1_234
10
11.4628212
20
176.5228458
40
0.2065654
50
29.0169854
51
41.1487595
0
ARC
8
DEFAULT_255_1_234
10
11.4830997
20
176.5405003
40
0.1796786
50
41.1646065
51
85.0013516
0
ARC
8
DEFAULT_255_1_234
10
11.4710094
20
176.4670431
40
0.2539726
50
83.7280015
51
90.0964893
0
LINE
8
DEFAULT_255_1_234
10
12.4199332
20
176.8318531
11
12.4199332
21
176.6937072
0
LINE
8
DEFAULT_255_1_234
10
12.1484604
20
176.5748375
11
12.1484604
21
175.958
0
LINE
8
DEFAULT_255_1_234
10
12.1484604
20
175.958
11
11.9998732
21
175.958
0
LINE
8
DEFAULT_255_1_234
10
11.9998732
20
175.958
11
11.9998732
21
176.8270341
0
LINE
8
DEFAULT_255_1_234
10
11.9998732
20
176.8270341
11
12.1444445
21
176.8270341
0
LINE
8
DEFAULT_255_1_234
10
12.1444445
20
176.8270341
11
12.1468541
21
176.7266374
0
ARC
8
DEFAULT_255_1_234
10
12.3532737
20
176.2877342
40
0.4114092
50
80.6754243
51
86.8932892
0
ARC
8
DEFAULT_255_1_234
10
12.3472271
20
176.19097
40
0.5083596
50
86.8038578
51
90.0431435
0
ARC
8
DEFAULT_255_1_234
10
12.3435252
20
176.4366866
40
0.2626638
50
89.2759698
51
106.6213787
0
ARC
8
DEFAULT_255_1_234
10
12.3230816
20
176.510983
40
0.1856317
50
107.1346045
51
157.6458115
0
ARC
8
DEFAULT_255_1_234
10
12.3922418
20
176.4726311
40
0.2643398
50
155.6586782
51
157.2539184
0
ARC
8
DEFAULT_255_1_234
10
12.371762
20
176.5895157
40
0.2634121
50
127.8165941
51
148.6302098
0
ARC
8
DEFAULT_255_1_234
10
12.3464089
20
176.6155218
40
0.2273596
50
91.3329982
51
126.7875809
0
ARC
8
DEFAULT_255_1_234
10
12.3540029
20
176.5440195
40
0.299078
50
89.986594
51
92.4688449
0
ARC
8
DEFAULT_255_1_234
10
12.3548424
20
176.5715078
40
0.2715908
50
85.3589899
51
90.1623399
0
ARC
8
DEFAULT_255_1_234
10
12.363294
20
176.6719164
40
0.1708278
50
78.401942
51
85.4594656
0
ARC
8
DEFAULT_255_1_234
10
12.3777824
20
176.7410236
40
0.1002194
50
67.7858312
51
78.5728455
0
ARC
8
DEFAULT_255_1_234
10
12.3885676
20
176.7689887
40
0.0702548
50
63.4835954
51
67.3062642
0
LINE
8
DEFAULT_255_1_234
10
12.7347773
20
177.1274211
11
12.7347773
21
176.0840983
0
LINE
8
DEFAULT_255_1_234
10
12.7347773
20
176.0840983
11
13.2889672
21
176.0840983
0
LINE
8
DEFAULT_255_1_234
10
13.2889672
20
176.0840983
11
13.2889672
21
175.958
0
LINE
8
DEFAULT_255_1_234
10
13.2889672
20
175.958
11
12.5797647
21
175.958
0
LINE
8
DEFAULT_255_1_234
10
12.5797647
20
175.958
11
12.5797647
21
177.1274211
0
LINE
8
DEFAULT_255_1_234
10
12.5797647
20
177.1274211
11
12.7347773
21
177.1274211
0
LINE
8
DEFAULT_255_1_234
10
13.4022147
20
176.3901075
11
13.4022147
21
176.4005488
0
LINE
8
DEFAULT_255_1_234
10
14.193341
20
176.3933202
11
14.193341
21
176.382879
0
ARC
8
DEFAULT_255_1_234
10
13.9608327
20
176.4037837
40
0.5586273
50
166.3003825
51
180.3317926
0
ARC
8
DEFAULT_255_1_234
10
13.8745486
20
176.4230964
40
0.4702272
50
153.8608245
51
166.0967125
0
ARC
8
DEFAULT_255_1_234
10
13.8079889
20
176.458775
40
0.3947658
50
135.1316692
51
154.253643
0
ARC
8
DEFAULT_255_1_234
10
13.7801448
20
176.4833666
40
0.3576898
50
121.7044358
51
134.776924
0
ARC
8
DEFAULT_255_1_234
10
13.7868442
20
176.4704867
40
0.3721701
50
93.4002104
51
121.5398234
0
ARC
8
DEFAULT_255_1_234
10
13.7963398
20
176.3879228
40
0.4551749
50
89.9706281
51
93.9769836
0
ARC
8
DEFAULT_255_1_234
10
13.801049
20
176.4269362
40
0.4161854
50
71.3323442
51
90.6161982
0
ARC
8
DEFAULT_255_1_234
10
13.8173186
20
176.4871578
40
0.3539455
50
41.1815071
51
70.707185
0
ARC
8
DEFAULT_255_1_234
10
13.7695586
20
176.4437919
40
0.4184468
50
12.1971897
51
41.3445735
0
ARC
8
DEFAULT_255_1_234
10
13.5769594
20
176.3979425
40
0.616399
50
359.5703439
51
12.5804035
0
ARC
8
DEFAULT_255_1_234
10
13.6242669
20
176.3797116
40
0.5690829
50
347.0197749
51
0.3188898
0
ARC
8
DEFAULT_255_1_234
10
13.7201171
20
176.3590808
40
0.4710501
50
334.3504053
51
346.846361
0
ARC
8
DEFAULT_255_1_234
10
13.8046594
20
176.3151805
40
0.3758475
50
310.422922
51
334.8045033
0
ARC
8
DEFAULT_255_1_234
10
13.812842
20
176.3087782
40
0.3656736
50
301.8486886
51
310.097356
0
ARC
8
DEFAULT_255_1_234
10
13.8096146
20
176.3163638
40
0.3738224
50
274.307774
51
301.655379
0
ARC
8
DEFAULT_255_1_234
10
13.7985453
20
176.4041361
40
0.4621997
50
269.9546461
51
274.8588071
0
ARC
8
DEFAULT_255_1_234
10
13.7936387
20
176.3540249
40
0.4121134
50
250.888809
51
270.631312
0
ARC
8
DEFAULT_255_1_234
10
13.7786307
20
176.2981277
40
0.3544073
50
221.1701932
51
250.2227191
0
ARC
8
DEFAULT_255_1_234
10
13.8270461
20
176.3422439
40
0.4198961
50
191.6263638
51
221.3526367
0
ARC
8
DEFAULT_255_1_234
10
14.0158457
20
176.3859329
40
0.6136451
50
179.610213
51
192.0693181
0
ARC
8
DEFAULT_255_1_234
10
14.0581685
20
176.3796633
40
0.5065736
50
179.636298
51
190.6162791
0
ARC
8
DEFAULT_255_1_234
10
13.8939353
20
176.347659
40
0.3392576
50
190.4136628
51
208.7170242
0
ARC
8
DEFAULT_255_1_234
10
13.8428977
20
176.3223366
40
0.2823401
50
209.1867941
51
217.4225593
0
ARC
8
DEFAULT_255_1_234
10
13.7899811
20
176.2757558
40
0.2120636
50
216.1156896
51
265.2575835
0
ARC
8
DEFAULT_255_1_234
10
13.797896
20
176.3331109
40
0.2698952
50
264.5897417
51
270.0601757
0
ARC
8
DEFAULT_255_1_234
10
13.801202
20
176.2951185
40
0.2319225
50
269.2532621
51
291.8792492
0
ARC
8
DEFAULT_255_1_234
10
13.8041242
20
176.2773238
40
0.2143562
50
292.9269754
51
323.1776747
0
ARC
8
DEFAULT_255_1_234
10
13.7648064
20
176.3121452
40
0.2667346
50
322.2518483
51
323.0930371
0
ARC
8
DEFAULT_255_1_234
10
13.7353723
20
176.330299
40
0.3011886
50
323.6941278
51
343.8493282
0
ARC
8
DEFAULT_255_1_234
10
13.5775266
20
176.378335
40
0.4661719
50
343.5748474
51
355.0079071
0
ARC
8
DEFAULT_255_1_234
10
13.3767511
20
176.3991424
40
0.6680042
50
354.7285225
51
0.1206288
0
ARC
8
DEFAULT_255_1_234
10
13.5535977
20
176.4037751
40
0.4911667
50
359.623636
51
11.2015604
0
ARC
8
DEFAULT_255_1_234
10
13.7070205
20
176.435364
40
0.3345323
50
10.9989411
51
30.8319188
0
ARC
8
DEFAULT_255_1_234
10
13.7466077
20
176.4562297
40
0.2898553
50
31.3008956
51
37.3959224
0
ARC
8
DEFAULT_255_1_234
10
13.7962656
20
176.4981653
40
0.2249582
50
36.5915954
51
62.2442953
0
ARC
8
DEFAULT_255_1_234
10
13.8009109
20
176.4978602
40
0.2231053
50
63.3365542
51
89.7195421
0
ARC
8
DEFAULT_255_1_234
10
13.7965963
20
176.4409884
40
0.2800267
50
88.8936788
51
90.0047485
0
ARC
8
DEFAULT_255_1_234
10
13.7934322
20
176.4982787
40
0.2227586
50
89.1921125
51
114.7099455
0
ARC
8
DEFAULT_255_1_234
10
13.7963086
20
176.5020628
40
0.2205633
50
115.7997161
51
142.2900762
0
ARC
8
DEFAULT_255_1_234
10
13.8401819
20
176.4630658
40
0.2791541
50
141.4658779
51
142.3795754
0
ARC
8
DEFAULT_255_1_234
10
13.8510723
20
176.4587557
40
0.2904292
50
143.0175714
51
163.234115
0
ARC
8
DEFAULT_255_1_234
10
14.0088896
20
176.4088054
40
0.4559523
50
162.9447461
51
174.3732162
0
ARC
8
DEFAULT_255_1_234
10
14.223471
20
176.3847143
40
0.6718682
50
174.1228657
51
180.1565175
0
LINE
8
DEFAULT_255_1_234
10
14.9354736
20
176.7306532
11
14.9427021
21
176.8270341
0
LINE
8
DEFAULT_255_1_234
10
14.9427021
20
176.8270341
11
15.0784385
21
176.8270341
0
LINE
8
DEFAULT_255_1_234
10
15.0784385
20
176.8270341
11
15.0784385
21
175.9788825
0
LINE
8
DEFAULT_255_1_234
10
14.3885122
20
175.7660415
11
14.4656169
21
175.8551938
0
LINE
8
DEFAULT_255_1_234
10
14.9290482
20
175.9700476
11
14.9290482
21
176.0447428
0
LINE
8
DEFAULT_255_1_234
10
14.9290482
20
176.1957395
11
14.9290482
21
176.5925073
0
ARC
8
DEFAULT_255_1_234
10
15.0589184
20
176.404067
40
0.7145938
50
169.8803029
51
180.346492
0
ARC
8
DEFAULT_255_1_234
10
14.8235956
20
176.4477732
40
0.4752555
50
152.8532592
51
170.0826994
0
ARC
8
DEFAULT_255_1_234
10
14.740273
20
176.4872298
40
0.3831198
50
142.0149503
51
152.4184154
0
ARC
8
DEFAULT_255_1_234
10
14.6765687
20
176.5452197
40
0.2972906
50
94.3317211
51
143.267544
0
ARC
8
DEFAULT_255_1_234
10
14.6869586
20
176.4669614
40
0.3761364
50
89.949086
51
95.0094918
0
ARC
8
DEFAULT_255_1_234
10
14.6911156
20
176.4828946
40
0.3602233
50
72.9495766
51
90.6080422
0
ARC
8
DEFAULT_255_1_234
10
14.7116262
20
176.5571804
40
0.2831969
50
37.7742493
51
72.5100279
0
ARC
8
DEFAULT_255_1_234
10
14.6196175
20
175.9750461
40
0.4588371
50
346.3654765
51
0.4790689
0
ARC
8
DEFAULT_255_1_234
10
14.7563999
20
175.9402784
40
0.3177173
50
314.3365179
51
346.6439967
0
ARC
8
DEFAULT_255_1_234
10
14.7461901
20
175.954612
40
0.3351156
50
280.7143003
51
313.8723582
0
ARC
8
DEFAULT_255_1_234
10
14.7126554
20
176.1040406
40
0.4882011
50
269.662739
51
281.3210136
0
ARC
8
DEFAULT_255_1_234
10
14.7110233
20
176.062807
40
0.4469607
50
245.5258041
51
269.8408437
0
ARC
8
DEFAULT_255_1_234
10
14.6728789
20
175.9912537
40
0.3660692
50
232.6665166
51
246.3199597
0
ARC
8
DEFAULT_255_1_234
10
14.6244583
20
175.9270155
40
0.2856276
50
214.3037329
51
232.5747698
0
ARC
8
DEFAULT_255_1_234
10
14.7362764
20
176.0695759
40
0.3452771
50
218.3818001
51
236.3658697
0
ARC
8
DEFAULT_255_1_234
10
14.6962588
20
176.0137637
40
0.2766535
50
236.8638847
51
270.6382346
0
ARC
8
DEFAULT_255_1_234
10
14.7017419
20
176.0468542
40
0.3097363
50
269.5557741
51
282.3971413
0
ARC
8
DEFAULT_255_1_234
10
14.7253494
20
175.9453559
40
0.2055403
50
282.04403
51
308.3081445
0
ARC
8
DEFAULT_255_1_234
10
14.7338892
20
175.9317365
40
0.1895677
50
308.8344832
51
315.2032883
0
ARC
8
DEFAULT_255_1_234
10
14.7260465
20
175.937477
40
0.199183
50
315.6210926
51
345.6795494
0
ARC
8
DEFAULT_255_1_234
10
14.6281352
20
175.9647308
40
0.3008009
50
345.2625808
51
358.6313382
0
ARC
8
DEFAULT_255_1_234
10
14.5392774
20
175.9699622
40
0.3897707
50
358.1745328
51
0.0125581
0
ARC
8
DEFAULT_255_1_234
10
14.7077432
20
176.2360802
40
0.2925507
50
275.695063
51
319.1537421
0
ARC
8
DEFAULT_255_1_234
10
14.6865576
20
176.3584945
40
0.4165589
50
269.8801937
51
276.923904
0
ARC
8
DEFAULT_255_1_234
10
14.6812482
20
176.247505
40
0.3056007
50
244.0749417
51
270.8321594
0
ARC
8
DEFAULT_255_1_234
10
14.6887595
20
176.2495057
40
0.3107397
50
217.7817538
51
242.9905588
0
ARC
8
DEFAULT_255_1_234
10
14.7498153
20
176.3037252
40
0.3922508
50
217.5213304
51
218.5773048
0
ARC
8
DEFAULT_255_1_234
10
14.7768685
20
176.3194333
40
0.4232938
50
195.3495212
51
216.9774018
0
ARC
8
DEFAULT_255_1_234
10
14.9791699
20
176.3782389
40
0.6339531
50
183.9386736
51
195.634887
0
ARC
8
DEFAULT_255_1_234
10
15.2067999
20
176.3986851
40
0.8624629
50
179.9295504
51
184.2550478
0
ARC
8
DEFAULT_255_1_234
10
15.0746412
20
176.3798275
40
0.5809212
50
179.6990322
51
188.5748787
0
ARC
8
DEFAULT_255_1_234
10
14.873323
20
176.3483858
40
0.377167
50
188.411837
51
202.0556851
0
ARC
8
DEFAULT_255_1_234
10
14.776446
20
176.310353
40
0.2731001
50
202.2924333
51
215.4475715
0
ARC
8
DEFAULT_255_1_234
10
14.7120087
20
176.2604537
40
0.191695
50
214.4673484
51
264.336154
0
ARC
8
DEFAULT_255_1_234
10
14.7222027
20
176.3241255
40
0.2560911
50
263.4724496
51
270.0961704
0
ARC
8
DEFAULT_255_1_234
10
14.7262229
20
176.309192
40
0.2411839
50
269.1470351
51
291.7977507
0
ARC
8
DEFAULT_255_1_234
10
14.7324663
20
176.2812994
40
0.2130159
50
293.0244875
51
327.6231489
0
ARC
8
DEFAULT_255_1_234
10
14.6616844
20
176.3330511
40
0.3005627
50
326.5166824
51
332.8160514
0
ARC
8
DEFAULT_255_1_234
10
14.6967878
20
176.4690491
40
0.2630339
50
27.9929136
51
47.6313992
0
ARC
8
DEFAULT_255_1_234
10
14.7329402
20
176.5034486
40
0.2132848
50
48.5793389
51
88.624502
0
ARC
8
DEFAULT_255_1_234
10
14.7243248
20
176.4285538
40
0.2884455
50
87.2706405
51
90.0170635
0
ARC
8
DEFAULT_255_1_234
10
14.7214572
20
176.494445
40
0.2225717
50
89.2839171
51
110.1848324
0
ARC
8
DEFAULT_255_1_234
10
14.7153059
20
176.521027
40
0.1955293
50
111.1807684
51
145.0424799
0
ARC
8
DEFAULT_255_1_234
10
14.7259839
20
176.508755
40
0.2113491
50
143.9743769
51
144.1060945
0
ARC
8
DEFAULT_255_1_234
10
14.7802806
20
176.473575
40
0.2759807
50
144.7982748
51
162.8715388
0
ARC
8
DEFAULT_255_1_234
10
14.9497456
20
176.4190842
40
0.453983
50
162.5984223
51
173.3418672
0
ARC
8
DEFAULT_255_1_234
10
15.2165234
20
176.3859851
40
0.7228019
50
173.1877442
51
180.2462216
0
LINE
8
DEFAULT_255_1_234
10
15.463962
20
176.8270341
11
15.463962
21
175.958
0
LINE
8
DEFAULT_255_1_234
10
15.463962
20
175.958
11
15.3153748
21
175.958
0
LINE
8
DEFAULT_255_1_234
10
15.3153748
20
175.958
11
15.3153748
21
176.8270341
0
LINE
8
DEFAULT_255_1_234
10
15.3153748
20
176.8270341
11
15.463962
21
176.8270341
0
ARC
8
DEFAULT_255_1_234
10
15.4011897
20
177.0584889
40
0.097867
50
161.415052
51
180.5526306
0
ARC
8
DEFAULT_255_1_234
10
15.3887675
20
177.0619077
40
0.0850062
50
138.1827368
51
160.9307106
0
ARC
8
DEFAULT_255_1_234
10
15.377762
20
177.0714588
40
0.0704362
50
104.6368899
51
138.0039868
0
ARC
8
DEFAULT_255_1_234
10
15.3884775
20
177.0347963
40
0.1086221
50
92.0600725
51
105.2189128
0
ARC
8
DEFAULT_255_1_234
10
15.3908124
20
177.0005117
40
0.1429728
50
89.9756393
51
92.5012496
0
ARC
8
DEFAULT_255_1_234
10
15.3918143
20
177.0230731
40
0.1204151
50
78.0235316
51
90.4478182
0
ARC
8
DEFAULT_255_1_234
10
15.4010235
20
177.0644295
40
0.0780493
50
55.051506
51
78.3369085
0
ARC
8
DEFAULT_255_1_234
10
15.4060509
20
177.0728711
40
0.0682538
50
42.0501187
51
54.4513741
0
ARC
8
DEFAULT_255_1_234
10
15.3925376
20
177.0604798
40
0.0865878
50
1.7497075
51
42.1496013
0
ARC
8
DEFAULT_255_1_234
10
15.3670709
20
177.0575738
40
0.1121515
50
359.9852656
51
2.8364544
0
ARC
8
DEFAULT_255_1_234
10
15.3836701
20
177.0566229
40
0.0955566
50
342.1070653
51
0.552888
0
ARC
8
DEFAULT_255_1_234
10
15.3979399
20
177.0526904
40
0.0807713
50
316.7107116
51
341.6516965
0
ARC
8
DEFAULT_255_1_234
10
15.4046436
20
177.0466823
40
0.0717724
50
285.4397031
51
316.5324284
0
ARC
8
DEFAULT_255_1_234
10
15.3936353
20
177.0832554
40
0.1099597
50
272.3547054
51
285.8953117
0
ARC
8
DEFAULT_255_1_234
10
15.3909511
20
177.1198048
40
0.1465932
50
269.9695369
51
272.8160237
0
ARC
8
DEFAULT_255_1_234
10
15.3899692
20
177.0978863
40
0.1246779
50
258.8431134
51
270.4153935
0
ARC
8
DEFAULT_255_1_234
10
15.3809735
20
177.0543414
40
0.0802162
50
238.5431189
51
259.1288175
0
ARC
8
DEFAULT_255_1_234
10
15.3741619
20
177.0419856
40
0.0661247
50
222.5062634
51
237.9906969
0
ARC
8
DEFAULT_255_1_234
10
15.3869207
20
177.0535889
40
0.0833707
50
184.1069131
51
222.460413
0
ARC
8
DEFAULT_255_1_234
10
15.4138448
20
177.0574349
40
0.1105176
50
179.9429482
51
185.0960898
0
LINE
8
DEFAULT_255_1_234
10
16.2550882
20
176.2318823
11
16.3956436
21
176.2318823
0
LINE
8
DEFAULT_255_1_234
10
15.6631491
20
176.3844853
11
15.6631491
21
176.4093837
0
LINE
8
DEFAULT_255_1_234
10
16.3956436
20
176.5282534
11
16.2550882
21
176.5282534
0
LINE
8
DEFAULT_255_1_234
10
15.8117362
20
176.4037615
11
15.8117362
21
176.3756504
0
ARC
8
DEFAULT_255_1_234
10
16.0538917
20
176.2772121
40
0.2140268
50
269.0327816
51
309.2224514
0
ARC
8
DEFAULT_255_1_234
10
16.0748672
20
176.2557108
40
0.1841255
50
308.396669
51
329.6984113
0
ARC
8
DEFAULT_255_1_234
10
16.0886527
20
176.245282
40
0.166974
50
330.401383
51
355.3970571
0
ARC
8
DEFAULT_255_1_234
10
16.1343393
20
176.2470082
40
0.2617417
50
329.2357853
51
356.6870514
0
ARC
8
DEFAULT_255_1_234
10
16.0793415
20
176.2760971
40
0.3238945
50
324.8706984
51
329.7905871
0
ARC
8
DEFAULT_255_1_234
10
16.0715133
20
176.2828106
40
0.3341614
50
298.8769168
51
324.7016144
0
ARC
8
DEFAULT_255_1_234
10
16.0383325
20
176.3356917
40
0.3965068
50
296.9023738
51
299.385174
0
ARC
8
DEFAULT_255_1_234
10
16.0512938
20
176.3069422
40
0.365007
50
269.8406811
51
297.1299281
0
ARC
8
DEFAULT_255_1_234
10
16.0459595
20
176.3707407
40
0.4288259
50
253.315473
51
270.5771285
0
ARC
8
DEFAULT_255_1_234
10
16.021263
20
176.2813739
40
0.3361372
50
221.1002312
51
252.9744583
0
ARC
8
DEFAULT_255_1_234
10
16.0672627
20
176.320859
40
0.3967576
50
194.5394537
51
221.0302238
0
ARC
8
DEFAULT_255_1_234
10
16.2521448
20
176.3723952
40
0.5886672
50
182.0499201
51
194.8773585
0
ARC
8
DEFAULT_255_1_234
10
16.4291646
20
176.384206
40
0.7660157
50
179.9791086
51
182.4591564
0
ARC
8
DEFAULT_255_1_234
10
16.255369
20
176.4123498
40
0.5922274
50
168.614861
51
180.2869651
0
ARC
8
DEFAULT_255_1_234
10
16.1351835
20
176.4359269
40
0.4697532
50
154.9162259
51
168.5402336
0
ARC
8
DEFAULT_255_1_234
10
16.0430343
20
176.481463
40
0.3669966
50
133.5746694
51
155.2558665
0
ARC
8
DEFAULT_255_1_234
10
16.0267502
20
176.4953467
40
0.3457206
50
122.0165146
51
133.2055214
0
ARC
8
DEFAULT_255_1_234
10
16.030334
20
176.4865361
40
0.355095
50
97.8731644
51
121.7531281
0
ARC
8
DEFAULT_255_1_234
10
16.0482423
20
176.3808159
40
0.4622833
50
89.8471353
51
98.2769494
0
ARC
8
DEFAULT_255_1_234
10
16.0531176
20
176.4418091
40
0.401305
50
73.3760412
51
90.5199766
0
ARC
8
DEFAULT_255_1_234
10
16.0727539
20
176.5140516
40
0.3264695
50
47.7085968
51
73.0509704
0
ARC
8
DEFAULT_255_1_234
10
16.0857409
20
176.5253128
40
0.309407
50
3.7443473
51
48.0843753
0
ARC
8
DEFAULT_255_1_234
10
15.9870359
20
176.5095614
40
0.4090351
50
2.6192045
51
5.0432185
0
ARC
8
DEFAULT_255_1_234
10
16.0327212
20
176.5135592
40
0.2228519
50
3.780656
51
23.9356886
0
ARC
8
DEFAULT_255_1_234
10
16.0555828
20
176.5216155
40
0.198697
50
24.4869552
51
46.9440088
0
ARC
8
DEFAULT_255_1_234
10
16.0556679
20
176.5239484
40
0.1969404
50
46.498716
51
89.3298174
0
ARC
8
DEFAULT_255_1_234
10
16.0495033
20
176.4644723
40
0.2565428
50
88.1083975
51
90.0061569
0
ARC
8
DEFAULT_255_1_234
10
16.0467463
20
176.4698759
40
0.251154
50
89.3773333
51
107.2071161
0
ARC
8
DEFAULT_255_1_234
10
16.0324586
20
176.521619
40
0.1975072
50
107.6883219
51
143.3583002
0
ARC
8
DEFAULT_255_1_234
10
16.0891969
20
176.4789873
40
0.2684762
50
143.2846717
51
162.935323
0
ARC
8
DEFAULT_255_1_234
10
16.2397571
20
176.4306652
40
0.4265927
50
162.6650068
51
174.0805419
0
ARC
8
DEFAULT_255_1_234
10
16.454041
20
176.4057636
40
0.6423078
50
173.8423985
51
180.1785963
0
ARC
8
DEFAULT_255_1_234
10
16.399251
20
176.3726039
40
0.5875227
50
179.7028978
51
188.2277152
0
ARC
8
DEFAULT_255_1_234
10
16.1890812
20
176.3411247
40
0.3750127
50
188.0629871
51
201.1160002
0
ARC
8
DEFAULT_255_1_234
10
16.079301
20
176.2992238
40
0.2575093
50
201.2187293
51
216.9761968
0
ARC
8
DEFAULT_255_1_234
10
16.0341573
20
176.2653993
40
0.2010998
50
217.0135981
51
265.2056839
0
ARC
8
DEFAULT_255_1_234
10
16.0497433
20
176.3575695
40
0.2943543
50
263.681807
51
270.104251
0
LINE
8
DEFAULT_255_1_234
10
16.9932049
20
177.1274211
11
17.192392
21
177.1274211
0
LINE
8
DEFAULT_255_1_234
10
17.192392
20
177.1274211
11
17.5747028
21
176.1732506
0
LINE
8
DEFAULT_255_1_234
10
17.5747028
20
176.1732506
11
17.9570135
21
177.1274211
0
LINE
8
DEFAULT_255_1_234
10
17.9570135
20
177.1274211
11
18.1570038
21
177.1274211
0
LINE
8
DEFAULT_255_1_234
10
18.1570038
20
177.1274211
11
18.1570038
21
175.958
0
LINE
8
DEFAULT_255_1_234
10
18.1570038
20
175.958
11
18.0027944
21
175.958
0
LINE
8
DEFAULT_255_1_234
10
18.0027944
20
175.958
11
18.0027944
21
176.4133996
0
LINE
8
DEFAULT_255_1_234
10
18.0027944
20
176.4133996
11
18.0172516
21
176.9049419
0
LINE
8
DEFAULT_255_1_234
10
18.0172516
20
176.9049419
11
17.6333345
21
175.958
0
LINE
8
DEFAULT_255_1_234
10
17.6333345
20
175.958
11
17.5152679
21
175.958
0
LINE
8
DEFAULT_255_1_234
10
17.5152679
20
175.958
11
17.132154
21
176.9025324
0
LINE
8
DEFAULT_255_1_234
10
17.132154
20
176.9025324
11
17.1474143
21
176.4133996
0
LINE
8
DEFAULT_255_1_234
10
17.1474143
20
176.4133996
11
17.1474143
21
175.958
0
LINE
8
DEFAULT_255_1_234
10
17.1474143
20
175.958
11
16.9932049
21
175.958
0
LINE
8
DEFAULT_255_1_234
10
16.9932049
20
175.958
11
16.9932049
21
177.1274211
0
LINE
8
DEFAULT_255_1_234
10
18.5842923
20
177.1274211
11
18.5842923
21
176.0840983
0
LINE
8
DEFAULT_255_1_234
10
18.5842923
20
176.0840983
11
19.1384822
21
176.0840983
0
LINE
8
DEFAULT_255_1_234
10
19.1384822
20
176.0840983
11
19.1384822
21
175.958
0
LINE
8
DEFAULT_255_1_234
10
19.1384822
20
175.958
11
18.4292797
21
175.958
0
LINE
8
DEFAULT_255_1_234
10
18.4292797
20
175.958
11
18.4292797
21
177.1274211
0
LINE
8
DEFAULT_255_1_234
10
18.4292797
20
177.1274211
11
18.5842923
21
177.1274211
0
LINE
8
DEFAULT_255_1_234
10
19.4629645
20
176.5137963
11
19.3440947
21
176.5443169
0
LINE
8
DEFAULT_255_1_234
10
19.3440947
20
176.5443169
11
19.4035296
21
177.1274211
0
LINE
8
DEFAULT_255_1_234
10
19.4035296
20
177.1274211
11
20.0026973
21
177.1274211
0
LINE
8
DEFAULT_255_1_234
10
20.0026973
20
177.1274211
11
20.0026973
21
176.9900784
0
LINE
8
DEFAULT_255_1_234
10
20.0026973
20
176.9900784
11
19.5296279
21
176.9900784
0
LINE
8
DEFAULT_255_1_234
10
19.5296279
20
176.9900784
11
19.4942882
21
176.6712184
0
LINE
8
DEFAULT_255_1_234
10
19.3023297
20
176.2656156
11
19.4428851
21
176.2656156
0
LINE
8
DEFAULT_255_1_234
10
19.50232
20
176.5459232
11
19.4629645
21
176.5137963
0
ARC
8
DEFAULT_255_1_234
10
19.6797666
20
176.353223
40
0.3681349
50
93.7182161
51
120.2538958
0
ARC
8
DEFAULT_255_1_234
10
19.6891929
20
176.2724394
40
0.449379
50
89.9660152
51
94.2496022
0
ARC
8
DEFAULT_255_1_234
10
19.6932663
20
176.3313549
40
0.390482
50
73.8043271
51
90.5585896
0
ARC
8
DEFAULT_255_1_234
10
19.716756
20
176.4171602
40
0.3015334
50
41.3071453
51
73.5430202
0
ARC
8
DEFAULT_255_1_234
10
19.6751388
20
176.3813324
40
0.3564457
50
13.5075983
51
41.2174222
0
ARC
8
DEFAULT_255_1_234
10
19.5109591
20
176.3383486
40
0.5261351
50
1.1331335
51
13.8829381
0
ARC
8
DEFAULT_255_1_234
10
19.369796
20
176.3307665
40
0.6674378
50
359.9919444
51
1.544251
0
ARC
8
DEFAULT_255_1_234
10
19.4974786
20
176.326628
40
0.5397702
50
347.8572367
51
0.4293338
0
ARC
8
DEFAULT_255_1_234
10
19.6725104
20
176.2869736
40
0.3603188
50
323.673004
51
348.1672506
0
ARC
8
DEFAULT_255_1_234
10
19.7019612
20
176.2690168
40
0.3259678
50
316.8171152
51
323.1492751
0
ARC
8
DEFAULT_255_1_234
10
19.7080801
20
176.265346
40
0.3189975
50
281.8396411
51
316.5457803
0
ARC
8
DEFAULT_255_1_234
10
19.6705065
20
176.4208762
40
0.4789527
50
269.5770101
51
282.4214771
0
ARC
8
DEFAULT_255_1_234
10
19.6633877
20
176.3995125
40
0.45759
50
256.2427136
51
270.4486331
0
ARC
8
DEFAULT_255_1_234
10
19.6334779
20
176.2795229
40
0.3339303
50
228.9023911
51
256.3314342
0
ARC
8
DEFAULT_255_1_234
10
19.6261011
20
176.2678746
40
0.32031
50
193.753695
51
228.5271154
0
ARC
8
DEFAULT_255_1_234
10
19.7498965
20
176.30418
40
0.4492253
50
184.924711
51
194.497588
0
ARC
8
DEFAULT_255_1_234
10
19.7691532
20
176.3077591
40
0.3289787
50
187.3600538
51
198.6732863
0
ARC
8
DEFAULT_255_1_234
10
19.6641826
20
176.2713674
40
0.217884
50
198.4451669
51
217.794479
0
ARC
8
DEFAULT_255_1_234
10
19.6346001
20
176.2504085
40
0.1816698
50
218.2887171
51
228.5612368
0
ARC
8
DEFAULT_255_1_234
10
19.6443788
20
176.2635963
40
0.1980329
50
228.9654866
51
258.1234728
0
ARC
8
DEFAULT_255_1_234
10
19.6649498
20
176.3516833
40
0.2884748
50
257.7258293
51
270.401361
0
ARC
8
DEFAULT_255_1_234
10
19.6694385
20
176.3071821
40
0.2439788
50
269.4204404
51
286.4209037
0
ARC
8
DEFAULT_255_1_234
10
19.6842872
20
176.2532657
40
0.1880666
50
286.7251356
51
320.600362
0
ARC
8
DEFAULT_255_1_234
10
19.6459697
20
176.2843595
40
0.2374121
50
320.6712579
51
344.5441685
0
ARC
8
DEFAULT_255_1_234
10
19.5303023
20
176.3183045
40
0.3579479
50
344.2412205
51
356.7357071
0
ARC
8
DEFAULT_255_1_234
10
19.4054172
20
176.3286444
40
0.4832297
50
356.3548756
51
0.0500261
0
ARC
8
DEFAULT_255_1_234
10
19.5390681
20
176.331765
40
0.3495889
50
359.5576869
51
12.953486
0
ARC
8
DEFAULT_255_1_234
10
19.6445578
20
176.3573434
40
0.2410532
50
12.6490276
51
41.6081334
0
ARC
8
DEFAULT_255_1_234
10
19.6675949
20
176.3769321
40
0.2108218
50
41.7850273
51
85.9892764
0
ARC
8
DEFAULT_255_1_234
10
19.6552686
20
176.2956462
40
0.2928454
50
84.6957577
51
90.0676183
0
ARC
8
DEFAULT_255_1_234
10
19.652917
20
176.2287716
40
0.3597255
50
89.6804936
51
99.1614436
0
ARC
8
DEFAULT_255_1_234
10
19.6323801
20
176.3515131
40
0.235281
50
98.9830931
51
113.8908934
0
ARC
8
DEFAULT_255_1_234
10
19.6094211
20
176.4056587
40
0.176479
50
114.1950727
51
127.3641004
0
LINE
8
DEFAULT_255_1_234
10
20.9327726
20
176.6495327
11
20.9327726
21
176.4567709
0
LINE
8
DEFAULT_255_1_234
10
20.1946558
20
176.4366916
11
20.1946558
21
176.6350755
0
LINE
8
DEFAULT_255_1_234
10
20.7841854
20
176.4166123
11
20.7841854
21
176.6599739
0
LINE
8
DEFAULT_255_1_234
10
20.343243
20
176.6712184
11
20.343243
21
176.4334789
0
ARC
8
DEFAULT_255_1_234
10
19.7080615
20
176.4518805
40
1.2247208
50
353.8441951
51
0.2287902
0
ARC
8
DEFAULT_255_1_234
10
20.1720119
20
176.4000806
40
0.7578929
50
344.4934747
51
353.9765454
0
ARC
8
DEFAULT_255_1_234
10
20.4712709
20
176.3149981
40
0.4467846
50
329.2803592
51
344.7472793
0
ARC
8
DEFAULT_255_1_234
10
20.5705534
20
176.2605018
40
0.3336173
50
324.9352394
51
328.6160465
0
ARC
8
DEFAULT_255_1_234
10
20.6082643
20
176.2341427
40
0.2876076
50
280.580143
51
324.9173126
0
ARC
8
DEFAULT_255_1_234
10
20.5681435
20
176.4012099
40
0.4592847
50
269.5977311
51
281.6734359
0
ARC
8
DEFAULT_255_1_234
10
20.5609341
20
176.3892173
40
0.4472986
50
256.6228859
51
270.51044
0
ARC
8
DEFAULT_255_1_234
10
20.5207319
20
176.2343877
40
0.2873874
50
215.8618325
51
257.2788573
0
ARC
8
DEFAULT_255_1_234
10
20.622835
20
176.3028977
40
0.4102928
50
197.9693508
51
215.2623606
0
ARC
8
DEFAULT_255_1_234
10
20.8713466
20
176.3867709
40
0.6725652
50
187.8816417
51
198.2346507
0
ARC
8
DEFAULT_255_1_234
10
21.2671674
20
176.4439079
40
1.0724845
50
180.8976217
51
188.0055519
0
ARC
8
DEFAULT_255_1_234
10
21.5471862
20
176.4542777
40
1.3526448
50
180.7449369
51
181.1510016
0
ARC
8
DEFAULT_255_1_234
10
21.3894591
20
176.6399042
40
1.1948131
50
173.7675579
51
180.231553
0
ARC
8
DEFAULT_255_1_234
10
20.9376738
20
176.6909666
40
0.7401564
50
164.3058563
51
173.9002247
0
ARC
8
DEFAULT_255_1_234
10
20.6464807
20
176.7748656
40
0.4371288
50
148.7922025
51
164.568378
0
ARC
8
DEFAULT_255_1_234
10
20.5513259
20
176.8279929
40
0.3282386
50
144.5883898
51
148.1176286
0
ARC
8
DEFAULT_255_1_234
10
20.5170157
20
176.8519315
40
0.2864044
50
101.6440918
51
144.514236
0
ARC
8
DEFAULT_255_1_234
10
20.5595224
20
176.6830069
40
0.4604934
50
89.5284041
51
102.5819763
0
ARC
8
DEFAULT_255_1_234
10
20.5674311
20
176.6791018
40
0.464401
50
77.0437873
51
90.5081339
0
ARC
8
DEFAULT_255_1_234
10
20.6076313
20
176.8433615
40
0.2953195
50
48.2778575
51
77.4994676
0
ARC
8
DEFAULT_255_1_234
10
20.6148944
20
176.8562746
40
0.2808655
50
36.3142134
51
47.6305865
0
ARC
8
DEFAULT_255_1_234
10
20.5280251
20
176.7977515
40
0.3855453
50
18.2931786
51
35.6769206
0
ARC
8
DEFAULT_255_1_234
10
20.273701
20
176.7104593
40
0.654423
50
8.024666
51
18.5605216
0
ARC
8
DEFAULT_255_1_234
10
19.857393
20
176.6489792
40
1.0752407
50
1.1274072
51
8.1718305
0
ARC
8
DEFAULT_255_1_234
10
19.5338121
20
176.6362885
40
1.3990231
50
0.5424119
51
1.3863029
0
ARC
8
DEFAULT_255_1_234
10
19.7159499
20
176.6635342
40
1.0682415
50
359.8090433
51
4.9407866
0
ARC
8
DEFAULT_255_1_234
10
20.1369513
20
176.7011113
40
0.6455691
50
4.8362157
51
12.2904523
0
ARC
8
DEFAULT_255_1_234
10
20.4124628
20
176.7624965
40
0.3633074
50
12.0805627
51
23.8173984
0
ARC
8
DEFAULT_255_1_234
10
20.5298333
20
176.8121919
40
0.2358723
50
24.2871213
51
31.3935614
0
ARC
8
DEFAULT_255_1_234
10
20.582303
20
176.8465233
40
0.1732111
50
30.7407893
51
82.4657128
0
ARC
8
DEFAULT_255_1_234
10
20.5643164
20
176.7581691
40
0.263235
50
81.1060089
51
90.2184952
0
ARC
8
DEFAULT_255_1_234
10
20.5607463
20
176.7839924
40
0.2374236
50
89.3806855
51
105.6762551
0
ARC
8
DEFAULT_255_1_234
10
20.5424094
20
176.8506567
40
0.1682847
50
105.7981136
51
149.7388061
0
ARC
8
DEFAULT_255_1_234
10
20.6488172
20
176.786695
40
0.2924306
50
149.4208916
51
163.6286378
0
ARC
8
DEFAULT_255_1_234
10
20.857906
20
176.722925
40
0.5110213
50
163.3763315
51
172.1410975
0
ARC
8
DEFAULT_255_1_234
10
21.1879779
20
176.6756518
40
0.8444586
50
172.0259487
51
178.0703232
0
ARC
8
DEFAULT_255_1_234
10
21.4909869
20
176.6612906
40
1.1477868
50
177.8631668
51
179.5044149
0
ARC
8
DEFAULT_255_1_234
10
21.3837273
20
176.4298389
40
1.0404907
50
179.7995573
51
185.2460446
0
ARC
8
DEFAULT_255_1_234
10
20.9794312
20
176.3915513
40
0.6343885
50
185.1411642
51
193.0079639
0
ARC
8
DEFAULT_255_1_234
10
20.7150785
20
176.3290641
40
0.3627568
50
192.7897626
51
205.2507664
0
ARC
8
DEFAULT_255_1_234
10
20.6104332
20
176.2823415
40
0.2481908
50
205.8005384
51
211.2537509
0
ARC
8
DEFAULT_255_1_234
10
20.5580772
20
176.247258
40
0.1852521
50
210.3789793
51
238.4008143
0
ARC
8
DEFAULT_255_1_234
10
20.5561294
20
176.2519376
40
0.1882621
50
239.6520629
51
265.9793761
0
ARC
8
DEFAULT_255_1_234
10
20.5646495
20
176.3191427
40
0.2559272
50
265.1315437
51
270.060332
0
ARC
8
DEFAULT_255_1_234
10
20.5675273
20
176.2867534
40
0.2235528
50
269.3314664
51
287.2178029
0
ARC
8
DEFAULT_255_1_234
10
20.5813125
20
176.2364279
40
0.1714108
50
287.7958004
51
329.080874
0
ARC
8
DEFAULT_255_1_234
10
20.4855582
20
176.296193
40
0.2842745
50
328.6634704
51
343.3325132
0
ARC
8
DEFAULT_255_1_234
10
20.2682602
20
176.3638863
40
0.5118644
50
343.0499468
51
351.9393422
0
ARC
8
DEFAULT_255_1_234
10
19.9215902
20
176.4149949
40
0.8622784
50
351.8069023
51
357.7959224
0
ARC
8
DEFAULT_255_1_234
10
19.5980458
20
176.4317721
40
1.1862365
50
357.5871873
51
359.2677531
0
LINE
8
DEFAULT_255_2_778
10
9.3932417
20
169.2010311
11
10.7161417
21
169.2010311
0
LINE
8
DEFAULT_255_2_778
10
10.7161417
20
169.2010311
11
10.7161417
21
89.8260311
0
LINE
8
DEFAULT_255_2_778
10
10.7161417
20
84.5343311
11
10.7161417
21
5.1593311
0
LINE
8
DEFAULT_255_2_778
10
10.7161417
20
5.1593311
11
9.3932417
21
5.1593311
0
LINE
8
DEFAULT_255_2_778
10
9.3932834
20
89.8260333
11
12.0390834
21
89.8260333
0
LINE
8
DEFAULT_255_2_778
10
12.0390834
20
89.8260333
11
12.0390834
21
84.5343333
0
LINE
8
DEFAULT_255_2_778
10
12.0390834
20
84.5343333
11
9.3932834
21
84.5343333
0
LINE
8
DEFAULT_255_2_778
10
9.3932834
20
84.5343333
11
9.3932834
21
89.8260333
0
LINE
8
DEFAULT_255_2_778
10
10.187
20
85.0635666
11
10.187
21
89.2968666
0
LINE
8
DEFAULT_255_2_778
10
9.9224167
20
88.503175
11
10.1870167
21
89.296875
0
LINE
8
DEFAULT_255_2_778
10
10.1870167
20
89.296875
11
10.4516167
21
88.503175
0
LINE
8
DEFAULT_255_2_778
10
10.4516167
20
88.503175
11
9.9224167
21
88.503175
0
LINE
8
DEFAULT_255_2_778
10
11.2453
20
89.2968666
11
11.2453
21
85.0635666
0
LINE
8
DEFAULT_255_2_778
10
10.9807167
20
85.857275
11
11.2453167
21
85.063575
0
LINE
8
DEFAULT_255_2_778
10
11.2453167
20
85.063575
11
11.5099167
21
85.857275
0
LINE
8
DEFAULT_255_2_778
10
11.5099167
20
85.857275
11
10.9807167
21
85.857275
0
LINE
8
DEFAULT_255_1_234
10
4.9290119
20
174.0949792
11
4.9290119
21
173.9737
0
LINE
8
DEFAULT_255_1_234
10
4.9290119
20
173.9737
11
4.162784
21
173.9737
0
LINE
8
DEFAULT_255_1_234
10
4.162784
20
173.9737
11
4.162784
21
174.0805221
0
LINE
8
DEFAULT_255_1_234
10
4.162784
20
174.0805221
11
4.5675836
21
174.5302995
0
LINE
8
DEFAULT_255_1_234
10
4.2888823
20
174.7985595
11
4.1402952
21
174.7985595
0
LINE
8
DEFAULT_255_1_234
10
4.6551296
20
174.4347218
11
4.3418918
21
174.0949792
0
LINE
8
DEFAULT_255_1_234
10
4.3418918
20
174.0949792
11
4.9290119
21
174.0949792
0
ARC
8
DEFAULT_255_1_234
10
3.218567
20
175.7232527
40
1.8008286
50
318.5132453
51
320.7828378
0
ARC
8
DEFAULT_255_1_234
10
3.7472644
20
175.2929426
40
1.1191493
50
320.7372736
51
323.9737074
0
ARC
8
DEFAULT_255_1_234
10
4.1392501
20
175.0089361
40
0.6350923
50
323.8961724
51
328.6421089
0
ARC
8
DEFAULT_255_1_234
10
4.3439096
20
174.8827031
40
0.3946393
50
328.8299013
51
331.789948
0
ARC
8
DEFAULT_255_1_234
10
4.4436274
20
174.8312509
40
0.2824501
50
331.4255242
51
352.9364833
0
ARC
8
DEFAULT_255_1_234
10
4.4572775
20
174.8281976
40
0.2685315
50
353.2248685
51
0.0169286
0
ARC
8
DEFAULT_255_1_234
10
4.4782652
20
174.830495
40
0.2475536
50
359.4866256
51
15.9339782
0
ARC
8
DEFAULT_255_1_234
10
4.5289637
20
174.8441286
40
0.1950618
50
16.1714718
51
43.5284424
0
ARC
8
DEFAULT_255_1_234
10
4.5366946
20
174.8518573
40
0.184134
50
43.4415429
51
83.1661404
0
ARC
8
DEFAULT_255_1_234
10
4.5232864
20
174.7781771
40
0.258926
50
82.160215
51
90.1505798
0
ARC
8
DEFAULT_255_1_234
10
4.5201291
20
174.7244865
40
0.3126255
50
89.5460705
51
102.5418777
0
ARC
8
DEFAULT_255_1_234
10
4.4958377
20
174.8275665
40
0.2067346
50
102.1739365
51
129.2061916
0
ARC
8
DEFAULT_255_1_234
10
4.4879449
20
174.8400094
40
0.1921118
50
129.7279328
51
135.7542026
0
ARC
8
DEFAULT_255_1_234
10
4.5000977
20
174.8303045
40
0.2075944
50
136.175737
51
166.3674722
0
ARC
8
DEFAULT_255_1_234
10
4.6007896
20
174.8033182
40
0.3118201
50
165.9092917
51
178.8683903
0
ARC
8
DEFAULT_255_1_234
10
4.6872757
20
174.7986179
40
0.3983935
50
178.438168
51
180.0083905
0
ARC
8
DEFAULT_255_1_234
10
4.5471359
20
174.8025231
40
0.4068601
50
163.2878735
51
180.5581814
0
ARC
8
DEFAULT_255_1_234
10
4.4669621
20
174.824584
40
0.3237344
50
133.454115
51
162.9470031
0
ARC
8
DEFAULT_255_1_234
10
4.4848162
20
174.8056
40
0.349795
50
100.7869394
51
133.4384016
0
ARC
8
DEFAULT_255_1_234
10
4.5195934
20
174.6507319
40
0.5084616
50
89.6605301
51
101.3704185
0
ARC
8
DEFAULT_255_1_234
10
4.5262273
20
174.6568496
40
0.502348
50
78.2171172
51
90.4130393
0
ARC
8
DEFAULT_255_1_234
10
4.5617351
20
174.8192637
40
0.3361092
50
55.9268222
51
78.4888551
0
ARC
8
DEFAULT_255_1_234
10
4.5813791
20
174.8531324
40
0.2970617
50
47.9292255
51
55.4054003
0
ARC
8
DEFAULT_255_1_234
10
4.5915352
20
174.8634502
40
0.2825983
50
4.3347696
51
48.0560701
0
ARC
8
DEFAULT_255_1_234
10
4.4819745
20
174.8464601
40
0.393225
50
359.925209
51
5.5967654
0
ARC
8
DEFAULT_255_1_234
10
4.5248637
20
174.8520816
40
0.3503892
50
337.8914096
51
358.9967724
0
ARC
8
DEFAULT_255_1_234
10
4.2535049
20
174.9567706
40
0.6412172
50
326.9135351
51
338.3505194
0
ARC
8
DEFAULT_255_1_234
10
3.8549353
20
175.2122284
40
1.1146189
50
319.6472867
51
327.095818
0
ARC
8
DEFAULT_255_1_234
10
3.4716356
20
175.5284
40
1.6114559
50
317.2586784
51
319.9046139
0
LINE
8
DEFAULT_255_1_234
10
5.7137127
20
175.1431211
11
5.7137127
21
174.366452
0
LINE
8
DEFAULT_255_1_234
10
5.7137127
20
174.366452
11
5.8759538
21
174.366452
0
LINE
8
DEFAULT_255_1_234
10
5.8759538
20
174.366452
11
5.8759538
21
174.2451728
0
LINE
8
DEFAULT_255_1_234
10
5.8759538
20
174.2451728
11
5.7137127
21
174.2451728
0
LINE
8
DEFAULT_255_1_234
10
5.7137127
20
174.2451728
11
5.7137127
21
173.9737
0
LINE
8
DEFAULT_255_1_234
10
5.7137127
20
173.9737
11
5.5643224
21
173.9737
0
LINE
8
DEFAULT_255_1_234
10
5.5643224
20
173.9737
11
5.5643224
21
174.2451728
0
LINE
8
DEFAULT_255_1_234
10
5.5643224
20
174.2451728
11
5.0318181
21
174.2451728
0
LINE
8
DEFAULT_255_1_234
10
5.0318181
20
174.2451728
11
5.0318181
21
174.3327187
0
LINE
8
DEFAULT_255_1_234
10
5.0318181
20
174.3327187
11
5.5554875
21
175.1431211
0
LINE
8
DEFAULT_255_1_234
10
5.5554875
20
175.1431211
11
5.7137127
21
175.1431211
0
LINE
8
DEFAULT_255_1_234
10
5.5466525
20
174.9077912
11
5.2004846
21
174.366452
0
LINE
8
DEFAULT_255_1_234
10
5.2004846
20
174.366452
11
5.5643224
21
174.366452
0
LINE
8
DEFAULT_255_1_234
10
5.5643224
20
174.366452
11
5.5643224
21
174.9399181
0
LINE
8
DEFAULT_255_1_234
10
5.5643224
20
174.9399181
11
5.5466525
21
174.9077912
0
LINE
8
DEFAULT_255_1_234
10
6.103252
20
175.1431211
11
6.435766
21
174.1785093
0
LINE
8
DEFAULT_255_1_234
10
6.435766
20
174.1785093
11
6.7698863
21
175.1431211
0
LINE
8
DEFAULT_255_1_234
10
6.7698863
20
175.1431211
11
6.9385528
21
175.1431211
0
LINE
8
DEFAULT_255_1_234
10
6.9385528
20
175.1431211
11
6.5048389
21
173.9737
0
LINE
8
DEFAULT_255_1_234
10
6.5048389
20
173.9737
11
6.3682994
21
173.9737
0
LINE
8
DEFAULT_255_1_234
10
6.3682994
20
173.9737
11
5.9353887
21
175.1431211
0
LINE
8
DEFAULT_255_1_234
10
5.9353887
20
175.1431211
11
6.103252
21
175.1431211
0
LINE
8
DEFAULT_255_1_234
10
4.5545137
20
5.8153433
11
4.5545137
21
4.6403
0
LINE
8
DEFAULT_255_1_234
10
4.5545137
20
4.6403
11
4.4051234
21
4.6403
0
LINE
8
DEFAULT_255_1_234
10
4.4051234
20
4.6403
11
4.4051234
21
5.6306133
0
LINE
8
DEFAULT_255_1_234
10
4.4051234
20
5.6306133
11
4.1055396
21
5.5205785
0
LINE
8
DEFAULT_255_1_234
10
4.1055396
20
5.5205785
11
4.1055396
21
5.6555117
0
LINE
8
DEFAULT_255_1_234
10
4.1055396
20
5.6555117
11
4.5312217
21
5.8153433
0
LINE
8
DEFAULT_255_1_234
10
4.5312217
20
5.8153433
11
4.5545137
21
5.8153433
0
LINE
8
DEFAULT_255_1_234
10
5.6733349
20
5.2828391
11
5.6733349
21
5.1567408
0
LINE
8
DEFAULT_255_1_234
10
5.6733349
20
5.1567408
11
5.1825957
21
5.1567408
0
LINE
8
DEFAULT_255_1_234
10
5.1825957
20
5.1567408
11
5.1825957
21
4.6403
0
LINE
8
DEFAULT_255_1_234
10
5.1825957
20
4.6403
11
5.0283863
21
4.6403
0
LINE
8
DEFAULT_255_1_234
10
5.0283863
20
4.6403
11
5.0283863
21
5.8097211
0
LINE
8
DEFAULT_255_1_234
10
5.0283863
20
5.8097211
11
5.7528491
21
5.8097211
0
LINE
8
DEFAULT_255_1_234
10
5.7528491
20
5.8097211
11
5.7528491
21
5.6828196
0
LINE
8
DEFAULT_255_1_234
10
5.7528491
20
5.6828196
11
5.1825957
21
5.6828196
0
LINE
8
DEFAULT_255_1_234
10
5.1825957
20
5.6828196
11
5.1825957
21
5.2828391
0
LINE
8
DEFAULT_255_1_234
10
5.1825957
20
5.2828391
11
5.6733349
21
5.2828391
0
LINE
8
DEFAULT_255_1_234
10
4.6471137
20
11.1070433
11
4.6471137
21
9.932
0
LINE
8
DEFAULT_255_1_234
10
4.6471137
20
9.932
11
4.4977234
21
9.932
0
LINE
8
DEFAULT_255_1_234
10
4.4977234
20
9.932
11
4.4977234
21
10.9223133
0
LINE
8
DEFAULT_255_1_234
10
4.4977234
20
10.9223133
11
4.1981396
21
10.8122785
0
LINE
8
DEFAULT_255_1_234
10
4.1981396
20
10.8122785
11
4.1981396
21
10.9472117
0
LINE
8
DEFAULT_255_1_234
10
4.1981396
20
10.9472117
11
4.6238217
21
11.1070433
0
LINE
8
DEFAULT_255_1_234
10
4.6238217
20
11.1070433
11
4.6471137
21
11.1070433
0
LINE
8
DEFAULT_255_1_234
10
5.7819983
20
10.5986343
11
5.7819983
21
10.472536
0
LINE
8
DEFAULT_255_1_234
10
5.7819983
20
10.472536
11
5.2751957
21
10.472536
0
LINE
8
DEFAULT_255_1_234
10
5.2751957
20
10.472536
11
5.2751957
21
10.0580983
0
LINE
8
DEFAULT_255_1_234
10
5.2751957
20
10.0580983
11
5.8639221
21
10.0580983
0
LINE
8
DEFAULT_255_1_234
10
5.8639221
20
10.0580983
11
5.8639221
21
9.932
0
LINE
8
DEFAULT_255_1_234
10
5.8639221
20
9.932
11
5.1209863
21
9.932
0
LINE
8
DEFAULT_255_1_234
10
5.1209863
20
9.932
11
5.1209863
21
11.1014211
0
LINE
8
DEFAULT_255_1_234
10
5.1209863
20
11.1014211
11
5.8558903
21
11.1014211
0
LINE
8
DEFAULT_255_1_234
10
5.8558903
20
11.1014211
11
5.8558903
21
10.9745196
0
LINE
8
DEFAULT_255_1_234
10
5.8558903
20
10.9745196
11
5.2751957
21
10.9745196
0
LINE
8
DEFAULT_255_1_234
10
5.2751957
20
10.9745196
11
5.2751957
21
10.5986343
0
LINE
8
DEFAULT_255_1_234
10
5.2751957
20
10.5986343
11
5.7819983
21
10.5986343
0
LINE
8
DEFAULT_255_1_234
10
4.5743137
20
16.3987433
11
4.5743137
21
15.2237
0
LINE
8
DEFAULT_255_1_234
10
4.5743137
20
15.2237
11
4.4249234
21
15.2237
0
LINE
8
DEFAULT_255_1_234
10
4.4249234
20
15.2237
11
4.4249234
21
16.2140133
0
LINE
8
DEFAULT_255_1_234
10
4.4249234
20
16.2140133
11
4.1253396
21
16.1039785
0
LINE
8
DEFAULT_255_1_234
10
4.1253396
20
16.1039785
11
4.1253396
21
16.2389117
0
LINE
8
DEFAULT_255_1_234
10
4.1253396
20
16.2389117
11
4.5510217
21
16.3987433
0
LINE
8
DEFAULT_255_1_234
10
4.5510217
20
16.3987433
11
4.5743137
21
16.3987433
0
LINE
8
DEFAULT_255_1_234
10
5.3718653
20
15.2237
11
5.0481863
21
15.2237
0
LINE
8
DEFAULT_255_1_234
10
5.0481863
20
15.2237
11
5.0481863
21
16.3931211
0
LINE
8
DEFAULT_255_1_234
10
5.0481863
20
16.3931211
11
5.3782907
21
16.3931211
0
LINE
8
DEFAULT_255_1_234
10
5.8939283
20
15.8477661
11
5.8939283
21
15.7730709
0
LINE
8
DEFAULT_255_1_234
10
5.3823066
20
16.2662196
11
5.2023957
21
16.2662196
0
LINE
8
DEFAULT_255_1_234
10
5.2023957
20
16.2662196
11
5.2023957
21
15.3497983
0
LINE
8
DEFAULT_255_1_234
10
5.2023957
20
15.3497983
11
5.3646368
21
15.3497983
0
LINE
8
DEFAULT_255_1_234
10
5.7413253
20
15.7762836
11
5.7413253
21
15.8445534
0
ARC
8
DEFAULT_255_1_234
10
5.382185
20
15.8065894
40
0.5865446
50
75.4101064
51
90.3804066
0
ARC
8
DEFAULT_255_1_234
10
5.4051363
20
15.9022492
40
0.4881916
50
60.145586
51
75.1888407
0
ARC
8
DEFAULT_255_1_234
10
5.4210139
20
15.9299199
40
0.4562893
50
26.5253612
51
60.1450928
0
ARC
8
DEFAULT_255_1_234
10
5.3089888
20
15.8705158
40
0.5830602
50
7.4030428
51
26.8320788
0
ARC
8
DEFAULT_255_1_234
10
5.1495645
20
15.8456804
40
0.7443669
50
0.1605367
51
7.7176192
0
ARC
8
DEFAULT_255_1_234
10
5.1659549
20
15.7692434
40
0.7279835
50
348.7289388
51
0.3012466
0
ARC
8
DEFAULT_255_1_234
10
5.331598
20
15.7363386
40
0.559104
50
333.0706509
51
348.7181832
0
ARC
8
DEFAULT_255_1_234
10
5.4282737
20
15.6838319
40
0.4491417
50
299.2531685
51
333.4571258
0
ARC
8
DEFAULT_255_1_234
10
5.3921877
20
15.7523828
40
0.5265881
50
278.107187
51
299.0339503
0
ARC
8
DEFAULT_255_1_234
10
5.3665956
20
15.9031216
40
0.679442
50
270.4443897
51
278.4511052
0
ARC
8
DEFAULT_255_1_234
10
5.3686786
20
15.8102213
40
0.4604407
50
269.4970433
51
284.0205042
0
ARC
8
DEFAULT_255_1_234
10
5.4042087
20
15.6736978
40
0.3193797
50
283.7700273
51
318.1555492
0
ARC
8
DEFAULT_255_1_234
10
5.3704845
20
15.6989367
40
0.3613588
50
318.7415601
51
343.6873628
0
ARC
8
DEFAULT_255_1_234
10
5.1900868
20
15.7552832
40
0.5503313
50
343.3325091
51
355.8548958
0
ARC
8
DEFAULT_255_1_234
10
4.9802553
20
15.7752319
40
0.7610708
50
355.4988528
51
0.0791727
0
ARC
8
DEFAULT_255_1_234
10
5.0585175
20
15.848778
40
0.6828208
50
359.6455037
51
9.8607896
0
ARC
8
DEFAULT_255_1_234
10
5.2945873
20
15.8914099
40
0.4429406
50
9.6571907
51
26.1932807
0
ARC
8
DEFAULT_255_1_234
10
5.3873862
20
15.9345118
40
0.3406537
50
26.5777228
51
40.1532208
0
ARC
8
DEFAULT_255_1_234
10
5.4129588
20
15.9544619
40
0.308246
50
40.3840491
51
80.1431104
0
ARC
8
DEFAULT_255_1_234
10
5.3802706
20
15.8095333
40
0.4566909
50
79.2152159
51
89.7445637
0
LINE
8
DEFAULT_255_1_234
10
4.5776137
20
21.6903433
11
4.5776137
21
20.5153
0
LINE
8
DEFAULT_255_1_234
10
4.5776137
20
20.5153
11
4.4282234
21
20.5153
0
LINE
8
DEFAULT_255_1_234
10
4.4282234
20
20.5153
11
4.4282234
21
21.5056133
0
LINE
8
DEFAULT_255_1_234
10
4.4282234
20
21.5056133
11
4.1286396
21
21.3955785
0
LINE
8
DEFAULT_255_1_234
10
4.1286396
20
21.3955785
11
4.1286396
21
21.5305117
0
LINE
8
DEFAULT_255_1_234
10
4.1286396
20
21.5305117
11
4.5543217
21
21.6903433
0
LINE
8
DEFAULT_255_1_234
10
4.5543217
20
21.6903433
11
4.5776137
21
21.6903433
0
LINE
8
DEFAULT_255_1_234
10
5.7566729
20
20.8863663
11
5.9116854
21
20.8863663
0
LINE
8
DEFAULT_255_1_234
10
5.0113276
20
21.0453947
11
5.0113276
21
21.1578391
0
LINE
8
DEFAULT_255_1_234
10
5.9116854
20
21.3088357
11
5.7566729
21
21.3088357
0
LINE
8
DEFAULT_255_1_234
10
5.1663401
20
21.1538232
11
5.1663401
21
21.0405757
0
ARC
8
DEFAULT_255_1_234
10
5.3636241
20
20.9460846
40
0.5513052
50
340.1774281
51
353.7814284
0
ARC
8
DEFAULT_255_1_234
10
5.5207594
20
20.8875582
40
0.3836379
50
311.4558989
51
340.4421614
0
ARC
8
DEFAULT_255_1_234
10
5.5174262
20
20.8986528
40
0.3941894
50
282.4333181
51
310.7513653
0
ARC
8
DEFAULT_255_1_234
10
5.4735001
20
21.0801679
40
0.5809175
50
269.9358511
51
282.809604
0
ARC
8
DEFAULT_255_1_234
10
5.4683067
20
21.2259212
40
0.7266847
50
270.0021091
51
270.3581957
0
ARC
8
DEFAULT_255_1_234
10
5.4630484
20
20.9658585
40
0.4666519
50
250.7884749
51
270.6489167
0
ARC
8
DEFAULT_255_1_234
10
5.4462319
20
20.9021319
40
0.4009729
50
219.3627325
51
250.0611886
0
ARC
8
DEFAULT_255_1_234
10
5.529153
20
20.9726042
40
0.5097822
50
193.5479632
51
219.5756669
0
ARC
8
DEFAULT_255_1_234
10
5.7663151
20
21.0341919
40
0.7547848
50
181.1218675
51
193.87563
0
ARC
8
DEFAULT_255_1_234
10
5.9733332
20
21.045258
40
0.9620055
50
179.9918545
51
181.5394234
0
ARC
8
DEFAULT_255_1_234
10
5.7882434
20
21.1615788
40
0.7769248
50
169.5837241
51
180.2757934
0
ARC
8
DEFAULT_255_1_234
10
5.6045372
20
21.1955229
40
0.590109
50
155.0365899
51
169.6003176
0
ARC
8
DEFAULT_255_1_234
10
5.4909836
20
21.2502677
40
0.4640625
50
136.783148
51
155.2472683
0
ARC
8
DEFAULT_255_1_234
10
5.4520313
20
21.2833562
40
0.4130255
50
121.7633186
51
136.428115
0
ARC
8
DEFAULT_255_1_234
10
5.4655275
20
21.2584227
40
0.4413323
50
95.6459699
51
121.5490577
0
ARC
8
DEFAULT_255_1_234
10
5.4812557
20
21.1475949
40
0.55319
50
89.924208
51
96.1377933
0
ARC
8
DEFAULT_255_1_234
10
5.486299
20
21.1594542
40
0.5413475
50
76.6779277
51
90.4563316
0
ARC
8
DEFAULT_255_1_234
10
5.5256613
20
21.3185114
40
0.3775041
50
47.485847
51
76.9287264
0
ARC
8
DEFAULT_255_1_234
10
5.5109586
20
21.3085159
40
0.3948286
50
16.5424086
51
46.8933463
0
ARC
8
DEFAULT_255_1_234
10
5.3501743
20
21.2556861
40
0.564021
50
5.4072051
51
17.0365086
0
ARC
8
DEFAULT_255_1_234
10
5.206276
20
21.2325679
40
0.5556559
50
7.8891745
51
15.9239216
0
ARC
8
DEFAULT_255_1_234
10
5.4049773
20
21.2902631
40
0.3487515
50
15.7653144
51
27.9410532
0
ARC
8
DEFAULT_255_1_234
10
5.5153991
20
21.349379
40
0.2235026
50
27.8166557
51
46.4008329
0
ARC
8
DEFAULT_255_1_234
10
5.5203634
20
21.3488082
40
0.2205286
50
47.4371857
51
75.0698205
0
ARC
8
DEFAULT_255_1_234
10
5.4895029
20
21.2413765
40
0.3322915
50
74.7008593
51
87.8124495
0
ARC
8
DEFAULT_255_1_234
10
5.4821716
20
21.1357844
40
0.4380987
50
87.3814673
51
90.0240855
0
ARC
8
DEFAULT_255_1_234
10
5.4783259
20
21.2535291
40
0.3203749
50
89.3451631
51
108.5745436
0
ARC
8
DEFAULT_255_1_234
10
5.4646365
20
21.3048908
40
0.2673494
50
109.2998449
51
143.3037509
0
ARC
8
DEFAULT_255_1_234
10
5.5408437
20
21.2462881
40
0.3634757
50
143.0753173
51
163.1916937
0
ARC
8
DEFAULT_255_1_234
10
5.7360165
20
21.1846967
40
0.5681262
50
162.9373603
51
174.6208611
0
ARC
8
DEFAULT_255_1_234
10
5.9986207
20
21.155901
40
0.8322832
50
174.3419979
51
180.1430411
0
ARC
8
DEFAULT_255_1_234
10
5.9055363
20
21.0364698
40
0.7392076
50
179.6817502
51
189.150529
0
ARC
8
DEFAULT_255_1_234
10
5.6554611
20
20.994819
40
0.4856932
50
188.9910863
51
203.5773039
0
ARC
8
DEFAULT_255_1_234
10
5.5474944
20
20.9500211
40
0.3688271
50
203.9077269
51
215.1312379
0
ARC
8
DEFAULT_255_1_234
10
5.4552038
20
20.8784941
40
0.2522457
50
213.9071664
51
263.8849284
0
ARC
8
DEFAULT_255_1_234
10
5.4677367
20
20.9569518
40
0.3316174
50
263.1758525
51
270.1031083
0
ARC
8
DEFAULT_255_1_234
10
5.4709459
20
21.0816365
40
0.4563091
50
269.6719807
51
279.0609165
0
ARC
8
DEFAULT_255_1_234
10
5.4976227
20
20.9203907
40
0.2928759
50
278.8750225
51
293.6346586
0
ARC
8
DEFAULT_255_1_234
10
5.5296435
20
20.84519
40
0.2111472
50
293.8553404
51
310.0518804
0
ARC
8
DEFAULT_255_1_234
10
5.5301289
20
20.8389516
40
0.2060917
50
311.0646779
51
332.0108348
0
ARC
8
DEFAULT_255_1_234
10
5.4109016
20
20.9046978
40
0.3422352
50
331.6588543
51
343.2878891
0
ARC
8
DEFAULT_255_1_234
10
5.2046531
20
20.9680798
40
0.5580003
50
343.1446044
51
351.010618
0
ARC
8
DEFAULT_255_1_234
10
5.0505177
20
20.9961871
40
0.7146438
50
350.7157277
51
351.1602153
0
LINE
8
DEFAULT_255_1_234
10
4.6008137
20
26.9820433
11
4.6008137
21
25.807
0
LINE
8
DEFAULT_255_1_234
10
4.6008137
20
25.807
11
4.4514234
21
25.807
0
LINE
8
DEFAULT_255_1_234
10
4.4514234
20
25.807
11
4.4514234
21
26.7973133
0
LINE
8
DEFAULT_255_1_234
10
4.4514234
20
26.7973133
11
4.1518396
21
26.6872785
0
LINE
8
DEFAULT_255_1_234
10
4.1518396
20
26.6872785
11
4.1518396
21
26.8222117
0
LINE
8
DEFAULT_255_1_234
10
4.1518396
20
26.8222117
11
4.5775217
21
26.9820433
0
LINE
8
DEFAULT_255_1_234
10
4.5775217
20
26.9820433
11
4.6008137
21
26.9820433
0
LINE
8
DEFAULT_255_1_234
10
5.4802891
20
25.807
11
5.0746863
21
25.807
0
LINE
8
DEFAULT_255_1_234
10
5.0746863
20
25.807
11
5.0746863
21
26.9764211
0
LINE
8
DEFAULT_255_1_234
10
5.0746863
20
26.9764211
11
5.456997
21
26.9764211
0
LINE
8
DEFAULT_255_1_234
10
5.4859113
20
26.3539614
11
5.2288957
21
26.3539614
0
LINE
8
DEFAULT_255_1_234
10
5.2288957
20
26.3539614
11
5.2288957
21
25.9330983
0
LINE
8
DEFAULT_255_1_234
10
5.2288957
20
25.9330983
11
5.4835018
21
25.9330983
0
LINE
8
DEFAULT_255_1_234
10
5.2288957
20
26.8495196
11
5.2288957
21
26.4776501
0
LINE
8
DEFAULT_255_1_234
10
5.2288957
20
26.4776501
11
5.4618161
21
26.4776501
0
LINE
8
DEFAULT_255_1_234
10
5.456997
20
26.8495196
11
5.2288957
21
26.8495196
0
ARC
8
DEFAULT_255_1_234
10
5.4607679
20
26.2396901
40
0.7367406
50
82.1257326
51
90.2932599
0
ARC
8
DEFAULT_255_1_234
10
5.4996634
20
26.5115013
40
0.4621653
50
69.9044149
51
82.2857423
0
ARC
8
DEFAULT_255_1_234
10
5.5567312
20
26.6657637
40
0.2976871
50
51.1838526
51
70.0181538
0
ARC
8
DEFAULT_255_1_234
10
5.5822278
20
26.702824
40
0.2528517
50
12.1017251
51
50.4214761
0
ARC
8
DEFAULT_255_1_234
10
5.4438152
20
26.6680676
40
0.3955061
50
359.5251267
51
12.8211707
0
ARC
8
DEFAULT_255_1_234
10
5.6018078
20
26.6611344
40
0.2375281
50
323.4908128
51
0.8817314
0
ARC
8
DEFAULT_255_1_234
10
5.5599765
20
26.693455
40
0.2903817
50
298.6825083
51
323.2756573
0
ARC
8
DEFAULT_255_1_234
10
5.5238128
20
26.7535649
40
0.3604842
50
293.1999386
51
299.1396394
0
ARC
8
DEFAULT_255_1_234
10
5.5911101
20
26.1450126
40
0.2871098
50
54.0011765
51
74.9167975
0
ARC
8
DEFAULT_255_1_234
10
5.602746
20
26.1647332
40
0.2643248
50
36.3580696
51
53.5291921
0
ARC
8
DEFAULT_255_1_234
10
5.5900702
20
26.1556998
40
0.2798884
50
4.8189881
51
36.3089977
0
ARC
8
DEFAULT_255_1_234
10
5.5121537
20
26.144727
40
0.358478
50
359.9370252
51
5.5204067
0
ARC
8
DEFAULT_255_1_234
10
5.4797059
20
26.1406667
40
0.3909429
50
344.7478609
51
0.5373281
0
ARC
8
DEFAULT_255_1_234
10
5.578803
20
26.1139544
40
0.2883093
50
311.1786488
51
344.6886812
0
ARC
8
DEFAULT_255_1_234
10
5.5496077
20
26.1502987
40
0.3348923
50
286.0418249
51
310.8441291
0
ARC
8
DEFAULT_255_1_234
10
5.4988909
20
26.3149807
40
0.5071869
50
274.1042341
51
286.4071509
0
ARC
8
DEFAULT_255_1_234
10
5.4812165
20
26.5033229
40
0.6963234
50
269.9236873
51
274.445647
0
ARC
8
DEFAULT_255_1_234
10
5.4858166
20
26.2693537
40
0.3362634
50
269.6055768
51
281.3740047
0
ARC
8
DEFAULT_255_1_234
10
5.5088804
20
26.1600353
40
0.224546
50
281.1055983
51
302.5132223
0
ARC
8
DEFAULT_255_1_234
10
5.5235703
20
26.1336823
40
0.1944357
50
303.0368945
51
311.8811219
0
ARC
8
DEFAULT_255_1_234
10
5.530711
20
26.125189
40
0.1833454
50
311.9916004
51
351.7143462
0
ARC
8
DEFAULT_255_1_234
10
5.449034
20
26.141693
40
0.2665871
50
350.7339597
51
0.2221581
0
ARC
8
DEFAULT_255_1_234
10
5.4382786
20
26.1473467
40
0.2773789
50
359.0456241
51
17.2296242
0
ARC
8
DEFAULT_255_1_234
10
5.5421903
20
26.1782163
40
0.1689915
50
17.6685481
51
78.9940892
0
ARC
8
DEFAULT_255_1_234
10
5.4905067
20
25.9927224
40
0.3612658
50
76.5635957
51
90.6980921
0
LINE
8
DEFAULT_255_1_234
10
5.4861051
20
26.3539613
11
5.4859113
21
26.3539614
0
ARC
8
DEFAULT_255_1_234
10
5.4640727
20
26.8062036
40
0.3285612
50
269.6064736
51
281.4533503
0
ARC
8
DEFAULT_255_1_234
10
5.4863547
20
26.7010688
40
0.2210975
50
281.2041486
51
302.5148063
0
ARC
8
DEFAULT_255_1_234
10
5.5000397
20
26.6764241
40
0.1929674
50
303.021671
51
309.8369575
0
ARC
8
DEFAULT_255_1_234
10
5.5183858
20
26.6558488
40
0.1654181
50
309.5228395
51
356.9509836
0
ARC
8
DEFAULT_255_1_234
10
5.4520441
20
26.6653932
40
0.2322512
50
355.4701227
51
0.0492546
0
ARC
8
DEFAULT_255_1_234
10
5.4241532
20
26.6676094
40
0.2601498
50
359.5558597
51
11.2096359
0
ARC
8
DEFAULT_255_1_234
10
5.5198822
20
26.687423
40
0.1623975
50
10.9182341
51
31.3230275
0
ARC
8
DEFAULT_255_1_234
10
5.5484555
20
26.7033214
40
0.1297302
50
31.8852677
51
52.1412565
0
ARC
8
DEFAULT_255_1_234
10
5.5210288
20
26.664575
40
0.1771663
50
52.8285564
51
71.9850297
0
ARC
8
DEFAULT_255_1_234
10
5.4834464
20
26.5539664
40
0.2939794
50
71.6863486
51
82.8455995
0
ARC
8
DEFAULT_255_1_234
10
5.4595
20
26.3730149
40
0.476506
50
82.6984714
51
90.1729175
0
ARC
8
DEFAULT_255_1_234
10
5.4572635
20
26.4953623
40
0.3541573
50
89.8708275
51
90.0431131
0
LINE
8
DEFAULT_255_1_234
10
4.6834137
20
32.2737433
11
4.6834137
21
31.0987
0
LINE
8
DEFAULT_255_1_234
10
4.6834137
20
31.0987
11
4.5340234
21
31.0987
0
LINE
8
DEFAULT_255_1_234
10
4.5340234
20
31.0987
11
4.5340234
21
32.0890133
0
LINE
8
DEFAULT_255_1_234
10
4.5340234
20
32.0890133
11
4.2344396
21
31.9789785
0
LINE
8
DEFAULT_255_1_234
10
4.2344396
20
31.9789785
11
4.2344396
21
32.1139117
0
LINE
8
DEFAULT_255_1_234
10
4.2344396
20
32.1139117
11
4.6601217
21
32.2737433
0
LINE
8
DEFAULT_255_1_234
10
4.6601217
20
32.2737433
11
4.6834137
21
32.2737433
0
LINE
8
DEFAULT_255_1_234
10
5.9146792
20
31.0987
11
5.803038
21
31.4039061
0
LINE
8
DEFAULT_255_1_234
10
5.803038
20
31.4039061
11
5.313102
21
31.4039061
0
LINE
8
DEFAULT_255_1_234
10
5.313102
20
31.4039061
11
5.2030672
21
31.0987
0
LINE
8
DEFAULT_255_1_234
10
5.2030672
20
31.0987
11
5.0440388
21
31.0987
0
LINE
8
DEFAULT_255_1_234
10
5.0440388
20
31.0987
11
5.4906034
21
32.2681211
0
LINE
8
DEFAULT_255_1_234
10
5.4906034
20
32.2681211
11
5.6255366
21
32.2681211
0
LINE
8
DEFAULT_255_1_234
10
5.6255366
20
32.2681211
11
6.0729044
21
31.0987
0
LINE
8
DEFAULT_255_1_234
10
6.0729044
20
31.0987
11
5.9146792
21
31.0987
0
LINE
8
DEFAULT_255_1_234
10
5.55807
20
32.0777689
11
5.3596861
21
31.5308075
0
LINE
8
DEFAULT_255_1_234
10
5.3596861
20
31.5308075
11
5.7572571
21
31.5308075
0
LINE
8
DEFAULT_255_1_234
10
5.7572571
20
31.5308075
11
5.55807
21
32.0777689
0
LINE
8
DEFAULT_255_1_234
10
4.5478137
20
37.5653433
11
4.5478137
21
36.3903
0
LINE
8
DEFAULT_255_1_234
10
4.5478137
20
36.3903
11
4.3984234
21
36.3903
0
LINE
8
DEFAULT_255_1_234
10
4.3984234
20
36.3903
11
4.3984234
21
37.3806133
0
LINE
8
DEFAULT_255_1_234
10
4.3984234
20
37.3806133
11
4.0988396
21
37.2705785
0
LINE
8
DEFAULT_255_1_234
10
4.0988396
20
37.2705785
11
4.0988396
21
37.4055117
0
LINE
8
DEFAULT_255_1_234
10
4.0988396
20
37.4055117
11
4.5245217
21
37.5653433
0
LINE
8
DEFAULT_255_1_234
10
4.5245217
20
37.5653433
11
4.5478137
21
37.5653433
0
LINE
8
DEFAULT_255_1_234
10
5.7019745
20
37.0922739
11
5.7019745
21
37.0489025
0
LINE
8
DEFAULT_255_1_234
10
5.1598322
20
36.3894968
11
5.1309179
21
36.3894968
0
LINE
8
DEFAULT_255_1_234
10
5.1309179
20
36.3894968
11
5.1309179
21
36.5147919
0
LINE
8
DEFAULT_255_1_234
10
5.1309179
20
36.5147919
11
5.1622417
21
36.5147919
0
LINE
8
DEFAULT_255_1_234
10
5.5533874
20
37.0633597
11
5.5533874
21
37.1227945
0
ARC
8
DEFAULT_255_1_234
10
5.2740143
20
37.1379403
40
0.3635579
50
297.4037347
51
320.016758
0
ARC
8
DEFAULT_255_1_234
10
5.3030092
20
37.082224
40
0.3007486
50
270.2633101
51
297.3851877
0
ARC
8
DEFAULT_255_1_234
10
5.2996048
20
37.1285904
40
0.3471448
50
269.9966443
51
270.7900392
0
ARC
8
DEFAULT_255_1_234
10
5.2970529
20
37.1284143
40
0.3469779
50
254.5999133
51
270.4180344
0
ARC
8
DEFAULT_255_1_234
10
5.2827888
20
37.0719647
40
0.2887697
50
236.4717942
51
254.3541279
0
ARC
8
DEFAULT_255_1_234
10
5.2984106
20
37.0929711
40
0.3149125
50
208.4727207
51
236.2134933
0
ARC
8
DEFAULT_255_1_234
10
5.3622881
20
37.1320455
40
0.3897115
50
204.3447514
51
209.0453999
0
ARC
8
DEFAULT_255_1_234
10
5.4302457
20
37.1608656
40
0.4635101
50
183.9375985
51
204.1276318
0
ARC
8
DEFAULT_255_1_234
10
5.5210708
20
37.1706482
40
0.5548037
50
179.9652252
51
184.3013875
0
ARC
8
DEFAULT_255_1_234
10
5.4970754
20
37.1739507
40
0.5308164
50
166.7585989
51
180.3201225
0
ARC
8
DEFAULT_255_1_234
10
5.4124368
20
37.1923488
40
0.4442163
50
154.6955053
51
166.5679793
0
ARC
8
DEFAULT_255_1_234
10
5.3271238
20
37.235321
40
0.3487299
50
136.3324195
51
155.0871442
0
ARC
8
DEFAULT_255_1_234
10
5.2990311
20
37.2593954
40
0.3117924
50
121.236733
51
135.9680508
0
ARC
8
DEFAULT_255_1_234
10
5.3130809
20
37.2333743
40
0.3413302
50
96.845628
51
120.9881519
0
ARC
8
DEFAULT_255_1_234
10
5.3276391
20
37.1398515
40
0.4359341
50
89.8870174
51
97.2802754
0
ARC
8
DEFAULT_255_1_234
10
5.3328829
20
37.2036095
40
0.3722009
50
70.6505584
51
90.6749113
0
ARC
8
DEFAULT_255_1_234
10
5.3460108
20
37.2549361
40
0.3194571
50
36.7492984
51
69.8219918
0
ARC
8
DEFAULT_255_1_234
10
5.2461273
20
37.1770993
40
0.4460685
50
15.39587
51
37.0840084
0
ARC
8
DEFAULT_255_1_234
10
5.0331706
20
37.1150242
40
0.6678714
50
3.9488873
51
15.6798563
0
ARC
8
DEFAULT_255_1_234
10
4.7930334
20
37.0933964
40
0.9089418
50
359.929245
51
4.2665314
0
ARC
8
DEFAULT_255_1_234
10
4.3324771
20
37.0422513
40
1.3695135
50
352.8366322
51
0.2782669
0
ARC
8
DEFAULT_255_1_234
10
4.861245
20
36.9735629
40
0.8363105
50
341.8359505
51
352.9884176
0
ARC
8
DEFAULT_255_1_234
10
5.1831169
20
36.86507
40
0.4966642
50
322.8578092
51
342.1527901
0
ARC
8
DEFAULT_255_1_234
10
5.2695125
20
36.8061384
40
0.3922466
50
319.334325
51
322.0998941
0
ARC
8
DEFAULT_255_1_234
10
5.2385462
20
36.8372209
40
0.4360033
50
285.9541367
51
318.8878087
0
ARC
8
DEFAULT_255_1_234
10
5.1658723
20
37.06826
40
0.678149
50
272.9281676
51
286.4922826
0
ARC
8
DEFAULT_255_1_234
10
5.1468841
20
37.2933587
40
0.9039547
50
270.8207226
51
273.4012994
0
ARC
8
DEFAULT_255_1_234
10
5.1557692
20
37.1114666
40
0.5967098
50
270.6214993
51
281.4062806
0
ARC
8
DEFAULT_255_1_234
10
5.1987673
20
36.9058833
40
0.3866861
50
281.1852553
51
299.0621114
0
ARC
8
DEFAULT_255_1_234
10
5.2361244
20
36.8337798
40
0.3055236
50
299.5067782
51
313.1200873
0
ARC
8
DEFAULT_255_1_234
10
5.2383211
20
36.8258554
40
0.2982623
50
313.8526205
51
338.5989322
0
ARC
8
DEFAULT_255_1_234
10
5.0759285
20
36.8925781
40
0.4738131
50
338.2523585
51
351.2430902
0
ARC
8
DEFAULT_255_1_234
10
4.8348581
20
36.9335447
40
0.7183203
50
350.9409515
51
357.6691871
0
ARC
8
DEFAULT_255_1_234
10
5.3239011
20
37.1337764
40
0.2294452
50
269.9447023
51
306.8248917
0
ARC
8
DEFAULT_255_1_234
10
5.3001926
20
37.1760898
40
0.2775994
50
305.5072438
51
327.0773448
0
ARC
8
DEFAULT_255_1_234
10
5.3120367
20
37.1666025
40
0.2625056
50
327.4104943
51
336.840169
0
ARC
8
DEFAULT_255_1_234
10
5.0026432
20
37.1260302
40
0.5507537
50
359.6633817
51
10.117533
0
ARC
8
DEFAULT_255_1_234
10
5.178023
20
37.1584777
40
0.372403
50
9.9430141
51
26.7700076
0
ARC
8
DEFAULT_255_1_234
10
5.2377442
20
37.1860187
40
0.3066865
50
27.2015464
51
34.6829435
0
ARC
8
DEFAULT_255_1_234
10
5.2866922
20
37.2227977
40
0.245519
50
34.1250343
51
50.3070065
0
ARC
8
DEFAULT_255_1_234
10
5.3313602
20
37.2762385
40
0.1758693
50
50.3851167
51
90.6705993
0
ARC
8
DEFAULT_255_1_234
10
5.3266835
20
37.2457799
40
0.2063326
50
89.272901
51
111.9140407
0
ARC
8
DEFAULT_255_1_234
10
5.3247363
20
37.259844
40
0.1925887
50
112.9382311
51
142.5320782
0
ARC
8
DEFAULT_255_1_234
10
5.3793543
20
37.2154969
40
0.2629232
50
142.1021256
51
166.3835592
0
ARC
8
DEFAULT_255_1_234
10
5.4974848
20
37.1849915
40
0.3849193
50
166.1100289
51
178.665427
0
ARC
8
DEFAULT_255_1_234
10
5.6022437
20
37.1791117
40
0.4897989
50
178.2632126
51
180.0111093
0
ARC
8
DEFAULT_255_1_234
10
5.5220558
20
37.1762728
40
0.40962
50
179.6161962
51
191.8787166
0
ARC
8
DEFAULT_255_1_234
10
5.4000397
20
37.1492896
40
0.2846655
50
191.6191692
51
215.2972286
0
ARC
8
DEFAULT_255_1_234
10
5.3803588
20
37.1377918
40
0.2619665
50
215.7320102
51
216.5355409
0
ARC
8
DEFAULT_255_1_234
10
5.3264674
20
37.0945647
40
0.1929497
50
215.7486685
51
239.9727502
0
ARC
8
DEFAULT_255_1_234
10
5.319459
20
37.0894894
40
0.1850822
50
241.0650169
51
269.2810483
0
ARC
8
DEFAULT_255_1_234
10
5.3236505
20
37.1385371
40
0.2342059
50
268.4062526
51
270.0071348
0
LINE
8
DEFAULT_255_1_234
10
4.5478137
20
42.8570433
11
4.5478137
21
41.682
0
LINE
8
DEFAULT_255_1_234
10
4.5478137
20
41.682
11
4.3984234
21
41.682
0
LINE
8
DEFAULT_255_1_234
10
4.3984234
20
41.682
11
4.3984234
21
42.6723133
0
LINE
8
DEFAULT_255_1_234
10
4.3984234
20
42.6723133
11
4.0988396
21
42.5622785
0
LINE
8
DEFAULT_255_1_234
10
4.0988396
20
42.5622785
11
4.0988396
21
42.6972117
0
LINE
8
DEFAULT_255_1_234
10
4.0988396
20
42.6972117
11
4.5245217
21
42.8570433
0
LINE
8
DEFAULT_255_1_234
10
4.5245217
20
42.8570433
11
4.5478137
21
42.8570433
0
ARC
8
DEFAULT_255_1_234
10
5.4101123
20
42.5436703
40
0.2822356
50
338.8763615
51
0.5166041
0
ARC
8
DEFAULT_255_1_234
10
5.4269777
20
42.5391208
40
0.2648703
50
325.8412414
51
338.4795939
0
ARC
8
DEFAULT_255_1_234
10
5.3879145
20
42.5662042
40
0.3124019
50
296.7586019
51
325.753654
0
ARC
8
DEFAULT_255_1_234
10
5.3591253
20
42.6146789
40
0.368668
50
296.0902311
51
297.3618122
0
ARC
8
DEFAULT_255_1_234
10
5.3848711
20
41.9592041
40
0.3518806
50
47.9009248
51
67.1946869
0
ARC
8
DEFAULT_255_1_234
10
5.4044953
20
41.9838395
40
0.320451
50
35.236241
51
47.551371
0
ARC
8
DEFAULT_255_1_234
10
5.4306571
20
42.0012993
40
0.2890103
50
359.2759738
51
35.4014081
0
ARC
8
DEFAULT_255_1_234
10
5.3561602
20
41.9939826
40
0.3635026
50
343.1294516
51
0.5776525
0
ARC
8
DEFAULT_255_1_234
10
5.4286147
20
41.974033
40
0.2883832
50
310.8497458
51
342.744803
0
ARC
8
DEFAULT_255_1_234
10
5.386826
20
42.0217294
40
0.3517954
50
281.5473923
51
310.9169905
0
ARC
8
DEFAULT_255_1_234
10
5.351171
20
42.1770084
40
0.5110832
50
269.6192722
51
281.9789957
0
ARC
8
DEFAULT_255_1_234
10
5.3439499
20
42.1770828
40
0.5111606
50
257.4584469
51
270.4287458
0
ARC
8
DEFAULT_255_1_234
10
5.3058642
20
42.0167344
40
0.3463762
50
228.7553743
51
257.8484423
0
ARC
8
DEFAULT_255_1_234
10
5.274884
20
41.9794442
40
0.297916
50
184.0104442
51
228.5071787
0
ARC
8
DEFAULT_255_1_234
10
5.3911784
20
41.9971512
40
0.4152734
50
179.9315461
51
185.3254504
0
ARC
8
DEFAULT_255_1_234
10
5.273543
20
42.0008992
40
0.2976554
50
145.6795913
51
180.6259649
0
ARC
8
DEFAULT_255_1_234
10
5.2898779
20
41.9894929
40
0.3175776
50
115.5537925
51
145.6416199
0
ARC
8
DEFAULT_255_1_234
10
5.3239709
20
41.9284028
40
0.3874232
50
113.2437915
51
116.2054627
0
ARC
8
DEFAULT_255_1_234
10
5.3086922
20
42.568258
40
0.3154751
50
222.9548379
51
244.1372485
0
ARC
8
DEFAULT_255_1_234
10
5.2964997
20
42.5545834
40
0.2972382
50
213.3439227
51
222.6271327
0
ARC
8
DEFAULT_255_1_234
10
5.2772932
20
42.5415308
40
0.274019
50
180.4316517
51
213.2713999
0
ARC
8
DEFAULT_255_1_234
10
5.3347933
20
42.546211
40
0.33158
50
179.9992944
51
181.1655061
0
ARC
8
DEFAULT_255_1_234
10
5.375735
20
42.5496561
40
0.3725376
50
164.6186108
51
180.5292368
0
ARC
8
DEFAULT_255_1_234
10
5.2859213
20
42.5738101
40
0.2795349
50
132.2454369
51
164.5092287
0
ARC
8
DEFAULT_255_1_234
10
5.3146317
20
42.5413028
40
0.3229019
50
100.7052766
51
132.1387266
0
ARC
8
DEFAULT_255_1_234
10
5.3451289
20
42.4035086
40
0.4639835
50
89.6732617
51
101.2449487
0
ARC
8
DEFAULT_255_1_234
10
5.3513487
20
42.420999
40
0.4464999
50
76.2876631
51
90.4586123
0
ARC
8
DEFAULT_255_1_234
10
5.3819719
20
42.543222
40
0.3205023
50
47.8240157
51
76.4266918
0
ARC
8
DEFAULT_255_1_234
10
5.4042269
20
42.569259
40
0.2862661
50
6.9168658
51
47.6261438
0
ARC
8
DEFAULT_255_1_234
10
5.2855672
20
42.547337
40
0.4067708
50
359.8419705
51
7.9694496
0
ARC
8
DEFAULT_255_1_234
10
5.3197569
20
42.0032925
40
0.2513121
50
359.4454068
51
16.9256425
0
ARC
8
DEFAULT_255_1_234
10
5.366638
20
42.0162033
40
0.2027071
50
17.292259
51
45.462717
0
ARC
8
DEFAULT_255_1_234
10
5.3612316
20
42.0115434
40
0.2098212
50
45.3028762
51
83.1921472
0
ARC
8
DEFAULT_255_1_234
10
5.3469
20
41.9313895
40
0.2911472
50
82.2614531
51
90.143954
0
ARC
8
DEFAULT_255_1_234
10
5.343812
20
41.954695
40
0.2678513
50
89.4959189
51
104.8579811
0
ARC
8
DEFAULT_255_1_234
10
5.3261379
20
42.021689
40
0.1985654
50
104.8855873
51
135.2448349
0
ARC
8
DEFAULT_255_1_234
10
5.3311152
20
42.0172336
40
0.2052373
50
135.3398955
51
172.104394
0
ARC
8
DEFAULT_255_1_234
10
5.411821
20
42.0017925
40
0.2873299
50
171.2651929
51
180.1859362
0
ARC
8
DEFAULT_255_1_234
10
5.3948911
20
41.9985733
40
0.2704083
50
179.515471
51
193.6466734
0
ARC
8
DEFAULT_255_1_234
10
5.313268
20
41.9777777
40
0.1861855
50
193.3540587
51
225.8256931
0
ARC
8
DEFAULT_255_1_234
10
5.3173437
20
41.9848524
40
0.1941102
50
226.418029
51
255.8553723
0
ARC
8
DEFAULT_255_1_234
10
5.342987
20
42.0784998
40
0.2911917
50
255.4655572
51
268.7985967
0
ARC
8
DEFAULT_255_1_234
10
5.3477062
20
42.1623491
40
0.3751331
50
268.3464808
51
270.0104874
0
ARC
8
DEFAULT_255_1_234
10
5.350045
20
42.0939138
40
0.3067064
50
269.575914
51
282.0823146
0
ARC
8
DEFAULT_255_1_234
10
5.3725359
20
41.9944803
40
0.2047712
50
281.7522535
51
306.6056425
0
ARC
8
DEFAULT_255_1_234
10
5.3823785
20
41.9783487
40
0.1859604
50
307.1350025
51
314.0277951
0
ARC
8
DEFAULT_255_1_234
10
5.3787869
20
41.9809766
40
0.1903475
50
314.2553419
51
350.169324
0
ARC
8
DEFAULT_255_1_234
10
5.2936338
20
41.9994409
40
0.2774269
50
349.4145679
51
0.2930737
0
ARC
8
DEFAULT_255_1_234
10
5.3456771
20
42.5153353
40
0.2300764
50
89.477591
51
105.729794
0
ARC
8
DEFAULT_255_1_234
10
5.3320684
20
42.5658637
40
0.1777519
50
105.922966
51
135.1662921
0
ARC
8
DEFAULT_255_1_234
10
5.3341187
20
42.5644419
40
0.1802087
50
135.3053131
51
168.9882338
0
ARC
8
DEFAULT_255_1_234
10
5.4168759
20
42.5454721
40
0.2650806
50
168.3802067
51
180.3602358
0
ARC
8
DEFAULT_255_1_234
10
5.3940339
20
42.5417041
40
0.2422425
50
179.5029707
51
194.9126783
0
ARC
8
DEFAULT_255_1_234
10
5.3355
20
42.526311
40
0.1817188
50
194.9722181
51
224.1943972
0
ARC
8
DEFAULT_255_1_234
10
5.3326867
20
42.5240169
40
0.1781027
50
224.2961434
51
262.0157375
0
ARC
8
DEFAULT_255_1_234
10
5.346911
20
42.5971661
40
0.2525492
50
261.1250369
51
270.1959853
0
ARC
8
DEFAULT_255_1_234
10
5.3498865
20
42.5784339
40
0.233825
50
269.4825617
51
285.0988277
0
ARC
8
DEFAULT_255_1_234
10
5.3653024
20
42.520599
40
0.1739712
50
285.1585659
51
315.9484648
0
ARC
8
DEFAULT_255_1_234
10
5.3564036
20
42.5287886
40
0.1860616
50
316.0412958
51
351.9162715
0
ARC
8
DEFAULT_255_1_234
10
5.2830991
20
42.5429245
40
0.2606517
50
351.1056823
51
0.1936567
0
ARC
8
DEFAULT_255_1_234
10
5.309382
20
42.5459369
40
0.234377
50
359.4789506
51
16.0679113
0
ARC
8
DEFAULT_255_1_234
10
5.3569779
20
42.558781
40
0.1850875
50
16.3251951
51
44.791304
0
ARC
8
DEFAULT_255_1_234
10
5.355206
20
42.5588339
40
0.186312
50
44.3958661
51
88.2498933
0
ARC
8
DEFAULT_255_1_234
10
5.3478614
20
42.4977154
40
0.2476868
50
86.9833827
51
90.0200148
0
LINE
8
DEFAULT_255_1_234
10
4.5478137
20
48.1487433
11
4.5478137
21
46.9737
0
LINE
8
DEFAULT_255_1_234
10
4.5478137
20
46.9737
11
4.3984234
21
46.9737
0
LINE
8
DEFAULT_255_1_234
10
4.3984234
20
46.9737
11
4.3984234
21
47.9640133
0
LINE
8
DEFAULT_255_1_234
10
4.3984234
20
47.9640133
11
4.0988396
21
47.8539785
0
LINE
8
DEFAULT_255_1_234
10
4.0988396
20
47.8539785
11
4.0988396
21
47.9889117
0
LINE
8
DEFAULT_255_1_234
10
4.0988396
20
47.9889117
11
4.5245217
21
48.1487433
0
LINE
8
DEFAULT_255_1_234
10
4.5245217
20
48.1487433
11
4.5478137
21
48.1487433
0
LINE
8
DEFAULT_255_1_234
10
5.7381173
20
48.1431211
11
5.7381173
21
48.059591
0
LINE
8
DEFAULT_255_1_234
10
5.7381173
20
48.059591
11
5.2538035
21
46.9737
0
LINE
8
DEFAULT_255_1_234
10
5.2538035
20
46.9737
11
5.0979878
21
46.9737
0
LINE
8
DEFAULT_255_1_234
10
5.0979878
20
46.9737
11
5.5806953
21
48.0210387
0
LINE
8
DEFAULT_255_1_234
10
5.5806953
20
48.0210387
11
4.9477943
21
48.0210387
0
LINE
8
DEFAULT_255_1_234
10
4.9477943
20
48.0210387
11
4.9477943
21
48.1431211
0
LINE
8
DEFAULT_255_1_234
10
4.9477943
20
48.1431211
11
5.7381173
21
48.1431211
0
LINE
8
DEFAULT_255_1_234
10
4.5478137
20
53.4403433
11
4.5478137
21
52.2653
0
LINE
8
DEFAULT_255_1_234
10
4.5478137
20
52.2653
11
4.3984234
21
52.2653
0
LINE
8
DEFAULT_255_1_234
10
4.3984234
20
52.2653
11
4.3984234
21
53.2556133
0
LINE
8
DEFAULT_255_1_234
10
4.3984234
20
53.2556133
11
4.0988396
21
53.1455785
0
LINE
8
DEFAULT_255_1_234
10
4.0988396
20
53.1455785
11
4.0988396
21
53.2805117
0
LINE
8
DEFAULT_255_1_234
10
4.0988396
20
53.2805117
11
4.5245217
21
53.4403433
0
LINE
8
DEFAULT_255_1_234
10
4.5245217
20
53.4403433
11
4.5478137
21
53.4403433
0
LINE
8
DEFAULT_255_1_234
10
5.5397334
20
53.4355243
11
5.5662381
21
53.4355243
0
LINE
8
DEFAULT_255_1_234
10
5.5662381
20
53.4355243
11
5.5662381
21
53.309426
0
LINE
8
DEFAULT_255_1_234
10
5.5662381
20
53.309426
11
5.5389302
21
53.309426
0
LINE
8
DEFAULT_255_1_234
10
4.9919688
20
52.7102583
11
4.9919688
21
52.7672836
0
LINE
8
DEFAULT_255_1_234
10
5.1413592
20
52.7480075
11
5.1413592
21
52.6933917
0
ARC
8
DEFAULT_255_1_234
10
5.544165
20
52.8096455
40
0.4998079
50
90.6001036
51
104.514704
0
ARC
8
DEFAULT_255_1_234
10
5.5053166
20
52.9541131
40
0.3502176
50
104.2855254
51
133.862935
0
ARC
8
DEFAULT_255_1_234
10
5.5216923
20
52.943283
40
0.3693984
50
134.5302688
51
161.6210873
0
ARC
8
DEFAULT_255_1_234
10
5.6870112
20
52.8849895
40
0.5446739
50
161.2849839
51
174.2076652
0
ARC
8
DEFAULT_255_1_234
10
5.8277049
20
52.8655787
40
0.6866274
50
173.7810589
51
174.9254635
0
ARC
8
DEFAULT_255_1_234
10
5.3726881
20
52.7272839
40
0.3033419
50
95.8330959
51
138.9954921
0
ARC
8
DEFAULT_255_1_234
10
5.3950237
20
52.5994375
40
0.4328947
50
89.8753725
51
97.0544009
0
ARC
8
DEFAULT_255_1_234
10
5.3997703
20
52.6829748
40
0.3493769
50
71.6407809
51
90.6240094
0
ARC
8
DEFAULT_255_1_234
10
5.4148276
20
52.7384082
40
0.2920396
50
39.6367836
51
71.019018
0
ARC
8
DEFAULT_255_1_234
10
5.3511749
20
52.6833998
40
0.3761538
50
10.658731
51
39.9043955
0
ARC
8
DEFAULT_255_1_234
10
5.1963832
20
52.6497686
40
0.5345136
50
359.682601
51
11.132623
0
ARC
8
DEFAULT_255_1_234
10
5.1923963
20
52.642701
40
0.5385081
50
347.2486944
51
0.4369317
0
ARC
8
DEFAULT_255_1_234
10
5.359144
20
52.6025807
40
0.3670249
50
318.1409698
51
347.6118597
0
ARC
8
DEFAULT_255_1_234
10
5.3916433
20
52.5758702
40
0.3250007
50
275.6342139
51
317.8248465
0
ARC
8
DEFAULT_255_1_234
10
5.3695544
20
52.7058219
40
0.4565864
50
269.8874292
51
276.7917694
0
ARC
8
DEFAULT_255_1_234
10
5.3640615
20
52.6032743
40
0.3540676
50
246.9140195
51
270.7437342
0
ARC
8
DEFAULT_255_1_234
10
5.3647005
20
52.5890384
40
0.3412781
50
218.1665114
51
245.878116
0
ARC
8
DEFAULT_255_1_234
10
5.4526466
20
52.6626279
40
0.455911
50
191.4115814
51
218.6077802
0
ARC
8
DEFAULT_255_1_234
10
5.6464555
20
52.7060833
40
0.6545001
50
179.6345085
51
191.7836486
0
ARC
8
DEFAULT_255_1_234
10
6.2046892
20
52.7739697
40
1.2127388
50
171.4525249
51
180.3158839
0
ARC
8
DEFAULT_255_1_234
10
5.7651768
20
52.8423608
40
0.7679464
50
157.9802646
51
171.6246686
0
ARC
8
DEFAULT_255_1_234
10
5.5437789
20
52.9306421
40
0.5296008
50
141.4298019
51
157.854097
0
ARC
8
DEFAULT_255_1_234
10
5.4796109
20
52.9760381
40
0.4511509
50
102.8715806
51
140.8564722
0
ARC
8
DEFAULT_255_1_234
10
5.5443725
20
52.7320552
40
0.7034845
50
90.3778349
51
103.5869322
0
ARC
8
DEFAULT_255_1_234
10
5.3705501
20
52.671573
40
0.2370698
50
89.8751008
51
126.2071704
0
ARC
8
DEFAULT_255_1_234
10
5.3751291
20
52.6561303
40
0.2522934
50
124.9745049
51
144.895901
0
ARC
8
DEFAULT_255_1_234
10
5.3575481
20
52.670456
40
0.2296779
50
145.2974905
51
160.2660252
0
ARC
8
DEFAULT_255_1_234
10
5.664802
20
52.6902071
40
0.5234525
50
179.6514266
51
190.2855912
0
ARC
8
DEFAULT_255_1_234
10
5.4954157
20
52.6582786
40
0.3510893
50
190.0945431
51
207.5098196
0
ARC
8
DEFAULT_255_1_234
10
5.4388427
20
52.6313623
40
0.288489
50
207.9583163
51
216.3251085
0
ARC
8
DEFAULT_255_1_234
10
5.4048535
20
52.6034105
40
0.2445587
50
215.7661442
51
232.5456785
0
ARC
8
DEFAULT_255_1_234
10
5.3665518
20
52.5547482
40
0.1826382
50
232.8005391
51
270.6605633
0
ARC
8
DEFAULT_255_1_234
10
5.3711219
20
52.5911612
40
0.2190529
50
269.35537
51
288.4744281
0
ARC
8
DEFAULT_255_1_234
10
5.3804116
20
52.5562118
40
0.1829749
50
289.1833337
51
322.9683818
0
ARC
8
DEFAULT_255_1_234
10
5.3192638
20
52.6044391
40
0.2608399
50
322.6007884
51
346.5182367
0
ARC
8
DEFAULT_255_1_234
10
5.2035234
20
52.6339616
40
0.3802777
50
346.2582162
51
358.7741648
0
ARC
8
DEFAULT_255_1_234
10
5.1016903
20
52.6394965
40
0.4822176
50
358.3755224
51
0.0098023
0
ARC
8
DEFAULT_255_1_234
10
5.177309
20
52.6422657
40
0.4066078
50
359.6214041
51
11.2839074
0
ARC
8
DEFAULT_255_1_234
10
5.3050237
20
52.6689066
40
0.2761514
50
11.0482309
51
31.8146458
0
ARC
8
DEFAULT_255_1_234
10
5.335928
20
52.6856584
40
0.2410679
50
32.3035391
51
38.082671
0
ARC
8
DEFAULT_255_1_234
10
5.377994
20
52.7237662
40
0.1844966
50
36.825067
51
85.7415724
0
ARC
8
DEFAULT_255_1_234
10
5.3712773
20
52.6737301
40
0.2349122
50
85.0140713
51
90.0513278
0
LINE
8
DEFAULT_255_1_234
10
4.5478137
20
58.7320433
11
4.5478137
21
57.557
0
LINE
8
DEFAULT_255_1_234
10
4.5478137
20
57.557
11
4.3984234
21
57.557
0
LINE
8
DEFAULT_255_1_234
10
4.3984234
20
57.557
11
4.3984234
21
58.5473133
0
LINE
8
DEFAULT_255_1_234
10
4.3984234
20
58.5473133
11
4.0988396
21
58.4372785
0
LINE
8
DEFAULT_255_1_234
10
4.0988396
20
58.4372785
11
4.0988396
21
58.5722117
0
LINE
8
DEFAULT_255_1_234
10
4.0988396
20
58.5722117
11
4.5245217
21
58.7320433
0
LINE
8
DEFAULT_255_1_234
10
4.5245217
20
58.7320433
11
4.5478137
21
58.7320433
0
LINE
8
DEFAULT_255_1_234
10
5.1702734
20
58.1127963
11
5.0514037
21
58.1433169
0
LINE
8
DEFAULT_255_1_234
10
5.0514037
20
58.1433169
11
5.1108386
21
58.7264211
0
LINE
8
DEFAULT_255_1_234
10
5.1108386
20
58.7264211
11
5.7100063
21
58.7264211
0
LINE
8
DEFAULT_255_1_234
10
5.7100063
20
58.7264211
11
5.7100063
21
58.5890784
0
LINE
8
DEFAULT_255_1_234
10
5.7100063
20
58.5890784
11
5.2369369
21
58.5890784
0
LINE
8
DEFAULT_255_1_234
10
5.2369369
20
58.5890784
11
5.2015972
21
58.2702184
0
LINE
8
DEFAULT_255_1_234
10
5.0096387
20
57.8646156
11
5.1501941
21
57.8646156
0
LINE
8
DEFAULT_255_1_234
10
5.209629
20
58.1449232
11
5.1702734
21
58.1127963
0
ARC
8
DEFAULT_255_1_234
10
5.3870756
20
57.952223
40
0.3681349
50
93.7182161
51
120.2538958
0
ARC
8
DEFAULT_255_1_234
10
5.3965019
20
57.8714394
40
0.449379
50
89.9660152
51
94.2496022
0
ARC
8
DEFAULT_255_1_234
10
5.4005753
20
57.9303549
40
0.390482
50
73.8043271
51
90.5585896
0
ARC
8
DEFAULT_255_1_234
10
5.424065
20
58.0161602
40
0.3015334
50
41.3071453
51
73.5430202
0
ARC
8
DEFAULT_255_1_234
10
5.3824477
20
57.9803324
40
0.3564457
50
13.5075983
51
41.2174222
0
ARC
8
DEFAULT_255_1_234
10
5.2182681
20
57.9373486
40
0.5261351
50
1.1331335
51
13.8829381
0
ARC
8
DEFAULT_255_1_234
10
5.077105
20
57.9297665
40
0.6674378
50
359.9919444
51
1.544251
0
ARC
8
DEFAULT_255_1_234
10
5.2047876
20
57.925628
40
0.5397702
50
347.8572367
51
0.4293338
0
ARC
8
DEFAULT_255_1_234
10
5.3798194
20
57.8859736
40
0.3603188
50
323.673004
51
348.1672506
0
ARC
8
DEFAULT_255_1_234
10
5.4092702
20
57.8680168
40
0.3259678
50
316.8171152
51
323.1492751
0
ARC
8
DEFAULT_255_1_234
10
5.4153891
20
57.864346
40
0.3189975
50
281.8396411
51
316.5457803
0
ARC
8
DEFAULT_255_1_234
10
5.3778155
20
58.0198762
40
0.4789527
50
269.5770101
51
282.4214771
0
ARC
8
DEFAULT_255_1_234
10
5.3706966
20
57.9985125
40
0.45759
50
256.2427136
51
270.4486331
0
ARC
8
DEFAULT_255_1_234
10
5.3407869
20
57.8785229
40
0.3339303
50
228.9023911
51
256.3314342
0
ARC
8
DEFAULT_255_1_234
10
5.3334101
20
57.8668746
40
0.32031
50
193.753695
51
228.5271154
0
ARC
8
DEFAULT_255_1_234
10
5.4572055
20
57.90318
40
0.4492253
50
184.924711
51
194.497588
0
ARC
8
DEFAULT_255_1_234
10
5.4764622
20
57.9067591
40
0.3289787
50
187.3600538
51
198.6732863
0
ARC
8
DEFAULT_255_1_234
10
5.3714916
20
57.8703674
40
0.217884
50
198.4451669
51
217.794479
0
ARC
8
DEFAULT_255_1_234
10
5.3419091
20
57.8494085
40
0.1816698
50
218.2887171
51
228.5612368
0
ARC
8
DEFAULT_255_1_234
10
5.3516878
20
57.8625963
40
0.1980329
50
228.9654866
51
258.1234728
0
ARC
8
DEFAULT_255_1_234
10
5.3722588
20
57.9506833
40
0.2884748
50
257.7258293
51
270.401361
0
ARC
8
DEFAULT_255_1_234
10
5.3767474
20
57.9061821
40
0.2439788
50
269.4204404
51
286.4209037
0
ARC
8
DEFAULT_255_1_234
10
5.3915962
20
57.8522657
40
0.1880666
50
286.7251356
51
320.600362
0
ARC
8
DEFAULT_255_1_234
10
5.3532787
20
57.8833595
40
0.2374121
50
320.6712579
51
344.5441685
0
ARC
8
DEFAULT_255_1_234
10
5.2376113
20
57.9173045
40
0.3579479
50
344.2412205
51
356.7357071
0
ARC
8
DEFAULT_255_1_234
10
5.1127262
20
57.9276444
40
0.4832297
50
356.3548756
51
0.0500261
0
ARC
8
DEFAULT_255_1_234
10
5.2463771
20
57.930765
40
0.3495889
50
359.5576869
51
12.953486
0
ARC
8
DEFAULT_255_1_234
10
5.3518668
20
57.9563434
40
0.2410532
50
12.6490276
51
41.6081334
0
ARC
8
DEFAULT_255_1_234
10
5.3749039
20
57.9759321
40
0.2108218
50
41.7850273
51
85.9892764
0
ARC
8
DEFAULT_255_1_234
10
5.3625776
20
57.8946462
40
0.2928454
50
84.6957577
51
90.0676183
0
ARC
8
DEFAULT_255_1_234
10
5.360226
20
57.8277716
40
0.3597255
50
89.6804936
51
99.1614436
0
ARC
8
DEFAULT_255_1_234
10
5.3396891
20
57.9505131
40
0.235281
50
98.9830931
51
113.8908934
0
ARC
8
DEFAULT_255_1_234
10
5.3167301
20
58.0046587
40
0.176479
50
114.1950727
51
127.3641004
0
LINE
8
DEFAULT_255_1_234
10
4.6537137
20
64.0237433
11
4.6537137
21
62.8487
0
LINE
8
DEFAULT_255_1_234
10
4.6537137
20
62.8487
11
4.5043234
21
62.8487
0
LINE
8
DEFAULT_255_1_234
10
4.5043234
20
62.8487
11
4.5043234
21
63.8390133
0
LINE
8
DEFAULT_255_1_234
10
4.5043234
20
63.8390133
11
4.2047396
21
63.7289785
0
LINE
8
DEFAULT_255_1_234
10
4.2047396
20
63.7289785
11
4.2047396
21
63.8639117
0
LINE
8
DEFAULT_255_1_234
10
4.2047396
20
63.8639117
11
4.6304217
21
64.0237433
0
LINE
8
DEFAULT_255_1_234
10
4.6304217
20
64.0237433
11
4.6537137
21
64.0237433
0
LINE
8
DEFAULT_255_1_234
10
5.7163127
20
64.0181211
11
5.7163127
21
63.241452
0
LINE
8
DEFAULT_255_1_234
10
5.7163127
20
63.241452
11
5.8785538
21
63.241452
0
LINE
8
DEFAULT_255_1_234
10
5.8785538
20
63.241452
11
5.8785538
21
63.1201728
0
LINE
8
DEFAULT_255_1_234
10
5.8785538
20
63.1201728
11
5.7163127
21
63.1201728
0
LINE
8
DEFAULT_255_1_234
10
5.7163127
20
63.1201728
11
5.7163127
21
62.8487
0
LINE
8
DEFAULT_255_1_234
10
5.7163127
20
62.8487
11
5.5669224
21
62.8487
0
LINE
8
DEFAULT_255_1_234
10
5.5669224
20
62.8487
11
5.5669224
21
63.1201728
0
LINE
8
DEFAULT_255_1_234
10
5.5669224
20
63.1201728
11
5.0344181
21
63.1201728
0
LINE
8
DEFAULT_255_1_234
10
5.0344181
20
63.1201728
11
5.0344181
21
63.2077187
0
LINE
8
DEFAULT_255_1_234
10
5.0344181
20
63.2077187
11
5.5580875
21
64.0181211
0
LINE
8
DEFAULT_255_1_234
10
5.5580875
20
64.0181211
11
5.7163127
21
64.0181211
0
LINE
8
DEFAULT_255_1_234
10
5.5492525
20
63.7827912
11
5.2030846
21
63.241452
0
LINE
8
DEFAULT_255_1_234
10
5.2030846
20
63.241452
11
5.5669224
21
63.241452
0
LINE
8
DEFAULT_255_1_234
10
5.5669224
20
63.241452
11
5.5669224
21
63.8149181
0
LINE
8
DEFAULT_255_1_234
10
5.5669224
20
63.8149181
11
5.5492525
21
63.7827912
0
LINE
8
DEFAULT_255_1_234
10
4.5478137
20
69.3153433
11
4.5478137
21
68.1403
0
LINE
8
DEFAULT_255_1_234
10
4.5478137
20
68.1403
11
4.3984234
21
68.1403
0
LINE
8
DEFAULT_255_1_234
10
4.3984234
20
68.1403
11
4.3984234
21
69.1306133
0
LINE
8
DEFAULT_255_1_234
10
4.3984234
20
69.1306133
11
4.0988396
21
69.0205785
0
LINE
8
DEFAULT_255_1_234
10
4.0988396
20
69.0205785
11
4.0988396
21
69.1555117
0
LINE
8
DEFAULT_255_1_234
10
4.0988396
20
69.1555117
11
4.5245217
21
69.3153433
0
LINE
8
DEFAULT_255_1_234
10
4.5245217
20
69.3153433
11
4.5478137
21
69.3153433
0
LINE
8
DEFAULT_255_1_234
10
5.1991877
20
68.6760169
11
5.1991877
21
68.7972962
0
LINE
8
DEFAULT_255_1_234
10
5.1991877
20
68.7972962
11
5.3108289
21
68.7972962
0
LINE
8
DEFAULT_255_1_234
10
5.1204767
20
69.0029087
11
4.9718895
21
69.0029087
0
LINE
8
DEFAULT_255_1_234
10
4.9614482
20
68.4487188
11
5.1108386
21
68.4487188
0
LINE
8
DEFAULT_255_1_234
10
5.3108289
20
68.6760169
11
5.1991877
21
68.6760169
0
ARC
8
DEFAULT_255_1_234
10
5.3079155
20
69.1365713
40
0.3392876
50
270.4919872
51
281.8951556
0
ARC
8
DEFAULT_255_1_234
10
5.3320417
20
69.0263702
40
0.2264817
50
281.6691735
51
301.2943132
0
ARC
8
DEFAULT_255_1_234
10
5.3490627
20
68.9952304
40
0.1910381
50
301.7833094
51
311.7545298
0
ARC
8
DEFAULT_255_1_234
10
5.3582203
20
68.9850748
40
0.1773635
50
311.7323931
51
354.2802411
0
ARC
8
DEFAULT_255_1_234
10
5.2855828
20
68.9975722
40
0.2509385
50
353.0937916
51
0.1181479
0
ARC
8
DEFAULT_255_1_234
10
5.2394613
20
69.0023386
40
0.2970898
50
359.1805295
51
15.0453146
0
ARC
8
DEFAULT_255_1_234
10
5.374045
20
69.0415992
40
0.1569564
50
13.9577229
51
77.6713066
0
ARC
8
DEFAULT_255_1_234
10
5.3353979
20
68.9030949
40
0.3006298
50
76.1116566
51
90.7026153
0
ARC
8
DEFAULT_255_1_234
10
5.3294817
20
68.9304545
40
0.2732568
50
89.5324876
51
103.531937
0
ARC
8
DEFAULT_255_1_234
10
5.3094261
20
69.0103884
40
0.1908508
50
103.2931773
51
133.5619022
0
ARC
8
DEFAULT_255_1_234
10
5.304975
20
69.0163375
40
0.1834746
50
133.8349307
51
173.5344437
0
ARC
8
DEFAULT_255_1_234
10
5.3772793
20
69.0035213
40
0.2568033
50
172.5096846
51
180.1366907
0
ARC
8
DEFAULT_255_1_234
10
5.2821687
20
69.0069622
40
0.3103056
50
155.3484492
51
180.7484736
0
ARC
8
DEFAULT_255_1_234
10
5.2772776
20
69.0040846
40
0.3070957
50
131.5744599
51
154.4798489
0
ARC
8
DEFAULT_255_1_234
10
5.3085923
20
68.972431
40
0.3515643
50
96.9875458
51
131.9690667
0
ARC
8
DEFAULT_255_1_234
10
5.3305403
20
68.8478636
40
0.4779224
50
89.8596053
51
97.7825159
0
ARC
8
DEFAULT_255_1_234
10
5.3353466
20
68.8216616
40
0.5041361
50
78.3655447
51
90.4131539
0
ARC
8
DEFAULT_255_1_234
10
5.3711384
20
68.9875887
40
0.3344039
50
56.6229102
51
78.638727
0
ARC
8
DEFAULT_255_1_234
10
5.3926328
20
69.0251805
40
0.2912001
50
47.0253525
51
56.0854072
0
ARC
8
DEFAULT_255_1_234
10
5.3946108
20
69.0291223
40
0.2869704
50
10.9208013
51
46.7778124
0
ARC
8
DEFAULT_255_1_234
10
5.2582174
20
68.9975857
40
0.426899
50
359.6364486
51
11.6087304
0
ARC
8
DEFAULT_255_1_234
10
5.4417018
20
68.9960752
40
0.243409
50
332.3549906
51
359.7179418
0
ARC
8
DEFAULT_255_1_234
10
5.376662
20
69.0269142
40
0.3153459
50
325.2333722
51
332.8745602
0
ARC
8
DEFAULT_255_1_234
10
5.3919244
20
69.0162828
40
0.2967456
50
292.9802137
51
325.2392345
0
ARC
8
DEFAULT_255_1_234
10
5.3644617
20
69.0696863
40
0.3566604
50
292.5402179
51
293.6924929
0
ARC
8
DEFAULT_255_1_234
10
5.4037213
20
68.4242091
40
0.3307468
50
57.6435486
51
72.8625112
0
ARC
8
DEFAULT_255_1_234
10
5.4391713
20
68.4816549
40
0.2632492
50
36.7248896
51
57.4697979
0
ARC
8
DEFAULT_255_1_234
10
5.4380346
20
68.482922
40
0.2634081
50
8.0545065
51
36.356114
0
ARC
8
DEFAULT_255_1_234
10
5.3517531
20
68.4674174
40
0.3510261
50
359.8320645
51
8.5869982
0
ARC
8
DEFAULT_255_1_234
10
5.3142307
20
68.4626101
40
0.3885653
50
343.9829931
51
0.5571613
0
ARC
8
DEFAULT_255_1_234
10
5.4028504
20
68.4383438
40
0.2966924
50
311.6359546
51
343.7651759
0
ARC
8
DEFAULT_255_1_234
10
5.3650074
20
68.4810102
40
0.3537231
50
279.7829875
51
311.6255694
0
ARC
8
DEFAULT_255_1_234
10
5.334885
20
68.624728
40
0.5004971
50
269.7286406
51
280.3856417
0
ARC
8
DEFAULT_255_1_234
10
5.3286922
20
68.6205996
40
0.4963778
50
256.6828919
51
270.4412052
0
ARC
8
DEFAULT_255_1_234
10
5.2948218
20
68.4821394
40
0.3538406
50
229.4223008
51
256.8556159
0
ARC
8
DEFAULT_255_1_234
10
5.2533611
20
68.4354736
40
0.2914296
50
181.818294
51
229.6455059
0
ARC
8
DEFAULT_255_1_234
10
5.3573567
20
68.4485496
40
0.3959084
50
179.9755256
51
183.2323064
0
ARC
8
DEFAULT_255_1_234
10
5.3401313
20
68.4465037
40
0.2293034
50
179.4465117
51
196.2869258
0
ARC
8
DEFAULT_255_1_234
10
5.2913721
20
68.4331651
40
0.1787621
50
196.5661473
51
227.705904
0
ARC
8
DEFAULT_255_1_234
10
5.3077816
20
68.4515155
40
0.2033784
50
227.7652068
51
257.8762805
0
ARC
8
DEFAULT_255_1_234
10
5.3302786
20
68.5458156
40
0.3003081
50
257.4584385
51
270.426602
0
ARC
8
DEFAULT_255_1_234
10
5.3348352
20
68.5747996
40
0.329292
50
269.5962073
51
280.8789248
0
ARC
8
DEFAULT_255_1_234
10
5.3577881
20
68.4601685
40
0.2123908
50
280.6346389
51
299.8595945
0
ARC
8
DEFAULT_255_1_234
10
5.3768788
20
68.4239212
40
0.171457
50
300.3576302
51
314.5517981
0
ARC
8
DEFAULT_255_1_234
10
5.3685848
20
68.4299919
40
0.1816095
50
315.0728369
51
345.0431014
0
ARC
8
DEFAULT_255_1_234
10
5.2762662
20
68.4568841
40
0.2777492
50
344.5986631
51
357.9269593
0
ARC
8
DEFAULT_255_1_234
10
5.1866989
20
68.4630276
40
0.3674917
50
357.4748886
51
0.0231117
0
ARC
8
DEFAULT_255_1_234
10
5.2890098
20
68.4654679
40
0.2651907
50
359.5047933
51
13.4239635
0
ARC
8
DEFAULT_255_1_234
10
5.3756741
20
68.4876478
40
0.1757509
50
12.9498199
51
48.7551375
0
ARC
8
DEFAULT_255_1_234
10
5.3574475
20
68.46274
40
0.2065134
50
49.5088623
51
72.1836453
0
ARC
8
DEFAULT_255_1_234
10
5.3216628
20
68.3565291
40
0.3185836
50
71.9010081
51
84.3554254
0
ARC
8
DEFAULT_255_1_234
10
5.305526
20
68.2204326
40
0.4556151
50
84.0193428
51
89.333121
0
LINE
8
DEFAULT_255_1_234
10
4.5478137
20
74.6070433
11
4.5478137
21
73.432
0
LINE
8
DEFAULT_255_1_234
10
4.5478137
20
73.432
11
4.3984234
21
73.432
0
LINE
8
DEFAULT_255_1_234
10
4.3984234
20
73.432
11
4.3984234
21
74.4223133
0
LINE
8
DEFAULT_255_1_234
10
4.3984234
20
74.4223133
11
4.0988396
21
74.3122785
0
LINE
8
DEFAULT_255_1_234
10
4.0988396
20
74.3122785
11
4.0988396
21
74.4472117
0
LINE
8
DEFAULT_255_1_234
10
4.0988396
20
74.4472117
11
4.5245217
21
74.6070433
0
LINE
8
DEFAULT_255_1_234
10
4.5245217
20
74.6070433
11
4.5478137
21
74.6070433
0
LINE
8
DEFAULT_255_1_234
10
5.7493618
20
73.5532792
11
5.7493618
21
73.432
0
LINE
8
DEFAULT_255_1_234
10
5.7493618
20
73.432
11
4.9831339
21
73.432
0
LINE
8
DEFAULT_255_1_234
10
4.9831339
20
73.432
11
4.9831339
21
73.5388221
0
LINE
8
DEFAULT_255_1_234
10
4.9831339
20
73.5388221
11
5.3879335
21
73.9885995
0
LINE
8
DEFAULT_255_1_234
10
5.1092322
20
74.2568595
11
4.9606451
21
74.2568595
0
LINE
8
DEFAULT_255_1_234
10
5.4754795
20
73.8930218
11
5.1622417
21
73.5532792
0
LINE
8
DEFAULT_255_1_234
10
5.1622417
20
73.5532792
11
5.7493618
21
73.5532792
0
ARC
8
DEFAULT_255_1_234
10
4.0389169
20
75.1815527
40
1.8008286
50
318.5132453
51
320.7828378
0
ARC
8
DEFAULT_255_1_234
10
4.5676143
20
74.7512426
40
1.1191493
50
320.7372736
51
323.9737074
0
ARC
8
DEFAULT_255_1_234
10
4.9596
20
74.4672361
40
0.6350923
50
323.8961724
51
328.6421089
0
ARC
8
DEFAULT_255_1_234
10
5.1642595
20
74.3410031
40
0.3946393
50
328.8299013
51
331.789948
0
ARC
8
DEFAULT_255_1_234
10
5.2639774
20
74.2895509
40
0.2824501
50
331.4255242
51
352.9364833
0
ARC
8
DEFAULT_255_1_234
10
5.2776274
20
74.2864976
40
0.2685315
50
353.2248685
51
0.0169286
0
ARC
8
DEFAULT_255_1_234
10
5.2986151
20
74.288795
40
0.2475536
50
359.4866256
51
15.9339782
0
ARC
8
DEFAULT_255_1_234
10
5.3493136
20
74.3024286
40
0.1950618
50
16.1714718
51
43.5284424
0
ARC
8
DEFAULT_255_1_234
10
5.3570445
20
74.3101573
40
0.184134
50
43.4415429
51
83.1661404
0
ARC
8
DEFAULT_255_1_234
10
5.3436363
20
74.2364771
40
0.258926
50
82.160215
51
90.1505798
0
ARC
8
DEFAULT_255_1_234
10
5.340479
20
74.1827865
40
0.3126255
50
89.5460705
51
102.5418777
0
ARC
8
DEFAULT_255_1_234
10
5.3161876
20
74.2858665
40
0.2067346
50
102.1739365
51
129.2061916
0
ARC
8
DEFAULT_255_1_234
10
5.3082948
20
74.2983094
40
0.1921118
50
129.7279328
51
135.7542026
0
ARC
8
DEFAULT_255_1_234
10
5.3204476
20
74.2886045
40
0.2075944
50
136.175737
51
166.3674722
0
ARC
8
DEFAULT_255_1_234
10
5.4211395
20
74.2616182
40
0.3118201
50
165.9092917
51
178.8683903
0
ARC
8
DEFAULT_255_1_234
10
5.5076256
20
74.2569179
40
0.3983935
50
178.438168
51
180.0083905
0
ARC
8
DEFAULT_255_1_234
10
5.3674859
20
74.2608231
40
0.4068601
50
163.2878735
51
180.5581814
0
ARC
8
DEFAULT_255_1_234
10
5.287312
20
74.282884
40
0.3237344
50
133.454115
51
162.9470031
0
ARC
8
DEFAULT_255_1_234
10
5.3051661
20
74.2639
40
0.349795
50
100.7869394
51
133.4384016
0
ARC
8
DEFAULT_255_1_234
10
5.3399433
20
74.1090319
40
0.5084616
50
89.6605301
51
101.3704185
0
ARC
8
DEFAULT_255_1_234
10
5.3465772
20
74.1151496
40
0.502348
50
78.2171172
51
90.4130393
0
ARC
8
DEFAULT_255_1_234
10
5.382085
20
74.2775637
40
0.3361092
50
55.9268222
51
78.4888551
0
ARC
8
DEFAULT_255_1_234
10
5.401729
20
74.3114324
40
0.2970617
50
47.9292255
51
55.4054003
0
ARC
8
DEFAULT_255_1_234
10
5.4118851
20
74.3217502
40
0.2825983
50
4.3347696
51
48.0560701
0
ARC
8
DEFAULT_255_1_234
10
5.3023244
20
74.3047601
40
0.393225
50
359.925209
51
5.5967654
0
ARC
8
DEFAULT_255_1_234
10
5.3452136
20
74.3103816
40
0.3503892
50
337.8914096
51
358.9967724
0
ARC
8
DEFAULT_255_1_234
10
5.0738548
20
74.4150706
40
0.6412172
50
326.9135351
51
338.3505194
0
ARC
8
DEFAULT_255_1_234
10
4.6752852
20
74.6705284
40
1.1146189
50
319.6472867
51
327.095818
0
ARC
8
DEFAULT_255_1_234
10
4.2919855
20
74.9867
40
1.6114559
50
317.2586784
51
319.9046139
0
LINE
8
DEFAULT_255_1_234
10
4.5389137
20
79.8987433
11
4.5389137
21
78.7237
0
LINE
8
DEFAULT_255_1_234
10
4.5389137
20
78.7237
11
4.3895234
21
78.7237
0
LINE
8
DEFAULT_255_1_234
10
4.3895234
20
78.7237
11
4.3895234
21
79.7140133
0
LINE
8
DEFAULT_255_1_234
10
4.3895234
20
79.7140133
11
4.0899396
21
79.6039785
0
LINE
8
DEFAULT_255_1_234
10
4.0899396
20
79.6039785
11
4.0899396
21
79.7389117
0
LINE
8
DEFAULT_255_1_234
10
4.0899396
20
79.7389117
11
4.5156217
21
79.8987433
0
LINE
8
DEFAULT_255_1_234
10
4.5156217
20
79.8987433
11
4.5389137
21
79.8987433
0
LINE
8
DEFAULT_255_1_234
10
5.4625636
20
79.8987433
11
5.4625636
21
78.7237
0
LINE
8
DEFAULT_255_1_234
10
5.4625636
20
78.7237
11
5.3131733
21
78.7237
0
LINE
8
DEFAULT_255_1_234
10
5.3131733
20
78.7237
11
5.3131733
21
79.7140133
0
LINE
8
DEFAULT_255_1_234
10
5.3131733
20
79.7140133
11
5.0135895
21
79.6039785
0
LINE
8
DEFAULT_255_1_234
10
5.0135895
20
79.6039785
11
5.0135895
21
79.7389117
0
LINE
8
DEFAULT_255_1_234
10
5.0135895
20
79.7389117
11
5.4392716
21
79.8987433
0
LINE
8
DEFAULT_255_1_234
10
5.4392716
20
79.8987433
11
5.4625636
21
79.8987433
0
LINE
8
DEFAULT_255_1_234
10
4.5478137
20
85.1903433
11
4.5478137
21
84.0153
0
LINE
8
DEFAULT_255_1_234
10
4.5478137
20
84.0153
11
4.3984234
21
84.0153
0
LINE
8
DEFAULT_255_1_234
10
4.3984234
20
84.0153
11
4.3984234
21
85.0056133
0
LINE
8
DEFAULT_255_1_234
10
4.3984234
20
85.0056133
11
4.0988396
21
84.8955785
0
LINE
8
DEFAULT_255_1_234
10
4.0988396
20
84.8955785
11
4.0988396
21
85.0305117
0
LINE
8
DEFAULT_255_1_234
10
4.0988396
20
85.0305117
11
4.5245217
21
85.1903433
0
LINE
8
DEFAULT_255_1_234
10
4.5245217
20
85.1903433
11
4.5478137
21
85.1903433
0
LINE
8
DEFAULT_255_1_234
10
5.7164316
20
84.7068327
11
5.7164316
21
84.5140709
0
LINE
8
DEFAULT_255_1_234
10
4.9783149
20
84.4939916
11
4.9783149
21
84.6923755
0
LINE
8
DEFAULT_255_1_234
10
5.5678445
20
84.4739123
11
5.5678445
21
84.7172739
0
LINE
8
DEFAULT_255_1_234
10
5.1269021
20
84.7285184
11
5.1269021
21
84.4907789
0
ARC
8
DEFAULT_255_1_234
10
4.4917206
20
84.5091805
40
1.2247208
50
353.8441951
51
0.2287902
0
ARC
8
DEFAULT_255_1_234
10
4.955671
20
84.4573806
40
0.7578929
50
344.4934747
51
353.9765454
0
ARC
8
DEFAULT_255_1_234
10
5.25493
20
84.3722981
40
0.4467846
50
329.2803592
51
344.7472793
0
ARC
8
DEFAULT_255_1_234
10
5.3542125
20
84.3178018
40
0.3336173
50
324.9352394
51
328.6160465
0
ARC
8
DEFAULT_255_1_234
10
5.3919233
20
84.2914427
40
0.2876076
50
280.580143
51
324.9173126
0
ARC
8
DEFAULT_255_1_234
10
5.3518026
20
84.4585099
40
0.4592847
50
269.5977311
51
281.6734359
0
ARC
8
DEFAULT_255_1_234
10
5.3445932
20
84.4465173
40
0.4472986
50
256.6228859
51
270.51044
0
ARC
8
DEFAULT_255_1_234
10
5.3043909
20
84.2916877
40
0.2873874
50
215.8618325
51
257.2788573
0
ARC
8
DEFAULT_255_1_234
10
5.4064941
20
84.3601977
40
0.4102928
50
197.9693508
51
215.2623606
0
ARC
8
DEFAULT_255_1_234
10
5.6550057
20
84.4440709
40
0.6725652
50
187.8816417
51
198.2346507
0
ARC
8
DEFAULT_255_1_234
10
6.0508265
20
84.5012079
40
1.0724845
50
180.8976217
51
188.0055519
0
ARC
8
DEFAULT_255_1_234
10
6.3308453
20
84.5115777
40
1.3526448
50
180.7449369
51
181.1510016
0
ARC
8
DEFAULT_255_1_234
10
6.1731182
20
84.6972042
40
1.1948131
50
173.7675579
51
180.231553
0
ARC
8
DEFAULT_255_1_234
10
5.7213329
20
84.7482666
40
0.7401564
50
164.3058563
51
173.9002247
0
ARC
8
DEFAULT_255_1_234
10
5.4301398
20
84.8321656
40
0.4371288
50
148.7922025
51
164.568378
0
ARC
8
DEFAULT_255_1_234
10
5.334985
20
84.8852929
40
0.3282386
50
144.5883898
51
148.1176286
0
ARC
8
DEFAULT_255_1_234
10
5.3006748
20
84.9092315
40
0.2864044
50
101.6440918
51
144.514236
0
ARC
8
DEFAULT_255_1_234
10
5.3431814
20
84.7403069
40
0.4604934
50
89.5284041
51
102.5819763
0
ARC
8
DEFAULT_255_1_234
10
5.3510902
20
84.7364018
40
0.464401
50
77.0437873
51
90.5081339
0
ARC
8
DEFAULT_255_1_234
10
5.3912904
20
84.9006615
40
0.2953195
50
48.2778575
51
77.4994676
0
ARC
8
DEFAULT_255_1_234
10
5.3985535
20
84.9135746
40
0.2808655
50
36.3142134
51
47.6305865
0
ARC
8
DEFAULT_255_1_234
10
5.3116842
20
84.8550515
40
0.3855453
50
18.2931786
51
35.6769206
0
ARC
8
DEFAULT_255_1_234
10
5.0573601
20
84.7677593
40
0.654423
50
8.024666
51
18.5605216
0
ARC
8
DEFAULT_255_1_234
10
4.6410521
20
84.7062792
40
1.0752407
50
1.1274072
51
8.1718305
0
ARC
8
DEFAULT_255_1_234
10
4.3174712
20
84.6935885
40
1.3990231
50
0.5424119
51
1.3863029
0
ARC
8
DEFAULT_255_1_234
10
4.4996089
20
84.7208342
40
1.0682415
50
359.8090433
51
4.9407866
0
ARC
8
DEFAULT_255_1_234
10
4.9206103
20
84.7584113
40
0.6455691
50
4.8362157
51
12.2904523
0
ARC
8
DEFAULT_255_1_234
10
5.1961218
20
84.8197965
40
0.3633074
50
12.0805627
51
23.8173984
0
ARC
8
DEFAULT_255_1_234
10
5.3134924
20
84.8694919
40
0.2358723
50
24.2871213
51
31.3935614
0
ARC
8
DEFAULT_255_1_234
10
5.3659621
20
84.9038233
40
0.1732111
50
30.7407893
51
82.4657128
0
ARC
8
DEFAULT_255_1_234
10
5.3479755
20
84.8154691
40
0.263235
50
81.1060089
51
90.2184952
0
ARC
8
DEFAULT_255_1_234
10
5.3444054
20
84.8412924
40
0.2374236
50
89.3806855
51
105.6762551
0
ARC
8
DEFAULT_255_1_234
10
5.3260685
20
84.9079567
40
0.1682847
50
105.7981136
51
149.7388061
0
ARC
8
DEFAULT_255_1_234
10
5.4324763
20
84.843995
40
0.2924306
50
149.4208916
51
163.6286378
0
ARC
8
DEFAULT_255_1_234
10
5.6415651
20
84.780225
40
0.5110213
50
163.3763315
51
172.1410975
0
ARC
8
DEFAULT_255_1_234
10
5.971637
20
84.7329518
40
0.8444586
50
172.0259487
51
178.0703232
0
ARC
8
DEFAULT_255_1_234
10
6.274646
20
84.7185906
40
1.1477868
50
177.8631668
51
179.5044149
0
ARC
8
DEFAULT_255_1_234
10
6.1673864
20
84.4871389
40
1.0404907
50
179.7995573
51
185.2460446
0
ARC
8
DEFAULT_255_1_234
10
5.7630903
20
84.4488513
40
0.6343885
50
185.1411642
51
193.0079639
0
ARC
8
DEFAULT_255_1_234
10
5.4987376
20
84.3863641
40
0.3627568
50
192.7897626
51
205.2507664
0
ARC
8
DEFAULT_255_1_234
10
5.3940923
20
84.3396415
40
0.2481908
50
205.8005384
51
211.2537509
0
ARC
8
DEFAULT_255_1_234
10
5.3417363
20
84.304558
40
0.1852521
50
210.3789793
51
238.4008143
0
ARC
8
DEFAULT_255_1_234
10
5.3397885
20
84.3092376
40
0.1882621
50
239.6520629
51
265.9793761
0
ARC
8
DEFAULT_255_1_234
10
5.3483085
20
84.3764427
40
0.2559272
50
265.1315437
51
270.060332
0
ARC
8
DEFAULT_255_1_234
10
5.3511864
20
84.3440534
40
0.2235528
50
269.3314664
51
287.2178029
0
ARC
8
DEFAULT_255_1_234
10
5.3649716
20
84.2937279
40
0.1714108
50
287.7958004
51
329.080874
0
ARC
8
DEFAULT_255_1_234
10
5.2692173
20
84.353493
40
0.2842745
50
328.6634704
51
343.3325132
0
ARC
8
DEFAULT_255_1_234
10
5.0519193
20
84.4211863
40
0.5118644
50
343.0499468
51
351.9393422
0
ARC
8
DEFAULT_255_1_234
10
4.7052493
20
84.4722949
40
0.8622784
50
351.8069023
51
357.7959224
0
ARC
8
DEFAULT_255_1_234
10
4.3817049
20
84.4890721
40
1.1862365
50
357.5871873
51
359.2677531
0
LINE
8
DEFAULT_255_1_234
10
4.7994817
20
89.9985327
11
4.7994817
21
89.8057709
0
LINE
8
DEFAULT_255_1_234
10
4.061365
20
89.7856916
11
4.061365
21
89.9840755
0
LINE
8
DEFAULT_255_1_234
10
4.6508946
20
89.7656123
11
4.6508946
21
90.0089739
0
LINE
8
DEFAULT_255_1_234
10
4.2099521
20
90.0202184
11
4.2099521
21
89.7824789
0
ARC
8
DEFAULT_255_1_234
10
3.5747707
20
89.8008805
40
1.2247208
50
353.8441951
51
0.2287902
0
ARC
8
DEFAULT_255_1_234
10
4.0387211
20
89.7490806
40
0.7578929
50
344.4934747
51
353.9765454
0
ARC
8
DEFAULT_255_1_234
10
4.3379801
20
89.6639981
40
0.4467846
50
329.2803592
51
344.7472793
0
ARC
8
DEFAULT_255_1_234
10
4.4372626
20
89.6095018
40
0.3336173
50
324.9352394
51
328.6160465
0
ARC
8
DEFAULT_255_1_234
10
4.4749734
20
89.5831427
40
0.2876076
50
280.580143
51
324.9173126
0
ARC
8
DEFAULT_255_1_234
10
4.4348527
20
89.7502099
40
0.4592847
50
269.5977311
51
281.6734359
0
ARC
8
DEFAULT_255_1_234
10
4.4276433
20
89.7382173
40
0.4472986
50
256.6228859
51
270.51044
0
ARC
8
DEFAULT_255_1_234
10
4.387441
20
89.5833877
40
0.2873874
50
215.8618325
51
257.2788573
0
ARC
8
DEFAULT_255_1_234
10
4.4895442
20
89.6518977
40
0.4102928
50
197.9693508
51
215.2623606
0
ARC
8
DEFAULT_255_1_234
10
4.7380558
20
89.7357709
40
0.6725652
50
187.8816417
51
198.2346507
0
ARC
8
DEFAULT_255_1_234
10
5.1338766
20
89.7929079
40
1.0724845
50
180.8976217
51
188.0055519
0
ARC
8
DEFAULT_255_1_234
10
5.4138954
20
89.8032777
40
1.3526448
50
180.7449369
51
181.1510016
0
ARC
8
DEFAULT_255_1_234
10
5.2561683
20
89.9889042
40
1.1948131
50
173.7675579
51
180.231553
0
ARC
8
DEFAULT_255_1_234
10
4.804383
20
90.0399666
40
0.7401564
50
164.3058563
51
173.9002247
0
ARC
8
DEFAULT_255_1_234
10
4.5131899
20
90.1238656
40
0.4371288
50
148.7922025
51
164.568378
0
ARC
8
DEFAULT_255_1_234
10
4.4180351
20
90.1769929
40
0.3282386
50
144.5883898
51
148.1176286
0
ARC
8
DEFAULT_255_1_234
10
4.3837249
20
90.2009315
40
0.2864044
50
101.6440918
51
144.514236
0
ARC
8
DEFAULT_255_1_234
10
4.4262315
20
90.0320069
40
0.4604934
50
89.5284041
51
102.5819763
0
ARC
8
DEFAULT_255_1_234
10
4.4341403
20
90.0281018
40
0.464401
50
77.0437873
51
90.5081339
0
ARC
8
DEFAULT_255_1_234
10
4.4743405
20
90.1923615
40
0.2953195
50
48.2778575
51
77.4994676
0
ARC
8
DEFAULT_255_1_234
10
4.4816036
20
90.2052746
40
0.2808655
50
36.3142134
51
47.6305865
0
ARC
8
DEFAULT_255_1_234
10
4.3947343
20
90.1467515
40
0.3855453
50
18.2931786
51
35.6769206
0
ARC
8
DEFAULT_255_1_234
10
4.1404102
20
90.0594593
40
0.654423
50
8.024666
51
18.5605216
0
ARC
8
DEFAULT_255_1_234
10
3.7241022
20
89.9979792
40
1.0752407
50
1.1274072
51
8.1718305
0
ARC
8
DEFAULT_255_1_234
10
3.4005213
20
89.9852885
40
1.3990231
50
0.5424119
51
1.3863029
0
ARC
8
DEFAULT_255_1_234
10
3.582659
20
90.0125342
40
1.0682415
50
359.8090433
51
4.9407866
0
ARC
8
DEFAULT_255_1_234
10
4.0036604
20
90.0501113
40
0.6455691
50
4.8362157
51
12.2904523
0
ARC
8
DEFAULT_255_1_234
10
4.2791719
20
90.1114965
40
0.3633074
50
12.0805627
51
23.8173984
0
ARC
8
DEFAULT_255_1_234
10
4.3965425
20
90.1611919
40
0.2358723
50
24.2871213
51
31.3935614
0
ARC
8
DEFAULT_255_1_234
10
4.4490122
20
90.1955233
40
0.1732111
50
30.7407893
51
82.4657128
0
ARC
8
DEFAULT_255_1_234
10
4.4310256
20
90.1071691
40
0.263235
50
81.1060089
51
90.2184952
0
ARC
8
DEFAULT_255_1_234
10
4.4274555
20
90.1329924
40
0.2374236
50
89.3806855
51
105.6762551
0
ARC
8
DEFAULT_255_1_234
10
4.4091186
20
90.1996567
40
0.1682847
50
105.7981136
51
149.7388061
0
ARC
8
DEFAULT_255_1_234
10
4.5155264
20
90.135695
40
0.2924306
50
149.4208916
51
163.6286378
0
ARC
8
DEFAULT_255_1_234
10
4.7246152
20
90.071925
40
0.5110213
50
163.3763315
51
172.1410975
0
ARC
8
DEFAULT_255_1_234
10
5.0546871
20
90.0246518
40
0.8444586
50
172.0259487
51
178.0703232
0
ARC
8
DEFAULT_255_1_234
10
5.357696
20
90.0102906
40
1.1477868
50
177.8631668
51
179.5044149
0
ARC
8
DEFAULT_255_1_234
10
5.2504365
20
89.7788389
40
1.0404907
50
179.7995573
51
185.2460446
0
ARC
8
DEFAULT_255_1_234
10
4.8461404
20
89.7405513
40
0.6343885
50
185.1411642
51
193.0079639
0
ARC
8
DEFAULT_255_1_234
10
4.5817877
20
89.6780641
40
0.3627568
50
192.7897626
51
205.2507664
0
ARC
8
DEFAULT_255_1_234
10
4.4771424
20
89.6313415
40
0.2481908
50
205.8005384
51
211.2537509
0
ARC
8
DEFAULT_255_1_234
10
4.4247864
20
89.596258
40
0.1852521
50
210.3789793
51
238.4008143
0
ARC
8
DEFAULT_255_1_234
10
4.4228386
20
89.6009376
40
0.1882621
50
239.6520629
51
265.9793761
0
ARC
8
DEFAULT_255_1_234
10
4.4313586
20
89.6681427
40
0.2559272
50
265.1315437
51
270.060332
0
ARC
8
DEFAULT_255_1_234
10
4.4342365
20
89.6357534
40
0.2235528
50
269.3314664
51
287.2178029
0
ARC
8
DEFAULT_255_1_234
10
4.4480217
20
89.5854279
40
0.1714108
50
287.7958004
51
329.080874
0
ARC
8
DEFAULT_255_1_234
10
4.3522674
20
89.645193
40
0.2842745
50
328.6634704
51
343.3325132
0
ARC
8
DEFAULT_255_1_234
10
4.1349694
20
89.7128863
40
0.5118644
50
343.0499468
51
351.9393422
0
ARC
8
DEFAULT_255_1_234
10
3.7882994
20
89.7639949
40
0.8622784
50
351.8069023
51
357.7959224
0
ARC
8
DEFAULT_255_1_234
10
3.464755
20
89.7807721
40
1.1862365
50
357.5871873
51
359.2677531
0
LINE
8
DEFAULT_255_1_234
10
5.6733349
20
89.9495391
11
5.6733349
21
89.8234408
0
LINE
8
DEFAULT_255_1_234
10
5.6733349
20
89.8234408
11
5.1825957
21
89.8234408
0
LINE
8
DEFAULT_255_1_234
10
5.1825957
20
89.8234408
11
5.1825957
21
89.307
0
LINE
8
DEFAULT_255_1_234
10
5.1825957
20
89.307
11
5.0283863
21
89.307
0
LINE
8
DEFAULT_255_1_234
10
5.0283863
20
89.307
11
5.0283863
21
90.4764211
0
LINE
8
DEFAULT_255_1_234
10
5.0283863
20
90.4764211
11
5.7528491
21
90.4764211
0
LINE
8
DEFAULT_255_1_234
10
5.7528491
20
90.4764211
11
5.7528491
21
90.3495196
0
LINE
8
DEFAULT_255_1_234
10
5.7528491
20
90.3495196
11
5.1825957
21
90.3495196
0
LINE
8
DEFAULT_255_1_234
10
5.1825957
20
90.3495196
11
5.1825957
21
89.9495391
0
LINE
8
DEFAULT_255_1_234
10
5.1825957
20
89.9495391
11
5.6733349
21
89.9495391
0
LINE
8
DEFAULT_255_1_234
10
4.8920817
20
95.2902327
11
4.8920817
21
95.0974709
0
LINE
8
DEFAULT_255_1_234
10
4.153965
20
95.0773916
11
4.153965
21
95.2757755
0
LINE
8
DEFAULT_255_1_234
10
4.7434946
20
95.0573123
11
4.7434946
21
95.3006739
0
LINE
8
DEFAULT_255_1_234
10
4.3025521
20
95.3119184
11
4.3025521
21
95.0741789
0
ARC
8
DEFAULT_255_1_234
10
3.6673707
20
95.0925805
40
1.2247208
50
353.8441951
51
0.2287902
0
ARC
8
DEFAULT_255_1_234
10
4.1313211
20
95.0407806
40
0.7578929
50
344.4934747
51
353.9765454
0
ARC
8
DEFAULT_255_1_234
10
4.4305801
20
94.9556981
40
0.4467846
50
329.2803592
51
344.7472793
0
ARC
8
DEFAULT_255_1_234
10
4.5298626
20
94.9012018
40
0.3336173
50
324.9352394
51
328.6160465
0
ARC
8
DEFAULT_255_1_234
10
4.5675734
20
94.8748427
40
0.2876076
50
280.580143
51
324.9173126
0
ARC
8
DEFAULT_255_1_234
10
4.5274527
20
95.0419099
40
0.4592847
50
269.5977311
51
281.6734359
0
ARC
8
DEFAULT_255_1_234
10
4.5202433
20
95.0299173
40
0.4472986
50
256.6228859
51
270.51044
0
ARC
8
DEFAULT_255_1_234
10
4.480041
20
94.8750877
40
0.2873874
50
215.8618325
51
257.2788573
0
ARC
8
DEFAULT_255_1_234
10
4.5821442
20
94.9435977
40
0.4102928
50
197.9693508
51
215.2623606
0
ARC
8
DEFAULT_255_1_234
10
4.8306558
20
95.0274709
40
0.6725652
50
187.8816417
51
198.2346507
0
ARC
8
DEFAULT_255_1_234
10
5.2264766
20
95.0846079
40
1.0724845
50
180.8976217
51
188.0055519
0
ARC
8
DEFAULT_255_1_234
10
5.5064954
20
95.0949777
40
1.3526448
50
180.7449369
51
181.1510016
0
ARC
8
DEFAULT_255_1_234
10
5.3487683
20
95.2806042
40
1.1948131
50
173.7675579
51
180.231553
0
ARC
8
DEFAULT_255_1_234
10
4.896983
20
95.3316666
40
0.7401564
50
164.3058563
51
173.9002247
0
ARC
8
DEFAULT_255_1_234
10
4.6057899
20
95.4155656
40
0.4371288
50
148.7922025
51
164.568378
0
ARC
8
DEFAULT_255_1_234
10
4.5106351
20
95.4686929
40
0.3282386
50
144.5883898
51
148.1176286
0
ARC
8
DEFAULT_255_1_234
10
4.4763249
20
95.4926315
40
0.2864044
50
101.6440918
51
144.514236
0
ARC
8
DEFAULT_255_1_234
10
4.5188315
20
95.3237069
40
0.4604934
50
89.5284041
51
102.5819763
0
ARC
8
DEFAULT_255_1_234
10
4.5267403
20
95.3198018
40
0.464401
50
77.0437873
51
90.5081339
0
ARC
8
DEFAULT_255_1_234
10
4.5669405
20
95.4840615
40
0.2953195
50
48.2778575
51
77.4994676
0
ARC
8
DEFAULT_255_1_234
10
4.5742036
20
95.4969746
40
0.2808655
50
36.3142134
51
47.6305865
0
ARC
8
DEFAULT_255_1_234
10
4.4873343
20
95.4384515
40
0.3855453
50
18.2931786
51
35.6769206
0
ARC
8
DEFAULT_255_1_234
10
4.2330102
20
95.3511593
40
0.654423
50
8.024666
51
18.5605216
0
ARC
8
DEFAULT_255_1_234
10
3.8167022
20
95.2896792
40
1.0752407
50
1.1274072
51
8.1718305
0
ARC
8
DEFAULT_255_1_234
10
3.4931213
20
95.2769885
40
1.3990231
50
0.5424119
51
1.3863029
0
ARC
8
DEFAULT_255_1_234
10
3.675259
20
95.3042342
40
1.0682415
50
359.8090433
51
4.9407866
0
ARC
8
DEFAULT_255_1_234
10
4.0962604
20
95.3418113
40
0.6455691
50
4.8362157
51
12.2904523
0
ARC
8
DEFAULT_255_1_234
10
4.3717719
20
95.4031965
40
0.3633074
50
12.0805627
51
23.8173984
0
ARC
8
DEFAULT_255_1_234
10
4.4891425
20
95.4528919
40
0.2358723
50
24.2871213
51
31.3935614
0
ARC
8
DEFAULT_255_1_234
10
4.5416122
20
95.4872233
40
0.1732111
50
30.7407893
51
82.4657128
0
ARC
8
DEFAULT_255_1_234
10
4.5236256
20
95.3988691
40
0.263235
50
81.1060089
51
90.2184952
0
ARC
8
DEFAULT_255_1_234
10
4.5200555
20
95.4246924
40
0.2374236
50
89.3806855
51
105.6762551
0
ARC
8
DEFAULT_255_1_234
10
4.5017186
20
95.4913567
40
0.1682847
50
105.7981136
51
149.7388061
0
ARC
8
DEFAULT_255_1_234
10
4.6081264
20
95.427395
40
0.2924306
50
149.4208916
51
163.6286378
0
ARC
8
DEFAULT_255_1_234
10
4.8172152
20
95.363625
40
0.5110213
50
163.3763315
51
172.1410975
0
ARC
8
DEFAULT_255_1_234
10
5.1472871
20
95.3163518
40
0.8444586
50
172.0259487
51
178.0703232
0
ARC
8
DEFAULT_255_1_234
10
5.450296
20
95.3019906
40
1.1477868
50
177.8631668
51
179.5044149
0
ARC
8
DEFAULT_255_1_234
10
5.3430365
20
95.0705389
40
1.0404907
50
179.7995573
51
185.2460446
0
ARC
8
DEFAULT_255_1_234
10
4.9387404
20
95.0322513
40
0.6343885
50
185.1411642
51
193.0079639
0
ARC
8
DEFAULT_255_1_234
10
4.6743877
20
94.9697641
40
0.3627568
50
192.7897626
51
205.2507664
0
ARC
8
DEFAULT_255_1_234
10
4.5697424
20
94.9230415
40
0.2481908
50
205.8005384
51
211.2537509
0
ARC
8
DEFAULT_255_1_234
10
4.5173864
20
94.887958
40
0.1852521
50
210.3789793
51
238.4008143
0
ARC
8
DEFAULT_255_1_234
10
4.5154386
20
94.8926376
40
0.1882621
50
239.6520629
51
265.9793761
0
ARC
8
DEFAULT_255_1_234
10
4.5239586
20
94.9598427
40
0.2559272
50
265.1315437
51
270.060332
0
ARC
8
DEFAULT_255_1_234
10
4.5268365
20
94.9274534
40
0.2235528
50
269.3314664
51
287.2178029
0
ARC
8
DEFAULT_255_1_234
10
4.5406217
20
94.8771279
40
0.1714108
50
287.7958004
51
329.080874
0
ARC
8
DEFAULT_255_1_234
10
4.4448674
20
94.936893
40
0.2842745
50
328.6634704
51
343.3325132
0
ARC
8
DEFAULT_255_1_234
10
4.2275694
20
95.0045863
40
0.5118644
50
343.0499468
51
351.9393422
0
ARC
8
DEFAULT_255_1_234
10
3.8808994
20
95.0556949
40
0.8622784
50
351.8069023
51
357.7959224
0
ARC
8
DEFAULT_255_1_234
10
3.557355
20
95.0724721
40
1.1862365
50
357.5871873
51
359.2677531
0
LINE
8
DEFAULT_255_1_234
10
5.7819983
20
95.2653343
11
5.7819983
21
95.139236
0
LINE
8
DEFAULT_255_1_234
10
5.7819983
20
95.139236
11
5.2751957
21
95.139236
0
LINE
8
DEFAULT_255_1_234
10
5.2751957
20
95.139236
11
5.2751957
21
94.7247983
0
LINE
8
DEFAULT_255_1_234
10
5.2751957
20
94.7247983
11
5.8639221
21
94.7247983
0
LINE
8
DEFAULT_255_1_234
10
5.8639221
20
94.7247983
11
5.8639221
21
94.5987
0
LINE
8
DEFAULT_255_1_234
10
5.8639221
20
94.5987
11
5.1209863
21
94.5987
0
LINE
8
DEFAULT_255_1_234
10
5.1209863
20
94.5987
11
5.1209863
21
95.7681211
0
LINE
8
DEFAULT_255_1_234
10
5.1209863
20
95.7681211
11
5.8558903
21
95.7681211
0
LINE
8
DEFAULT_255_1_234
10
5.8558903
20
95.7681211
11
5.8558903
21
95.6412196
0
LINE
8
DEFAULT_255_1_234
10
5.8558903
20
95.6412196
11
5.2751957
21
95.6412196
0
LINE
8
DEFAULT_255_1_234
10
5.2751957
20
95.6412196
11
5.2751957
21
95.2653343
0
LINE
8
DEFAULT_255_1_234
10
5.2751957
20
95.2653343
11
5.7819983
21
95.2653343
0
LINE
8
DEFAULT_255_1_234
10
4.8192817
20
100.5818327
11
4.8192817
21
100.3890709
0
LINE
8
DEFAULT_255_1_234
10
4.081165
20
100.3689916
11
4.081165
21
100.5673755
0
LINE
8
DEFAULT_255_1_234
10
4.6706946
20
100.3489123
11
4.6706946
21
100.5922739
0
LINE
8
DEFAULT_255_1_234
10
4.2297521
20
100.6035184
11
4.2297521
21
100.3657789
0
ARC
8
DEFAULT_255_1_234
10
3.5945707
20
100.3841805
40
1.2247208
50
353.8441951
51
0.2287902
0
ARC
8
DEFAULT_255_1_234
10
4.0585211
20
100.3323806
40
0.7578929
50
344.4934747
51
353.9765454
0
ARC
8
DEFAULT_255_1_234
10
4.3577801
20
100.2472981
40
0.4467846
50
329.2803592
51
344.7472793
0
ARC
8
DEFAULT_255_1_234
10
4.4570626
20
100.1928018
40
0.3336173
50
324.9352394
51
328.6160465
0
ARC
8
DEFAULT_255_1_234
10
4.4947734
20
100.1664427
40
0.2876076
50
280.580143
51
324.9173126
0
ARC
8
DEFAULT_255_1_234
10
4.4546527
20
100.3335099
40
0.4592847
50
269.5977311
51
281.6734359
0
ARC
8
DEFAULT_255_1_234
10
4.4474433
20
100.3215173
40
0.4472986
50
256.6228859
51
270.51044
0
ARC
8
DEFAULT_255_1_234
10
4.407241
20
100.1666877
40
0.2873874
50
215.8618325
51
257.2788573
0
ARC
8
DEFAULT_255_1_234
10
4.5093442
20
100.2351977
40
0.4102928
50
197.9693508
51
215.2623606
0
ARC
8
DEFAULT_255_1_234
10
4.7578558
20
100.3190709
40
0.6725652
50
187.8816417
51
198.2346507
0
ARC
8
DEFAULT_255_1_234
10
5.1536766
20
100.3762079
40
1.0724845
50
180.8976217
51
188.0055519
0
ARC
8
DEFAULT_255_1_234
10
5.4336954
20
100.3865777
40
1.3526448
50
180.7449369
51
181.1510016
0
ARC
8
DEFAULT_255_1_234
10
5.2759683
20
100.5722042
40
1.1948131
50
173.7675579
51
180.231553
0
ARC
8
DEFAULT_255_1_234
10
4.824183
20
100.6232666
40
0.7401564
50
164.3058563
51
173.9002247
0
ARC
8
DEFAULT_255_1_234
10
4.5329899
20
100.7071656
40
0.4371288
50
148.7922025
51
164.568378
0
ARC
8
DEFAULT_255_1_234
10
4.4378351
20
100.7602929
40
0.3282386
50
144.5883898
51
148.1176286
0
ARC
8
DEFAULT_255_1_234
10
4.4035249
20
100.7842315
40
0.2864044
50
101.6440918
51
144.514236
0
ARC
8
DEFAULT_255_1_234
10
4.4460315
20
100.6153069
40
0.4604934
50
89.5284041
51
102.5819763
0
ARC
8
DEFAULT_255_1_234
10
4.4539403
20
100.6114018
40
0.464401
50
77.0437873
51
90.5081339
0
ARC
8
DEFAULT_255_1_234
10
4.4941405
20
100.7756615
40
0.2953195
50
48.2778575
51
77.4994676
0
ARC
8
DEFAULT_255_1_234
10
4.5014036
20
100.7885746
40
0.2808655
50
36.3142134
51
47.6305865
0
ARC
8
DEFAULT_255_1_234
10
4.4145343
20
100.7300515
40
0.3855453
50
18.2931786
51
35.6769206
0
ARC
8
DEFAULT_255_1_234
10
4.1602102
20
100.6427593
40
0.654423
50
8.024666
51
18.5605216
0
ARC
8
DEFAULT_255_1_234
10
3.7439022
20
100.5812792
40
1.0752407
50
1.1274072
51
8.1718305
0
ARC
8
DEFAULT_255_1_234
10
3.4203213
20
100.5685885
40
1.3990231
50
0.5424119
51
1.3863029
0
ARC
8
DEFAULT_255_1_234
10
3.602459
20
100.5958342
40
1.0682415
50
359.8090433
51
4.9407866
0
ARC
8
DEFAULT_255_1_234
10
4.0234604
20
100.6334113
40
0.6455691
50
4.8362157
51
12.2904523
0
ARC
8
DEFAULT_255_1_234
10
4.2989719
20
100.6947965
40
0.3633074
50
12.0805627
51
23.8173984
0
ARC
8
DEFAULT_255_1_234
10
4.4163425
20
100.7444919
40
0.2358723
50
24.2871213
51
31.3935614
0
ARC
8
DEFAULT_255_1_234
10
4.4688122
20
100.7788233
40
0.1732111
50
30.7407893
51
82.4657128
0
ARC
8
DEFAULT_255_1_234
10
4.4508256
20
100.6904691
40
0.263235
50
81.1060089
51
90.2184952
0
ARC
8
DEFAULT_255_1_234
10
4.4472555
20
100.7162924
40
0.2374236
50
89.3806855
51
105.6762551
0
ARC
8
DEFAULT_255_1_234
10
4.4289186
20
100.7829567
40
0.1682847
50
105.7981136
51
149.7388061
0
ARC
8
DEFAULT_255_1_234
10
4.5353264
20
100.718995
40
0.2924306
50
149.4208916
51
163.6286378
0
ARC
8
DEFAULT_255_1_234
10
4.7444152
20
100.655225
40
0.5110213
50
163.3763315
51
172.1410975
0
ARC
8
DEFAULT_255_1_234
10
5.0744871
20
100.6079518
40
0.8444586
50
172.0259487
51
178.0703232
0
ARC
8
DEFAULT_255_1_234
10
5.377496
20
100.5935906
40
1.1477868
50
177.8631668
51
179.5044149
0
ARC
8
DEFAULT_255_1_234
10
5.2702365
20
100.3621389
40
1.0404907
50
179.7995573
51
185.2460446
0
ARC
8
DEFAULT_255_1_234
10
4.8659404
20
100.3238513
40
0.6343885
50
185.1411642
51
193.0079639
0
ARC
8
DEFAULT_255_1_234
10
4.6015877
20
100.2613641
40
0.3627568
50
192.7897626
51
205.2507664
0
ARC
8
DEFAULT_255_1_234
10
4.4969424
20
100.2146415
40
0.2481908
50
205.8005384
51
211.2537509
0
ARC
8
DEFAULT_255_1_234
10
4.4445864
20
100.179558
40
0.1852521
50
210.3789793
51
238.4008143
0
ARC
8
DEFAULT_255_1_234
10
4.4426386
20
100.1842376
40
0.1882621
50
239.6520629
51
265.9793761
0
ARC
8
DEFAULT_255_1_234
10
4.4511586
20
100.2514427
40
0.2559272
50
265.1315437
51
270.060332
0
ARC
8
DEFAULT_255_1_234
10
4.4540365
20
100.2190534
40
0.2235528
50
269.3314664
51
287.2178029
0
ARC
8
DEFAULT_255_1_234
10
4.4678217
20
100.1687279
40
0.1714108
50
287.7958004
51
329.080874
0
ARC
8
DEFAULT_255_1_234
10
4.3720674
20
100.228493
40
0.2842745
50
328.6634704
51
343.3325132
0
ARC
8
DEFAULT_255_1_234
10
4.1547694
20
100.2961863
40
0.5118644
50
343.0499468
51
351.9393422
0
ARC
8
DEFAULT_255_1_234
10
3.8080994
20
100.3472949
40
0.8622784
50
351.8069023
51
357.7959224
0
ARC
8
DEFAULT_255_1_234
10
3.484555
20
100.3640721
40
1.1862365
50
357.5871873
51
359.2677531
0
LINE
8
DEFAULT_255_1_234
10
5.3718653
20
99.8903
11
5.0481863
21
99.8903
0
LINE
8
DEFAULT_255_1_234
10
5.0481863
20
99.8903
11
5.0481863
21
101.0597211
0
LINE
8
DEFAULT_255_1_234
10
5.0481863
20
101.0597211
11
5.3782907
21
101.0597211
0
LINE
8
DEFAULT_255_1_234
10
5.8939283
20
100.5143661
11
5.8939283
21
100.4396709
0
LINE
8
DEFAULT_255_1_234
10
5.3823066
20
100.9328196
11
5.2023957
21
100.9328196
0
LINE
8
DEFAULT_255_1_234
10
5.2023957
20
100.9328196
11
5.2023957
21
100.0163983
0
LINE
8
DEFAULT_255_1_234
10
5.2023957
20
100.0163983
11
5.3646368
21
100.0163983
0
LINE
8
DEFAULT_255_1_234
10
5.7413253
20
100.4428836
11
5.7413253
21
100.5111534
0
ARC
8
DEFAULT_255_1_234
10
5.382185
20
100.4731894
40
0.5865446
50
75.4101064
51
90.3804066
0
ARC
8
DEFAULT_255_1_234
10
5.4051363
20
100.5688492
40
0.4881916
50
60.145586
51
75.1888407
0
ARC
8
DEFAULT_255_1_234
10
5.4210139
20
100.5965199
40
0.4562893
50
26.5253612
51
60.1450928
0
ARC
8
DEFAULT_255_1_234
10
5.3089888
20
100.5371158
40
0.5830602
50
7.4030428
51
26.8320788
0
ARC
8
DEFAULT_255_1_234
10
5.1495645
20
100.5122804
40
0.7443669
50
0.1605367
51
7.7176192
0
ARC
8
DEFAULT_255_1_234
10
5.1659549
20
100.4358434
40
0.7279835
50
348.7289388
51
0.3012466
0
ARC
8
DEFAULT_255_1_234
10
5.331598
20
100.4029386
40
0.559104
50
333.0706509
51
348.7181832
0
ARC
8
DEFAULT_255_1_234
10
5.4282737
20
100.3504319
40
0.4491417
50
299.2531685
51
333.4571258
0
ARC
8
DEFAULT_255_1_234
10
5.3921877
20
100.4189828
40
0.5265881
50
278.107187
51
299.0339503
0
ARC
8
DEFAULT_255_1_234
10
5.3665956
20
100.5697216
40
0.679442
50
270.4443897
51
278.4511052
0
ARC
8
DEFAULT_255_1_234
10
5.3686786
20
100.4768213
40
0.4604407
50
269.4970433
51
284.0205042
0
ARC
8
DEFAULT_255_1_234
10
5.4042087
20
100.3402978
40
0.3193797
50
283.7700273
51
318.1555492
0
ARC
8
DEFAULT_255_1_234
10
5.3704845
20
100.3655367
40
0.3613588
50
318.7415601
51
343.6873628
0
ARC
8
DEFAULT_255_1_234
10
5.1900868
20
100.4218832
40
0.5503313
50
343.3325091
51
355.8548958
0
ARC
8
DEFAULT_255_1_234
10
4.9802553
20
100.4418319
40
0.7610708
50
355.4988528
51
0.0791727
0
ARC
8
DEFAULT_255_1_234
10
5.0585175
20
100.515378
40
0.6828208
50
359.6455037
51
9.8607896
0
ARC
8
DEFAULT_255_1_234
10
5.2945873
20
100.5580099
40
0.4429406
50
9.6571907
51
26.1932807
0
ARC
8
DEFAULT_255_1_234
10
5.3873862
20
100.6011118
40
0.3406537
50
26.5777228
51
40.1532208
0
ARC
8
DEFAULT_255_1_234
10
5.4129588
20
100.6210619
40
0.308246
50
40.3840491
51
80.1431104
0
ARC
8
DEFAULT_255_1_234
10
5.3802706
20
100.4761333
40
0.4566909
50
79.2152159
51
89.7445637
0
LINE
8
DEFAULT_255_1_234
10
4.8225817
20
105.8735327
11
4.8225817
21
105.6807709
0
LINE
8
DEFAULT_255_1_234
10
4.084465
20
105.6606916
11
4.084465
21
105.8590755
0
LINE
8
DEFAULT_255_1_234
10
4.6739946
20
105.6406123
11
4.6739946
21
105.8839739
0
LINE
8
DEFAULT_255_1_234
10
4.2330521
20
105.8952184
11
4.2330521
21
105.6574789
0
ARC
8
DEFAULT_255_1_234
10
3.5978707
20
105.6758805
40
1.2247208
50
353.8441951
51
0.2287902
0
ARC
8
DEFAULT_255_1_234
10
4.0618211
20
105.6240806
40
0.7578929
50
344.4934747
51
353.9765454
0
ARC
8
DEFAULT_255_1_234
10
4.3610801
20
105.5389981
40
0.4467846
50
329.2803592
51
344.7472793
0
ARC
8
DEFAULT_255_1_234
10
4.4603626
20
105.4845018
40
0.3336173
50
324.9352394
51
328.6160465
0
ARC
8
DEFAULT_255_1_234
10
4.4980734
20
105.4581427
40
0.2876076
50
280.580143
51
324.9173126
0
ARC
8
DEFAULT_255_1_234
10
4.4579527
20
105.6252099
40
0.4592847
50
269.5977311
51
281.6734359
0
ARC
8
DEFAULT_255_1_234
10
4.4507433
20
105.6132173
40
0.4472986
50
256.6228859
51
270.51044
0
ARC
8
DEFAULT_255_1_234
10
4.410541
20
105.4583877
40
0.2873874
50
215.8618325
51
257.2788573
0
ARC
8
DEFAULT_255_1_234
10
4.5126442
20
105.5268977
40
0.4102928
50
197.9693508
51
215.2623606
0
ARC
8
DEFAULT_255_1_234
10
4.7611558
20
105.6107709
40
0.6725652
50
187.8816417
51
198.2346507
0
ARC
8
DEFAULT_255_1_234
10
5.1569766
20
105.6679079
40
1.0724845
50
180.8976217
51
188.0055519
0
ARC
8
DEFAULT_255_1_234
10
5.4369954
20
105.6782777
40
1.3526448
50
180.7449369
51
181.1510016
0
ARC
8
DEFAULT_255_1_234
10
5.2792683
20
105.8639042
40
1.1948131
50
173.7675579
51
180.231553
0
ARC
8
DEFAULT_255_1_234
10
4.827483
20
105.9149666
40
0.7401564
50
164.3058563
51
173.9002247
0
ARC
8
DEFAULT_255_1_234
10
4.5362899
20
105.9988656
40
0.4371288
50
148.7922025
51
164.568378
0
ARC
8
DEFAULT_255_1_234
10
4.4411351
20
106.0519929
40
0.3282386
50
144.5883898
51
148.1176286
0
ARC
8
DEFAULT_255_1_234
10
4.4068249
20
106.0759315
40
0.2864044
50
101.6440918
51
144.514236
0
ARC
8
DEFAULT_255_1_234
10
4.4493315
20
105.9070069
40
0.4604934
50
89.5284041
51
102.5819763
0
ARC
8
DEFAULT_255_1_234
10
4.4572403
20
105.9031018
40
0.464401
50
77.0437873
51
90.5081339
0
ARC
8
DEFAULT_255_1_234
10
4.4974405
20
106.0673615
40
0.2953195
50
48.2778575
51
77.4994676
0
ARC
8
DEFAULT_255_1_234
10
4.5047036
20
106.0802746
40
0.2808655
50
36.3142134
51
47.6305865
0
ARC
8
DEFAULT_255_1_234
10
4.4178343
20
106.0217515
40
0.3855453
50
18.2931786
51
35.6769206
0
ARC
8
DEFAULT_255_1_234
10
4.1635102
20
105.9344593
40
0.654423
50
8.024666
51
18.5605216
0
ARC
8
DEFAULT_255_1_234
10
3.7472022
20
105.8729792
40
1.0752407
50
1.1274072
51
8.1718305
0
ARC
8
DEFAULT_255_1_234
10
3.4236213
20
105.8602885
40
1.3990231
50
0.5424119
51
1.3863029
0
ARC
8
DEFAULT_255_1_234
10
3.605759
20
105.8875342
40
1.0682415
50
359.8090433
51
4.9407866
0
ARC
8
DEFAULT_255_1_234
10
4.0267604
20
105.9251113
40
0.6455691
50
4.8362157
51
12.2904523
0
ARC
8
DEFAULT_255_1_234
10
4.3022719
20
105.9864965
40
0.3633074
50
12.0805627
51
23.8173984
0
ARC
8
DEFAULT_255_1_234
10
4.4196425
20
106.0361919
40
0.2358723
50
24.2871213
51
31.3935614
0
ARC
8
DEFAULT_255_1_234
10
4.4721122
20
106.0705233
40
0.1732111
50
30.7407893
51
82.4657128
0
ARC
8
DEFAULT_255_1_234
10
4.4541256
20
105.9821691
40
0.263235
50
81.1060089
51
90.2184952
0
ARC
8
DEFAULT_255_1_234
10
4.4505555
20
106.0079924
40
0.2374236
50
89.3806855
51
105.6762551
0
ARC
8
DEFAULT_255_1_234
10
4.4322186
20
106.0746567
40
0.1682847
50
105.7981136
51
149.7388061
0
ARC
8
DEFAULT_255_1_234
10
4.5386264
20
106.010695
40
0.2924306
50
149.4208916
51
163.6286378
0
ARC
8
DEFAULT_255_1_234
10
4.7477152
20
105.946925
40
0.5110213
50
163.3763315
51
172.1410975
0
ARC
8
DEFAULT_255_1_234
10
5.0777871
20
105.8996518
40
0.8444586
50
172.0259487
51
178.0703232
0
ARC
8
DEFAULT_255_1_234
10
5.380796
20
105.8852906
40
1.1477868
50
177.8631668
51
179.5044149
0
ARC
8
DEFAULT_255_1_234
10
5.2735365
20
105.6538389
40
1.0404907
50
179.7995573
51
185.2460446
0
ARC
8
DEFAULT_255_1_234
10
4.8692404
20
105.6155513
40
0.6343885
50
185.1411642
51
193.0079639
0
ARC
8
DEFAULT_255_1_234
10
4.6048877
20
105.5530641
40
0.3627568
50
192.7897626
51
205.2507664
0
ARC
8
DEFAULT_255_1_234
10
4.5002424
20
105.5063415
40
0.2481908
50
205.8005384
51
211.2537509
0
ARC
8
DEFAULT_255_1_234
10
4.4478864
20
105.471258
40
0.1852521
50
210.3789793
51
238.4008143
0
ARC
8
DEFAULT_255_1_234
10
4.4459386
20
105.4759376
40
0.1882621
50
239.6520629
51
265.9793761
0
ARC
8
DEFAULT_255_1_234
10
4.4544586
20
105.5431427
40
0.2559272
50
265.1315437
51
270.060332
0
ARC
8
DEFAULT_255_1_234
10
4.4573365
20
105.5107534
40
0.2235528
50
269.3314664
51
287.2178029
0
ARC
8
DEFAULT_255_1_234
10
4.4711217
20
105.4604279
40
0.1714108
50
287.7958004
51
329.080874
0
ARC
8
DEFAULT_255_1_234
10
4.3753674
20
105.520193
40
0.2842745
50
328.6634704
51
343.3325132
0
ARC
8
DEFAULT_255_1_234
10
4.1580694
20
105.5878863
40
0.5118644
50
343.0499468
51
351.9393422
0
ARC
8
DEFAULT_255_1_234
10
3.8113994
20
105.6389949
40
0.8622784
50
351.8069023
51
357.7959224
0
ARC
8
DEFAULT_255_1_234
10
3.487855
20
105.6557721
40
1.1862365
50
357.5871873
51
359.2677531
0
LINE
8
DEFAULT_255_1_234
10
5.7566729
20
105.5530663
11
5.9116854
21
105.5530663
0
LINE
8
DEFAULT_255_1_234
10
5.0113276
20
105.7120947
11
5.0113276
21
105.8245391
0
LINE
8
DEFAULT_255_1_234
10
5.9116854
20
105.9755357
11
5.7566729
21
105.9755357
0
LINE
8
DEFAULT_255_1_234
10
5.1663401
20
105.8205232
11
5.1663401
21
105.7072757
0
ARC
8
DEFAULT_255_1_234
10
5.3636241
20
105.6127846
40
0.5513052
50
340.1774281
51
353.7814284
0
ARC
8
DEFAULT_255_1_234
10
5.5207594
20
105.5542582
40
0.3836379
50
311.4558989
51
340.4421614
0
ARC
8
DEFAULT_255_1_234
10
5.5174262
20
105.5653528
40
0.3941894
50
282.4333181
51
310.7513653
0
ARC
8
DEFAULT_255_1_234
10
5.4735001
20
105.7468679
40
0.5809175
50
269.9358511
51
282.809604
0
ARC
8
DEFAULT_255_1_234
10
5.4683067
20
105.8926212
40
0.7266847
50
270.0021091
51
270.3581957
0
ARC
8
DEFAULT_255_1_234
10
5.4630484
20
105.6325585
40
0.4666519
50
250.7884749
51
270.6489167
0
ARC
8
DEFAULT_255_1_234
10
5.4462319
20
105.5688319
40
0.4009729
50
219.3627325
51
250.0611886
0
ARC
8
DEFAULT_255_1_234
10
5.529153
20
105.6393042
40
0.5097822
50
193.5479632
51
219.5756669
0
ARC
8
DEFAULT_255_1_234
10
5.7663151
20
105.7008919
40
0.7547848
50
181.1218675
51
193.87563
0
ARC
8
DEFAULT_255_1_234
10
5.9733332
20
105.711958
40
0.9620055
50
179.9918545
51
181.5394234
0
ARC
8
DEFAULT_255_1_234
10
5.7882434
20
105.8282788
40
0.7769248
50
169.5837241
51
180.2757934
0
ARC
8
DEFAULT_255_1_234
10
5.6045372
20
105.8622229
40
0.590109
50
155.0365899
51
169.6003176
0
ARC
8
DEFAULT_255_1_234
10
5.4909836
20
105.9169677
40
0.4640625
50
136.783148
51
155.2472683
0
ARC
8
DEFAULT_255_1_234
10
5.4520313
20
105.9500562
40
0.4130255
50
121.7633186
51
136.428115
0
ARC
8
DEFAULT_255_1_234
10
5.4655275
20
105.9251227
40
0.4413323
50
95.6459699
51
121.5490577
0
ARC
8
DEFAULT_255_1_234
10
5.4812557
20
105.8142949
40
0.55319
50
89.924208
51
96.1377933
0
ARC
8
DEFAULT_255_1_234
10
5.486299
20
105.8261542
40
0.5413475
50
76.6779277
51
90.4563316
0
ARC
8
DEFAULT_255_1_234
10
5.5256613
20
105.9852114
40
0.3775041
50
47.485847
51
76.9287264
0
ARC
8
DEFAULT_255_1_234
10
5.5109586
20
105.9752159
40
0.3948286
50
16.5424086
51
46.8933463
0
ARC
8
DEFAULT_255_1_234
10
5.3501743
20
105.9223861
40
0.564021
50
5.4072051
51
17.0365086
0
ARC
8
DEFAULT_255_1_234
10
5.206276
20
105.8992679
40
0.5556559
50
7.8891745
51
15.9239216
0
ARC
8
DEFAULT_255_1_234
10
5.4049773
20
105.9569631
40
0.3487515
50
15.7653144
51
27.9410532
0
ARC
8
DEFAULT_255_1_234
10
5.5153991
20
106.016079
40
0.2235026
50
27.8166557
51
46.4008329
0
ARC
8
DEFAULT_255_1_234
10
5.5203634
20
106.0155082
40
0.2205286
50
47.4371857
51
75.0698205
0
ARC
8
DEFAULT_255_1_234
10
5.4895029
20
105.9080765
40
0.3322915
50
74.7008593
51
87.8124495
0
ARC
8
DEFAULT_255_1_234
10
5.4821716
20
105.8024844
40
0.4380987
50
87.3814673
51
90.0240855
0
ARC
8
DEFAULT_255_1_234
10
5.4783259
20
105.9202291
40
0.3203749
50
89.3451631
51
108.5745436
0
ARC
8
DEFAULT_255_1_234
10
5.4646365
20
105.9715908
40
0.2673494
50
109.2998449
51
143.3037509
0
ARC
8
DEFAULT_255_1_234
10
5.5408437
20
105.9129881
40
0.3634757
50
143.0753173
51
163.1916937
0
ARC
8
DEFAULT_255_1_234
10
5.7360165
20
105.8513967
40
0.5681262
50
162.9373603
51
174.6208611
0
ARC
8
DEFAULT_255_1_234
10
5.9986207
20
105.822601
40
0.8322832
50
174.3419979
51
180.1430411
0
ARC
8
DEFAULT_255_1_234
10
5.9055363
20
105.7031698
40
0.7392076
50
179.6817502
51
189.150529
0
ARC
8
DEFAULT_255_1_234
10
5.6554611
20
105.661519
40
0.4856932
50
188.9910863
51
203.5773039
0
ARC
8
DEFAULT_255_1_234
10
5.5474944
20
105.6167211
40
0.3688271
50
203.9077269
51
215.1312379
0
ARC
8
DEFAULT_255_1_234
10
5.4552038
20
105.5451941
40
0.2522457
50
213.9071664
51
263.8849284
0
ARC
8
DEFAULT_255_1_234
10
5.4677367
20
105.6236518
40
0.3316174
50
263.1758525
51
270.1031083
0
ARC
8
DEFAULT_255_1_234
10
5.4709459
20
105.7483365
40
0.4563091
50
269.6719807
51
279.0609165
0
ARC
8
DEFAULT_255_1_234
10
5.4976227
20
105.5870907
40
0.2928759
50
278.8750225
51
293.6346586
0
ARC
8
DEFAULT_255_1_234
10
5.5296435
20
105.51189
40
0.2111472
50
293.8553404
51
310.0518804
0
ARC
8
DEFAULT_255_1_234
10
5.5301289
20
105.5056516
40
0.2060917
50
311.0646779
51
332.0108348
0
ARC
8
DEFAULT_255_1_234
10
5.4109016
20
105.5713978
40
0.3422352
50
331.6588543
51
343.2878891
0
ARC
8
DEFAULT_255_1_234
10
5.2046531
20
105.6347798
40
0.5580003
50
343.1446044
51
351.010618
0
ARC
8
DEFAULT_255_1_234
10
5.0505177
20
105.6628871
40
0.7146438
50
350.7157277
51
351.1602153
0
LINE
8
DEFAULT_255_1_234
10
4.8457817
20
111.1652327
11
4.8457817
21
110.9724709
0
LINE
8
DEFAULT_255_1_234
10
4.107665
20
110.9523916
11
4.107665
21
111.1507755
0
LINE
8
DEFAULT_255_1_234
10
4.6971946
20
110.9323123
11
4.6971946
21
111.1756739
0
LINE
8
DEFAULT_255_1_234
10
4.2562521
20
111.1869184
11
4.2562521
21
110.9491789
0
ARC
8
DEFAULT_255_1_234
10
3.6210707
20
110.9675805
40
1.2247208
50
353.8441951
51
0.2287902
0
ARC
8
DEFAULT_255_1_234
10
4.0850211
20
110.9157806
40
0.7578929
50
344.4934747
51
353.9765454
0
ARC
8
DEFAULT_255_1_234
10
4.3842801
20
110.8306981
40
0.4467846
50
329.2803592
51
344.7472793
0
ARC
8
DEFAULT_255_1_234
10
4.4835626
20
110.7762018
40
0.3336173
50
324.9352394
51
328.6160465
0
ARC
8
DEFAULT_255_1_234
10
4.5212734
20
110.7498427
40
0.2876076
50
280.580143
51
324.9173126
0
ARC
8
DEFAULT_255_1_234
10
4.4811527
20
110.9169099
40
0.4592847
50
269.5977311
51
281.6734359
0
ARC
8
DEFAULT_255_1_234
10
4.4739433
20
110.9049173
40
0.4472986
50
256.6228859
51
270.51044
0
ARC
8
DEFAULT_255_1_234
10
4.433741
20
110.7500877
40
0.2873874
50
215.8618325
51
257.2788573
0
ARC
8
DEFAULT_255_1_234
10
4.5358442
20
110.8185977
40
0.4102928
50
197.9693508
51
215.2623606
0
ARC
8
DEFAULT_255_1_234
10
4.7843558
20
110.9024709
40
0.6725652
50
187.8816417
51
198.2346507
0
ARC
8
DEFAULT_255_1_234
10
5.1801766
20
110.9596079
40
1.0724845
50
180.8976217
51
188.0055519
0
ARC
8
DEFAULT_255_1_234
10
5.4601954
20
110.9699777
40
1.3526448
50
180.7449369
51
181.1510016
0
ARC
8
DEFAULT_255_1_234
10
5.3024683
20
111.1556042
40
1.1948131
50
173.7675579
51
180.231553
0
ARC
8
DEFAULT_255_1_234
10
4.850683
20
111.2066666
40
0.7401564
50
164.3058563
51
173.9002247
0
ARC
8
DEFAULT_255_1_234
10
4.5594899
20
111.2905656
40
0.4371288
50
148.7922025
51
164.568378
0
ARC
8
DEFAULT_255_1_234
10
4.4643351
20
111.3436929
40
0.3282386
50
144.5883898
51
148.1176286
0
ARC
8
DEFAULT_255_1_234
10
4.4300249
20
111.3676315
40
0.2864044
50
101.6440918
51
144.514236
0
ARC
8
DEFAULT_255_1_234
10
4.4725315
20
111.1987069
40
0.4604934
50
89.5284041
51
102.5819763
0
ARC
8
DEFAULT_255_1_234
10
4.4804403
20
111.1948018
40
0.464401
50
77.0437873
51
90.5081339
0
ARC
8
DEFAULT_255_1_234
10
4.5206405
20
111.3590615
40
0.2953195
50
48.2778575
51
77.4994676
0
ARC
8
DEFAULT_255_1_234
10
4.5279036
20
111.3719746
40
0.2808655
50
36.3142134
51
47.6305865
0
ARC
8
DEFAULT_255_1_234
10
4.4410343
20
111.3134515
40
0.3855453
50
18.2931786
51
35.6769206
0
ARC
8
DEFAULT_255_1_234
10
4.1867102
20
111.2261593
40
0.654423
50
8.024666
51
18.5605216
0
ARC
8
DEFAULT_255_1_234
10
3.7704022
20
111.1646792
40
1.0752407
50
1.1274072
51
8.1718305
0
ARC
8
DEFAULT_255_1_234
10
3.4468213
20
111.1519885
40
1.3990231
50
0.5424119
51
1.3863029
0
ARC
8
DEFAULT_255_1_234
10
3.628959
20
111.1792342
40
1.0682415
50
359.8090433
51
4.9407866
0
ARC
8
DEFAULT_255_1_234
10
4.0499604
20
111.2168113
40
0.6455691
50
4.8362157
51
12.2904523
0
ARC
8
DEFAULT_255_1_234
10
4.3254719
20
111.2781965
40
0.3633074
50
12.0805627
51
23.8173984
0
ARC
8
DEFAULT_255_1_234
10
4.4428425
20
111.3278919
40
0.2358723
50
24.2871213
51
31.3935614
0
ARC
8
DEFAULT_255_1_234
10
4.4953122
20
111.3622233
40
0.1732111
50
30.7407893
51
82.4657128
0
ARC
8
DEFAULT_255_1_234
10
4.4773256
20
111.2738691
40
0.263235
50
81.1060089
51
90.2184952
0
ARC
8
DEFAULT_255_1_234
10
4.4737555
20
111.2996924
40
0.2374236
50
89.3806855
51
105.6762551
0
ARC
8
DEFAULT_255_1_234
10
4.4554186
20
111.3663567
40
0.1682847
50
105.7981136
51
149.7388061
0
ARC
8
DEFAULT_255_1_234
10
4.5618264
20
111.302395
40
0.2924306
50
149.4208916
51
163.6286378
0
ARC
8
DEFAULT_255_1_234
10
4.7709152
20
111.238625
40
0.5110213
50
163.3763315
51
172.1410975
0
ARC
8
DEFAULT_255_1_234
10
5.1009871
20
111.1913518
40
0.8444586
50
172.0259487
51
178.0703232
0
ARC
8
DEFAULT_255_1_234
10
5.403996
20
111.1769906
40
1.1477868
50
177.8631668
51
179.5044149
0
ARC
8
DEFAULT_255_1_234
10
5.2967365
20
110.9455389
40
1.0404907
50
179.7995573
51
185.2460446
0
ARC
8
DEFAULT_255_1_234
10
4.8924404
20
110.9072513
40
0.6343885
50
185.1411642
51
193.0079639
0
ARC
8
DEFAULT_255_1_234
10
4.6280877
20
110.8447641
40
0.3627568
50
192.7897626
51
205.2507664
0
ARC
8
DEFAULT_255_1_234
10
4.5234424
20
110.7980415
40
0.2481908
50
205.8005384
51
211.2537509
0
ARC
8
DEFAULT_255_1_234
10
4.4710864
20
110.762958
40
0.1852521
50
210.3789793
51
238.4008143
0
ARC
8
DEFAULT_255_1_234
10
4.4691386
20
110.7676376
40
0.1882621
50
239.6520629
51
265.9793761
0
ARC
8
DEFAULT_255_1_234
10
4.4776586
20
110.8348427
40
0.2559272
50
265.1315437
51
270.060332
0
ARC
8
DEFAULT_255_1_234
10
4.4805365
20
110.8024534
40
0.2235528
50
269.3314664
51
287.2178029
0
ARC
8
DEFAULT_255_1_234
10
4.4943217
20
110.7521279
40
0.1714108
50
287.7958004
51
329.080874
0
ARC
8
DEFAULT_255_1_234
10
4.3985674
20
110.811893
40
0.2842745
50
328.6634704
51
343.3325132
0
ARC
8
DEFAULT_255_1_234
10
4.1812694
20
110.8795863
40
0.5118644
50
343.0499468
51
351.9393422
0
ARC
8
DEFAULT_255_1_234
10
3.8345994
20
110.9306949
40
0.8622784
50
351.8069023
51
357.7959224
0
ARC
8
DEFAULT_255_1_234
10
3.511055
20
110.9474721
40
1.1862365
50
357.5871873
51
359.2677531
0
LINE
8
DEFAULT_255_1_234
10
5.4802891
20
110.4737
11
5.0746863
21
110.4737
0
LINE
8
DEFAULT_255_1_234
10
5.0746863
20
110.4737
11
5.0746863
21
111.6431211
0
LINE
8
DEFAULT_255_1_234
10
5.0746863
20
111.6431211
11
5.456997
21
111.6431211
0
LINE
8
DEFAULT_255_1_234
10
5.4859113
20
111.0206614
11
5.2288957
21
111.0206614
0
LINE
8
DEFAULT_255_1_234
10
5.2288957
20
111.0206614
11
5.2288957
21
110.5997983
0
LINE
8
DEFAULT_255_1_234
10
5.2288957
20
110.5997983
11
5.4835018
21
110.5997983
0
LINE
8
DEFAULT_255_1_234
10
5.2288957
20
111.5162196
11
5.2288957
21
111.1443501
0
LINE
8
DEFAULT_255_1_234
10
5.2288957
20
111.1443501
11
5.4618161
21
111.1443501
0
LINE
8
DEFAULT_255_1_234
10
5.456997
20
111.5162196
11
5.2288957
21
111.5162196
0
ARC
8
DEFAULT_255_1_234
10
5.4607679
20
110.9063901
40
0.7367406
50
82.1257326
51
90.2932599
0
ARC
8
DEFAULT_255_1_234
10
5.4996634
20
111.1782013
40
0.4621653
50
69.9044149
51
82.2857423
0
ARC
8
DEFAULT_255_1_234
10
5.5567312
20
111.3324637
40
0.2976871
50
51.1838526
51
70.0181538
0
ARC
8
DEFAULT_255_1_234
10
5.5822278
20
111.369524
40
0.2528517
50
12.1017251
51
50.4214761
0
ARC
8
DEFAULT_255_1_234
10
5.4438152
20
111.3347676
40
0.3955061
50
359.5251267
51
12.8211707
0
ARC
8
DEFAULT_255_1_234
10
5.6018078
20
111.3278344
40
0.2375281
50
323.4908128
51
0.8817314
0
ARC
8
DEFAULT_255_1_234
10
5.5599765
20
111.360155
40
0.2903817
50
298.6825083
51
323.2756573
0
ARC
8
DEFAULT_255_1_234
10
5.5238128
20
111.4202649
40
0.3604842
50
293.1999386
51
299.1396394
0
ARC
8
DEFAULT_255_1_234
10
5.5911101
20
110.8117126
40
0.2871098
50
54.0011765
51
74.9167975
0
ARC
8
DEFAULT_255_1_234
10
5.602746
20
110.8314332
40
0.2643248
50
36.3580696
51
53.5291921
0
ARC
8
DEFAULT_255_1_234
10
5.5900702
20
110.8223998
40
0.2798884
50
4.8189881
51
36.3089977
0
ARC
8
DEFAULT_255_1_234
10
5.5121537
20
110.811427
40
0.358478
50
359.9370252
51
5.5204067
0
ARC
8
DEFAULT_255_1_234
10
5.4797059
20
110.8073667
40
0.3909429
50
344.7478609
51
0.5373281
0
ARC
8
DEFAULT_255_1_234
10
5.578803
20
110.7806544
40
0.2883093
50
311.1786488
51
344.6886812
0
ARC
8
DEFAULT_255_1_234
10
5.5496077
20
110.8169987
40
0.3348923
50
286.0418249
51
310.8441291
0
ARC
8
DEFAULT_255_1_234
10
5.4988909
20
110.9816807
40
0.5071869
50
274.1042341
51
286.4071509
0
ARC
8
DEFAULT_255_1_234
10
5.4812165
20
111.1700229
40
0.6963234
50
269.9236873
51
274.445647
0
ARC
8
DEFAULT_255_1_234
10
5.4858166
20
110.9360537
40
0.3362634
50
269.6055768
51
281.3740047
0
ARC
8
DEFAULT_255_1_234
10
5.5088804
20
110.8267353
40
0.224546
50
281.1055983
51
302.5132223
0
ARC
8
DEFAULT_255_1_234
10
5.5235703
20
110.8003823
40
0.1944357
50
303.0368945
51
311.8811219
0
ARC
8
DEFAULT_255_1_234
10
5.530711
20
110.791889
40
0.1833454
50
311.9916004
51
351.7143462
0
ARC
8
DEFAULT_255_1_234
10
5.449034
20
110.808393
40
0.2665871
50
350.7339597
51
0.2221581
0
ARC
8
DEFAULT_255_1_234
10
5.4382786
20
110.8140467
40
0.2773789
50
359.0456241
51
17.2296242
0
ARC
8
DEFAULT_255_1_234
10
5.5421903
20
110.8449163
40
0.1689915
50
17.6685481
51
78.9940892
0
ARC
8
DEFAULT_255_1_234
10
5.4905067
20
110.6594224
40
0.3612658
50
76.5635957
51
90.6980921
0
LINE
8
DEFAULT_255_1_234
10
5.4861051
20
111.0206613
11
5.4859113
21
111.0206614
0
ARC
8
DEFAULT_255_1_234
10
5.4640727
20
111.4729036
40
0.3285612
50
269.6064736
51
281.4533503
0
ARC
8
DEFAULT_255_1_234
10
5.4863547
20
111.3677688
40
0.2210975
50
281.2041486
51
302.5148063
0
ARC
8
DEFAULT_255_1_234
10
5.5000397
20
111.3431241
40
0.1929674
50
303.021671
51
309.8369575
0
ARC
8
DEFAULT_255_1_234
10
5.5183858
20
111.3225488
40
0.1654181
50
309.5228395
51
356.9509836
0
ARC
8
DEFAULT_255_1_234
10
5.4520441
20
111.3320932
40
0.2322512
50
355.4701227
51
0.0492546
0
ARC
8
DEFAULT_255_1_234
10
5.4241532
20
111.3343094
40
0.2601498
50
359.5558597
51
11.2096359
0
ARC
8
DEFAULT_255_1_234
10
5.5198822
20
111.354123
40
0.1623975
50
10.9182341
51
31.3230275
0
ARC
8
DEFAULT_255_1_234
10
5.5484555
20
111.3700214
40
0.1297302
50
31.8852677
51
52.1412565
0
ARC
8
DEFAULT_255_1_234
10
5.5210288
20
111.331275
40
0.1771663
50
52.8285564
51
71.9850297
0
ARC
8
DEFAULT_255_1_234
10
5.4834464
20
111.2206664
40
0.2939794
50
71.6863486
51
82.8455995
0
ARC
8
DEFAULT_255_1_234
10
5.4595
20
111.0397149
40
0.476506
50
82.6984714
51
90.1729175
0
ARC
8
DEFAULT_255_1_234
10
5.4572635
20
111.1620623
40
0.3541573
50
89.8708275
51
90.0431131
0
LINE
8
DEFAULT_255_1_234
10
4.9283817
20
116.4568327
11
4.9283817
21
116.2640709
0
LINE
8
DEFAULT_255_1_234
10
4.190265
20
116.2439916
11
4.190265
21
116.4423755
0
LINE
8
DEFAULT_255_1_234
10
4.7797946
20
116.2239123
11
4.7797946
21
116.4672739
0
LINE
8
DEFAULT_255_1_234
10
4.3388521
20
116.4785184
11
4.3388521
21
116.2407789
0
ARC
8
DEFAULT_255_1_234
10
3.7036707
20
116.2591805
40
1.2247208
50
353.8441951
51
0.2287902
0
ARC
8
DEFAULT_255_1_234
10
4.1676211
20
116.2073806
40
0.7578929
50
344.4934747
51
353.9765454
0
ARC
8
DEFAULT_255_1_234
10
4.4668801
20
116.1222981
40
0.4467846
50
329.2803592
51
344.7472793
0
ARC
8
DEFAULT_255_1_234
10
4.5661626
20
116.0678018
40
0.3336173
50
324.9352394
51
328.6160465
0
ARC
8
DEFAULT_255_1_234
10
4.6038734
20
116.0414427
40
0.2876076
50
280.580143
51
324.9173126
0
ARC
8
DEFAULT_255_1_234
10
4.5637527
20
116.2085099
40
0.4592847
50
269.5977311
51
281.6734359
0
ARC
8
DEFAULT_255_1_234
10
4.5565433
20
116.1965173
40
0.4472986
50
256.6228859
51
270.51044
0
ARC
8
DEFAULT_255_1_234
10
4.516341
20
116.0416877
40
0.2873874
50
215.8618325
51
257.2788573
0
ARC
8
DEFAULT_255_1_234
10
4.6184442
20
116.1101977
40
0.4102928
50
197.9693508
51
215.2623606
0
ARC
8
DEFAULT_255_1_234
10
4.8669558
20
116.1940709
40
0.6725652
50
187.8816417
51
198.2346507
0
ARC
8
DEFAULT_255_1_234
10
5.2627766
20
116.2512079
40
1.0724845
50
180.8976217
51
188.0055519
0
ARC
8
DEFAULT_255_1_234
10
5.5427954
20
116.2615777
40
1.3526448
50
180.7449369
51
181.1510016
0
ARC
8
DEFAULT_255_1_234
10
5.3850683
20
116.4472042
40
1.1948131
50
173.7675579
51
180.231553
0
ARC
8
DEFAULT_255_1_234
10
4.933283
20
116.4982666
40
0.7401564
50
164.3058563
51
173.9002247
0
ARC
8
DEFAULT_255_1_234
10
4.6420899
20
116.5821656
40
0.4371288
50
148.7922025
51
164.568378
0
ARC
8
DEFAULT_255_1_234
10
4.5469351
20
116.6352929
40
0.3282386
50
144.5883898
51
148.1176286
0
ARC
8
DEFAULT_255_1_234
10
4.5126249
20
116.6592315
40
0.2864044
50
101.6440918
51
144.514236
0
ARC
8
DEFAULT_255_1_234
10
4.5551315
20
116.4903069
40
0.4604934
50
89.5284041
51
102.5819763
0
ARC
8
DEFAULT_255_1_234
10
4.5630403
20
116.4864018
40
0.464401
50
77.0437873
51
90.5081339
0
ARC
8
DEFAULT_255_1_234
10
4.6032405
20
116.6506615
40
0.2953195
50
48.2778575
51
77.4994676
0
ARC
8
DEFAULT_255_1_234
10
4.6105036
20
116.6635746
40
0.2808655
50
36.3142134
51
47.6305865
0
ARC
8
DEFAULT_255_1_234
10
4.5236343
20
116.6050515
40
0.3855453
50
18.2931786
51
35.6769206
0
ARC
8
DEFAULT_255_1_234
10
4.2693102
20
116.5177593
40
0.654423
50
8.024666
51
18.5605216
0
ARC
8
DEFAULT_255_1_234
10
3.8530022
20
116.4562792
40
1.0752407
50
1.1274072
51
8.1718305
0
ARC
8
DEFAULT_255_1_234
10
3.5294213
20
116.4435885
40
1.3990231
50
0.5424119
51
1.3863029
0
ARC
8
DEFAULT_255_1_234
10
3.711559
20
116.4708342
40
1.0682415
50
359.8090433
51
4.9407866
0
ARC
8
DEFAULT_255_1_234
10
4.1325604
20
116.5084113
40
0.6455691
50
4.8362157
51
12.2904523
0
ARC
8
DEFAULT_255_1_234
10
4.4080719
20
116.5697965
40
0.3633074
50
12.0805627
51
23.8173984
0
ARC
8
DEFAULT_255_1_234
10
4.5254425
20
116.6194919
40
0.2358723
50
24.2871213
51
31.3935614
0
ARC
8
DEFAULT_255_1_234
10
4.5779122
20
116.6538233
40
0.1732111
50
30.7407893
51
82.4657128
0
ARC
8
DEFAULT_255_1_234
10
4.5599256
20
116.5654691
40
0.263235
50
81.1060089
51
90.2184952
0
ARC
8
DEFAULT_255_1_234
10
4.5563555
20
116.5912924
40
0.2374236
50
89.3806855
51
105.6762551
0
ARC
8
DEFAULT_255_1_234
10
4.5380186
20
116.6579567
40
0.1682847
50
105.7981136
51
149.7388061
0
ARC
8
DEFAULT_255_1_234
10
4.6444264
20
116.593995
40
0.2924306
50
149.4208916
51
163.6286378
0
ARC
8
DEFAULT_255_1_234
10
4.8535152
20
116.530225
40
0.5110213
50
163.3763315
51
172.1410975
0
ARC
8
DEFAULT_255_1_234
10
5.1835871
20
116.4829518
40
0.8444586
50
172.0259487
51
178.0703232
0
ARC
8
DEFAULT_255_1_234
10
5.486596
20
116.4685906
40
1.1477868
50
177.8631668
51
179.5044149
0
ARC
8
DEFAULT_255_1_234
10
5.3793365
20
116.2371389
40
1.0404907
50
179.7995573
51
185.2460446
0
ARC
8
DEFAULT_255_1_234
10
4.9750404
20
116.1988513
40
0.6343885
50
185.1411642
51
193.0079639
0
ARC
8
DEFAULT_255_1_234
10
4.7106877
20
116.1363641
40
0.3627568
50
192.7897626
51
205.2507664
0
ARC
8
DEFAULT_255_1_234
10
4.6060424
20
116.0896415
40
0.2481908
50
205.8005384
51
211.2537509
0
ARC
8
DEFAULT_255_1_234
10
4.5536864
20
116.054558
40
0.1852521
50
210.3789793
51
238.4008143
0
ARC
8
DEFAULT_255_1_234
10
4.5517386
20
116.0592376
40
0.1882621
50
239.6520629
51
265.9793761
0
ARC
8
DEFAULT_255_1_234
10
4.5602586
20
116.1264427
40
0.2559272
50
265.1315437
51
270.060332
0
ARC
8
DEFAULT_255_1_234
10
4.5631365
20
116.0940534
40
0.2235528
50
269.3314664
51
287.2178029
0
ARC
8
DEFAULT_255_1_234
10
4.5769217
20
116.0437279
40
0.1714108
50
287.7958004
51
329.080874
0
ARC
8
DEFAULT_255_1_234
10
4.4811674
20
116.103493
40
0.2842745
50
328.6634704
51
343.3325132
0
ARC
8
DEFAULT_255_1_234
10
4.2638694
20
116.1711863
40
0.5118644
50
343.0499468
51
351.9393422
0
ARC
8
DEFAULT_255_1_234
10
3.9171994
20
116.2222949
40
0.8622784
50
351.8069023
51
357.7959224
0
ARC
8
DEFAULT_255_1_234
10
3.593655
20
116.2390721
40
1.1862365
50
357.5871873
51
359.2677531
0
LINE
8
DEFAULT_255_1_234
10
5.9146792
20
115.7653
11
5.803038
21
116.0705061
0
LINE
8
DEFAULT_255_1_234
10
5.803038
20
116.0705061
11
5.313102
21
116.0705061
0
LINE
8
DEFAULT_255_1_234
10
5.313102
20
116.0705061
11
5.2030672
21
115.7653
0
LINE
8
DEFAULT_255_1_234
10
5.2030672
20
115.7653
11
5.0440388
21
115.7653
0
LINE
8
DEFAULT_255_1_234
10
5.0440388
20
115.7653
11
5.4906034
21
116.9347211
0
LINE
8
DEFAULT_255_1_234
10
5.4906034
20
116.9347211
11
5.6255366
21
116.9347211
0
LINE
8
DEFAULT_255_1_234
10
5.6255366
20
116.9347211
11
6.0729044
21
115.7653
0
LINE
8
DEFAULT_255_1_234
10
6.0729044
20
115.7653
11
5.9146792
21
115.7653
0
LINE
8
DEFAULT_255_1_234
10
5.55807
20
116.7443689
11
5.3596861
21
116.1974075
0
LINE
8
DEFAULT_255_1_234
10
5.3596861
20
116.1974075
11
5.7572571
21
116.1974075
0
LINE
8
DEFAULT_255_1_234
10
5.7572571
20
116.1974075
11
5.55807
21
116.7443689
0
LINE
8
DEFAULT_255_1_234
10
4.7181246
20
121.7589739
11
4.7181246
21
121.7156025
0
LINE
8
DEFAULT_255_1_234
10
4.1759823
20
121.0561968
11
4.147068
21
121.0561968
0
LINE
8
DEFAULT_255_1_234
10
4.147068
20
121.0561968
11
4.147068
21
121.1814919
0
LINE
8
DEFAULT_255_1_234
10
4.147068
20
121.1814919
11
4.1783918
21
121.1814919
0
LINE
8
DEFAULT_255_1_234
10
4.5695375
20
121.7300597
11
4.5695375
21
121.7894945
0
ARC
8
DEFAULT_255_1_234
10
4.2901644
20
121.8046403
40
0.3635579
50
297.4037347
51
320.016758
0
ARC
8
DEFAULT_255_1_234
10
4.3191593
20
121.748924
40
0.3007486
50
270.2633101
51
297.3851877
0
ARC
8
DEFAULT_255_1_234
10
4.3157549
20
121.7952904
40
0.3471448
50
269.9966443
51
270.7900392
0
ARC
8
DEFAULT_255_1_234
10
4.313203
20
121.7951143
40
0.3469779
50
254.5999133
51
270.4180344
0
ARC
8
DEFAULT_255_1_234
10
4.2989389
20
121.7386647
40
0.2887697
50
236.4717942
51
254.3541279
0
ARC
8
DEFAULT_255_1_234
10
4.3145607
20
121.7596711
40
0.3149125
50
208.4727207
51
236.2134933
0
ARC
8
DEFAULT_255_1_234
10
4.3784382
20
121.7987455
40
0.3897115
50
204.3447514
51
209.0453999
0
ARC
8
DEFAULT_255_1_234
10
4.4463958
20
121.8275656
40
0.4635101
50
183.9375985
51
204.1276318
0
ARC
8
DEFAULT_255_1_234
10
4.5372209
20
121.8373482
40
0.5548037
50
179.9652252
51
184.3013875
0
ARC
8
DEFAULT_255_1_234
10
4.5132255
20
121.8406507
40
0.5308164
50
166.7585989
51
180.3201225
0
ARC
8
DEFAULT_255_1_234
10
4.4285869
20
121.8590488
40
0.4442163
50
154.6955053
51
166.5679793
0
ARC
8
DEFAULT_255_1_234
10
4.3432739
20
121.902021
40
0.3487299
50
136.3324195
51
155.0871442
0
ARC
8
DEFAULT_255_1_234
10
4.3151812
20
121.9260954
40
0.3117924
50
121.236733
51
135.9680508
0
ARC
8
DEFAULT_255_1_234
10
4.329231
20
121.9000743
40
0.3413302
50
96.845628
51
120.9881519
0
ARC
8
DEFAULT_255_1_234
10
4.3437892
20
121.8065515
40
0.4359341
50
89.8870174
51
97.2802754
0
ARC
8
DEFAULT_255_1_234
10
4.349033
20
121.8703095
40
0.3722009
50
70.6505584
51
90.6749113
0
ARC
8
DEFAULT_255_1_234
10
4.3621609
20
121.9216361
40
0.3194571
50
36.7492984
51
69.8219918
0
ARC
8
DEFAULT_255_1_234
10
4.2622774
20
121.8437993
40
0.4460685
50
15.39587
51
37.0840084
0
ARC
8
DEFAULT_255_1_234
10
4.0493207
20
121.7817242
40
0.6678714
50
3.9488873
51
15.6798563
0
ARC
8
DEFAULT_255_1_234
10
3.8091835
20
121.7600964
40
0.9089418
50
359.929245
51
4.2665314
0
ARC
8
DEFAULT_255_1_234
10
3.3486272
20
121.7089513
40
1.3695135
50
352.8366322
51
0.2782669
0
ARC
8
DEFAULT_255_1_234
10
3.8773951
20
121.6402629
40
0.8363105
50
341.8359505
51
352.9884176
0
ARC
8
DEFAULT_255_1_234
10
4.199267
20
121.53177
40
0.4966642
50
322.8578092
51
342.1527901
0
ARC
8
DEFAULT_255_1_234
10
4.2856626
20
121.4728384
40
0.3922466
50
319.334325
51
322.0998941
0
ARC
8
DEFAULT_255_1_234
10
4.2546963
20
121.5039209
40
0.4360033
50
285.9541367
51
318.8878087
0
ARC
8
DEFAULT_255_1_234
10
4.1820224
20
121.73496
40
0.678149
50
272.9281676
51
286.4922826
0
ARC
8
DEFAULT_255_1_234
10
4.1630342
20
121.9600587
40
0.9039547
50
270.8207226
51
273.4012994
0
ARC
8
DEFAULT_255_1_234
10
4.1719193
20
121.7781666
40
0.5967098
50
270.6214993
51
281.4062806
0
ARC
8
DEFAULT_255_1_234
10
4.2149174
20
121.5725833
40
0.3866861
50
281.1852553
51
299.0621114
0
ARC
8
DEFAULT_255_1_234
10
4.2522745
20
121.5004798
40
0.3055236
50
299.5067782
51
313.1200873
0
ARC
8
DEFAULT_255_1_234
10
4.2544712
20
121.4925554
40
0.2982623
50
313.8526205
51
338.5989322
0
ARC
8
DEFAULT_255_1_234
10
4.0920786
20
121.5592781
40
0.4738131
50
338.2523585
51
351.2430902
0
ARC
8
DEFAULT_255_1_234
10
3.8510082
20
121.6002447
40
0.7183203
50
350.9409515
51
357.6691871
0
ARC
8
DEFAULT_255_1_234
10
4.3400512
20
121.8004764
40
0.2294452
50
269.9447023
51
306.8248917
0
ARC
8
DEFAULT_255_1_234
10
4.3163427
20
121.8427898
40
0.2775994
50
305.5072438
51
327.0773448
0
ARC
8
DEFAULT_255_1_234
10
4.3281868
20
121.8333025
40
0.2625056
50
327.4104943
51
336.840169
0
ARC
8
DEFAULT_255_1_234
10
4.0187933
20
121.7927302
40
0.5507537
50
359.6633817
51
10.117533
0
ARC
8
DEFAULT_255_1_234
10
4.1941731
20
121.8251777
40
0.372403
50
9.9430141
51
26.7700076
0
ARC
8
DEFAULT_255_1_234
10
4.2538943
20
121.8527187
40
0.3066865
50
27.2015464
51
34.6829435
0
ARC
8
DEFAULT_255_1_234
10
4.3028423
20
121.8894977
40
0.245519
50
34.1250343
51
50.3070065
0
ARC
8
DEFAULT_255_1_234
10
4.3475103
20
121.9429385
40
0.1758693
50
50.3851167
51
90.6705993
0
ARC
8
DEFAULT_255_1_234
10
4.3428336
20
121.9124799
40
0.2063326
50
89.272901
51
111.9140407
0
ARC
8
DEFAULT_255_1_234
10
4.3408864
20
121.926544
40
0.1925887
50
112.9382311
51
142.5320782
0
ARC
8
DEFAULT_255_1_234
10
4.3955044
20
121.8821969
40
0.2629232
50
142.1021256
51
166.3835592
0
ARC
8
DEFAULT_255_1_234
10
4.5136349
20
121.8516915
40
0.3849193
50
166.1100289
51
178.665427
0
ARC
8
DEFAULT_255_1_234
10
4.6183938
20
121.8458117
40
0.4897989
50
178.2632126
51
180.0111093
0
ARC
8
DEFAULT_255_1_234
10
4.5382059
20
121.8429728
40
0.40962
50
179.6161962
51
191.8787166
0
ARC
8
DEFAULT_255_1_234
10
4.4161898
20
121.8159896
40
0.2846655
50
191.6191692
51
215.2972286
0
ARC
8
DEFAULT_255_1_234
10
4.3965089
20
121.8044918
40
0.2619665
50
215.7320102
51
216.5355409
0
ARC
8
DEFAULT_255_1_234
10
4.3426175
20
121.7612647
40
0.1929497
50
215.7486685
51
239.9727502
0
ARC
8
DEFAULT_255_1_234
10
4.3356091
20
121.7561894
40
0.1850822
50
241.0650169
51
269.2810483
0
ARC
8
DEFAULT_255_1_234
10
4.3398006
20
121.8052371
40
0.2342059
50
268.4062526
51
270.0071348
0
ARC
8
DEFAULT_255_1_234
10
4.4262624
20
127.2103703
40
0.2822356
50
338.8763615
51
0.5166041
0
ARC
8
DEFAULT_255_1_234
10
4.4431278
20
127.2058208
40
0.2648703
50
325.8412414
51
338.4795939
0
ARC
8
DEFAULT_255_1_234
10
4.4040646
20
127.2329042
40
0.3124019
50
296.7586019
51
325.753654
0
ARC
8
DEFAULT_255_1_234
10
4.3752754
20
127.2813789
40
0.368668
50
296.0902311
51
297.3618122
0
ARC
8
DEFAULT_255_1_234
10
4.4010212
20
126.6259041
40
0.3518806
50
47.9009248
51
67.1946869
0
ARC
8
DEFAULT_255_1_234
10
4.4206454
20
126.6505395
40
0.320451
50
35.236241
51
47.551371
0
ARC
8
DEFAULT_255_1_234
10
4.4468072
20
126.6679993
40
0.2890103
50
359.2759738
51
35.4014081
0
ARC
8
DEFAULT_255_1_234
10
4.3723103
20
126.6606826
40
0.3635026
50
343.1294516
51
0.5776525
0
ARC
8
DEFAULT_255_1_234
10
4.4447648
20
126.640733
40
0.2883832
50
310.8497458
51
342.744803
0
ARC
8
DEFAULT_255_1_234
10
4.4029761
20
126.6884294
40
0.3517954
50
281.5473923
51
310.9169905
0
ARC
8
DEFAULT_255_1_234
10
4.367321
20
126.8437084
40
0.5110832
50
269.6192722
51
281.9789957
0
ARC
8
DEFAULT_255_1_234
10
4.3601
20
126.8437828
40
0.5111606
50
257.4584469
51
270.4287458
0
ARC
8
DEFAULT_255_1_234
10
4.3220143
20
126.6834344
40
0.3463762
50
228.7553743
51
257.8484423
0
ARC
8
DEFAULT_255_1_234
10
4.2910341
20
126.6461442
40
0.297916
50
184.0104442
51
228.5071787
0
ARC
8
DEFAULT_255_1_234
10
4.4073285
20
126.6638512
40
0.4152734
50
179.9315461
51
185.3254504
0
ARC
8
DEFAULT_255_1_234
10
4.2896931
20
126.6675992
40
0.2976554
50
145.6795913
51
180.6259649
0
ARC
8
DEFAULT_255_1_234
10
4.306028
20
126.6561929
40
0.3175776
50
115.5537925
51
145.6416199
0
ARC
8
DEFAULT_255_1_234
10
4.340121
20
126.5951028
40
0.3874232
50
113.2437915
51
116.2054627
0
ARC
8
DEFAULT_255_1_234
10
4.3248423
20
127.234958
40
0.3154751
50
222.9548379
51
244.1372485
0
ARC
8
DEFAULT_255_1_234
10
4.3126498
20
127.2212834
40
0.2972382
50
213.3439227
51
222.6271327
0
ARC
8
DEFAULT_255_1_234
10
4.2934433
20
127.2082308
40
0.274019
50
180.4316517
51
213.2713999
0
ARC
8
DEFAULT_255_1_234
10
4.3509434
20
127.212911
40
0.33158
50
179.9992944
51
181.1655061
0
ARC
8
DEFAULT_255_1_234
10
4.3918851
20
127.2163561
40
0.3725376
50
164.6186108
51
180.5292368
0
ARC
8
DEFAULT_255_1_234
10
4.3020714
20
127.2405101
40
0.2795349
50
132.2454369
51
164.5092287
0
ARC
8
DEFAULT_255_1_234
10
4.3307818
20
127.2080028
40
0.3229019
50
100.7052766
51
132.1387266
0
ARC
8
DEFAULT_255_1_234
10
4.361279
20
127.0702086
40
0.4639835
50
89.6732617
51
101.2449487
0
ARC
8
DEFAULT_255_1_234
10
4.3674988
20
127.087699
40
0.4464999
50
76.2876631
51
90.4586123
0
ARC
8
DEFAULT_255_1_234
10
4.398122
20
127.209922
40
0.3205023
50
47.8240157
51
76.4266918
0
ARC
8
DEFAULT_255_1_234
10
4.420377
20
127.235959
40
0.2862661
50
6.9168658
51
47.6261438
0
ARC
8
DEFAULT_255_1_234
10
4.3017173
20
127.214037
40
0.4067708
50
359.8419705
51
7.9694496
0
ARC
8
DEFAULT_255_1_234
10
4.335907
20
126.6699925
40
0.2513121
50
359.4454068
51
16.9256425
0
ARC
8
DEFAULT_255_1_234
10
4.3827881
20
126.6829033
40
0.2027071
50
17.292259
51
45.462717
0
ARC
8
DEFAULT_255_1_234
10
4.3773817
20
126.6782434
40
0.2098212
50
45.3028762
51
83.1921472
0
ARC
8
DEFAULT_255_1_234
10
4.3630501
20
126.5980895
40
0.2911472
50
82.2614531
51
90.143954
0
ARC
8
DEFAULT_255_1_234
10
4.3599621
20
126.621395
40
0.2678513
50
89.4959189
51
104.8579811
0
ARC
8
DEFAULT_255_1_234
10
4.342288
20
126.688389
40
0.1985654
50
104.8855873
51
135.2448349
0
ARC
8
DEFAULT_255_1_234
10
4.3472653
20
126.6839336
40
0.2052373
50
135.3398955
51
172.104394
0
ARC
8
DEFAULT_255_1_234
10
4.4279711
20
126.6684925
40
0.2873299
50
171.2651929
51
180.1859362
0
ARC
8
DEFAULT_255_1_234
10
4.4110412
20
126.6652733
40
0.2704083
50
179.515471
51
193.6466734
0
ARC
8
DEFAULT_255_1_234
10
4.3294181
20
126.6444777
40
0.1861855
50
193.3540587
51
225.8256931
0
ARC
8
DEFAULT_255_1_234
10
4.3334938
20
126.6515524
40
0.1941102
50
226.418029
51
255.8553723
0
ARC
8
DEFAULT_255_1_234
10
4.3591371
20
126.7451998
40
0.2911917
50
255.4655572
51
268.7985967
0
ARC
8
DEFAULT_255_1_234
10
4.3638563
20
126.8290491
40
0.3751331
50
268.3464808
51
270.0104874
0
ARC
8
DEFAULT_255_1_234
10
4.3661951
20
126.7606138
40
0.3067064
50
269.575914
51
282.0823146
0
ARC
8
DEFAULT_255_1_234
10
4.388686
20
126.6611803
40
0.2047712
50
281.7522535
51
306.6056425
0
ARC
8
DEFAULT_255_1_234
10
4.3985286
20
126.6450487
40
0.1859604
50
307.1350025
51
314.0277951
0
ARC
8
DEFAULT_255_1_234
10
4.394937
20
126.6476766
40
0.1903475
50
314.2553419
51
350.169324
0
ARC
8
DEFAULT_255_1_234
10
4.3097839
20
126.6661409
40
0.2774269
50
349.4145679
51
0.2930737
0
ARC
8
DEFAULT_255_1_234
10
4.3618272
20
127.1820353
40
0.2300764
50
89.477591
51
105.729794
0
ARC
8
DEFAULT_255_1_234
10
4.3482185
20
127.2325637
40
0.1777519
50
105.922966
51
135.1662921
0
ARC
8
DEFAULT_255_1_234
10
4.3502688
20
127.2311419
40
0.1802087
50
135.3053131
51
168.9882338
0
ARC
8
DEFAULT_255_1_234
10
4.433026
20
127.2121721
40
0.2650806
50
168.3802067
51
180.3602358
0
ARC
8
DEFAULT_255_1_234
10
4.410184
20
127.2084041
40
0.2422425
50
179.5029707
51
194.9126783
0
ARC
8
DEFAULT_255_1_234
10
4.3516501
20
127.193011
40
0.1817188
50
194.9722181
51
224.1943972
0
ARC
8
DEFAULT_255_1_234
10
4.3488368
20
127.1907169
40
0.1781027
50
224.2961434
51
262.0157375
0
ARC
8
DEFAULT_255_1_234
10
4.3630611
20
127.2638661
40
0.2525492
50
261.1250369
51
270.1959853
0
ARC
8
DEFAULT_255_1_234
10
4.3660366
20
127.2451339
40
0.233825
50
269.4825617
51
285.0988277
0
ARC
8
DEFAULT_255_1_234
10
4.3814525
20
127.187299
40
0.1739712
50
285.1585659
51
315.9484648
0
ARC
8
DEFAULT_255_1_234
10
4.3725537
20
127.1954886
40
0.1860616
50
316.0412958
51
351.9162715
0
ARC
8
DEFAULT_255_1_234
10
4.2992492
20
127.2096245
40
0.2606517
50
351.1056823
51
0.1936567
0
ARC
8
DEFAULT_255_1_234
10
4.3255321
20
127.2126369
40
0.234377
50
359.4789506
51
16.0679113
0
ARC
8
DEFAULT_255_1_234
10
4.373128
20
127.225481
40
0.1850875
50
16.3251951
51
44.791304
0
ARC
8
DEFAULT_255_1_234
10
4.3713561
20
127.2255339
40
0.186312
50
44.3958661
51
88.2498933
0
ARC
8
DEFAULT_255_1_234
10
4.3640115
20
127.1644154
40
0.2476868
50
86.9833827
51
90.0200148
0
LINE
8
DEFAULT_255_1_234
10
4.7542674
20
132.8097211
11
4.7542674
21
132.726191
0
LINE
8
DEFAULT_255_1_234
10
4.7542674
20
132.726191
11
4.2699536
21
131.6403
0
LINE
8
DEFAULT_255_1_234
10
4.2699536
20
131.6403
11
4.1141379
21
131.6403
0
LINE
8
DEFAULT_255_1_234
10
4.1141379
20
131.6403
11
4.5968454
21
132.6876387
0
LINE
8
DEFAULT_255_1_234
10
4.5968454
20
132.6876387
11
3.9639444
21
132.6876387
0
LINE
8
DEFAULT_255_1_234
10
3.9639444
20
132.6876387
11
3.9639444
21
132.8097211
0
LINE
8
DEFAULT_255_1_234
10
3.9639444
20
132.8097211
11
4.7542674
21
132.8097211
0
LINE
8
DEFAULT_255_1_234
10
4.5558835
20
138.1022243
11
4.5823882
21
138.1022243
0
LINE
8
DEFAULT_255_1_234
10
4.5823882
20
138.1022243
11
4.5823882
21
137.976126
0
LINE
8
DEFAULT_255_1_234
10
4.5823882
20
137.976126
11
4.5550803
21
137.976126
0
LINE
8
DEFAULT_255_1_234
10
4.0081189
20
137.3769583
11
4.0081189
21
137.4339836
0
LINE
8
DEFAULT_255_1_234
10
4.1575093
20
137.4147075
11
4.1575093
21
137.3600917
0
ARC
8
DEFAULT_255_1_234
10
4.5603151
20
137.4763455
40
0.4998079
50
90.6001036
51
104.514704
0
ARC
8
DEFAULT_255_1_234
10
4.5214667
20
137.6208131
40
0.3502176
50
104.2855254
51
133.862935
0
ARC
8
DEFAULT_255_1_234
10
4.5378424
20
137.609983
40
0.3693984
50
134.5302688
51
161.6210873
0
ARC
8
DEFAULT_255_1_234
10
4.7031613
20
137.5516895
40
0.5446739
50
161.2849839
51
174.2076652
0
ARC
8
DEFAULT_255_1_234
10
4.843855
20
137.5322787
40
0.6866274
50
173.7810589
51
174.9254635
0
ARC
8
DEFAULT_255_1_234
10
4.3888382
20
137.3939839
40
0.3033419
50
95.8330959
51
138.9954921
0
ARC
8
DEFAULT_255_1_234
10
4.4111738
20
137.2661375
40
0.4328947
50
89.8753725
51
97.0544009
0
ARC
8
DEFAULT_255_1_234
10
4.4159204
20
137.3496748
40
0.3493769
50
71.6407809
51
90.6240094
0
ARC
8
DEFAULT_255_1_234
10
4.4309777
20
137.4051082
40
0.2920396
50
39.6367836
51
71.019018
0
ARC
8
DEFAULT_255_1_234
10
4.367325
20
137.3500998
40
0.3761538
50
10.658731
51
39.9043955
0
ARC
8
DEFAULT_255_1_234
10
4.2125333
20
137.3164686
40
0.5345136
50
359.682601
51
11.132623
0
ARC
8
DEFAULT_255_1_234
10
4.2085464
20
137.309401
40
0.5385081
50
347.2486944
51
0.4369317
0
ARC
8
DEFAULT_255_1_234
10
4.3752941
20
137.2692807
40
0.3670249
50
318.1409698
51
347.6118597
0
ARC
8
DEFAULT_255_1_234
10
4.4077934
20
137.2425702
40
0.3250007
50
275.6342139
51
317.8248465
0
ARC
8
DEFAULT_255_1_234
10
4.3857045
20
137.3725219
40
0.4565864
50
269.8874292
51
276.7917694
0
ARC
8
DEFAULT_255_1_234
10
4.3802116
20
137.2699743
40
0.3540676
50
246.9140195
51
270.7437342
0
ARC
8
DEFAULT_255_1_234
10
4.3808506
20
137.2557384
40
0.3412781
50
218.1665114
51
245.878116
0
ARC
8
DEFAULT_255_1_234
10
4.4687967
20
137.3293279
40
0.455911
50
191.4115814
51
218.6077802
0
ARC
8
DEFAULT_255_1_234
10
4.6626056
20
137.3727833
40
0.6545001
50
179.6345085
51
191.7836486
0
ARC
8
DEFAULT_255_1_234
10
5.2208393
20
137.4406697
40
1.2127388
50
171.4525249
51
180.3158839
0
ARC
8
DEFAULT_255_1_234
10
4.7813269
20
137.5090608
40
0.7679464
50
157.9802646
51
171.6246686
0
ARC
8
DEFAULT_255_1_234
10
4.559929
20
137.5973421
40
0.5296008
50
141.4298019
51
157.854097
0
ARC
8
DEFAULT_255_1_234
10
4.495761
20
137.6427381
40
0.4511509
50
102.8715806
51
140.8564722
0
ARC
8
DEFAULT_255_1_234
10
4.5605226
20
137.3987552
40
0.7034845
50
90.3778349
51
103.5869322
0
ARC
8
DEFAULT_255_1_234
10
4.3867002
20
137.338273
40
0.2370698
50
89.8751008
51
126.2071704
0
ARC
8
DEFAULT_255_1_234
10
4.3912792
20
137.3228303
40
0.2522934
50
124.9745049
51
144.895901
0
ARC
8
DEFAULT_255_1_234
10
4.3736982
20
137.337156
40
0.2296779
50
145.2974905
51
160.2660252
0
ARC
8
DEFAULT_255_1_234
10
4.6809521
20
137.3569071
40
0.5234525
50
179.6514266
51
190.2855912
0
ARC
8
DEFAULT_255_1_234
10
4.5115658
20
137.3249786
40
0.3510893
50
190.0945431
51
207.5098196
0
ARC
8
DEFAULT_255_1_234
10
4.4549928
20
137.2980623
40
0.288489
50
207.9583163
51
216.3251085
0
ARC
8
DEFAULT_255_1_234
10
4.4210036
20
137.2701105
40
0.2445587
50
215.7661442
51
232.5456785
0
ARC
8
DEFAULT_255_1_234
10
4.3827019
20
137.2214482
40
0.1826382
50
232.8005391
51
270.6605633
0
ARC
8
DEFAULT_255_1_234
10
4.387272
20
137.2578612
40
0.2190529
50
269.35537
51
288.4744281
0
ARC
8
DEFAULT_255_1_234
10
4.3965617
20
137.2229118
40
0.1829749
50
289.1833337
51
322.9683818
0
ARC
8
DEFAULT_255_1_234
10
4.3354139
20
137.2711391
40
0.2608399
50
322.6007884
51
346.5182367
0
ARC
8
DEFAULT_255_1_234
10
4.2196735
20
137.3006616
40
0.3802777
50
346.2582162
51
358.7741648
0
ARC
8
DEFAULT_255_1_234
10
4.1178404
20
137.3061965
40
0.4822176
50
358.3755224
51
0.0098023
0
ARC
8
DEFAULT_255_1_234
10
4.1934591
20
137.3089657
40
0.4066078
50
359.6214041
51
11.2839074
0
ARC
8
DEFAULT_255_1_234
10
4.3211738
20
137.3356066
40
0.2761514
50
11.0482309
51
31.8146458
0
ARC
8
DEFAULT_255_1_234
10
4.3520781
20
137.3523584
40
0.2410679
50
32.3035391
51
38.082671
0
ARC
8
DEFAULT_255_1_234
10
4.3941441
20
137.3904662
40
0.1844966
50
36.825067
51
85.7415724
0
ARC
8
DEFAULT_255_1_234
10
4.3874274
20
137.3404301
40
0.2349122
50
85.0140713
51
90.0513278
0
LINE
8
DEFAULT_255_1_234
10
4.1864235
20
142.7794963
11
4.0675538
21
142.8100169
0
LINE
8
DEFAULT_255_1_234
10
4.0675538
20
142.8100169
11
4.1269887
21
143.3931211
0
LINE
8
DEFAULT_255_1_234
10
4.1269887
20
143.3931211
11
4.7261563
21
143.3931211
0
LINE
8
DEFAULT_255_1_234
10
4.7261563
20
143.3931211
11
4.7261563
21
143.2557784
0
LINE
8
DEFAULT_255_1_234
10
4.7261563
20
143.2557784
11
4.253087
21
143.2557784
0
LINE
8
DEFAULT_255_1_234
10
4.253087
20
143.2557784
11
4.2177473
21
142.9369184
0
LINE
8
DEFAULT_255_1_234
10
4.0257888
20
142.5313156
11
4.1663442
21
142.5313156
0
LINE
8
DEFAULT_255_1_234
10
4.2257791
20
142.8116232
11
4.1864235
21
142.7794963
0
ARC
8
DEFAULT_255_1_234
10
4.4032257
20
142.618923
40
0.3681349
50
93.7182161
51
120.2538958
0
ARC
8
DEFAULT_255_1_234
10
4.412652
20
142.5381394
40
0.449379
50
89.9660152
51
94.2496022
0
ARC
8
DEFAULT_255_1_234
10
4.4167254
20
142.5970549
40
0.390482
50
73.8043271
51
90.5585896
0
ARC
8
DEFAULT_255_1_234
10
4.4402151
20
142.6828602
40
0.3015334
50
41.3071453
51
73.5430202
0
ARC
8
DEFAULT_255_1_234
10
4.3985978
20
142.6470324
40
0.3564457
50
13.5075983
51
41.2174222
0
ARC
8
DEFAULT_255_1_234
10
4.2344182
20
142.6040486
40
0.5261351
50
1.1331335
51
13.8829381
0
ARC
8
DEFAULT_255_1_234
10
4.0932551
20
142.5964665
40
0.6674378
50
359.9919444
51
1.544251
0
ARC
8
DEFAULT_255_1_234
10
4.2209377
20
142.592328
40
0.5397702
50
347.8572367
51
0.4293338
0
ARC
8
DEFAULT_255_1_234
10
4.3959695
20
142.5526736
40
0.3603188
50
323.673004
51
348.1672506
0
ARC
8
DEFAULT_255_1_234
10
4.4254203
20
142.5347168
40
0.3259678
50
316.8171152
51
323.1492751
0
ARC
8
DEFAULT_255_1_234
10
4.4315392
20
142.531046
40
0.3189975
50
281.8396411
51
316.5457803
0
ARC
8
DEFAULT_255_1_234
10
4.3939656
20
142.6865762
40
0.4789527
50
269.5770101
51
282.4214771
0
ARC
8
DEFAULT_255_1_234
10
4.3868467
20
142.6652125
40
0.45759
50
256.2427136
51
270.4486331
0
ARC
8
DEFAULT_255_1_234
10
4.356937
20
142.5452229
40
0.3339303
50
228.9023911
51
256.3314342
0
ARC
8
DEFAULT_255_1_234
10
4.3495602
20
142.5335746
40
0.32031
50
193.753695
51
228.5271154
0
ARC
8
DEFAULT_255_1_234
10
4.4733556
20
142.56988
40
0.4492253
50
184.924711
51
194.497588
0
ARC
8
DEFAULT_255_1_234
10
4.4926123
20
142.5734591
40
0.3289787
50
187.3600538
51
198.6732863
0
ARC
8
DEFAULT_255_1_234
10
4.3876417
20
142.5370674
40
0.217884
50
198.4451669
51
217.794479
0
ARC
8
DEFAULT_255_1_234
10
4.3580592
20
142.5161085
40
0.1816698
50
218.2887171
51
228.5612368
0
ARC
8
DEFAULT_255_1_234
10
4.3678379
20
142.5292963
40
0.1980329
50
228.9654866
51
258.1234728
0
ARC
8
DEFAULT_255_1_234
10
4.3884089
20
142.6173833
40
0.2884748
50
257.7258293
51
270.401361
0
ARC
8
DEFAULT_255_1_234
10
4.3928975
20
142.5728821
40
0.2439788
50
269.4204404
51
286.4209037
0
ARC
8
DEFAULT_255_1_234
10
4.4077463
20
142.5189657
40
0.1880666
50
286.7251356
51
320.600362
0
ARC
8
DEFAULT_255_1_234
10
4.3694288
20
142.5500595
40
0.2374121
50
320.6712579
51
344.5441685
0
ARC
8
DEFAULT_255_1_234
10
4.2537614
20
142.5840045
40
0.3579479
50
344.2412205
51
356.7357071
0
ARC
8
DEFAULT_255_1_234
10
4.1288763
20
142.5943444
40
0.4832297
50
356.3548756
51
0.0500261
0
ARC
8
DEFAULT_255_1_234
10
4.2625272
20
142.597465
40
0.3495889
50
359.5576869
51
12.953486
0
ARC
8
DEFAULT_255_1_234
10
4.3680169
20
142.6230434
40
0.2410532
50
12.6490276
51
41.6081334
0
ARC
8
DEFAULT_255_1_234
10
4.391054
20
142.6426321
40
0.2108218
50
41.7850273
51
85.9892764
0
ARC
8
DEFAULT_255_1_234
10
4.3787277
20
142.5613462
40
0.2928454
50
84.6957577
51
90.0676183
0
ARC
8
DEFAULT_255_1_234
10
4.3763761
20
142.4944716
40
0.3597255
50
89.6804936
51
99.1614436
0
ARC
8
DEFAULT_255_1_234
10
4.3558392
20
142.6172131
40
0.235281
50
98.9830931
51
113.8908934
0
ARC
8
DEFAULT_255_1_234
10
4.3328802
20
142.6713587
40
0.176479
50
114.1950727
51
127.3641004
0
LINE
8
DEFAULT_255_1_234
10
4.8381628
20
148.6847211
11
4.8381628
21
147.908052
0
LINE
8
DEFAULT_255_1_234
10
4.8381628
20
147.908052
11
5.0004039
21
147.908052
0
LINE
8
DEFAULT_255_1_234
10
5.0004039
20
147.908052
11
5.0004039
21
147.7867728
0
LINE
8
DEFAULT_255_1_234
10
5.0004039
20
147.7867728
11
4.8381628
21
147.7867728
0
LINE
8
DEFAULT_255_1_234
10
4.8381628
20
147.7867728
11
4.8381628
21
147.5153
0
LINE
8
DEFAULT_255_1_234
10
4.8381628
20
147.5153
11
4.6887725
21
147.5153
0
LINE
8
DEFAULT_255_1_234
10
4.6887725
20
147.5153
11
4.6887725
21
147.7867728
0
LINE
8
DEFAULT_255_1_234
10
4.6887725
20
147.7867728
11
4.1562682
21
147.7867728
0
LINE
8
DEFAULT_255_1_234
10
4.1562682
20
147.7867728
11
4.1562682
21
147.8743187
0
LINE
8
DEFAULT_255_1_234
10
4.1562682
20
147.8743187
11
4.6799375
21
148.6847211
0
LINE
8
DEFAULT_255_1_234
10
4.6799375
20
148.6847211
11
4.8381628
21
148.6847211
0
LINE
8
DEFAULT_255_1_234
10
4.6711026
20
148.4493912
11
4.3249347
21
147.908052
0
LINE
8
DEFAULT_255_1_234
10
4.3249347
20
147.908052
11
4.6887725
21
147.908052
0
LINE
8
DEFAULT_255_1_234
10
4.6887725
20
147.908052
11
4.6887725
21
148.4815181
0
LINE
8
DEFAULT_255_1_234
10
4.6887725
20
148.4815181
11
4.6711026
21
148.4493912
0
LINE
8
DEFAULT_255_1_234
10
4.2153378
20
153.3427169
11
4.2153378
21
153.4639962
0
LINE
8
DEFAULT_255_1_234
10
4.2153378
20
153.4639962
11
4.326979
21
153.4639962
0
LINE
8
DEFAULT_255_1_234
10
4.1366268
20
153.6696087
11
3.9880396
21
153.6696087
0
LINE
8
DEFAULT_255_1_234
10
3.9775983
20
153.1154188
11
4.1269887
21
153.1154188
0
LINE
8
DEFAULT_255_1_234
10
4.326979
20
153.3427169
11
4.2153378
21
153.3427169
0
ARC
8
DEFAULT_255_1_234
10
4.3240656
20
153.8032713
40
0.3392876
50
270.4919872
51
281.8951556
0
ARC
8
DEFAULT_255_1_234
10
4.3481918
20
153.6930702
40
0.2264817
50
281.6691735
51
301.2943132
0
ARC
8
DEFAULT_255_1_234
10
4.3652128
20
153.6619304
40
0.1910381
50
301.7833094
51
311.7545298
0
ARC
8
DEFAULT_255_1_234
10
4.3743704
20
153.6517748
40
0.1773635
50
311.7323931
51
354.2802411
0
ARC
8
DEFAULT_255_1_234
10
4.3017329
20
153.6642722
40
0.2509385
50
353.0937916
51
0.1181479
0
ARC
8
DEFAULT_255_1_234
10
4.2556114
20
153.6690386
40
0.2970898
50
359.1805295
51
15.0453146
0
ARC
8
DEFAULT_255_1_234
10
4.3901951
20
153.7082992
40
0.1569564
50
13.9577229
51
77.6713066
0
ARC
8
DEFAULT_255_1_234
10
4.351548
20
153.5697949
40
0.3006298
50
76.1116566
51
90.7026153
0
ARC
8
DEFAULT_255_1_234
10
4.3456318
20
153.5971545
40
0.2732568
50
89.5324876
51
103.531937
0
ARC
8
DEFAULT_255_1_234
10
4.3255762
20
153.6770884
40
0.1908508
50
103.2931773
51
133.5619022
0
ARC
8
DEFAULT_255_1_234
10
4.3211251
20
153.6830375
40
0.1834746
50
133.8349307
51
173.5344437
0
ARC
8
DEFAULT_255_1_234
10
4.3934294
20
153.6702213
40
0.2568033
50
172.5096846
51
180.1366907
0
ARC
8
DEFAULT_255_1_234
10
4.2983188
20
153.6736622
40
0.3103056
50
155.3484492
51
180.7484736
0
ARC
8
DEFAULT_255_1_234
10
4.2934277
20
153.6707846
40
0.3070957
50
131.5744599
51
154.4798489
0
ARC
8
DEFAULT_255_1_234
10
4.3247424
20
153.639131
40
0.3515643
50
96.9875458
51
131.9690667
0
ARC
8
DEFAULT_255_1_234
10
4.3466904
20
153.5145636
40
0.4779224
50
89.8596053
51
97.7825159
0
ARC
8
DEFAULT_255_1_234
10
4.3514967
20
153.4883616
40
0.5041361
50
78.3655447
51
90.4131539
0
ARC
8
DEFAULT_255_1_234
10
4.3872885
20
153.6542887
40
0.3344039
50
56.6229102
51
78.638727
0
ARC
8
DEFAULT_255_1_234
10
4.4087829
20
153.6918805
40
0.2912001
50
47.0253525
51
56.0854072
0
ARC
8
DEFAULT_255_1_234
10
4.4107609
20
153.6958223
40
0.2869704
50
10.9208013
51
46.7778124
0
ARC
8
DEFAULT_255_1_234
10
4.2743675
20
153.6642857
40
0.426899
50
359.6364486
51
11.6087304
0
ARC
8
DEFAULT_255_1_234
10
4.4578519
20
153.6627752
40
0.243409
50
332.3549906
51
359.7179418
0
ARC
8
DEFAULT_255_1_234
10
4.3928121
20
153.6936142
40
0.3153459
50
325.2333722
51
332.8745602
0
ARC
8
DEFAULT_255_1_234
10
4.4080744
20
153.6829828
40
0.2967456
50
292.9802137
51
325.2392345
0
ARC
8
DEFAULT_255_1_234
10
4.3806118
20
153.7363863
40
0.3566604
50
292.5402179
51
293.6924929
0
ARC
8
DEFAULT_255_1_234
10
4.4198714
20
153.0909091
40
0.3307468
50
57.6435486
51
72.8625112
0
ARC
8
DEFAULT_255_1_234
10
4.4553214
20
153.1483549
40
0.2632492
50
36.7248896
51
57.4697979
0
ARC
8
DEFAULT_255_1_234
10
4.4541847
20
153.149622
40
0.2634081
50
8.0545065
51
36.356114
0
ARC
8
DEFAULT_255_1_234
10
4.3679032
20
153.1341174
40
0.3510261
50
359.8320645
51
8.5869982
0
ARC
8
DEFAULT_255_1_234
10
4.3303808
20
153.1293101
40
0.3885653
50
343.9829931
51
0.5571613
0
ARC
8
DEFAULT_255_1_234
10
4.4190005
20
153.1050438
40
0.2966924
50
311.6359546
51
343.7651759
0
ARC
8
DEFAULT_255_1_234
10
4.3811574
20
153.1477102
40
0.3537231
50
279.7829875
51
311.6255694
0
ARC
8
DEFAULT_255_1_234
10
4.3510351
20
153.291428
40
0.5004971
50
269.7286406
51
280.3856417
0
ARC
8
DEFAULT_255_1_234
10
4.3448423
20
153.2872996
40
0.4963778
50
256.6828919
51
270.4412052
0
ARC
8
DEFAULT_255_1_234
10
4.3109719
20
153.1488394
40
0.3538406
50
229.4223008
51
256.8556159
0
ARC
8
DEFAULT_255_1_234
10
4.2695112
20
153.1021736
40
0.2914296
50
181.818294
51
229.6455059
0
ARC
8
DEFAULT_255_1_234
10
4.3735068
20
153.1152496
40
0.3959084
50
179.9755256
51
183.2323064
0
ARC
8
DEFAULT_255_1_234
10
4.3562814
20
153.1132037
40
0.2293034
50
179.4465117
51
196.2869258
0
ARC
8
DEFAULT_255_1_234
10
4.3075222
20
153.0998651
40
0.1787621
50
196.5661473
51
227.705904
0
ARC
8
DEFAULT_255_1_234
10
4.3239317
20
153.1182155
40
0.2033784
50
227.7652068
51
257.8762805
0
ARC
8
DEFAULT_255_1_234
10
4.3464287
20
153.2125156
40
0.3003081
50
257.4584385
51
270.426602
0
ARC
8
DEFAULT_255_1_234
10
4.3509853
20
153.2414996
40
0.329292
50
269.5962073
51
280.8789248
0
ARC
8
DEFAULT_255_1_234
10
4.3739382
20
153.1268685
40
0.2123908
50
280.6346389
51
299.8595945
0
ARC
8
DEFAULT_255_1_234
10
4.3930289
20
153.0906212
40
0.171457
50
300.3576302
51
314.5517981
0
ARC
8
DEFAULT_255_1_234
10
4.3847349
20
153.0966919
40
0.1816095
50
315.0728369
51
345.0431014
0
ARC
8
DEFAULT_255_1_234
10
4.2924163
20
153.1235841
40
0.2777492
50
344.5986631
51
357.9269593
0
ARC
8
DEFAULT_255_1_234
10
4.2028489
20
153.1297276
40
0.3674917
50
357.4748886
51
0.0231117
0
ARC
8
DEFAULT_255_1_234
10
4.3051599
20
153.1321679
40
0.2651907
50
359.5047933
51
13.4239635
0
ARC
8
DEFAULT_255_1_234
10
4.3918242
20
153.1543478
40
0.1757509
50
12.9498199
51
48.7551375
0
ARC
8
DEFAULT_255_1_234
10
4.3735976
20
153.12944
40
0.2065134
50
49.5088623
51
72.1836453
0
ARC
8
DEFAULT_255_1_234
10
4.3378129
20
153.0232291
40
0.3185836
50
71.9010081
51
84.3554254
0
ARC
8
DEFAULT_255_1_234
10
4.3216761
20
152.8871326
40
0.4556151
50
84.0193428
51
89.333121
0
LINE
8
DEFAULT_255_1_234
10
4.7655119
20
158.2199792
11
4.7655119
21
158.0987
0
LINE
8
DEFAULT_255_1_234
10
4.7655119
20
158.0987
11
3.999284
21
158.0987
0
LINE
8
DEFAULT_255_1_234
10
3.999284
20
158.0987
11
3.999284
21
158.2055221
0
LINE
8
DEFAULT_255_1_234
10
3.999284
20
158.2055221
11
4.4040836
21
158.6552995
0
LINE
8
DEFAULT_255_1_234
10
4.1253823
20
158.9235595
11
3.9767952
21
158.9235595
0
LINE
8
DEFAULT_255_1_234
10
4.4916296
20
158.5597218
11
4.1783918
21
158.2199792
0
LINE
8
DEFAULT_255_1_234
10
4.1783918
20
158.2199792
11
4.7655119
21
158.2199792
0
ARC
8
DEFAULT_255_1_234
10
3.055067
20
159.8482527
40
1.8008286
50
318.5132453
51
320.7828378
0
ARC
8
DEFAULT_255_1_234
10
3.5837644
20
159.4179426
40
1.1191493
50
320.7372736
51
323.9737074
0
ARC
8
DEFAULT_255_1_234
10
3.9757501
20
159.1339361
40
0.6350923
50
323.8961724
51
328.6421089
0
ARC
8
DEFAULT_255_1_234
10
4.1804096
20
159.0077031
40
0.3946393
50
328.8299013
51
331.789948
0
ARC
8
DEFAULT_255_1_234
10
4.2801274
20
158.9562509
40
0.2824501
50
331.4255242
51
352.9364833
0
ARC
8
DEFAULT_255_1_234
10
4.2937775
20
158.9531976
40
0.2685315
50
353.2248685
51
0.0169286
0
ARC
8
DEFAULT_255_1_234
10
4.3147652
20
158.955495
40
0.2475536
50
359.4866256
51
15.9339782
0
ARC
8
DEFAULT_255_1_234
10
4.3654637
20
158.9691286
40
0.1950618
50
16.1714718
51
43.5284424
0
ARC
8
DEFAULT_255_1_234
10
4.3731946
20
158.9768573
40
0.184134
50
43.4415429
51
83.1661404
0
ARC
8
DEFAULT_255_1_234
10
4.3597864
20
158.9031771
40
0.258926
50
82.160215
51
90.1505798
0
ARC
8
DEFAULT_255_1_234
10
4.3566291
20
158.8494865
40
0.3126255
50
89.5460705
51
102.5418777
0
ARC
8
DEFAULT_255_1_234
10
4.3323377
20
158.9525665
40
0.2067346
50
102.1739365
51
129.2061916
0
ARC
8
DEFAULT_255_1_234
10
4.3244449
20
158.9650094
40
0.1921118
50
129.7279328
51
135.7542026
0
ARC
8
DEFAULT_255_1_234
10
4.3365977
20
158.9553045
40
0.2075944
50
136.175737
51
166.3674722
0
ARC
8
DEFAULT_255_1_234
10
4.4372896
20
158.9283182
40
0.3118201
50
165.9092917
51
178.8683903
0
ARC
8
DEFAULT_255_1_234
10
4.5237757
20
158.9236179
40
0.3983935
50
178.438168
51
180.0083905
0
ARC
8
DEFAULT_255_1_234
10
4.3836359
20
158.9275231
40
0.4068601
50
163.2878735
51
180.5581814
0
ARC
8
DEFAULT_255_1_234
10
4.3034621
20
158.949584
40
0.3237344
50
133.454115
51
162.9470031
0
ARC
8
DEFAULT_255_1_234
10
4.3213162
20
158.9306
40
0.349795
50
100.7869394
51
133.4384016
0
ARC
8
DEFAULT_255_1_234
10
4.3560934
20
158.7757319
40
0.5084616
50
89.6605301
51
101.3704185
0
ARC
8
DEFAULT_255_1_234
10
4.3627273
20
158.7818496
40
0.502348
50
78.2171172
51
90.4130393
0
ARC
8
DEFAULT_255_1_234
10
4.3982351
20
158.9442637
40
0.3361092
50
55.9268222
51
78.4888551
0
ARC
8
DEFAULT_255_1_234
10
4.4178791
20
158.9781324
40
0.2970617
50
47.9292255
51
55.4054003
0
ARC
8
DEFAULT_255_1_234
10
4.4280352
20
158.9884502
40
0.2825983
50
4.3347696
51
48.0560701
0
ARC
8
DEFAULT_255_1_234
10
4.3184745
20
158.9714601
40
0.393225
50
359.925209
51
5.5967654
0
ARC
8
DEFAULT_255_1_234
10
4.3613637
20
158.9770816
40
0.3503892
50
337.8914096
51
358.9967724
0
ARC
8
DEFAULT_255_1_234
10
4.0900049
20
159.0817706
40
0.6412172
50
326.9135351
51
338.3505194
0
ARC
8
DEFAULT_255_1_234
10
3.6914353
20
159.3372284
40
1.1146189
50
319.6472867
51
327.095818
0
ARC
8
DEFAULT_255_1_234
10
3.3081356
20
159.6534
40
1.6114559
50
317.2586784
51
319.9046139
0
LINE
8
DEFAULT_255_1_234
10
4.4793137
20
164.5653433
11
4.4793137
21
163.3903
0
LINE
8
DEFAULT_255_1_234
10
4.4793137
20
163.3903
11
4.3299234
21
163.3903
0
LINE
8
DEFAULT_255_1_234
10
4.3299234
20
163.3903
11
4.3299234
21
164.3806133
0
LINE
8
DEFAULT_255_1_234
10
4.3299234
20
164.3806133
11
4.0303396
21
164.2705785
0
LINE
8
DEFAULT_255_1_234
10
4.0303396
20
164.2705785
11
4.0303396
21
164.4055117
0
LINE
8
DEFAULT_255_1_234
10
4.0303396
20
164.4055117
11
4.4560217
21
164.5653433
0
LINE
8
DEFAULT_255_1_234
10
4.4560217
20
164.5653433
11
4.4793137
21
164.5653433
0
LINE
8
DEFAULT_255_1_234
10
4.7325817
20
169.3735327
11
4.7325817
21
169.1807709
0
LINE
8
DEFAULT_255_1_234
10
3.994465
20
169.1606916
11
3.994465
21
169.3590755
0
LINE
8
DEFAULT_255_1_234
10
4.5839946
20
169.1406123
11
4.5839946
21
169.3839739
0
LINE
8
DEFAULT_255_1_234
10
4.1430521
20
169.3952184
11
4.1430521
21
169.1574789
0
ARC
8
DEFAULT_255_1_234
10
3.5078707
20
169.1758805
40
1.2247208
50
353.8441951
51
0.2287902
0
ARC
8
DEFAULT_255_1_234
10
3.9718211
20
169.1240806
40
0.7578929
50
344.4934747
51
353.9765454
0
ARC
8
DEFAULT_255_1_234
10
4.2710801
20
169.0389981
40
0.4467846
50
329.2803592
51
344.7472793
0
ARC
8
DEFAULT_255_1_234
10
4.3703626
20
168.9845018
40
0.3336173
50
324.9352394
51
328.6160465
0
ARC
8
DEFAULT_255_1_234
10
4.4080734
20
168.9581427
40
0.2876076
50
280.580143
51
324.9173126
0
ARC
8
DEFAULT_255_1_234
10
4.3679527
20
169.1252099
40
0.4592847
50
269.5977311
51
281.6734359
0
ARC
8
DEFAULT_255_1_234
10
4.3607433
20
169.1132173
40
0.4472986
50
256.6228859
51
270.51044
0
ARC
8
DEFAULT_255_1_234
10
4.320541
20
168.9583877
40
0.2873874
50
215.8618325
51
257.2788573
0
ARC
8
DEFAULT_255_1_234
10
4.4226442
20
169.0268977
40
0.4102928
50
197.9693508
51
215.2623606
0
ARC
8
DEFAULT_255_1_234
10
4.6711558
20
169.1107709
40
0.6725652
50
187.8816417
51
198.2346507
0
ARC
8
DEFAULT_255_1_234
10
5.0669766
20
169.1679079
40
1.0724845
50
180.8976217
51
188.0055519
0
ARC
8
DEFAULT_255_1_234
10
5.3469954
20
169.1782777
40
1.3526448
50
180.7449369
51
181.1510016
0
ARC
8
DEFAULT_255_1_234
10
5.1892683
20
169.3639042
40
1.1948131
50
173.7675579
51
180.231553
0
ARC
8
DEFAULT_255_1_234
10
4.737483
20
169.4149666
40
0.7401564
50
164.3058563
51
173.9002247
0
ARC
8
DEFAULT_255_1_234
10
4.4462899
20
169.4988656
40
0.4371288
50
148.7922025
51
164.568378
0
ARC
8
DEFAULT_255_1_234
10
4.3511351
20
169.5519929
40
0.3282386
50
144.5883898
51
148.1176286
0
ARC
8
DEFAULT_255_1_234
10
4.3168249
20
169.5759315
40
0.2864044
50
101.6440918
51
144.514236
0
ARC
8
DEFAULT_255_1_234
10
4.3593315
20
169.4070069
40
0.4604934
50
89.5284041
51
102.5819763
0
ARC
8
DEFAULT_255_1_234
10
4.3672403
20
169.4031018
40
0.464401
50
77.0437873
51
90.5081339
0
ARC
8
DEFAULT_255_1_234
10
4.4074405
20
169.5673615
40
0.2953195
50
48.2778575
51
77.4994676
0
ARC
8
DEFAULT_255_1_234
10
4.4147036
20
169.5802746
40
0.2808655
50
36.3142134
51
47.6305865
0
ARC
8
DEFAULT_255_1_234
10
4.3278343
20
169.5217515
40
0.3855453
50
18.2931786
51
35.6769206
0
ARC
8
DEFAULT_255_1_234
10
4.0735102
20
169.4344593
40
0.654423
50
8.024666
51
18.5605216
0
ARC
8
DEFAULT_255_1_234
10
3.6572022
20
169.3729792
40
1.0752407
50
1.1274072
51
8.1718305
0
ARC
8
DEFAULT_255_1_234
10
3.3336213
20
169.3602885
40
1.3990231
50
0.5424119
51
1.3863029
0
ARC
8
DEFAULT_255_1_234
10
3.515759
20
169.3875342
40
1.0682415
50
359.8090433
51
4.9407866
0
ARC
8
DEFAULT_255_1_234
10
3.9367604
20
169.4251113
40
0.6455691
50
4.8362157
51
12.2904523
0
ARC
8
DEFAULT_255_1_234
10
4.2122719
20
169.4864965
40
0.3633074
50
12.0805627
51
23.8173984
0
ARC
8
DEFAULT_255_1_234
10
4.3296425
20
169.5361919
40
0.2358723
50
24.2871213
51
31.3935614
0
ARC
8
DEFAULT_255_1_234
10
4.3821122
20
169.5705233
40
0.1732111
50
30.7407893
51
82.4657128
0
ARC
8
DEFAULT_255_1_234
10
4.3641256
20
169.4821691
40
0.263235
50
81.1060089
51
90.2184952
0
ARC
8
DEFAULT_255_1_234
10
4.3605555
20
169.5079924
40
0.2374236
50
89.3806855
51
105.6762551
0
ARC
8
DEFAULT_255_1_234
10
4.3422186
20
169.5746567
40
0.1682847
50
105.7981136
51
149.7388061
0
ARC
8
DEFAULT_255_1_234
10
4.4486264
20
169.510695
40
0.2924306
50
149.4208916
51
163.6286378
0
ARC
8
DEFAULT_255_1_234
10
4.6577152
20
169.446925
40
0.5110213
50
163.3763315
51
172.1410975
0
ARC
8
DEFAULT_255_1_234
10
4.9877871
20
169.3996518
40
0.8444586
50
172.0259487
51
178.0703232
0
ARC
8
DEFAULT_255_1_234
10
5.290796
20
169.3852906
40
1.1477868
50
177.8631668
51
179.5044149
0
ARC
8
DEFAULT_255_1_234
10
5.1835365
20
169.1538389
40
1.0404907
50
179.7995573
51
185.2460446
0
ARC
8
DEFAULT_255_1_234
10
4.7792404
20
169.1155513
40
0.6343885
50
185.1411642
51
193.0079639
0
ARC
8
DEFAULT_255_1_234
10
4.5148877
20
169.0530641
40
0.3627568
50
192.7897626
51
205.2507664
0
ARC
8
DEFAULT_255_1_234
10
4.4102424
20
169.0063415
40
0.2481908
50
205.8005384
51
211.2537509
0
ARC
8
DEFAULT_255_1_234
10
4.3578864
20
168.971258
40
0.1852521
50
210.3789793
51
238.4008143
0
ARC
8
DEFAULT_255_1_234
10
4.3559386
20
168.9759376
40
0.1882621
50
239.6520629
51
265.9793761
0
ARC
8
DEFAULT_255_1_234
10
4.3644586
20
169.0431427
40
0.2559272
50
265.1315437
51
270.060332
0
ARC
8
DEFAULT_255_1_234
10
4.3673365
20
169.0107534
40
0.2235528
50
269.3314664
51
287.2178029
0
ARC
8
DEFAULT_255_1_234
10
4.3811217
20
168.9604279
40
0.1714108
50
287.7958004
51
329.080874
0
ARC
8
DEFAULT_255_1_234
10
4.2853674
20
169.020193
40
0.2842745
50
328.6634704
51
343.3325132
0
ARC
8
DEFAULT_255_1_234
10
4.0680694
20
169.0878863
40
0.5118644
50
343.0499468
51
351.9393422
0
ARC
8
DEFAULT_255_1_234
10
3.7213994
20
169.1389949
40
0.8622784
50
351.8069023
51
357.7959224
0
ARC
8
DEFAULT_255_1_234
10
3.397855
20
169.1557721
40
1.1862365
50
357.5871873
51
359.2677531
0
LINE
8
DEFAULT_255_1_234
10
23.1654817
20
174.6652327
11
23.1654817
21
174.4724709
0
LINE
8
DEFAULT_255_1_234
10
22.427365
20
174.4523916
11
22.427365
21
174.6507755
0
LINE
8
DEFAULT_255_1_234
10
23.0168946
20
174.4323123
11
23.0168946
21
174.6756739
0
LINE
8
DEFAULT_255_1_234
10
22.5759521
20
174.6869184
11
22.5759521
21
174.4491789
0
ARC
8
DEFAULT_255_1_234
10
21.9407707
20
174.4675805
40
1.2247208
50
353.8441951
51
0.2287902
0
ARC
8
DEFAULT_255_1_234
10
22.4047211
20
174.4157806
40
0.7578929
50
344.4934747
51
353.9765454
0
ARC
8
DEFAULT_255_1_234
10
22.7039801
20
174.3306981
40
0.4467846
50
329.2803592
51
344.7472793
0
ARC
8
DEFAULT_255_1_234
10
22.8032626
20
174.2762018
40
0.3336173
50
324.9352394
51
328.6160465
0
ARC
8
DEFAULT_255_1_234
10
22.8409734
20
174.2498427
40
0.2876076
50
280.580143
51
324.9173126
0
ARC
8
DEFAULT_255_1_234
10
22.8008527
20
174.4169099
40
0.4592847
50
269.5977311
51
281.6734359
0
ARC
8
DEFAULT_255_1_234
10
22.7936433
20
174.4049173
40
0.4472986
50
256.6228859
51
270.51044
0
ARC
8
DEFAULT_255_1_234
10
22.753441
20
174.2500877
40
0.2873874
50
215.8618325
51
257.2788573
0
ARC
8
DEFAULT_255_1_234
10
22.8555442
20
174.3185977
40
0.4102928
50
197.9693508
51
215.2623606
0
ARC
8
DEFAULT_255_1_234
10
23.1040558
20
174.4024709
40
0.6725652
50
187.8816417
51
198.2346507
0
ARC
8
DEFAULT_255_1_234
10
23.4998766
20
174.4596079
40
1.0724845
50
180.8976217
51
188.0055519
0
ARC
8
DEFAULT_255_1_234
10
23.7798954
20
174.4699777
40
1.3526448
50
180.7449369
51
181.1510016
0
ARC
8
DEFAULT_255_1_234
10
23.6221683
20
174.6556042
40
1.1948131
50
173.7675579
51
180.231553
0
ARC
8
DEFAULT_255_1_234
10
23.170383
20
174.7066666
40
0.7401564
50
164.3058563
51
173.9002247
0
ARC
8
DEFAULT_255_1_234
10
22.8791899
20
174.7905656
40
0.4371288
50
148.7922025
51
164.568378
0
ARC
8
DEFAULT_255_1_234
10
22.7840351
20
174.8436929
40
0.3282386
50
144.5883898
51
148.1176286
0
ARC
8
DEFAULT_255_1_234
10
22.7497249
20
174.8676315
40
0.2864044
50
101.6440918
51
144.514236
0
ARC
8
DEFAULT_255_1_234
10
22.7922315
20
174.6987069
40
0.4604934
50
89.5284041
51
102.5819763
0
ARC
8
DEFAULT_255_1_234
10
22.8001403
20
174.6948018
40
0.464401
50
77.0437873
51
90.5081339
0
ARC
8
DEFAULT_255_1_234
10
22.8403405
20
174.8590615
40
0.2953195
50
48.2778575
51
77.4994676
0
ARC
8
DEFAULT_255_1_234
10
22.8476036
20
174.8719746
40
0.2808655
50
36.3142134
51
47.6305865
0
ARC
8
DEFAULT_255_1_234
10
22.7607343
20
174.8134515
40
0.3855453
50
18.2931786
51
35.6769206
0
ARC
8
DEFAULT_255_1_234
10
22.5064102
20
174.7261593
40
0.654423
50
8.024666
51
18.5605216
0
ARC
8
DEFAULT_255_1_234
10
22.0901022
20
174.6646792
40
1.0752407
50
1.1274072
51
8.1718305
0
ARC
8
DEFAULT_255_1_234
10
21.7665213
20
174.6519885
40
1.3990231
50
0.5424119
51
1.3863029
0
ARC
8
DEFAULT_255_1_234
10
21.948659
20
174.6792342
40
1.0682415
50
359.8090433
51
4.9407866
0
ARC
8
DEFAULT_255_1_234
10
22.3696604
20
174.7168113
40
0.6455691
50
4.8362157
51
12.2904523
0
ARC
8
DEFAULT_255_1_234
10
22.6451719
20
174.7781965
40
0.3633074
50
12.0805627
51
23.8173984
0
ARC
8
DEFAULT_255_1_234
10
22.7625425
20
174.8278919
40
0.2358723
50
24.2871213
51
31.3935614
0
ARC
8
DEFAULT_255_1_234
10
22.8150122
20
174.8622233
40
0.1732111
50
30.7407893
51
82.4657128
0
ARC
8
DEFAULT_255_1_234
10
22.7970256
20
174.7738691
40
0.263235
50
81.1060089
51
90.2184952
0
ARC
8
DEFAULT_255_1_234
10
22.7934555
20
174.7996924
40
0.2374236
50
89.3806855
51
105.6762551
0
ARC
8
DEFAULT_255_1_234
10
22.7751186
20
174.8663567
40
0.1682847
50
105.7981136
51
149.7388061
0
ARC
8
DEFAULT_255_1_234
10
22.8815264
20
174.802395
40
0.2924306
50
149.4208916
51
163.6286378
0
ARC
8
DEFAULT_255_1_234
10
23.0906152
20
174.738625
40
0.5110213
50
163.3763315
51
172.1410975
0
ARC
8
DEFAULT_255_1_234
10
23.4206871
20
174.6913518
40
0.8444586
50
172.0259487
51
178.0703232
0
ARC
8
DEFAULT_255_1_234
10
23.723696
20
174.6769906
40
1.1477868
50
177.8631668
51
179.5044149
0
ARC
8
DEFAULT_255_1_234
10
23.6164365
20
174.4455389
40
1.0404907
50
179.7995573
51
185.2460446
0
ARC
8
DEFAULT_255_1_234
10
23.2121404
20
174.4072513
40
0.6343885
50
185.1411642
51
193.0079639
0
ARC
8
DEFAULT_255_1_234
10
22.9477877
20
174.3447641
40
0.3627568
50
192.7897626
51
205.2507664
0
ARC
8
DEFAULT_255_1_234
10
22.8431424
20
174.2980415
40
0.2481908
50
205.8005384
51
211.2537509
0
ARC
8
DEFAULT_255_1_234
10
22.7907864
20
174.262958
40
0.1852521
50
210.3789793
51
238.4008143
0
ARC
8
DEFAULT_255_1_234
10
22.7888386
20
174.2676376
40
0.1882621
50
239.6520629
51
265.9793761
0
ARC
8
DEFAULT_255_1_234
10
22.7973586
20
174.3348427
40
0.2559272
50
265.1315437
51
270.060332
0
ARC
8
DEFAULT_255_1_234
10
22.8002365
20
174.3024534
40
0.2235528
50
269.3314664
51
287.2178029
0
ARC
8
DEFAULT_255_1_234
10
22.8140217
20
174.2521279
40
0.1714108
50
287.7958004
51
329.080874
0
ARC
8
DEFAULT_255_1_234
10
22.7182674
20
174.311893
40
0.2842745
50
328.6634704
51
343.3325132
0
ARC
8
DEFAULT_255_1_234
10
22.5009694
20
174.3795863
40
0.5118644
50
343.0499468
51
351.9393422
0
ARC
8
DEFAULT_255_1_234
10
22.1542994
20
174.4306949
40
0.8622784
50
351.8069023
51
357.7959224
0
ARC
8
DEFAULT_255_1_234
10
21.830755
20
174.4474721
40
1.1862365
50
357.5871873
51
359.2677531
0
LINE
8
DEFAULT_255_1_234
10
23.4490021
20
175.1431211
11
23.7815161
21
174.1785093
0
LINE
8
DEFAULT_255_1_234
10
23.7815161
20
174.1785093
11
24.1156364
21
175.1431211
0
LINE
8
DEFAULT_255_1_234
10
24.1156364
20
175.1431211
11
24.2843029
21
175.1431211
0
LINE
8
DEFAULT_255_1_234
10
24.2843029
20
175.1431211
11
23.850589
21
173.9737
0
LINE
8
DEFAULT_255_1_234
10
23.850589
20
173.9737
11
23.7140495
21
173.9737
0
LINE
8
DEFAULT_255_1_234
10
23.7140495
20
173.9737
11
23.2811388
21
175.1431211
0
LINE
8
DEFAULT_255_1_234
10
23.2811388
20
175.1431211
11
23.4490021
21
175.1431211
0
ENDSEC
0
EOF