0
SECTION
2
HEADER
9
$MEASUREMENT
70
1
0
ENDSEC
0
SECTION
2
TABLES
0
TABLE
2
LTYPE
0
LTYPE
72
65
70
64
2
CONTINUOUS
3
______
73
0
40
0
0
ENDTAB
0
TABLE
2
LAYER
0
LAYER
2
DEFAULT_255_2_778
70
0
62
255
6
CONTINUOUS
0
LAYER
2
DEFAULT_255_1_234
70
0
62
255
6
CONTINUOUS
0
ENDTAB
0
ENDSEC
0
SECTION
2
ENTITIES
0
ARC
8
DEFAULT_255_2_778
10
3.5700693
20
20.2426538
40
0.7914215
50
129.1312896
51
180.1450914
0
ARC
8
DEFAULT_255_2_778
10
3.5703345
20
20.2431409
40
0.7912112
50
89.854026
51
129.1684493
0
ARC
8
DEFAULT_255_2_778
10
25.7993937
20
20.2428275
40
0.7915249
50
39.4792447
51
90.147911
0
ARC
8
DEFAULT_255_2_778
10
25.7999935
20
20.2426741
40
0.7911595
50
359.8533901
51
39.5154338
0
ARC
8
DEFAULT_255_2_778
10
25.7996693
20
-1.9863985
40
0.7914836
50
309.4761667
51
0.1482649
0
ARC
8
DEFAULT_255_2_778
10
25.799398
20
-1.9868295
40
0.7913235
50
269.8517415
51
309.511178
0
ARC
8
DEFAULT_255_2_778
10
3.570342
20
-1.9867714
40
0.7913815
50
219.1282118
51
270.1454017
0
ARC
8
DEFAULT_255_2_778
10
3.5700247
20
-1.9863889
40
0.7913769
50
179.8524075
51
219.1641908
0
LINE
8
DEFAULT_255_2_778
10
3.5723503
20
21.0343497
11
25.7973503
21
21.0343497
0
LINE
8
DEFAULT_255_2_778
10
26.5911503
20
20.2406497
11
26.5911503
21
-1.9843503
0
LINE
8
DEFAULT_255_2_778
10
25.7973503
20
-2.7781503
11
3.5723503
21
-2.7781503
0
LINE
8
DEFAULT_255_2_778
10
2.7786503
20
-1.9843503
11
2.7786503
21
20.2406497
0
LINE
8
DEFAULT_255_1_234
10
10.2924364
20
0.5181211
11
10.4916235
21
0.5181211
0
LINE
8
DEFAULT_255_1_234
10
10.4916235
20
0.5181211
11
10.8739342
21
-0.4360494
0
LINE
8
DEFAULT_255_1_234
10
10.8739342
20
-0.4360494
11
11.256245
21
0.5181211
0
LINE
8
DEFAULT_255_1_234
10
11.256245
20
0.5181211
11
11.4562353
21
0.5181211
0
LINE
8
DEFAULT_255_1_234
10
11.4562353
20
0.5181211
11
11.4562353
21
-0.6513
0
LINE
8
DEFAULT_255_1_234
10
11.4562353
20
-0.6513
11
11.3020259
21
-0.6513
0
LINE
8
DEFAULT_255_1_234
10
11.3020259
20
-0.6513
11
11.3020259
21
-0.1959004
0
LINE
8
DEFAULT_255_1_234
10
11.3020259
20
-0.1959004
11
11.316483
21
0.2956419
0
LINE
8
DEFAULT_255_1_234
10
11.316483
20
0.2956419
11
10.9325659
21
-0.6513
0
LINE
8
DEFAULT_255_1_234
10
10.9325659
20
-0.6513
11
10.8144994
21
-0.6513
0
LINE
8
DEFAULT_255_1_234
10
10.8144994
20
-0.6513
11
10.4313854
21
0.2932324
0
LINE
8
DEFAULT_255_1_234
10
10.4313854
20
0.2932324
11
10.4466458
21
-0.1959004
0
LINE
8
DEFAULT_255_1_234
10
10.4466458
20
-0.1959004
11
10.4466458
21
-0.6513
0
LINE
8
DEFAULT_255_1_234
10
10.4466458
20
-0.6513
11
10.2924364
21
-0.6513
0
LINE
8
DEFAULT_255_1_234
10
10.2924364
20
-0.6513
11
10.2924364
21
0.5181211
0
LINE
8
DEFAULT_255_1_234
10
11.8835237
20
0.5181211
11
11.8835237
21
-0.5252017
0
LINE
8
DEFAULT_255_1_234
10
11.8835237
20
-0.5252017
11
12.4377137
21
-0.5252017
0
LINE
8
DEFAULT_255_1_234
10
12.4377137
20
-0.5252017
11
12.4377137
21
-0.6513
0
LINE
8
DEFAULT_255_1_234
10
12.4377137
20
-0.6513
11
11.7285112
21
-0.6513
0
LINE
8
DEFAULT_255_1_234
10
11.7285112
20
-0.6513
11
11.7285112
21
0.5181211
0
LINE
8
DEFAULT_255_1_234
10
11.7285112
20
0.5181211
11
11.8835237
21
0.5181211
0
LINE
8
DEFAULT_255_1_234
10
12.7686213
20
0.5181211
11
12.7686213
21
-0.5252017
0
LINE
8
DEFAULT_255_1_234
10
12.7686213
20
-0.5252017
11
13.3228112
21
-0.5252017
0
LINE
8
DEFAULT_255_1_234
10
13.3228112
20
-0.5252017
11
13.3228112
21
-0.6513
0
LINE
8
DEFAULT_255_1_234
10
13.3228112
20
-0.6513
11
12.6136087
21
-0.6513
0
LINE
8
DEFAULT_255_1_234
10
12.6136087
20
-0.6513
11
12.6136087
21
0.5181211
0
LINE
8
DEFAULT_255_1_234
10
12.6136087
20
0.5181211
11
12.7686213
21
0.5181211
0
LINE
8
DEFAULT_255_1_234
10
13.7846362
20
-0.0938974
11
13.7846362
21
-0.2151766
0
LINE
8
DEFAULT_255_1_234
10
13.7846362
20
-0.2151766
11
13.3926874
21
-0.2151766
0
LINE
8
DEFAULT_255_1_234
10
13.3926874
20
-0.2151766
11
13.3926874
21
-0.0938974
0
LINE
8
DEFAULT_255_1_234
10
13.3926874
20
-0.0938974
11
13.7846362
21
-0.0938974
0
LINE
8
DEFAULT_255_1_234
10
14.6135116
20
0.0153343
11
14.6135116
21
-0.110764
0
LINE
8
DEFAULT_255_1_234
10
14.6135116
20
-0.110764
11
14.1067089
21
-0.110764
0
LINE
8
DEFAULT_255_1_234
10
14.1067089
20
-0.110764
11
14.1067089
21
-0.5252017
0
LINE
8
DEFAULT_255_1_234
10
14.1067089
20
-0.5252017
11
14.6954353
21
-0.5252017
0
LINE
8
DEFAULT_255_1_234
10
14.6954353
20
-0.5252017
11
14.6954353
21
-0.6513
0
LINE
8
DEFAULT_255_1_234
10
14.6954353
20
-0.6513
11
13.9524995
21
-0.6513
0
LINE
8
DEFAULT_255_1_234
10
13.9524995
20
-0.6513
11
13.9524995
21
0.5181211
0
LINE
8
DEFAULT_255_1_234
10
13.9524995
20
0.5181211
11
14.6874036
21
0.5181211
0
LINE
8
DEFAULT_255_1_234
10
14.6874036
20
0.5181211
11
14.6874036
21
0.3912196
0
LINE
8
DEFAULT_255_1_234
10
14.6874036
20
0.3912196
11
14.1067089
21
0.3912196
0
LINE
8
DEFAULT_255_1_234
10
14.1067089
20
0.3912196
11
14.1067089
21
0.0153343
0
LINE
8
DEFAULT_255_1_234
10
14.1067089
20
0.0153343
11
14.6135116
21
0.0153343
0
LINE
8
DEFAULT_255_1_234
10
14.8873938
20
0.5181211
11
15.086581
21
0.5181211
0
LINE
8
DEFAULT_255_1_234
10
15.086581
20
0.5181211
11
15.4688917
21
-0.4360494
0
LINE
8
DEFAULT_255_1_234
10
15.4688917
20
-0.4360494
11
15.8512024
21
0.5181211
0
LINE
8
DEFAULT_255_1_234
10
15.8512024
20
0.5181211
11
16.0511927
21
0.5181211
0
LINE
8
DEFAULT_255_1_234
10
16.0511927
20
0.5181211
11
16.0511927
21
-0.6513
0
LINE
8
DEFAULT_255_1_234
10
16.0511927
20
-0.6513
11
15.8969833
21
-0.6513
0
LINE
8
DEFAULT_255_1_234
10
15.8969833
20
-0.6513
11
15.8969833
21
-0.1959004
0
LINE
8
DEFAULT_255_1_234
10
15.8969833
20
-0.1959004
11
15.9114405
21
0.2956419
0
LINE
8
DEFAULT_255_1_234
10
15.9114405
20
0.2956419
11
15.5275234
21
-0.6513
0
LINE
8
DEFAULT_255_1_234
10
15.5275234
20
-0.6513
11
15.4094568
21
-0.6513
0
LINE
8
DEFAULT_255_1_234
10
15.4094568
20
-0.6513
11
15.0263429
21
0.2932324
0
LINE
8
DEFAULT_255_1_234
10
15.0263429
20
0.2932324
11
15.0416032
21
-0.1959004
0
LINE
8
DEFAULT_255_1_234
10
15.0416032
20
-0.1959004
11
15.0416032
21
-0.6513
0
LINE
8
DEFAULT_255_1_234
10
15.0416032
20
-0.6513
11
14.8873938
21
-0.6513
0
LINE
8
DEFAULT_255_1_234
10
14.8873938
20
-0.6513
11
14.8873938
21
0.5181211
0
LINE
8
DEFAULT_255_1_234
10
17.1081695
20
0.5181211
11
17.1081695
21
0.3912196
0
LINE
8
DEFAULT_255_1_234
10
17.1081695
20
0.3912196
11
16.7322841
21
0.3912196
0
LINE
8
DEFAULT_255_1_234
10
16.7322841
20
0.3912196
11
16.7322841
21
-0.6513
0
LINE
8
DEFAULT_255_1_234
10
16.7322841
20
-0.6513
11
16.5788779
21
-0.6513
0
LINE
8
DEFAULT_255_1_234
10
16.5788779
20
-0.6513
11
16.5788779
21
0.3912196
0
LINE
8
DEFAULT_255_1_234
10
16.5788779
20
0.3912196
11
16.2037958
21
0.3912196
0
LINE
8
DEFAULT_255_1_234
10
16.2037958
20
0.3912196
11
16.2037958
21
0.5181211
0
LINE
8
DEFAULT_255_1_234
10
16.2037958
20
0.5181211
11
17.1081695
21
0.5181211
0
LINE
8
DEFAULT_255_1_234
10
17.9755972
20
-0.6513
11
17.8639561
21
-0.3460939
0
LINE
8
DEFAULT_255_1_234
10
17.8639561
20
-0.3460939
11
17.37402
21
-0.3460939
0
LINE
8
DEFAULT_255_1_234
10
17.37402
20
-0.3460939
11
17.2639852
21
-0.6513
0
LINE
8
DEFAULT_255_1_234
10
17.2639852
20
-0.6513
11
17.1049568
21
-0.6513
0
LINE
8
DEFAULT_255_1_234
10
17.1049568
20
-0.6513
11
17.5515214
21
0.5181211
0
LINE
8
DEFAULT_255_1_234
10
17.5515214
20
0.5181211
11
17.6864546
21
0.5181211
0
LINE
8
DEFAULT_255_1_234
10
17.6864546
20
0.5181211
11
18.1338225
21
-0.6513
0
LINE
8
DEFAULT_255_1_234
10
18.1338225
20
-0.6513
11
17.9755972
21
-0.6513
0
LINE
8
DEFAULT_255_1_234
10
17.618988
20
0.3277689
11
17.4206041
21
-0.2191925
0
LINE
8
DEFAULT_255_1_234
10
17.4206041
20
-0.2191925
11
17.8181751
21
-0.2191925
0
LINE
8
DEFAULT_255_1_234
10
17.8181751
20
-0.2191925
11
17.618988
21
0.3277689
0
ARC
8
DEFAULT_255_2_778
10
12.6050348
20
18.5413041
40
0.3813723
50
156.9728279
51
180.9672924
0
ARC
8
DEFAULT_255_2_778
10
12.4650905
20
18.6039556
40
0.2280903
50
120.6143155
51
157.7057572
0
ARC
8
DEFAULT_255_2_778
10
12.423185
20
18.6658889
40
0.1535155
50
105.6024085
51
118.9253865
0
ARC
8
DEFAULT_255_2_778
10
12.4163051
20
18.690658
40
0.1278087
50
90.2188612
51
105.6183161
0
ARC
8
DEFAULT_255_2_778
10
12.4186564
20
18.5235412
40
0.2949385
50
82.1187511
51
90.5516271
0
ARC
8
DEFAULT_255_2_778
10
12.4470429
20
18.6882036
40
0.128059
50
23.164146
51
84.5981403
0
ARC
8
DEFAULT_255_2_778
10
12.3195078
20
18.6364267
40
0.2656921
50
1.2065942
51
22.6109196
0
ARC
8
DEFAULT_255_2_778
10
12.1068205
20
18.6185377
40
0.4788966
50
359.9555286
51
2.8107684
0
ARC
8
DEFAULT_255_2_778
10
12.4802764
20
18.6071207
40
0.6523641
50
359.5121336
51
18.1513483
0
ARC
8
DEFAULT_255_2_778
10
12.6313291
20
18.6581245
40
0.4929411
50
17.987628
51
47.7515239
0
ARC
8
DEFAULT_255_2_778
10
12.6654537
20
18.6898389
40
0.4465388
50
48.2567149
51
90.320171
0
ARC
8
DEFAULT_255_2_778
10
12.6638541
20
18.6417874
40
0.4945841
50
90.103751
51
104.0317339
0
ARC
8
DEFAULT_255_2_778
10
12.6706581
20
18.6104342
40
0.5266526
50
103.9228462
51
106.737064
0
ARC
8
DEFAULT_255_2_778
10
12.6850928
20
18.5677316
40
0.5717052
50
106.8899656
51
120.2615348
0
ARC
8
DEFAULT_255_2_778
10
12.7341581
20
18.4832122
40
0.6694339
50
120.2432243
51
131.2854864
0
ARC
8
DEFAULT_255_2_778
10
12.785036
20
18.422452
40
0.7486631
50
131.143212
51
134.0802792
0
ARC
8
DEFAULT_255_2_778
10
15.2709404
20
17.4494131
40
0.1197666
50
309.5218924
51
339.9060311
0
ARC
8
DEFAULT_255_2_778
10
15.3039085
20
17.4119254
40
0.0698871
50
287.710739
51
308.230668
0
ARC
8
DEFAULT_255_2_778
10
15.3092212
20
17.3962982
40
0.0533853
50
270.2503717
51
287.3813074
0
ARC
8
DEFAULT_255_2_778
10
15.3118783
20
17.3971536
40
0.0542942
50
194.7346052
51
267.4414086
0
ARC
8
DEFAULT_255_2_778
10
15.3603123
20
17.420172
40
0.107451
50
190.9475811
51
200.0439116
0
ARC
8
DEFAULT_255_2_778
10
14.9941035
20
17.4072621
40
0.2608211
50
358.353068
51
64.1268931
0
ARC
8
DEFAULT_255_2_778
10
15.0249058
20
17.4529249
40
0.206441
50
66.2890109
51
89.9969258
0
ARC
8
DEFAULT_255_2_778
10
15.0382115
20
17.4176645
40
0.2420668
50
93.1483498
51
177.0819403
0
ARC
8
DEFAULT_255_2_778
10
15.0906424
20
17.3998292
40
0.2957256
50
174.1467469
51
180.0122521
0
ARC
8
DEFAULT_255_2_778
10
15.0902349
20
17.403293
40
0.2953391
50
180.6842551
51
197.2976119
0
ARC
8
DEFAULT_255_2_778
10
15.1427344
20
17.4194135
40
0.3502574
50
197.2618666
51
237.3003567
0
ARC
8
DEFAULT_255_2_778
10
15.1574152
20
17.448055
40
0.3823034
50
237.7678185
51
267.0989043
0
ARC
8
DEFAULT_255_2_778
10
15.1676437
20
17.533385
40
0.468079
50
266.3770992
51
270.0209723
0
ARC
8
DEFAULT_255_2_778
10
15.1676985
20
17.5636308
40
0.4983248
50
270.0133909
51
272.716577
0
ARC
8
DEFAULT_255_2_778
10
15.1758148
20
17.4490424
40
0.3834899
50
272.3167324
51
299.1303886
0
ARC
8
DEFAULT_255_2_778
10
15.1234049
20
17.5225329
40
0.4733038
50
300.3417229
51
327.7658215
0
ARC
8
DEFAULT_255_2_778
10
14.9406676
20
17.6510134
40
0.6964958
50
326.843622
51
335.4998036
0
ARC
8
DEFAULT_255_2_778
10
14.8514976
20
17.6932766
40
0.7951648
50
335.3932154
51
340.0324022
0
ARC
8
DEFAULT_255_2_778
10
14.8370312
20
17.6988094
40
0.8106509
50
340.0140149
51
340.5492811
0
ARC
8
DEFAULT_255_2_778
10
10.7612214
20
18.3969581
40
0.768197
50
90.8730151
51
175.0627552
0
ARC
8
DEFAULT_255_2_778
10
10.8136126
20
18.3805058
40
0.8218958
50
174.2343992
51
180.0097514
0
ARC
8
DEFAULT_255_2_778
10
10.7889867
20
18.3772729
40
0.7972759
50
179.7777162
51
222.1414196
0
ARC
8
DEFAULT_255_2_778
10
10.7511509
20
18.339335
40
0.7437709
50
221.9300285
51
269.8741254
0
ARC
8
DEFAULT_255_2_778
10
10.7376549
20
18.3637244
40
0.7682501
50
270.8846918
51
355.0667038
0
ARC
8
DEFAULT_255_2_778
10
10.6852873
20
18.3802267
40
0.8219296
50
354.2345114
51
0.0097094
0
ARC
8
DEFAULT_255_2_778
10
10.7100678
20
18.3834703
40
0.7971551
50
359.7768758
51
42.1436072
0
ARC
8
DEFAULT_255_2_778
10
10.7478782
20
18.4213788
40
0.7436889
50
41.9327014
51
89.8737509
0
ARC
8
DEFAULT_255_2_778
10
10.7319112
20
18.0041045
40
0.2064136
50
282.3154686
51
2.5716381
0
ARC
8
DEFAULT_255_2_778
10
10.749558
20
17.9690913
40
0.1687253
50
269.98603
51
278.995025
0
ARC
8
DEFAULT_255_2_778
10
10.7617107
20
18.0005042
40
0.2005094
50
178.6786273
51
266.5134562
0
ARC
8
DEFAULT_255_2_778
10
10.8074017
20
18.0133655
40
0.2462849
50
179.9999044
51
181.9167359
0
ARC
8
DEFAULT_255_2_778
10
10.7673954
20
18.7566548
40
0.2064787
50
103.0315545
51
182.5228891
0
ARC
8
DEFAULT_255_2_778
10
10.7494718
20
18.7917048
40
0.1685611
50
89.9846994
51
99.7807169
0
ARC
8
DEFAULT_255_2_778
10
10.7371616
20
18.7597176
40
0.2009286
50
358.490526
51
86.4746259
0
ARC
8
DEFAULT_255_2_778
10
10.6939639
20
18.7475644
40
0.244153
50
0.0003602
51
1.6101146
0
ARC
8
DEFAULT_255_2_778
10
13.7769085
20
18.3798122
40
1.0339085
50
353.7729731
51
0.0306848
0
ARC
8
DEFAULT_255_2_778
10
14.0136678
20
18.3834703
40
0.7971551
50
359.7768758
51
42.1436072
0
ARC
8
DEFAULT_255_2_778
10
14.0514782
20
18.4213788
40
0.7436889
50
41.9327014
51
89.8737509
0
ARC
8
DEFAULT_255_2_778
10
14.0648214
20
18.3969581
40
0.768197
50
90.8730151
51
175.0627552
0
ARC
8
DEFAULT_255_2_778
10
14.1172126
20
18.3805058
40
0.8218958
50
174.2343992
51
180.0097514
0
ARC
8
DEFAULT_255_2_778
10
14.0925867
20
18.3772729
40
0.7972759
50
179.7777162
51
222.1414196
0
ARC
8
DEFAULT_255_2_778
10
14.0547509
20
18.339335
40
0.7437709
50
221.9300285
51
269.8741254
0
ARC
8
DEFAULT_255_2_778
10
14.0479775
20
18.3493375
40
0.753789
50
270.3906469
51
332.9011285
0
ARC
8
DEFAULT_255_2_778
10
14.0503073
20
18.3608988
40
0.5766383
50
270.2493497
51
330.3649047
0
ARC
8
DEFAULT_255_2_778
10
14.0738266
20
17.9892117
40
0.2060198
50
188.4673322
51
264.146848
0
ARC
8
DEFAULT_255_2_778
10
14.1170452
20
18.0133502
40
0.2529285
50
180.0643852
51
192.4374066
0
ARC
8
DEFAULT_255_2_778
10
14.070552
20
18.7568297
40
0.2060435
50
102.2220352
51
182.5768883
0
ARC
8
DEFAULT_255_2_778
10
14.0532765
20
18.7910306
40
0.1692354
50
89.9863487
51
98.9553742
0
ARC
8
DEFAULT_255_2_778
10
14.0410627
20
18.7599487
40
0.2006917
50
358.1298546
51
86.4993767
0
ARC
8
DEFAULT_255_2_778
10
13.9951604
20
18.7475582
40
0.2465564
50
0.0018041
51
1.3574921
0
ARC
8
DEFAULT_255_2_778
10
18.8395085
20
18.3798122
40
1.0339085
50
353.7729731
51
0.0306848
0
ARC
8
DEFAULT_255_2_778
10
19.0763127
20
18.3834756
40
0.7971102
50
359.7764759
51
42.1460177
0
ARC
8
DEFAULT_255_2_778
10
19.1140101
20
18.4212511
40
0.7438166
50
41.9370909
51
89.8762358
0
ARC
8
DEFAULT_255_2_778
10
19.1273214
20
18.3969581
40
0.768197
50
90.8730151
51
175.0627552
0
ARC
8
DEFAULT_255_2_778
10
19.1797126
20
18.3805058
40
0.8218958
50
174.2343992
51
180.0097514
0
ARC
8
DEFAULT_255_2_778
10
19.1550867
20
18.3772729
40
0.7972759
50
179.7777162
51
222.1414196
0
ARC
8
DEFAULT_255_2_778
10
19.1172509
20
18.339335
40
0.7437709
50
221.9300285
51
269.8741254
0
ARC
8
DEFAULT_255_2_778
10
19.1104966
20
18.3497973
40
0.7542487
50
270.3889576
51
332.8797533
0
ARC
8
DEFAULT_255_2_778
10
19.1130363
20
18.3610205
40
0.5767603
50
270.2563581
51
330.3578833
0
ARC
8
DEFAULT_255_2_778
10
19.1366787
20
17.988807
40
0.2056225
50
188.7424888
51
264.120891
0
ARC
8
DEFAULT_255_2_778
10
19.180402
20
18.0133673
40
0.2531853
50
180.0682018
51
192.7352383
0
ARC
8
DEFAULT_255_2_778
10
19.1332623
20
18.756531
40
0.2062492
50
102.479692
51
182.5468765
0
ARC
8
DEFAULT_255_2_778
10
19.1155784
20
18.7915755
40
0.1684904
50
89.986931
51
99.1816697
0
ARC
8
DEFAULT_255_2_778
10
19.1031384
20
18.7593685
40
0.201085
50
358.3379179
51
86.4421934
0
ARC
8
DEFAULT_255_2_778
10
19.0609425
20
18.7473683
40
0.2432745
50
359.9994511
51
1.4527903
0
LINE
8
DEFAULT_255_2_778
10
20.0578169
20
17.6918659
11
20.5605169
21
17.6918659
0
LINE
8
DEFAULT_255_2_778
10
20.5605169
20
17.6918659
11
20.5605169
21
19.7114659
0
LINE
8
DEFAULT_255_2_778
10
20.5605169
20
19.7114659
11
20.0578169
21
19.7114659
0
LINE
8
DEFAULT_255_2_778
10
20.0578169
20
19.7114659
11
20.0578169
21
17.6918659
0
LINE
8
DEFAULT_255_2_778
10
20.0578169
20
17.6918659
11
20.0578169
21
17.6918659
0
LINE
8
DEFAULT_255_2_778
10
20.0578169
20
17.6918659
11
20.0578169
21
17.6918659
0
LINE
8
DEFAULT_255_2_778
10
21.2995169
20
19.7114659
11
21.2995169
21
17.6918659
0
LINE
8
DEFAULT_255_2_778
10
21.2995169
20
17.6918659
11
20.7970169
21
17.6918659
0
LINE
8
DEFAULT_255_2_778
10
20.7970169
20
17.6918659
11
20.7970169
21
19.7114659
0
LINE
8
DEFAULT_255_2_778
10
20.7970169
20
19.7114659
11
21.2995169
21
19.7114659
0
LINE
8
DEFAULT_255_2_778
10
21.2995169
20
19.7114659
11
21.2995169
21
19.7114659
0
LINE
8
DEFAULT_255_2_778
10
21.2995169
20
19.7114659
11
21.2995169
21
19.7114659
0
LINE
8
DEFAULT_255_2_778
10
9.1419169
20
18.9269659
11
8.7355169
21
18.9269659
0
LINE
8
DEFAULT_255_2_778
10
8.7355169
20
18.9269659
11
8.7355169
21
19.7114659
0
LINE
8
DEFAULT_255_2_778
10
8.7355169
20
19.7114659
11
8.0703169
21
19.7114659
0
LINE
8
DEFAULT_255_2_778
10
8.0703169
20
19.7114659
11
8.0703169
21
17.6918659
0
LINE
8
DEFAULT_255_2_778
10
8.0703169
20
17.6918659
11
8.7355169
21
17.6918659
0
LINE
8
DEFAULT_255_2_778
10
8.7355169
20
17.6918659
11
8.7355169
21
18.6933659
0
LINE
8
DEFAULT_255_2_778
10
8.7355169
20
18.6933659
11
9.1419169
21
18.6933659
0
LINE
8
DEFAULT_255_2_778
10
9.1419169
20
18.6933659
11
9.1419169
21
17.6918659
0
LINE
8
DEFAULT_255_2_778
10
9.1419169
20
17.6918659
11
9.8070169
21
17.6918659
0
LINE
8
DEFAULT_255_2_778
10
9.8070169
20
17.6918659
11
9.8070169
21
19.7114659
0
LINE
8
DEFAULT_255_2_778
10
9.8070169
20
19.7114659
11
9.1419169
21
19.7114659
0
LINE
8
DEFAULT_255_2_778
10
9.1419169
20
19.7114659
11
9.1419169
21
18.9269659
0
LINE
8
DEFAULT_255_2_778
10
9.1419169
20
18.9269659
11
9.1419169
21
18.9269659
0
LINE
8
DEFAULT_255_2_778
10
9.1419169
20
18.9269659
11
9.1419169
21
18.9269659
0
LINE
8
DEFAULT_255_2_778
10
12.2645169
20
18.9605659
11
12.2237169
21
19.0941659
0
LINE
8
DEFAULT_255_2_778
10
12.2237169
20
19.0941659
11
11.6768169
21
19.0941659
0
LINE
8
DEFAULT_255_2_778
10
11.6768169
20
19.0941659
11
11.6768169
21
17.6921659
0
LINE
8
DEFAULT_255_2_778
10
11.6768169
20
17.6921659
11
12.2237169
21
17.6921659
0
LINE
8
DEFAULT_255_2_778
10
12.2237169
20
17.6921659
11
12.2237169
21
18.5348659
0
LINE
8
DEFAULT_255_2_778
10
12.2237169
20
18.5348659
11
12.2237169
21
18.5348659
0
LINE
8
DEFAULT_255_2_778
10
12.5857169
20
18.6181659
11
12.5857169
21
18.6181659
0
LINE
8
DEFAULT_255_2_778
10
12.5857169
20
18.6181659
11
12.5857169
21
17.6918659
0
LINE
8
DEFAULT_255_2_778
10
12.5857169
20
17.6918659
11
13.1326169
21
17.6918659
0
LINE
8
DEFAULT_255_2_778
10
13.1326169
20
17.6918659
11
13.1326169
21
18.6015659
0
LINE
8
DEFAULT_255_2_778
10
13.1326169
20
18.6015659
11
13.1326169
21
18.6015659
0
LINE
8
DEFAULT_255_2_778
10
12.2642169
20
18.9602659
11
12.2642169
21
18.9602659
0
LINE
8
DEFAULT_255_2_778
10
12.2642169
20
18.9602659
11
12.2642169
21
18.9602659
0
LINE
8
DEFAULT_255_2_778
10
12.2642169
20
18.9602659
11
12.2642169
21
18.9602659
0
LINE
8
DEFAULT_255_2_778
10
12.2642169
20
18.9602659
11
12.2645169
21
18.9605659
0
LINE
8
DEFAULT_255_2_778
10
17.8816169
20
18.2803659
11
17.6265169
21
19.0939659
0
LINE
8
DEFAULT_255_2_778
10
17.6265169
20
19.0939659
11
17.2532169
21
19.0939659
0
LINE
8
DEFAULT_255_2_778
10
17.2532169
20
19.0939659
11
16.9981169
21
18.2469659
0
LINE
8
DEFAULT_255_2_778
10
16.9981169
20
18.2469659
11
16.7322169
21
19.0939659
0
LINE
8
DEFAULT_255_2_778
10
16.7322169
20
19.0939659
11
16.2113169
21
19.0939659
0
LINE
8
DEFAULT_255_2_778
10
16.2113169
20
19.0939659
11
16.2076169
21
19.0939659
0
LINE
8
DEFAULT_255_2_778
10
16.2076169
20
19.0939659
11
16.0007169
21
19.0939659
0
LINE
8
DEFAULT_255_2_778
10
16.0007169
20
19.0939659
11
15.7382169
21
18.3805659
0
LINE
8
DEFAULT_255_2_778
10
15.7382169
20
18.3805659
11
15.3688169
21
19.0939659
0
LINE
8
DEFAULT_255_2_778
10
15.3688169
20
19.0939659
11
14.7441169
21
19.0939659
0
LINE
8
DEFAULT_255_2_778
10
14.7441169
20
19.0939659
11
15.4794169
21
17.6752659
0
LINE
8
DEFAULT_255_2_778
10
15.4794169
20
17.6752659
11
15.3834169
21
17.4082659
0
LINE
8
DEFAULT_255_2_778
10
15.3834169
20
17.4082659
11
15.3834169
21
17.4082659
0
LINE
8
DEFAULT_255_2_778
10
15.6014169
20
17.4288659
11
15.6014169
21
17.4288659
0
LINE
8
DEFAULT_255_2_778
10
15.6014169
20
17.4288659
11
16.2091169
21
19.0880659
0
LINE
8
DEFAULT_255_2_778
10
16.2091169
20
19.0880659
11
16.6473169
21
17.6916659
0
LINE
8
DEFAULT_255_2_778
10
16.6473169
20
17.6916659
11
17.0463169
21
17.6916659
0
LINE
8
DEFAULT_255_2_778
10
17.0463169
20
17.6916659
11
17.2902169
21
18.4970659
0
LINE
8
DEFAULT_255_2_778
10
17.2902169
20
18.4970659
11
17.5416169
21
17.6916659
0
LINE
8
DEFAULT_255_2_778
10
17.5416169
20
17.6916659
11
17.9186169
21
17.6916659
0
LINE
8
DEFAULT_255_2_778
10
17.9186169
20
17.6916659
11
18.3435169
21
19.0936659
0
LINE
8
DEFAULT_255_2_778
10
18.3435169
20
19.0936659
11
18.1255169
21
19.0936659
0
LINE
8
DEFAULT_255_2_778
10
18.1255169
20
19.0936659
11
17.8816169
21
18.2800659
0
LINE
8
DEFAULT_255_2_778
10
17.8816169
20
18.2800659
11
17.8816169
21
18.2800659
0
LINE
8
DEFAULT_255_2_778
10
17.8816169
20
18.2800659
11
17.8816169
21
18.2800659
0
LINE
8
DEFAULT_255_2_778
10
17.8816169
20
18.2800659
11
17.8816169
21
18.2803659
0
LINE
8
DEFAULT_255_2_778
10
10.7495169
20
19.1650659
11
10.7495169
21
19.1650659
0
LINE
8
DEFAULT_255_2_778
10
10.7495169
20
19.1650659
11
10.7495169
21
19.1650659
0
LINE
8
DEFAULT_255_2_778
10
10.7495169
20
19.1650659
11
10.7495169
21
19.1650659
0
LINE
8
DEFAULT_255_2_778
10
10.7495169
20
19.1650659
11
10.7495169
21
19.1650659
0
LINE
8
DEFAULT_255_2_778
10
10.5611169
20
18.0133659
11
10.5611169
21
18.0133659
0
LINE
8
DEFAULT_255_2_778
10
10.5611169
20
18.0133659
11
10.5611169
21
18.7475659
0
LINE
8
DEFAULT_255_2_778
10
10.5611169
20
18.7475659
11
10.5611169
21
18.7475659
0
LINE
8
DEFAULT_255_2_778
10
10.9381169
20
18.7475659
11
10.9381169
21
18.7475659
0
LINE
8
DEFAULT_255_2_778
10
10.9381169
20
18.7475659
11
10.9381169
21
18.0133659
0
LINE
8
DEFAULT_255_2_778
10
10.9381169
20
18.0133659
11
10.9381169
21
18.0133659
0
LINE
8
DEFAULT_255_2_778
10
10.9381169
20
18.0133659
11
10.9381169
21
18.0133659
0
LINE
8
DEFAULT_255_2_778
10
10.9381169
20
18.0133659
11
10.9381169
21
18.0133659
0
LINE
8
DEFAULT_255_2_778
10
14.7190169
20
18.0059659
11
14.7190169
21
18.0059659
0
LINE
8
DEFAULT_255_2_778
10
14.7190169
20
18.0059659
11
14.5515169
21
18.0757659
0
LINE
8
DEFAULT_255_2_778
10
14.5515169
20
18.0757659
11
14.5515169
21
18.0757659
0
LINE
8
DEFAULT_255_2_778
10
13.8641169
20
18.0130659
11
13.8641169
21
18.0130659
0
LINE
8
DEFAULT_255_2_778
10
13.8641169
20
18.0130659
11
13.8641169
21
18.2676659
0
LINE
8
DEFAULT_255_2_778
10
13.8641169
20
18.2676659
11
14.8042169
21
18.2676659
0
LINE
8
DEFAULT_255_2_778
10
14.8042169
20
18.2676659
11
14.8042169
21
18.2676659
0
LINE
8
DEFAULT_255_2_778
10
14.8042169
20
18.2676659
11
14.8042169
21
18.2676659
0
LINE
8
DEFAULT_255_2_778
10
14.8042169
20
18.2676659
11
14.8047169
21
18.2676659
0
LINE
8
DEFAULT_255_2_778
10
14.2417169
20
18.7475659
11
14.2417169
21
18.7475659
0
LINE
8
DEFAULT_255_2_778
10
14.2417169
20
18.7475659
11
14.2417169
21
18.4679659
0
LINE
8
DEFAULT_255_2_778
10
14.2417169
20
18.4679659
11
13.8647169
21
18.4679659
0
LINE
8
DEFAULT_255_2_778
10
13.8647169
20
18.4679659
11
13.8647169
21
18.7475659
0
LINE
8
DEFAULT_255_2_778
10
13.8647169
20
18.7475659
11
13.8647169
21
18.7475659
0
LINE
8
DEFAULT_255_2_778
10
13.8647169
20
18.7475659
11
13.8647169
21
18.7475659
0
LINE
8
DEFAULT_255_2_778
10
13.8647169
20
18.7475659
11
13.8647169
21
18.7475659
0
LINE
8
DEFAULT_255_2_778
10
19.7818169
20
18.0059659
11
19.7818169
21
18.0059659
0
LINE
8
DEFAULT_255_2_778
10
19.7818169
20
18.0059659
11
19.6143169
21
18.0757659
0
LINE
8
DEFAULT_255_2_778
10
19.6143169
20
18.0757659
11
19.6143169
21
18.0757659
0
LINE
8
DEFAULT_255_2_778
10
18.9272169
20
18.0130659
11
18.9272169
21
18.0130659
0
LINE
8
DEFAULT_255_2_778
10
18.9272169
20
18.0130659
11
18.9272169
21
18.2676659
0
LINE
8
DEFAULT_255_2_778
10
18.9272169
20
18.2676659
11
19.8673169
21
18.2676659
0
LINE
8
DEFAULT_255_2_778
10
19.8673169
20
18.2676659
11
19.8673169
21
18.2676659
0
LINE
8
DEFAULT_255_2_778
10
19.8673169
20
18.2676659
11
19.8673169
21
18.2676659
0
LINE
8
DEFAULT_255_2_778
10
19.8673169
20
18.2676659
11
19.8673169
21
18.2676659
0
LINE
8
DEFAULT_255_2_778
10
19.3042169
20
18.7473659
11
19.3042169
21
18.7473659
0
LINE
8
DEFAULT_255_2_778
10
19.3042169
20
18.7473659
11
19.3042169
21
18.4679659
0
LINE
8
DEFAULT_255_2_778
10
19.3042169
20
18.4679659
11
18.9272169
21
18.4679659
0
LINE
8
DEFAULT_255_2_778
10
18.9272169
20
18.4679659
11
18.9272169
21
18.7475659
0
LINE
8
DEFAULT_255_2_778
10
18.9272169
20
18.7475659
11
18.9272169
21
18.7475659
0
LINE
8
DEFAULT_255_2_778
10
18.9272169
20
18.7475659
11
18.9272169
21
18.7475659
0
LINE
8
DEFAULT_255_2_778
10
18.9272169
20
18.7475659
11
18.9272169
21
18.7473659
0
LINE
8
DEFAULT_255_1_234
10
7.4294364
20
15.7316211
11
7.6286235
21
15.7316211
0
LINE
8
DEFAULT_255_1_234
10
7.6286235
20
15.7316211
11
8.0109342
21
14.7774506
0
LINE
8
DEFAULT_255_1_234
10
8.0109342
20
14.7774506
11
8.393245
21
15.7316211
0
LINE
8
DEFAULT_255_1_234
10
8.393245
20
15.7316211
11
8.5932353
21
15.7316211
0
LINE
8
DEFAULT_255_1_234
10
8.5932353
20
15.7316211
11
8.5932353
21
14.5622
0
LINE
8
DEFAULT_255_1_234
10
8.5932353
20
14.5622
11
8.4390259
21
14.5622
0
LINE
8
DEFAULT_255_1_234
10
8.4390259
20
14.5622
11
8.4390259
21
15.0175996
0
LINE
8
DEFAULT_255_1_234
10
8.4390259
20
15.0175996
11
8.453483
21
15.5091419
0
LINE
8
DEFAULT_255_1_234
10
8.453483
20
15.5091419
11
8.0695659
21
14.5622
0
LINE
8
DEFAULT_255_1_234
10
8.0695659
20
14.5622
11
7.9514994
21
14.5622
0
LINE
8
DEFAULT_255_1_234
10
7.9514994
20
14.5622
11
7.5683854
21
15.5067324
0
LINE
8
DEFAULT_255_1_234
10
7.5683854
20
15.5067324
11
7.5836458
21
15.0175996
0
LINE
8
DEFAULT_255_1_234
10
7.5836458
20
15.0175996
11
7.5836458
21
14.5622
0
LINE
8
DEFAULT_255_1_234
10
7.5836458
20
14.5622
11
7.4294364
21
14.5622
0
LINE
8
DEFAULT_255_1_234
10
7.4294364
20
14.5622
11
7.4294364
21
15.7316211
0
LINE
8
DEFAULT_255_1_234
10
9.534555
20
14.5622
11
9.3787393
21
14.5622
0
LINE
8
DEFAULT_255_1_234
10
9.2108759
20
15.089082
11
9.3554472
21
15.089082
0
LINE
8
DEFAULT_255_1_234
10
9.3554472
20
15.089082
11
9.3554472
21
15.1573518
0
LINE
8
DEFAULT_255_1_234
10
8.9843809
20
15.1902819
11
8.8349906
21
15.1902819
0
LINE
8
DEFAULT_255_1_234
10
9.5040344
20
15.1653835
11
9.5040344
21
14.765403
0
LINE
8
DEFAULT_255_1_234
10
9.534555
20
14.5750508
11
9.534555
21
14.5622
0
LINE
8
DEFAULT_255_1_234
10
9.3554472
20
14.8055617
11
9.3554472
21
14.9838663
0
LINE
8
DEFAULT_255_1_234
10
9.3554472
20
14.9838663
11
9.238987
21
14.9838663
0
ARC
8
DEFAULT_255_1_234
10
9.4826931
20
14.6126194
40
0.1155358
50
197.0791116
51
205.8741701
0
ARC
8
DEFAULT_255_1_234
10
9.606553
20
14.6518654
40
0.2454626
50
192.2918602
51
197.3448991
0
ARC
8
DEFAULT_255_1_234
10
9.8018979
20
14.6952663
40
0.4455697
50
189.1576348
51
192.3971359
0
ARC
8
DEFAULT_255_1_234
10
10.083326
20
14.7411549
40
0.7307142
50
186.8689952
51
189.1979448
0
ARC
8
DEFAULT_255_1_234
10
9.1004414
20
14.8958258
40
0.353352
50
294.0080019
51
316.7604136
0
ARC
8
DEFAULT_255_1_234
10
9.1133478
20
14.8776572
40
0.3315331
50
269.5042461
51
293.2479736
0
ARC
8
DEFAULT_255_1_234
10
9.1073963
20
14.9177491
40
0.3716254
50
255.403374
51
270.4753162
0
ARC
8
DEFAULT_255_1_234
10
9.0843935
20
14.8284825
40
0.2794431
50
228.6140946
51
255.354999
0
ARC
8
DEFAULT_255_1_234
10
9.0511459
20
14.7966491
40
0.2336109
50
181.8953303
51
229.5703879
0
ARC
8
DEFAULT_255_1_234
10
9.1102964
20
14.8030708
40
0.2929755
50
179.984097
51
182.7679515
0
ARC
8
DEFAULT_255_1_234
10
9.1019906
20
14.8065413
40
0.28469
50
161.0341165
51
180.6820968
0
ARC
8
DEFAULT_255_1_234
10
9.0580452
20
14.8179729
40
0.2394402
50
125.0523775
51
160.2033967
0
ARC
8
DEFAULT_255_1_234
10
9.1242461
20
14.7276431
40
0.3514152
50
106.2671988
51
125.4298572
0
ARC
8
DEFAULT_255_1_234
10
9.1814917
20
14.5405842
40
0.5470269
50
95.4857064
51
106.534858
0
ARC
8
DEFAULT_255_1_234
10
9.2088071
20
14.2906758
40
0.7984089
50
89.8515322
51
95.7224983
0
ARC
8
DEFAULT_255_1_234
10
9.1448666
20
15.1591759
40
0.2105886
50
359.503704
51
14.3184734
0
ARC
8
DEFAULT_255_1_234
10
9.202279
20
15.1741017
40
0.1512684
50
14.2187004
51
45.2025693
0
ARC
8
DEFAULT_255_1_234
10
9.2058986
20
15.1755251
40
0.1477163
50
45.8098026
51
73.0032427
0
ARC
8
DEFAULT_255_1_234
10
9.1809954
20
15.0993896
40
0.2278113
50
72.610967
51
85.7232876
0
ARC
8
DEFAULT_255_1_234
10
9.1719948
20
15.0080569
40
0.3195681
50
85.3352114
51
90.0850615
0
ARC
8
DEFAULT_255_1_234
10
9.1696351
20
15.0671391
40
0.2604924
50
89.5853149
51
103.4592217
0
ARC
8
DEFAULT_255_1_234
10
9.1543954
20
15.1306597
40
0.1951693
50
103.44851
51
126.5404292
0
ARC
8
DEFAULT_255_1_234
10
9.1304834
20
15.161243
40
0.1563639
50
126.1729825
51
141.5004088
0
ARC
8
DEFAULT_255_1_234
10
9.0926435
20
15.1909385
40
0.1082645
50
141.3333588
51
180.3474677
0
ARC
8
DEFAULT_255_1_234
10
9.0252145
20
15.1892174
40
0.1902269
50
151.6374668
51
179.6793754
0
ARC
8
DEFAULT_255_1_234
10
9.0854387
20
15.1592334
40
0.2574753
50
142.4988163
51
152.1325379
0
ARC
8
DEFAULT_255_1_234
10
9.1172347
20
15.1342735
40
0.2978957
50
120.8284787
51
142.4132259
0
ARC
8
DEFAULT_255_1_234
10
9.1588456
20
15.0691301
40
0.3751664
50
113.9638113
51
121.1869885
0
ARC
8
DEFAULT_255_1_234
10
9.1724608
20
15.0359544
40
0.4110136
50
93.3784663
51
113.8198047
0
ARC
8
DEFAULT_255_1_234
10
9.180139
20
14.9594446
40
0.487853
50
89.9745882
51
93.7491274
0
ARC
8
DEFAULT_255_1_234
10
9.1836276
20
14.9630605
40
0.4842481
50
79.1325877
51
90.3871757
0
ARC
8
DEFAULT_255_1_234
10
9.2161396
20
15.1255435
40
0.3185522
50
60.1435559
51
79.3654871
0
ARC
8
DEFAULT_255_1_234
10
9.2418085
20
15.174843
40
0.2630271
50
48.6192091
51
59.646742
0
ARC
8
DEFAULT_255_1_234
10
9.2465823
20
15.1811691
40
0.2551253
50
9.0349315
51
48.4844544
0
ARC
8
DEFAULT_255_1_234
10
9.1389667
20
15.1576793
40
0.3651489
50
1.2089744
51
10.0233366
0
ARC
8
DEFAULT_255_1_234
10
10.2676412
20
14.7629518
40
0.7636108
50
179.8160804
51
185.3206488
0
ARC
8
DEFAULT_255_1_234
10
9.9980894
20
14.7372155
40
0.4928344
50
185.2474014
51
192.7953707
0
ARC
8
DEFAULT_255_1_234
10
9.8219151
20
14.6967824
40
0.3120807
50
192.7197759
51
202.9585048
0
ARC
8
DEFAULT_255_1_234
10
9.1321334
20
14.9365928
40
0.2611453
50
270.0069004
51
300.5035019
0
ARC
8
DEFAULT_255_1_234
10
9.1443942
20
14.9237927
40
0.2439274
50
299.5482464
51
315.6095048
0
ARC
8
DEFAULT_255_1_234
10
9.1734039
20
14.8941155
40
0.2024389
50
315.868035
51
334.0596869
0
ARC
8
DEFAULT_255_1_234
10
9.2346399
20
14.2864943
40
0.6973855
50
89.6428514
51
97.2870891
0
ARC
8
DEFAULT_255_1_234
10
9.1905162
20
14.6168571
40
0.3640992
50
96.9938028
51
109.7781797
0
ARC
8
DEFAULT_255_1_234
10
9.1239787
20
14.7949891
40
0.1739759
50
109.0087453
51
135.326626
0
ARC
8
DEFAULT_255_1_234
10
9.0966392
20
14.8288473
40
0.1308198
50
137.4539381
51
182.1082805
0
ARC
8
DEFAULT_255_1_234
10
9.1340382
20
14.8223893
40
0.1681384
50
179.4392907
51
195.7200177
0
ARC
8
DEFAULT_255_1_234
10
9.092881
20
14.8111426
40
0.1254738
50
195.8684065
51
230.1572205
0
ARC
8
DEFAULT_255_1_234
10
9.1171237
20
14.8401769
40
0.1632985
50
230.1530708
51
259.7485588
0
ARC
8
DEFAULT_255_1_234
10
9.1309941
20
14.9055386
40
0.230094
50
259.2463819
51
270.291543
0
LINE
8
DEFAULT_255_1_234
10
10.3835097
20
15.1758248
11
10.2341194
21
15.1758248
0
LINE
8
DEFAULT_255_1_234
10
9.700812
20
14.8296569
11
9.8493991
21
14.8296569
0
ARC
8
DEFAULT_255_1_234
10
10.1153012
20
14.7941959
40
0.1276617
50
359.3334982
51
18.5871358
0
ARC
8
DEFAULT_255_1_234
10
10.136165
20
14.7997133
40
0.1061371
50
19.3540742
51
54.6485071
0
ARC
8
DEFAULT_255_1_234
10
10.0857552
20
14.7301919
40
0.1920087
50
54.3827097
51
65.0622807
0
ARC
8
DEFAULT_255_1_234
10
10.0088948
20
14.56849
40
0.3710447
50
64.8282493
51
71.4200025
0
ARC
8
DEFAULT_255_1_234
10
9.9186823
20
14.3038107
40
0.6506741
50
71.3164301
51
75.8006402
0
ARC
8
DEFAULT_255_1_234
10
9.8345643
20
13.9797561
40
0.9854641
50
75.6809531
51
78.0061883
0
ARC
8
DEFAULT_255_1_234
10
10.2794177
20
16.077677
40
1.1591028
50
254.6901892
51
258.0466452
0
ARC
8
DEFAULT_255_1_234
10
10.1756085
20
15.7017781
40
0.7691345
50
249.9010773
51
254.755261
0
ARC
8
DEFAULT_255_1_234
10
10.0752427
20
15.4291982
40
0.478665
50
243.3097214
51
249.9709442
0
ARC
8
DEFAULT_255_1_234
10
10.0123448
20
15.3037778
40
0.3383568
50
234.4047477
51
243.2862168
0
ARC
8
DEFAULT_255_1_234
10
9.9500972
20
15.2178232
40
0.2322322
50
220.8667099
51
234.5493881
0
ARC
8
DEFAULT_255_1_234
10
9.9158913
20
15.1866817
40
0.1859923
50
214.3062465
51
220.5065136
0
ARC
8
DEFAULT_255_1_234
10
9.9132992
20
15.183588
40
0.1821108
50
186.912965
51
213.9618616
0
ARC
8
DEFAULT_255_1_234
10
9.9665087
20
15.1922009
40
0.2359799
50
179.8808832
51
187.4339886
0
ARC
8
DEFAULT_255_1_234
10
9.951022
20
15.1942088
40
0.2204978
50
132.005434
51
180.3942919
0
ARC
8
DEFAULT_255_1_234
10
10.0166834
20
15.1336083
40
0.3095791
50
129.2319861
51
133.5302299
0
ARC
8
DEFAULT_255_1_234
10
10.0220342
20
15.1241928
40
0.3202615
50
100.4410011
51
128.9081242
0
ARC
8
DEFAULT_255_1_234
10
10.0494225
20
14.9956455
40
0.4516583
50
89.6985377
51
100.9026564
0
ARC
8
DEFAULT_255_1_234
10
10.0551267
20
14.9796166
40
0.4676928
50
77.6965325
51
90.4076836
0
ARC
8
DEFAULT_255_1_234
10
10.0882252
20
15.1223413
40
0.3211988
50
50.7276602
51
78.0399361
0
ARC
8
DEFAULT_255_1_234
10
10.132671
20
15.1741296
40
0.2529778
50
25.7545084
51
51.0957453
0
ARC
8
DEFAULT_255_1_234
10
10.1327935
20
15.1791206
40
0.250738
50
359.2468627
51
24.7394243
0
ARC
8
DEFAULT_255_1_234
10
10.1043387
20
15.1762664
40
0.1297815
50
359.8050318
51
45.1544908
0
ARC
8
DEFAULT_255_1_234
10
10.0636528
20
15.1414794
40
0.1831883
50
43.8047702
51
49.6271585
0
ARC
8
DEFAULT_255_1_234
10
10.064443
20
15.1415678
40
0.18261
50
49.7980766
51
82.1218353
0
ARC
8
DEFAULT_255_1_234
10
10.0525402
20
15.0768998
40
0.2483163
50
81.4465357
51
90.1710293
0
ARC
8
DEFAULT_255_1_234
10
10.0501005
20
15.024288
40
0.300932
50
89.6766211
51
99.1264602
0
ARC
8
DEFAULT_255_1_234
10
10.0329466
20
15.1276537
40
0.1961547
50
98.968313
51
113.4570237
0
ARC
8
DEFAULT_255_1_234
10
10.0133551
20
15.1744965
40
0.1453859
50
113.722589
51
127.4763106
0
ARC
8
DEFAULT_255_1_234
10
9.9965198
20
15.1945124
40
0.1192639
50
126.9083309
51
150.3165862
0
ARC
8
DEFAULT_255_1_234
10
9.991753
20
15.1995981
40
0.112623
50
151.3635175
51
180.0701457
0
ARC
8
DEFAULT_255_1_234
10
10.0226315
20
15.197499
40
0.1435149
50
179.2169974
51
179.9954013
0
ARC
8
DEFAULT_255_1_234
10
9.9865372
20
15.1962056
40
0.1074286
50
179.3040112
51
198.4225446
0
ARC
8
DEFAULT_255_1_234
10
9.9673506
20
15.1912127
40
0.0876573
50
199.2895851
51
238.6034594
0
ARC
8
DEFAULT_255_1_234
10
10.0276352
20
15.285845
40
0.1998512
50
237.9846301
51
246.8744712
0
ARC
8
DEFAULT_255_1_234
10
10.1134297
20
15.4821205
40
0.4140547
50
246.6234531
51
251.8168941
0
ARC
8
DEFAULT_255_1_234
10
10.2164841
20
15.7915905
40
0.7402308
50
251.713434
51
255.0778414
0
ARC
8
DEFAULT_255_1_234
10
10.3364104
20
16.2382563
40
1.2027155
50
255.0367487
51
257.4705983
0
ARC
8
DEFAULT_255_1_234
10
9.8256113
20
13.9368863
40
1.1546601
50
73.6837552
51
77.5016755
0
ARC
8
DEFAULT_255_1_234
10
9.9344888
20
14.3068581
40
0.7690009
50
68.7044154
51
73.7249639
0
ARC
8
DEFAULT_255_1_234
10
10.0247909
20
14.5395654
40
0.5193873
50
63.590599
51
68.6626804
0
ARC
8
DEFAULT_255_1_234
10
10.1018928
20
14.6933123
40
0.3473927
50
54.7106439
51
63.7013633
0
ARC
8
DEFAULT_255_1_234
10
10.1643382
20
14.78054
40
0.2401192
50
41.0622434
51
54.8487496
0
ARC
8
DEFAULT_255_1_234
10
10.1984769
20
14.8118592
40
0.1938094
50
34.4950568
51
40.7105546
0
ARC
8
DEFAULT_255_1_234
10
10.2031576
20
14.8167078
40
0.1872106
50
9.3763373
51
34.0833615
0
ARC
8
DEFAULT_255_1_234
10
10.1378447
20
14.8041728
40
0.2536988
50
359.7694872
51
9.7663171
0
ARC
8
DEFAULT_255_1_234
10
10.1575947
20
14.7998764
40
0.2339696
50
335.8654732
51
0.8022045
0
ARC
8
DEFAULT_255_1_234
10
10.1650992
20
14.8012197
40
0.2277108
50
307.7357725
51
334.7849066
0
ARC
8
DEFAULT_255_1_234
10
10.1250168
20
14.8462645
40
0.2878951
50
307.0241536
51
308.5578354
0
ARC
8
DEFAULT_255_1_234
10
10.0992499
20
14.8848801
40
0.3342515
50
282.9362969
51
306.5646424
0
ARC
8
DEFAULT_255_1_234
10
10.0630796
20
15.0316108
40
0.4853615
50
271.1026298
51
283.2200835
0
ARC
8
DEFAULT_255_1_234
10
10.056704
20
15.1557418
40
0.6096052
50
269.9919117
51
271.4772449
0
ARC
8
DEFAULT_255_1_234
10
10.0540795
20
15.0479436
40
0.5018135
50
259.0723564
51
270.289833
0
ARC
8
DEFAULT_255_1_234
10
10.0328528
20
14.9362271
40
0.388099
50
245.4963068
51
259.0227342
0
ARC
8
DEFAULT_255_1_234
10
10.0050484
20
14.8780615
40
0.3236422
50
228.9684658
51
245.7044727
0
ARC
8
DEFAULT_255_1_234
10
9.9784928
20
14.8453575
40
0.2815426
50
214.4011705
51
228.6759915
0
ARC
8
DEFAULT_255_1_234
10
9.9495668
20
14.829529
40
0.2487548
50
179.9705531
51
215.1572795
0
ARC
8
DEFAULT_255_1_234
10
10.0196268
20
14.8368806
40
0.1703809
50
182.4299387
51
203.0329699
0
ARC
8
DEFAULT_255_1_234
10
10.0011926
20
14.8312396
40
0.1512226
50
203.798802
51
232.548466
0
ARC
8
DEFAULT_255_1_234
10
10.0288447
20
14.8663826
40
0.1959374
50
232.3782728
51
256.3934612
0
ARC
8
DEFAULT_255_1_234
10
10.0518809
20
14.9553842
40
0.2878639
50
256.104506
51
268.4626716
0
ARC
8
DEFAULT_255_1_234
10
10.0565293
20
15.0350487
40
0.3676329
50
268.0715632
51
270.0138206
0
ARC
8
DEFAULT_255_1_234
10
10.0583818
20
15.0078083
40
0.3403971
50
269.7031147
51
278.8341955
0
ARC
8
DEFAULT_255_1_234
10
10.0765911
20
14.8947876
40
0.2259217
50
278.6728789
51
292.8232582
0
ARC
8
DEFAULT_255_1_234
10
10.0966449
20
14.8446449
40
0.171929
50
293.1452328
51
303.6655899
0
ARC
8
DEFAULT_255_1_234
10
10.1231328
20
14.8070204
40
0.1259367
50
303.1248165
51
321.742847
0
ARC
8
DEFAULT_255_1_234
10
10.1417208
20
14.7907156
40
0.1012531
50
322.4748573
51
1.1291126
0
LINE
8
DEFAULT_255_1_234
10
10.6381158
20
15.6416656
11
10.786703
21
15.6416656
0
LINE
8
DEFAULT_255_1_234
10
10.786703
20
15.6416656
11
10.786703
21
15.4312341
0
LINE
8
DEFAULT_255_1_234
10
10.786703
20
15.4312341
11
10.9489441
21
15.4312341
0
LINE
8
DEFAULT_255_1_234
10
10.9489441
20
15.4312341
11
10.9489441
21
15.3163802
0
LINE
8
DEFAULT_255_1_234
10
10.9489441
20
15.3163802
11
10.786703
21
15.3163802
0
LINE
8
DEFAULT_255_1_234
10
10.786703
20
15.3163802
11
10.786703
21
14.7774506
0
LINE
8
DEFAULT_255_1_234
10
10.95296
20
14.6826761
11
10.95296
21
14.5622
0
LINE
8
DEFAULT_255_1_234
10
10.6381158
20
14.7774506
11
10.6381158
21
15.3163802
0
LINE
8
DEFAULT_255_1_234
10
10.6381158
20
15.3163802
11
10.4798906
21
15.3163802
0
LINE
8
DEFAULT_255_1_234
10
10.4798906
20
15.3163802
11
10.4798906
21
15.4312341
0
LINE
8
DEFAULT_255_1_234
10
10.4798906
20
15.4312341
11
10.6381158
21
15.4312341
0
LINE
8
DEFAULT_255_1_234
10
10.6381158
20
15.4312341
11
10.6381158
21
15.6416656
0
ARC
8
DEFAULT_255_1_234
10
10.9874533
20
14.7764084
40
0.200753
50
179.7025659
51
187.917967
0
ARC
8
DEFAULT_255_1_234
10
10.9128559
20
14.7656724
40
0.1253883
50
187.7545981
51
200.2447476
0
ARC
8
DEFAULT_255_1_234
10
10.870788
20
14.7499859
40
0.0804913
50
200.130383
51
219.174133
0
ARC
8
DEFAULT_255_1_234
10
10.8572056
20
14.7407515
40
0.0641445
50
220.4434483
51
249.6172
0
ARC
8
DEFAULT_255_1_234
10
10.8726907
20
14.7796968
40
0.1060489
50
249.1032952
51
262.775154
0
ARC
8
DEFAULT_255_1_234
10
10.8815079
20
14.8425715
40
0.1695354
50
262.4913187
51
270.2611758
0
ARC
8
DEFAULT_255_1_234
10
10.8812496
20
14.8641103
40
0.191075
50
270.3091804
51
275.6625139
0
ARC
8
DEFAULT_255_1_234
10
10.866972
20
15.0142435
40
0.3418851
50
275.5610264
51
279.0879356
0
ARC
8
DEFAULT_255_1_234
10
10.8339598
20
15.2237699
40
0.5539959
50
279.0365489
51
281.5011378
0
ARC
8
DEFAULT_255_1_234
10
10.7982674
20
15.4041423
40
0.7378639
50
281.4243939
51
282.1017894
0
ARC
8
DEFAULT_255_1_234
10
10.8325921
20
14.9959858
40
0.4501761
50
275.2597045
51
285.5083879
0
ARC
8
DEFAULT_255_1_234
10
10.8387246
20
14.9403606
40
0.3942242
50
270.0268409
51
275.1132796
0
ARC
8
DEFAULT_255_1_234
10
10.8367211
20
14.8076614
40
0.261534
50
257.3573315
51
270.479383
0
ARC
8
DEFAULT_255_1_234
10
10.8154102
20
14.7178406
40
0.1692304
50
230.8037497
51
257.741658
0
ARC
8
DEFAULT_255_1_234
10
10.8086005
20
14.7068777
40
0.1564393
50
219.974146
51
230.1990686
0
ARC
8
DEFAULT_255_1_234
10
10.8417952
20
14.7322579
40
0.1981916
50
196.5084186
51
219.4318458
0
ARC
8
DEFAULT_255_1_234
10
10.9433397
20
14.7641194
40
0.3046086
50
184.6404872
51
196.8269686
0
ARC
8
DEFAULT_255_1_234
10
11.0678461
20
14.7766908
40
0.4297309
50
179.8986958
51
184.9681077
0
LINE
8
DEFAULT_255_1_234
10
11.0846805
20
14.9726218
11
11.0846805
21
14.9999297
0
LINE
8
DEFAULT_255_1_234
10
11.821994
20
15.0159932
11
11.821994
21
14.9541488
0
LINE
8
DEFAULT_255_1_234
10
11.821994
20
14.9541488
11
11.2332676
21
14.9541488
0
LINE
8
DEFAULT_255_1_234
10
11.719991
20
14.7846792
11
11.8107496
21
14.7139999
0
LINE
8
DEFAULT_255_1_234
10
11.2380867
20
15.0762313
11
11.6734069
21
15.0762313
0
LINE
8
DEFAULT_255_1_234
10
11.6734069
20
15.0762313
11
11.6734069
21
15.0874757
0
ARC
8
DEFAULT_255_1_234
10
11.478617
20
14.9837332
40
0.4376191
50
252.3266134
51
270.5810217
0
ARC
8
DEFAULT_255_1_234
10
11.4581259
20
14.9096644
40
0.3608374
50
223.3000567
51
251.8561855
0
ARC
8
DEFAULT_255_1_234
10
11.4792619
20
14.9301937
40
0.3902993
50
190.9374509
51
223.3654032
0
ARC
8
DEFAULT_255_1_234
10
11.6517592
20
14.9691885
40
0.5670891
50
179.6531105
51
191.4989439
0
ARC
8
DEFAULT_255_1_234
10
11.6639604
20
15.0031417
40
0.5792888
50
167.4007466
51
180.3176909
0
ARC
8
DEFAULT_255_1_234
10
11.5587666
20
15.0253885
40
0.471777
50
154.1835823
51
167.250763
0
ARC
8
DEFAULT_255_1_234
10
11.4956133
20
15.0586417
40
0.4004528
50
134.3149965
51
154.5315275
0
ARC
8
DEFAULT_255_1_234
10
11.4738628
20
15.0777228
40
0.371612
50
122.8616532
51
133.9707695
0
ARC
8
DEFAULT_255_1_234
10
11.4635202
20
15.0999703
40
0.3473289
50
89.8249009
51
123.4199222
0
ARC
8
DEFAULT_255_1_234
10
11.4685243
20
15.0352967
40
0.4120197
50
74.7876118
51
90.5482747
0
ARC
8
DEFAULT_255_1_234
10
11.4978987
20
15.143803
40
0.2996077
50
39.8178249
51
74.7633718
0
ARC
8
DEFAULT_255_1_234
10
11.4466307
20
15.1038351
40
0.3645855
50
16.8990863
51
39.4829761
0
ARC
8
DEFAULT_255_1_234
10
11.2571603
20
15.0431526
40
0.5635218
50
4.9636328
51
17.2026414
0
ARC
8
DEFAULT_255_1_234
10
11.0153673
20
15.017634
40
0.8066286
50
359.8834553
51
5.2834307
0
ARC
8
DEFAULT_255_1_234
10
11.6191198
20
14.9607803
40
0.3859091
50
180.9846213
51
194.9401313
0
ARC
8
DEFAULT_255_1_234
10
11.5141476
20
14.9320849
40
0.2770883
50
194.80314
51
222.0412631
0
ARC
8
DEFAULT_255_1_234
10
11.4837357
20
14.9019116
40
0.2343055
50
221.5417084
51
268.8614402
0
ARC
8
DEFAULT_255_1_234
10
11.4910352
20
14.9695686
40
0.3021528
50
267.732405
51
270.0097136
0
ARC
8
DEFAULT_255_1_234
10
11.4928162
20
14.9897105
40
0.3222994
50
269.6924892
51
280.4117579
0
ARC
8
DEFAULT_255_1_234
10
11.5104569
20
14.8978193
40
0.2287344
50
280.2255091
51
298.6338936
0
ARC
8
DEFAULT_255_1_234
10
11.5221361
20
14.8734223
40
0.2017294
50
299.0430333
51
300.4643464
0
ARC
8
DEFAULT_255_1_234
10
11.4541366
20
14.9868038
40
0.3339357
50
300.6577328
51
322.0378878
0
ARC
8
DEFAULT_255_1_234
10
11.4190905
20
15.0172021
40
0.3802736
50
321.6750233
51
322.3046845
0
ARC
8
DEFAULT_255_1_234
10
11.5121867
20
14.900537
40
0.3520454
50
276.9728461
51
328.0035423
0
ARC
8
DEFAULT_255_1_234
10
11.484492
20
15.0485841
40
0.5024498
50
269.8361028
51
278.0581756
0
ARC
8
DEFAULT_255_1_234
10
11.4617657
20
15.1230757
40
0.202159
50
89.2018686
51
117.2851756
0
ARC
8
DEFAULT_255_1_234
10
11.4670826
20
15.1188752
40
0.2083484
50
118.0551165
51
137.4540413
0
ARC
8
DEFAULT_255_1_234
10
11.5045566
20
15.0848304
40
0.2589774
50
137.5109581
51
158.8516286
0
ARC
8
DEFAULT_255_1_234
10
11.6183402
20
15.0389074
40
0.38167
50
158.5845963
51
170.1721436
0
ARC
8
DEFAULT_255_1_234
10
11.7352791
20
15.0156823
40
0.5008657
50
169.8376422
51
173.0566086
0
ARC
8
DEFAULT_255_1_234
10
11.2655865
20
15.0667509
40
0.4083467
50
2.9091802
51
12.8847116
0
ARC
8
DEFAULT_255_1_234
10
11.4026541
20
15.0990101
40
0.2675383
50
12.6957781
51
28.6404489
0
ARC
8
DEFAULT_255_1_234
10
11.4568212
20
15.1270458
40
0.2065654
50
29.0169854
51
41.1487595
0
ARC
8
DEFAULT_255_1_234
10
11.4770997
20
15.1447003
40
0.1796786
50
41.1646065
51
85.0013516
0
ARC
8
DEFAULT_255_1_234
10
11.4650094
20
15.0712431
40
0.2539726
50
83.7280015
51
90.0964893
0
LINE
8
DEFAULT_255_1_234
10
12.4139332
20
15.4360531
11
12.4139332
21
15.2979072
0
LINE
8
DEFAULT_255_1_234
10
12.1424604
20
15.1790375
11
12.1424604
21
14.5622
0
LINE
8
DEFAULT_255_1_234
10
12.1424604
20
14.5622
11
11.9938732
21
14.5622
0
LINE
8
DEFAULT_255_1_234
10
11.9938732
20
14.5622
11
11.9938732
21
15.4312341
0
LINE
8
DEFAULT_255_1_234
10
11.9938732
20
15.4312341
11
12.1384445
21
15.4312341
0
LINE
8
DEFAULT_255_1_234
10
12.1384445
20
15.4312341
11
12.1408541
21
15.3308374
0
ARC
8
DEFAULT_255_1_234
10
12.3472737
20
14.8919342
40
0.4114092
50
80.6754243
51
86.8932892
0
ARC
8
DEFAULT_255_1_234
10
12.3412271
20
14.79517
40
0.5083596
50
86.8038578
51
90.0431435
0
ARC
8
DEFAULT_255_1_234
10
12.3375252
20
15.0408866
40
0.2626638
50
89.2759698
51
106.6213787
0
ARC
8
DEFAULT_255_1_234
10
12.3170816
20
15.115183
40
0.1856317
50
107.1346045
51
157.6458115
0
ARC
8
DEFAULT_255_1_234
10
12.3862418
20
15.0768311
40
0.2643398
50
155.6586782
51
157.2539184
0
ARC
8
DEFAULT_255_1_234
10
12.365762
20
15.1937157
40
0.2634121
50
127.8165941
51
148.6302098
0
ARC
8
DEFAULT_255_1_234
10
12.3404089
20
15.2197218
40
0.2273596
50
91.3329982
51
126.7875809
0
ARC
8
DEFAULT_255_1_234
10
12.3480029
20
15.1482195
40
0.299078
50
89.986594
51
92.4688449
0
ARC
8
DEFAULT_255_1_234
10
12.3488424
20
15.1757078
40
0.2715908
50
85.3589899
51
90.1623399
0
ARC
8
DEFAULT_255_1_234
10
12.357294
20
15.2761164
40
0.1708278
50
78.401942
51
85.4594656
0
ARC
8
DEFAULT_255_1_234
10
12.3717824
20
15.3452236
40
0.1002194
50
67.7858312
51
78.5728455
0
ARC
8
DEFAULT_255_1_234
10
12.3825676
20
15.3731887
40
0.0702548
50
63.4835954
51
67.3062642
0
LINE
8
DEFAULT_255_1_234
10
12.7287773
20
15.7316211
11
12.7287773
21
14.6882983
0
LINE
8
DEFAULT_255_1_234
10
12.7287773
20
14.6882983
11
13.2829672
21
14.6882983
0
LINE
8
DEFAULT_255_1_234
10
13.2829672
20
14.6882983
11
13.2829672
21
14.5622
0
LINE
8
DEFAULT_255_1_234
10
13.2829672
20
14.5622
11
12.5737647
21
14.5622
0
LINE
8
DEFAULT_255_1_234
10
12.5737647
20
14.5622
11
12.5737647
21
15.7316211
0
LINE
8
DEFAULT_255_1_234
10
12.5737647
20
15.7316211
11
12.7287773
21
15.7316211
0
LINE
8
DEFAULT_255_1_234
10
13.3962147
20
14.9943075
11
13.3962147
21
15.0047488
0
LINE
8
DEFAULT_255_1_234
10
14.187341
20
14.9975202
11
14.187341
21
14.987079
0
ARC
8
DEFAULT_255_1_234
10
13.9548327
20
15.0079837
40
0.5586273
50
166.3003825
51
180.3317926
0
ARC
8
DEFAULT_255_1_234
10
13.8685486
20
15.0272964
40
0.4702272
50
153.8608245
51
166.0967125
0
ARC
8
DEFAULT_255_1_234
10
13.8019889
20
15.062975
40
0.3947658
50
135.1316692
51
154.253643
0
ARC
8
DEFAULT_255_1_234
10
13.7741448
20
15.0875666
40
0.3576898
50
121.7044358
51
134.776924
0
ARC
8
DEFAULT_255_1_234
10
13.7808442
20
15.0746867
40
0.3721701
50
93.4002104
51
121.5398234
0
ARC
8
DEFAULT_255_1_234
10
13.7903398
20
14.9921228
40
0.4551749
50
89.9706281
51
93.9769836
0
ARC
8
DEFAULT_255_1_234
10
13.795049
20
15.0311362
40
0.4161854
50
71.3323442
51
90.6161982
0
ARC
8
DEFAULT_255_1_234
10
13.8113186
20
15.0913578
40
0.3539455
50
41.1815071
51
70.707185
0
ARC
8
DEFAULT_255_1_234
10
13.7635586
20
15.0479919
40
0.4184468
50
12.1971897
51
41.3445735
0
ARC
8
DEFAULT_255_1_234
10
13.5709594
20
15.0021425
40
0.616399
50
359.5703439
51
12.5804035
0
ARC
8
DEFAULT_255_1_234
10
13.6182669
20
14.9839116
40
0.5690829
50
347.0197749
51
0.3188898
0
ARC
8
DEFAULT_255_1_234
10
13.7141171
20
14.9632808
40
0.4710501
50
334.3504053
51
346.846361
0
ARC
8
DEFAULT_255_1_234
10
13.7986594
20
14.9193805
40
0.3758475
50
310.422922
51
334.8045033
0
ARC
8
DEFAULT_255_1_234
10
13.806842
20
14.9129782
40
0.3656736
50
301.8486886
51
310.097356
0
ARC
8
DEFAULT_255_1_234
10
13.8036146
20
14.9205638
40
0.3738224
50
274.307774
51
301.655379
0
ARC
8
DEFAULT_255_1_234
10
13.7925453
20
15.0083361
40
0.4621997
50
269.9546461
51
274.8588071
0
ARC
8
DEFAULT_255_1_234
10
13.7876387
20
14.9582249
40
0.4121134
50
250.888809
51
270.631312
0
ARC
8
DEFAULT_255_1_234
10
13.7726307
20
14.9023277
40
0.3544073
50
221.1701932
51
250.2227191
0
ARC
8
DEFAULT_255_1_234
10
13.8210461
20
14.9464439
40
0.4198961
50
191.6263638
51
221.3526367
0
ARC
8
DEFAULT_255_1_234
10
14.0098457
20
14.9901329
40
0.6136451
50
179.610213
51
192.0693181
0
ARC
8
DEFAULT_255_1_234
10
14.0521685
20
14.9838633
40
0.5065736
50
179.636298
51
190.6162791
0
ARC
8
DEFAULT_255_1_234
10
13.8879353
20
14.951859
40
0.3392576
50
190.4136628
51
208.7170242
0
ARC
8
DEFAULT_255_1_234
10
13.8368977
20
14.9265366
40
0.2823401
50
209.1867941
51
217.4225593
0
ARC
8
DEFAULT_255_1_234
10
13.7839811
20
14.8799558
40
0.2120636
50
216.1156896
51
265.2575835
0
ARC
8
DEFAULT_255_1_234
10
13.791896
20
14.9373109
40
0.2698952
50
264.5897417
51
270.0601757
0
ARC
8
DEFAULT_255_1_234
10
13.795202
20
14.8993185
40
0.2319225
50
269.2532621
51
291.8792492
0
ARC
8
DEFAULT_255_1_234
10
13.7981242
20
14.8815238
40
0.2143562
50
292.9269754
51
323.1776747
0
ARC
8
DEFAULT_255_1_234
10
13.7588064
20
14.9163452
40
0.2667346
50
322.2518483
51
323.0930371
0
ARC
8
DEFAULT_255_1_234
10
13.7293723
20
14.934499
40
0.3011886
50
323.6941278
51
343.8493282
0
ARC
8
DEFAULT_255_1_234
10
13.5715266
20
14.982535
40
0.4661719
50
343.5748474
51
355.0079071
0
ARC
8
DEFAULT_255_1_234
10
13.3707511
20
15.0033424
40
0.6680042
50
354.7285225
51
0.1206288
0
ARC
8
DEFAULT_255_1_234
10
13.5475977
20
15.0079751
40
0.4911667
50
359.623636
51
11.2015604
0
ARC
8
DEFAULT_255_1_234
10
13.7010205
20
15.039564
40
0.3345323
50
10.9989411
51
30.8319188
0
ARC
8
DEFAULT_255_1_234
10
13.7406077
20
15.0604297
40
0.2898553
50
31.3008956
51
37.3959224
0
ARC
8
DEFAULT_255_1_234
10
13.7902656
20
15.1023653
40
0.2249582
50
36.5915954
51
62.2442953
0
ARC
8
DEFAULT_255_1_234
10
13.7949109
20
15.1020602
40
0.2231053
50
63.3365542
51
89.7195421
0
ARC
8
DEFAULT_255_1_234
10
13.7905963
20
15.0451884
40
0.2800267
50
88.8936788
51
90.0047485
0
ARC
8
DEFAULT_255_1_234
10
13.7874322
20
15.1024787
40
0.2227586
50
89.1921125
51
114.7099455
0
ARC
8
DEFAULT_255_1_234
10
13.7903086
20
15.1062628
40
0.2205633
50
115.7997161
51
142.2900762
0
ARC
8
DEFAULT_255_1_234
10
13.8341819
20
15.0672658
40
0.2791541
50
141.4658779
51
142.3795754
0
ARC
8
DEFAULT_255_1_234
10
13.8450723
20
15.0629557
40
0.2904292
50
143.0175714
51
163.234115
0
ARC
8
DEFAULT_255_1_234
10
14.0028896
20
15.0130054
40
0.4559523
50
162.9447461
51
174.3732162
0
ARC
8
DEFAULT_255_1_234
10
14.217471
20
14.9889143
40
0.6718682
50
174.1228657
51
180.1565175
0
LINE
8
DEFAULT_255_1_234
10
14.9294736
20
15.3348532
11
14.9367021
21
15.4312341
0
LINE
8
DEFAULT_255_1_234
10
14.9367021
20
15.4312341
11
15.0724385
21
15.4312341
0
LINE
8
DEFAULT_255_1_234
10
15.0724385
20
15.4312341
11
15.0724385
21
14.5830825
0
LINE
8
DEFAULT_255_1_234
10
14.3825122
20
14.3702415
11
14.4596169
21
14.4593938
0
LINE
8
DEFAULT_255_1_234
10
14.9230482
20
14.5742476
11
14.9230482
21
14.6489428
0
LINE
8
DEFAULT_255_1_234
10
14.9230482
20
14.7999395
11
14.9230482
21
15.1967073
0
ARC
8
DEFAULT_255_1_234
10
15.0529184
20
15.008267
40
0.7145938
50
169.8803029
51
180.346492
0
ARC
8
DEFAULT_255_1_234
10
14.8175956
20
15.0519732
40
0.4752555
50
152.8532592
51
170.0826994
0
ARC
8
DEFAULT_255_1_234
10
14.734273
20
15.0914298
40
0.3831198
50
142.0149503
51
152.4184154
0
ARC
8
DEFAULT_255_1_234
10
14.6705687
20
15.1494197
40
0.2972906
50
94.3317211
51
143.267544
0
ARC
8
DEFAULT_255_1_234
10
14.6809586
20
15.0711614
40
0.3761364
50
89.949086
51
95.0094918
0
ARC
8
DEFAULT_255_1_234
10
14.6851156
20
15.0870946
40
0.3602233
50
72.9495766
51
90.6080422
0
ARC
8
DEFAULT_255_1_234
10
14.7056262
20
15.1613804
40
0.2831969
50
37.7742493
51
72.5100279
0
ARC
8
DEFAULT_255_1_234
10
14.6136175
20
14.5792461
40
0.4588371
50
346.3654765
51
0.4790689
0
ARC
8
DEFAULT_255_1_234
10
14.7503999
20
14.5444784
40
0.3177173
50
314.3365179
51
346.6439967
0
ARC
8
DEFAULT_255_1_234
10
14.7401901
20
14.558812
40
0.3351156
50
280.7143003
51
313.8723582
0
ARC
8
DEFAULT_255_1_234
10
14.7066554
20
14.7082406
40
0.4882011
50
269.662739
51
281.3210136
0
ARC
8
DEFAULT_255_1_234
10
14.7050233
20
14.667007
40
0.4469607
50
245.5258041
51
269.8408437
0
ARC
8
DEFAULT_255_1_234
10
14.6668789
20
14.5954537
40
0.3660692
50
232.6665166
51
246.3199597
0
ARC
8
DEFAULT_255_1_234
10
14.6184583
20
14.5312155
40
0.2856276
50
214.3037329
51
232.5747698
0
ARC
8
DEFAULT_255_1_234
10
14.7302764
20
14.6737759
40
0.3452771
50
218.3818001
51
236.3658697
0
ARC
8
DEFAULT_255_1_234
10
14.6902588
20
14.6179637
40
0.2766535
50
236.8638847
51
270.6382346
0
ARC
8
DEFAULT_255_1_234
10
14.6957419
20
14.6510542
40
0.3097363
50
269.5557741
51
282.3971413
0
ARC
8
DEFAULT_255_1_234
10
14.7193494
20
14.5495559
40
0.2055403
50
282.04403
51
308.3081445
0
ARC
8
DEFAULT_255_1_234
10
14.7278892
20
14.5359365
40
0.1895677
50
308.8344832
51
315.2032883
0
ARC
8
DEFAULT_255_1_234
10
14.7200465
20
14.541677
40
0.199183
50
315.6210926
51
345.6795494
0
ARC
8
DEFAULT_255_1_234
10
14.6221352
20
14.5689308
40
0.3008009
50
345.2625808
51
358.6313382
0
ARC
8
DEFAULT_255_1_234
10
14.5332774
20
14.5741622
40
0.3897707
50
358.1745328
51
0.0125581
0
ARC
8
DEFAULT_255_1_234
10
14.7017432
20
14.8402802
40
0.2925507
50
275.695063
51
319.1537421
0
ARC
8
DEFAULT_255_1_234
10
14.6805576
20
14.9626945
40
0.4165589
50
269.8801937
51
276.923904
0
ARC
8
DEFAULT_255_1_234
10
14.6752482
20
14.851705
40
0.3056007
50
244.0749417
51
270.8321594
0
ARC
8
DEFAULT_255_1_234
10
14.6827595
20
14.8537057
40
0.3107397
50
217.7817538
51
242.9905588
0
ARC
8
DEFAULT_255_1_234
10
14.7438153
20
14.9079252
40
0.3922508
50
217.5213304
51
218.5773048
0
ARC
8
DEFAULT_255_1_234
10
14.7708685
20
14.9236333
40
0.4232938
50
195.3495212
51
216.9774018
0
ARC
8
DEFAULT_255_1_234
10
14.9731699
20
14.9824389
40
0.6339531
50
183.9386736
51
195.634887
0
ARC
8
DEFAULT_255_1_234
10
15.2007999
20
15.0028851
40
0.8624629
50
179.9295504
51
184.2550478
0
ARC
8
DEFAULT_255_1_234
10
15.0686412
20
14.9840275
40
0.5809212
50
179.6990322
51
188.5748787
0
ARC
8
DEFAULT_255_1_234
10
14.867323
20
14.9525858
40
0.377167
50
188.411837
51
202.0556851
0
ARC
8
DEFAULT_255_1_234
10
14.770446
20
14.914553
40
0.2731001
50
202.2924333
51
215.4475715
0
ARC
8
DEFAULT_255_1_234
10
14.7060087
20
14.8646537
40
0.191695
50
214.4673484
51
264.336154
0
ARC
8
DEFAULT_255_1_234
10
14.7162027
20
14.9283255
40
0.2560911
50
263.4724496
51
270.0961704
0
ARC
8
DEFAULT_255_1_234
10
14.7202229
20
14.913392
40
0.2411839
50
269.1470351
51
291.7977507
0
ARC
8
DEFAULT_255_1_234
10
14.7264663
20
14.8854994
40
0.2130159
50
293.0244875
51
327.6231489
0
ARC
8
DEFAULT_255_1_234
10
14.6556844
20
14.9372511
40
0.3005627
50
326.5166824
51
332.8160514
0
ARC
8
DEFAULT_255_1_234
10
14.6907878
20
15.0732491
40
0.2630339
50
27.9929136
51
47.6313992
0
ARC
8
DEFAULT_255_1_234
10
14.7269402
20
15.1076486
40
0.2132848
50
48.5793389
51
88.624502
0
ARC
8
DEFAULT_255_1_234
10
14.7183248
20
15.0327538
40
0.2884455
50
87.2706405
51
90.0170635
0
ARC
8
DEFAULT_255_1_234
10
14.7154572
20
15.098645
40
0.2225717
50
89.2839171
51
110.1848324
0
ARC
8
DEFAULT_255_1_234
10
14.7093059
20
15.125227
40
0.1955293
50
111.1807684
51
145.0424799
0
ARC
8
DEFAULT_255_1_234
10
14.7199839
20
15.112955
40
0.2113491
50
143.9743769
51
144.1060945
0
ARC
8
DEFAULT_255_1_234
10
14.7742806
20
15.077775
40
0.2759807
50
144.7982748
51
162.8715388
0
ARC
8
DEFAULT_255_1_234
10
14.9437456
20
15.0232842
40
0.453983
50
162.5984223
51
173.3418672
0
ARC
8
DEFAULT_255_1_234
10
15.2105234
20
14.9901851
40
0.7228019
50
173.1877442
51
180.2462216
0
LINE
8
DEFAULT_255_1_234
10
15.457962
20
15.4312341
11
15.457962
21
14.5622
0
LINE
8
DEFAULT_255_1_234
10
15.457962
20
14.5622
11
15.3093748
21
14.5622
0
LINE
8
DEFAULT_255_1_234
10
15.3093748
20
14.5622
11
15.3093748
21
15.4312341
0
LINE
8
DEFAULT_255_1_234
10
15.3093748
20
15.4312341
11
15.457962
21
15.4312341
0
ARC
8
DEFAULT_255_1_234
10
15.3951897
20
15.6626889
40
0.097867
50
161.415052
51
180.5526306
0
ARC
8
DEFAULT_255_1_234
10
15.3827675
20
15.6661077
40
0.0850062
50
138.1827368
51
160.9307106
0
ARC
8
DEFAULT_255_1_234
10
15.371762
20
15.6756588
40
0.0704362
50
104.6368899
51
138.0039868
0
ARC
8
DEFAULT_255_1_234
10
15.3824775
20
15.6389963
40
0.1086221
50
92.0600725
51
105.2189128
0
ARC
8
DEFAULT_255_1_234
10
15.3848124
20
15.6047117
40
0.1429728
50
89.9756393
51
92.5012496
0
ARC
8
DEFAULT_255_1_234
10
15.3858143
20
15.6272731
40
0.1204151
50
78.0235316
51
90.4478182
0
ARC
8
DEFAULT_255_1_234
10
15.3950235
20
15.6686295
40
0.0780493
50
55.051506
51
78.3369085
0
ARC
8
DEFAULT_255_1_234
10
15.4000509
20
15.6770711
40
0.0682538
50
42.0501187
51
54.4513741
0
ARC
8
DEFAULT_255_1_234
10
15.3865376
20
15.6646798
40
0.0865878
50
1.7497075
51
42.1496013
0
ARC
8
DEFAULT_255_1_234
10
15.3610709
20
15.6617738
40
0.1121515
50
359.9852656
51
2.8364544
0
ARC
8
DEFAULT_255_1_234
10
15.3776701
20
15.6608229
40
0.0955566
50
342.1070653
51
0.552888
0
ARC
8
DEFAULT_255_1_234
10
15.3919399
20
15.6568904
40
0.0807713
50
316.7107116
51
341.6516965
0
ARC
8
DEFAULT_255_1_234
10
15.3986436
20
15.6508823
40
0.0717724
50
285.4397031
51
316.5324284
0
ARC
8
DEFAULT_255_1_234
10
15.3876353
20
15.6874554
40
0.1099597
50
272.3547054
51
285.8953117
0
ARC
8
DEFAULT_255_1_234
10
15.3849511
20
15.7240048
40
0.1465932
50
269.9695369
51
272.8160237
0
ARC
8
DEFAULT_255_1_234
10
15.3839692
20
15.7020863
40
0.1246779
50
258.8431134
51
270.4153935
0
ARC
8
DEFAULT_255_1_234
10
15.3749735
20
15.6585414
40
0.0802162
50
238.5431189
51
259.1288175
0
ARC
8
DEFAULT_255_1_234
10
15.3681619
20
15.6461856
40
0.0661247
50
222.5062634
51
237.9906969
0
ARC
8
DEFAULT_255_1_234
10
15.3809207
20
15.6577889
40
0.0833707
50
184.1069131
51
222.460413
0
ARC
8
DEFAULT_255_1_234
10
15.4078448
20
15.6616349
40
0.1105176
50
179.9429482
51
185.0960898
0
LINE
8
DEFAULT_255_1_234
10
16.2490882
20
14.8360823
11
16.3896436
21
14.8360823
0
LINE
8
DEFAULT_255_1_234
10
15.6571491
20
14.9886853
11
15.6571491
21
15.0135837
0
LINE
8
DEFAULT_255_1_234
10
16.3896436
20
15.1324534
11
16.2490882
21
15.1324534
0
LINE
8
DEFAULT_255_1_234
10
15.8057362
20
15.0079615
11
15.8057362
21
14.9798504
0
ARC
8
DEFAULT_255_1_234
10
16.0478917
20
14.8814121
40
0.2140268
50
269.0327816
51
309.2224514
0
ARC
8
DEFAULT_255_1_234
10
16.0688672
20
14.8599108
40
0.1841255
50
308.396669
51
329.6984113
0
ARC
8
DEFAULT_255_1_234
10
16.0826527
20
14.849482
40
0.166974
50
330.401383
51
355.3970571
0
ARC
8
DEFAULT_255_1_234
10
16.1283393
20
14.8512082
40
0.2617417
50
329.2357853
51
356.6870514
0
ARC
8
DEFAULT_255_1_234
10
16.0733415
20
14.8802971
40
0.3238945
50
324.8706984
51
329.7905871
0
ARC
8
DEFAULT_255_1_234
10
16.0655133
20
14.8870106
40
0.3341614
50
298.8769168
51
324.7016144
0
ARC
8
DEFAULT_255_1_234
10
16.0323325
20
14.9398917
40
0.3965068
50
296.9023738
51
299.385174
0
ARC
8
DEFAULT_255_1_234
10
16.0452938
20
14.9111422
40
0.365007
50
269.8406811
51
297.1299281
0
ARC
8
DEFAULT_255_1_234
10
16.0399595
20
14.9749407
40
0.4288259
50
253.315473
51
270.5771285
0
ARC
8
DEFAULT_255_1_234
10
16.015263
20
14.8855739
40
0.3361372
50
221.1002312
51
252.9744583
0
ARC
8
DEFAULT_255_1_234
10
16.0612627
20
14.925059
40
0.3967576
50
194.5394537
51
221.0302238
0
ARC
8
DEFAULT_255_1_234
10
16.2461448
20
14.9765952
40
0.5886672
50
182.0499201
51
194.8773585
0
ARC
8
DEFAULT_255_1_234
10
16.4231646
20
14.988406
40
0.7660157
50
179.9791086
51
182.4591564
0
ARC
8
DEFAULT_255_1_234
10
16.249369
20
15.0165498
40
0.5922274
50
168.614861
51
180.2869651
0
ARC
8
DEFAULT_255_1_234
10
16.1291835
20
15.0401269
40
0.4697532
50
154.9162259
51
168.5402336
0
ARC
8
DEFAULT_255_1_234
10
16.0370343
20
15.085663
40
0.3669966
50
133.5746694
51
155.2558665
0
ARC
8
DEFAULT_255_1_234
10
16.0207502
20
15.0995467
40
0.3457206
50
122.0165146
51
133.2055214
0
ARC
8
DEFAULT_255_1_234
10
16.024334
20
15.0907361
40
0.355095
50
97.8731644
51
121.7531281
0
ARC
8
DEFAULT_255_1_234
10
16.0422423
20
14.9850159
40
0.4622833
50
89.8471353
51
98.2769494
0
ARC
8
DEFAULT_255_1_234
10
16.0471176
20
15.0460091
40
0.401305
50
73.3760412
51
90.5199766
0
ARC
8
DEFAULT_255_1_234
10
16.0667539
20
15.1182516
40
0.3264695
50
47.7085968
51
73.0509704
0
ARC
8
DEFAULT_255_1_234
10
16.0797409
20
15.1295128
40
0.309407
50
3.7443473
51
48.0843753
0
ARC
8
DEFAULT_255_1_234
10
15.9810359
20
15.1137614
40
0.4090351
50
2.6192045
51
5.0432185
0
ARC
8
DEFAULT_255_1_234
10
16.0267212
20
15.1177592
40
0.2228519
50
3.780656
51
23.9356886
0
ARC
8
DEFAULT_255_1_234
10
16.0495828
20
15.1258155
40
0.198697
50
24.4869552
51
46.9440088
0
ARC
8
DEFAULT_255_1_234
10
16.0496679
20
15.1281484
40
0.1969404
50
46.498716
51
89.3298174
0
ARC
8
DEFAULT_255_1_234
10
16.0435033
20
15.0686723
40
0.2565428
50
88.1083975
51
90.0061569
0
ARC
8
DEFAULT_255_1_234
10
16.0407463
20
15.0740759
40
0.251154
50
89.3773333
51
107.2071161
0
ARC
8
DEFAULT_255_1_234
10
16.0264586
20
15.125819
40
0.1975072
50
107.6883219
51
143.3583002
0
ARC
8
DEFAULT_255_1_234
10
16.0831969
20
15.0831873
40
0.2684762
50
143.2846717
51
162.935323
0
ARC
8
DEFAULT_255_1_234
10
16.2337571
20
15.0348652
40
0.4265927
50
162.6650068
51
174.0805419
0
ARC
8
DEFAULT_255_1_234
10
16.448041
20
15.0099636
40
0.6423078
50
173.8423985
51
180.1785963
0
ARC
8
DEFAULT_255_1_234
10
16.393251
20
14.9768039
40
0.5875227
50
179.7028978
51
188.2277152
0
ARC
8
DEFAULT_255_1_234
10
16.1830812
20
14.9453247
40
0.3750127
50
188.0629871
51
201.1160002
0
ARC
8
DEFAULT_255_1_234
10
16.073301
20
14.9034238
40
0.2575093
50
201.2187293
51
216.9761968
0
ARC
8
DEFAULT_255_1_234
10
16.0281573
20
14.8695993
40
0.2010998
50
217.0135981
51
265.2056839
0
ARC
8
DEFAULT_255_1_234
10
16.0437433
20
14.9617695
40
0.2943543
50
263.681807
51
270.104251
0
LINE
8
DEFAULT_255_1_234
10
16.9872049
20
15.7316211
11
17.186392
21
15.7316211
0
LINE
8
DEFAULT_255_1_234
10
17.186392
20
15.7316211
11
17.5687028
21
14.7774506
0
LINE
8
DEFAULT_255_1_234
10
17.5687028
20
14.7774506
11
17.9510135
21
15.7316211
0
LINE
8
DEFAULT_255_1_234
10
17.9510135
20
15.7316211
11
18.1510038
21
15.7316211
0
LINE
8
DEFAULT_255_1_234
10
18.1510038
20
15.7316211
11
18.1510038
21
14.5622
0
LINE
8
DEFAULT_255_1_234
10
18.1510038
20
14.5622
11
17.9967944
21
14.5622
0
LINE
8
DEFAULT_255_1_234
10
17.9967944
20
14.5622
11
17.9967944
21
15.0175996
0
LINE
8
DEFAULT_255_1_234
10
17.9967944
20
15.0175996
11
18.0112516
21
15.5091419
0
LINE
8
DEFAULT_255_1_234
10
18.0112516
20
15.5091419
11
17.6273345
21
14.5622
0
LINE
8
DEFAULT_255_1_234
10
17.6273345
20
14.5622
11
17.5092679
21
14.5622
0
LINE
8
DEFAULT_255_1_234
10
17.5092679
20
14.5622
11
17.126154
21
15.5067324
0
LINE
8
DEFAULT_255_1_234
10
17.126154
20
15.5067324
11
17.1414143
21
15.0175996
0
LINE
8
DEFAULT_255_1_234
10
17.1414143
20
15.0175996
11
17.1414143
21
14.5622
0
LINE
8
DEFAULT_255_1_234
10
17.1414143
20
14.5622
11
16.9872049
21
14.5622
0
LINE
8
DEFAULT_255_1_234
10
16.9872049
20
14.5622
11
16.9872049
21
15.7316211
0
LINE
8
DEFAULT_255_1_234
10
18.5782923
20
15.7316211
11
18.5782923
21
14.6882983
0
LINE
8
DEFAULT_255_1_234
10
18.5782923
20
14.6882983
11
19.1324822
21
14.6882983
0
LINE
8
DEFAULT_255_1_234
10
19.1324822
20
14.6882983
11
19.1324822
21
14.5622
0
LINE
8
DEFAULT_255_1_234
10
19.1324822
20
14.5622
11
18.4232797
21
14.5622
0
LINE
8
DEFAULT_255_1_234
10
18.4232797
20
14.5622
11
18.4232797
21
15.7316211
0
LINE
8
DEFAULT_255_1_234
10
18.4232797
20
15.7316211
11
18.5782923
21
15.7316211
0
LINE
8
DEFAULT_255_1_234
10
19.4569645
20
15.1179963
11
19.3380947
21
15.1485169
0
LINE
8
DEFAULT_255_1_234
10
19.3380947
20
15.1485169
11
19.3975296
21
15.7316211
0
LINE
8
DEFAULT_255_1_234
10
19.3975296
20
15.7316211
11
19.9966973
21
15.7316211
0
LINE
8
DEFAULT_255_1_234
10
19.9966973
20
15.7316211
11
19.9966973
21
15.5942784
0
LINE
8
DEFAULT_255_1_234
10
19.9966973
20
15.5942784
11
19.5236279
21
15.5942784
0
LINE
8
DEFAULT_255_1_234
10
19.5236279
20
15.5942784
11
19.4882882
21
15.2754184
0
LINE
8
DEFAULT_255_1_234
10
19.2963297
20
14.8698156
11
19.4368851
21
14.8698156
0
LINE
8
DEFAULT_255_1_234
10
19.49632
20
15.1501232
11
19.4569645
21
15.1179963
0
ARC
8
DEFAULT_255_1_234
10
19.6737666
20
14.957423
40
0.3681349
50
93.7182161
51
120.2538958
0
ARC
8
DEFAULT_255_1_234
10
19.6831929
20
14.8766394
40
0.449379
50
89.9660152
51
94.2496022
0
ARC
8
DEFAULT_255_1_234
10
19.6872663
20
14.9355549
40
0.390482
50
73.8043271
51
90.5585896
0
ARC
8
DEFAULT_255_1_234
10
19.710756
20
15.0213602
40
0.3015334
50
41.3071453
51
73.5430202
0
ARC
8
DEFAULT_255_1_234
10
19.6691388
20
14.9855324
40
0.3564457
50
13.5075983
51
41.2174222
0
ARC
8
DEFAULT_255_1_234
10
19.5049591
20
14.9425486
40
0.5261351
50
1.1331335
51
13.8829381
0
ARC
8
DEFAULT_255_1_234
10
19.363796
20
14.9349665
40
0.6674378
50
359.9919444
51
1.544251
0
ARC
8
DEFAULT_255_1_234
10
19.4914786
20
14.930828
40
0.5397702
50
347.8572367
51
0.4293338
0
ARC
8
DEFAULT_255_1_234
10
19.6665104
20
14.8911736
40
0.3603188
50
323.673004
51
348.1672506
0
ARC
8
DEFAULT_255_1_234
10
19.6959612
20
14.8732168
40
0.3259678
50
316.8171152
51
323.1492751
0
ARC
8
DEFAULT_255_1_234
10
19.7020801
20
14.869546
40
0.3189975
50
281.8396411
51
316.5457803
0
ARC
8
DEFAULT_255_1_234
10
19.6645065
20
15.0250762
40
0.4789527
50
269.5770101
51
282.4214771
0
ARC
8
DEFAULT_255_1_234
10
19.6573877
20
15.0037125
40
0.45759
50
256.2427136
51
270.4486331
0
ARC
8
DEFAULT_255_1_234
10
19.6274779
20
14.8837229
40
0.3339303
50
228.9023911
51
256.3314342
0
ARC
8
DEFAULT_255_1_234
10
19.6201011
20
14.8720746
40
0.32031
50
193.753695
51
228.5271154
0
ARC
8
DEFAULT_255_1_234
10
19.7438965
20
14.90838
40
0.4492253
50
184.924711
51
194.497588
0
ARC
8
DEFAULT_255_1_234
10
19.7631532
20
14.9119591
40
0.3289787
50
187.3600538
51
198.6732863
0
ARC
8
DEFAULT_255_1_234
10
19.6581826
20
14.8755674
40
0.217884
50
198.4451669
51
217.794479
0
ARC
8
DEFAULT_255_1_234
10
19.6286001
20
14.8546085
40
0.1816698
50
218.2887171
51
228.5612368
0
ARC
8
DEFAULT_255_1_234
10
19.6383788
20
14.8677963
40
0.1980329
50
228.9654866
51
258.1234728
0
ARC
8
DEFAULT_255_1_234
10
19.6589498
20
14.9558833
40
0.2884748
50
257.7258293
51
270.401361
0
ARC
8
DEFAULT_255_1_234
10
19.6634385
20
14.9113821
40
0.2439788
50
269.4204404
51
286.4209037
0
ARC
8
DEFAULT_255_1_234
10
19.6782872
20
14.8574657
40
0.1880666
50
286.7251356
51
320.600362
0
ARC
8
DEFAULT_255_1_234
10
19.6399697
20
14.8885595
40
0.2374121
50
320.6712579
51
344.5441685
0
ARC
8
DEFAULT_255_1_234
10
19.5243023
20
14.9225045
40
0.3579479
50
344.2412205
51
356.7357071
0
ARC
8
DEFAULT_255_1_234
10
19.3994172
20
14.9328444
40
0.4832297
50
356.3548756
51
0.0500261
0
ARC
8
DEFAULT_255_1_234
10
19.5330681
20
14.935965
40
0.3495889
50
359.5576869
51
12.953486
0
ARC
8
DEFAULT_255_1_234
10
19.6385578
20
14.9615434
40
0.2410532
50
12.6490276
51
41.6081334
0
ARC
8
DEFAULT_255_1_234
10
19.6615949
20
14.9811321
40
0.2108218
50
41.7850273
51
85.9892764
0
ARC
8
DEFAULT_255_1_234
10
19.6492686
20
14.8998462
40
0.2928454
50
84.6957577
51
90.0676183
0
ARC
8
DEFAULT_255_1_234
10
19.646917
20
14.8329716
40
0.3597255
50
89.6804936
51
99.1614436
0
ARC
8
DEFAULT_255_1_234
10
19.6263801
20
14.9557131
40
0.235281
50
98.9830931
51
113.8908934
0
ARC
8
DEFAULT_255_1_234
10
19.6034211
20
15.0098587
40
0.176479
50
114.1950727
51
127.3641004
0
LINE
8
DEFAULT_255_1_234
10
20.9267726
20
15.2537327
11
20.9267726
21
15.0609709
0
LINE
8
DEFAULT_255_1_234
10
20.1886558
20
15.0408916
11
20.1886558
21
15.2392755
0
LINE
8
DEFAULT_255_1_234
10
20.7781854
20
15.0208123
11
20.7781854
21
15.2641739
0
LINE
8
DEFAULT_255_1_234
10
20.337243
20
15.2754184
11
20.337243
21
15.0376789
0
ARC
8
DEFAULT_255_1_234
10
19.7020615
20
15.0560805
40
1.2247208
50
353.8441951
51
0.2287902
0
ARC
8
DEFAULT_255_1_234
10
20.1660119
20
15.0042806
40
0.7578929
50
344.4934747
51
353.9765454
0
ARC
8
DEFAULT_255_1_234
10
20.4652709
20
14.9191981
40
0.4467846
50
329.2803592
51
344.7472793
0
ARC
8
DEFAULT_255_1_234
10
20.5645534
20
14.8647018
40
0.3336173
50
324.9352394
51
328.6160465
0
ARC
8
DEFAULT_255_1_234
10
20.6022643
20
14.8383427
40
0.2876076
50
280.580143
51
324.9173126
0
ARC
8
DEFAULT_255_1_234
10
20.5621435
20
15.0054099
40
0.4592847
50
269.5977311
51
281.6734359
0
ARC
8
DEFAULT_255_1_234
10
20.5549341
20
14.9934173
40
0.4472986
50
256.6228859
51
270.51044
0
ARC
8
DEFAULT_255_1_234
10
20.5147319
20
14.8385877
40
0.2873874
50
215.8618325
51
257.2788573
0
ARC
8
DEFAULT_255_1_234
10
20.616835
20
14.9070977
40
0.4102928
50
197.9693508
51
215.2623606
0
ARC
8
DEFAULT_255_1_234
10
20.8653466
20
14.9909709
40
0.6725652
50
187.8816417
51
198.2346507
0
ARC
8
DEFAULT_255_1_234
10
21.2611674
20
15.0481079
40
1.0724845
50
180.8976217
51
188.0055519
0
ARC
8
DEFAULT_255_1_234
10
21.5411862
20
15.0584777
40
1.3526448
50
180.7449369
51
181.1510016
0
ARC
8
DEFAULT_255_1_234
10
21.3834591
20
15.2441042
40
1.1948131
50
173.7675579
51
180.231553
0
ARC
8
DEFAULT_255_1_234
10
20.9316738
20
15.2951666
40
0.7401564
50
164.3058563
51
173.9002247
0
ARC
8
DEFAULT_255_1_234
10
20.6404807
20
15.3790656
40
0.4371288
50
148.7922025
51
164.568378
0
ARC
8
DEFAULT_255_1_234
10
20.5453259
20
15.4321929
40
0.3282386
50
144.5883898
51
148.1176286
0
ARC
8
DEFAULT_255_1_234
10
20.5110157
20
15.4561315
40
0.2864044
50
101.6440918
51
144.514236
0
ARC
8
DEFAULT_255_1_234
10
20.5535224
20
15.2872069
40
0.4604934
50
89.5284041
51
102.5819763
0
ARC
8
DEFAULT_255_1_234
10
20.5614311
20
15.2833018
40
0.464401
50
77.0437873
51
90.5081339
0
ARC
8
DEFAULT_255_1_234
10
20.6016313
20
15.4475615
40
0.2953195
50
48.2778575
51
77.4994676
0
ARC
8
DEFAULT_255_1_234
10
20.6088944
20
15.4604746
40
0.2808655
50
36.3142134
51
47.6305865
0
ARC
8
DEFAULT_255_1_234
10
20.5220251
20
15.4019515
40
0.3855453
50
18.2931786
51
35.6769206
0
ARC
8
DEFAULT_255_1_234
10
20.267701
20
15.3146593
40
0.654423
50
8.024666
51
18.5605216
0
ARC
8
DEFAULT_255_1_234
10
19.851393
20
15.2531792
40
1.0752407
50
1.1274072
51
8.1718305
0
ARC
8
DEFAULT_255_1_234
10
19.5278121
20
15.2404885
40
1.3990231
50
0.5424119
51
1.3863029
0
ARC
8
DEFAULT_255_1_234
10
19.7099499
20
15.2677342
40
1.0682415
50
359.8090433
51
4.9407866
0
ARC
8
DEFAULT_255_1_234
10
20.1309513
20
15.3053113
40
0.6455691
50
4.8362157
51
12.2904523
0
ARC
8
DEFAULT_255_1_234
10
20.4064628
20
15.3666965
40
0.3633074
50
12.0805627
51
23.8173984
0
ARC
8
DEFAULT_255_1_234
10
20.5238333
20
15.4163919
40
0.2358723
50
24.2871213
51
31.3935614
0
ARC
8
DEFAULT_255_1_234
10
20.576303
20
15.4507233
40
0.1732111
50
30.7407893
51
82.4657128
0
ARC
8
DEFAULT_255_1_234
10
20.5583164
20
15.3623691
40
0.263235
50
81.1060089
51
90.2184952
0
ARC
8
DEFAULT_255_1_234
10
20.5547463
20
15.3881924
40
0.2374236
50
89.3806855
51
105.6762551
0
ARC
8
DEFAULT_255_1_234
10
20.5364094
20
15.4548567
40
0.1682847
50
105.7981136
51
149.7388061
0
ARC
8
DEFAULT_255_1_234
10
20.6428172
20
15.390895
40
0.2924306
50
149.4208916
51
163.6286378
0
ARC
8
DEFAULT_255_1_234
10
20.851906
20
15.327125
40
0.5110213
50
163.3763315
51
172.1410975
0
ARC
8
DEFAULT_255_1_234
10
21.1819779
20
15.2798518
40
0.8444586
50
172.0259487
51
178.0703232
0
ARC
8
DEFAULT_255_1_234
10
21.4849869
20
15.2654906
40
1.1477868
50
177.8631668
51
179.5044149
0
ARC
8
DEFAULT_255_1_234
10
21.3777273
20
15.0340389
40
1.0404907
50
179.7995573
51
185.2460446
0
ARC
8
DEFAULT_255_1_234
10
20.9734312
20
14.9957513
40
0.6343885
50
185.1411642
51
193.0079639
0
ARC
8
DEFAULT_255_1_234
10
20.7090785
20
14.9332641
40
0.3627568
50
192.7897626
51
205.2507664
0
ARC
8
DEFAULT_255_1_234
10
20.6044332
20
14.8865415
40
0.2481908
50
205.8005384
51
211.2537509
0
ARC
8
DEFAULT_255_1_234
10
20.5520772
20
14.851458
40
0.1852521
50
210.3789793
51
238.4008143
0
ARC
8
DEFAULT_255_1_234
10
20.5501294
20
14.8561376
40
0.1882621
50
239.6520629
51
265.9793761
0
ARC
8
DEFAULT_255_1_234
10
20.5586495
20
14.9233427
40
0.2559272
50
265.1315437
51
270.060332
0
ARC
8
DEFAULT_255_1_234
10
20.5615273
20
14.8909534
40
0.2235528
50
269.3314664
51
287.2178029
0
ARC
8
DEFAULT_255_1_234
10
20.5753125
20
14.8406279
40
0.1714108
50
287.7958004
51
329.080874
0
ARC
8
DEFAULT_255_1_234
10
20.4795582
20
14.900393
40
0.2842745
50
328.6634704
51
343.3325132
0
ARC
8
DEFAULT_255_1_234
10
20.2622602
20
14.9680863
40
0.5118644
50
343.0499468
51
351.9393422
0
ARC
8
DEFAULT_255_1_234
10
19.9155902
20
15.0191949
40
0.8622784
50
351.8069023
51
357.7959224
0
ARC
8
DEFAULT_255_1_234
10
19.5920458
20
15.0359721
40
1.1862365
50
357.5871873
51
359.2677531
0
LINE
8
DEFAULT_255_1_234
10
4.6607265
20
13.5465276
11
4.6607265
21
13.2051788
0
LINE
8
DEFAULT_255_1_234
10
4.6607265
20
13.2051788
11
4.986815
21
13.2051788
0
LINE
8
DEFAULT_255_1_234
10
4.986815
20
13.2051788
11
4.986815
21
13.0646233
0
LINE
8
DEFAULT_255_1_234
10
4.986815
20
13.0646233
11
4.6607265
21
13.0646233
0
LINE
8
DEFAULT_255_1_234
10
4.6607265
20
13.0646233
11
4.6607265
21
12.6951634
0
LINE
8
DEFAULT_255_1_234
10
4.6607265
20
12.6951634
11
4.5113361
21
12.6951634
0
LINE
8
DEFAULT_255_1_234
10
4.5113361
20
12.6951634
11
4.5113361
21
13.0646233
0
LINE
8
DEFAULT_255_1_234
10
4.5113361
20
13.0646233
11
4.1852476
21
13.0646233
0
LINE
8
DEFAULT_255_1_234
10
4.1852476
20
13.0646233
11
4.1852476
21
13.2051788
0
LINE
8
DEFAULT_255_1_234
10
4.1852476
20
13.2051788
11
4.5113361
21
13.2051788
0
LINE
8
DEFAULT_255_1_234
10
4.5113361
20
13.2051788
11
4.5113361
21
13.5465276
0
LINE
8
DEFAULT_255_1_234
10
4.5113361
20
13.5465276
11
4.6607265
21
13.5465276
0
LINE
8
DEFAULT_255_1_234
10
5.9184967
20
12.6991792
11
5.9184967
21
12.5779
0
LINE
8
DEFAULT_255_1_234
10
5.9184967
20
12.5779
11
5.1522688
21
12.5779
0
LINE
8
DEFAULT_255_1_234
10
5.1522688
20
12.5779
11
5.1522688
21
12.6847221
0
LINE
8
DEFAULT_255_1_234
10
5.1522688
20
12.6847221
11
5.5570685
21
13.1344995
0
LINE
8
DEFAULT_255_1_234
10
5.2783671
20
13.4027595
11
5.12978
21
13.4027595
0
LINE
8
DEFAULT_255_1_234
10
5.6446144
20
13.0389218
11
5.3313766
21
12.6991792
0
LINE
8
DEFAULT_255_1_234
10
5.3313766
20
12.6991792
11
5.9184967
21
12.6991792
0
ARC
8
DEFAULT_255_1_234
10
4.2080518
20
14.3274527
40
1.8008286
50
318.5132453
51
320.7828378
0
ARC
8
DEFAULT_255_1_234
10
4.7367492
20
13.8971426
40
1.1191493
50
320.7372736
51
323.9737074
0
ARC
8
DEFAULT_255_1_234
10
5.1287349
20
13.6131361
40
0.6350923
50
323.8961724
51
328.6421089
0
ARC
8
DEFAULT_255_1_234
10
5.3333944
20
13.4869031
40
0.3946393
50
328.8299013
51
331.789948
0
ARC
8
DEFAULT_255_1_234
10
5.4331123
20
13.4354509
40
0.2824501
50
331.4255242
51
352.9364833
0
ARC
8
DEFAULT_255_1_234
10
5.4467623
20
13.4323976
40
0.2685315
50
353.2248685
51
0.0169286
0
ARC
8
DEFAULT_255_1_234
10
5.46775
20
13.434695
40
0.2475536
50
359.4866256
51
15.9339782
0
ARC
8
DEFAULT_255_1_234
10
5.5184485
20
13.4483286
40
0.1950618
50
16.1714718
51
43.5284424
0
ARC
8
DEFAULT_255_1_234
10
5.5261794
20
13.4560573
40
0.184134
50
43.4415429
51
83.1661404
0
ARC
8
DEFAULT_255_1_234
10
5.5127712
20
13.3823771
40
0.258926
50
82.160215
51
90.1505798
0
ARC
8
DEFAULT_255_1_234
10
5.509614
20
13.3286865
40
0.3126255
50
89.5460705
51
102.5418777
0
ARC
8
DEFAULT_255_1_234
10
5.4853226
20
13.4317665
40
0.2067346
50
102.1739365
51
129.2061916
0
ARC
8
DEFAULT_255_1_234
10
5.4774297
20
13.4442094
40
0.1921118
50
129.7279328
51
135.7542026
0
ARC
8
DEFAULT_255_1_234
10
5.4895825
20
13.4345045
40
0.2075944
50
136.175737
51
166.3674722
0
ARC
8
DEFAULT_255_1_234
10
5.5902744
20
13.4075182
40
0.3118201
50
165.9092917
51
178.8683903
0
ARC
8
DEFAULT_255_1_234
10
5.6767606
20
13.4028179
40
0.3983935
50
178.438168
51
180.0083905
0
ARC
8
DEFAULT_255_1_234
10
5.5366208
20
13.4067231
40
0.4068601
50
163.2878735
51
180.5581814
0
ARC
8
DEFAULT_255_1_234
10
5.4564469
20
13.428784
40
0.3237344
50
133.454115
51
162.9470031
0
ARC
8
DEFAULT_255_1_234
10
5.474301
20
13.4098
40
0.349795
50
100.7869394
51
133.4384016
0
ARC
8
DEFAULT_255_1_234
10
5.5090782
20
13.2549319
40
0.5084616
50
89.6605301
51
101.3704185
0
ARC
8
DEFAULT_255_1_234
10
5.5157121
20
13.2610496
40
0.502348
50
78.2171172
51
90.4130393
0
ARC
8
DEFAULT_255_1_234
10
5.5512199
20
13.4234637
40
0.3361092
50
55.9268222
51
78.4888551
0
ARC
8
DEFAULT_255_1_234
10
5.5708639
20
13.4573324
40
0.2970617
50
47.9292255
51
55.4054003
0
ARC
8
DEFAULT_255_1_234
10
5.58102
20
13.4676502
40
0.2825983
50
4.3347696
51
48.0560701
0
ARC
8
DEFAULT_255_1_234
10
5.4714593
20
13.4506601
40
0.393225
50
359.925209
51
5.5967654
0
ARC
8
DEFAULT_255_1_234
10
5.5143485
20
13.4562816
40
0.3503892
50
337.8914096
51
358.9967724
0
ARC
8
DEFAULT_255_1_234
10
5.2429897
20
13.5609706
40
0.6412172
50
326.9135351
51
338.3505194
0
ARC
8
DEFAULT_255_1_234
10
4.8444201
20
13.8164284
40
1.1146189
50
319.6472867
51
327.095818
0
ARC
8
DEFAULT_255_1_234
10
4.4611204
20
14.1326
40
1.6114559
50
317.2586784
51
319.9046139
0
LINE
8
DEFAULT_255_1_234
10
6.7031975
20
13.7473211
11
6.7031975
21
12.970652
0
LINE
8
DEFAULT_255_1_234
10
6.7031975
20
12.970652
11
6.8654386
21
12.970652
0
LINE
8
DEFAULT_255_1_234
10
6.8654386
20
12.970652
11
6.8654386
21
12.8493728
0
LINE
8
DEFAULT_255_1_234
10
6.8654386
20
12.8493728
11
6.7031975
21
12.8493728
0
LINE
8
DEFAULT_255_1_234
10
6.7031975
20
12.8493728
11
6.7031975
21
12.5779
0
LINE
8
DEFAULT_255_1_234
10
6.7031975
20
12.5779
11
6.5538072
21
12.5779
0
LINE
8
DEFAULT_255_1_234
10
6.5538072
20
12.5779
11
6.5538072
21
12.8493728
0
LINE
8
DEFAULT_255_1_234
10
6.5538072
20
12.8493728
11
6.0213029
21
12.8493728
0
LINE
8
DEFAULT_255_1_234
10
6.0213029
20
12.8493728
11
6.0213029
21
12.9369187
0
LINE
8
DEFAULT_255_1_234
10
6.0213029
20
12.9369187
11
6.5449723
21
13.7473211
0
LINE
8
DEFAULT_255_1_234
10
6.5449723
20
13.7473211
11
6.7031975
21
13.7473211
0
LINE
8
DEFAULT_255_1_234
10
6.5361374
20
13.5119912
11
6.1899694
21
12.970652
0
LINE
8
DEFAULT_255_1_234
10
6.1899694
20
12.970652
11
6.5538072
21
12.970652
0
LINE
8
DEFAULT_255_1_234
10
6.5538072
20
12.970652
11
6.5538072
21
13.5441181
0
LINE
8
DEFAULT_255_1_234
10
6.5538072
20
13.5441181
11
6.5361374
21
13.5119912
0
LINE
8
DEFAULT_255_1_234
10
7.0927368
20
13.7473211
11
7.4252508
21
12.7827093
0
LINE
8
DEFAULT_255_1_234
10
7.4252508
20
12.7827093
11
7.7593711
21
13.7473211
0
LINE
8
DEFAULT_255_1_234
10
7.7593711
20
13.7473211
11
7.9280376
21
13.7473211
0
LINE
8
DEFAULT_255_1_234
10
7.9280376
20
13.7473211
11
7.4943237
21
12.5779
0
LINE
8
DEFAULT_255_1_234
10
7.4943237
20
12.5779
11
7.3577842
21
12.5779
0
LINE
8
DEFAULT_255_1_234
10
7.3577842
20
12.5779
11
6.9248735
21
13.7473211
0
LINE
8
DEFAULT_255_1_234
10
6.9248735
20
13.7473211
11
7.0927368
21
13.7473211
0
LINE
8
DEFAULT_255_1_234
10
4.8294484
20
5.3070343
11
4.8294484
21
5.180936
0
LINE
8
DEFAULT_255_1_234
10
4.8294484
20
5.180936
11
4.3226458
21
5.180936
0
LINE
8
DEFAULT_255_1_234
10
4.3226458
20
5.180936
11
4.3226458
21
4.7664983
0
LINE
8
DEFAULT_255_1_234
10
4.3226458
20
4.7664983
11
4.9113722
21
4.7664983
0
LINE
8
DEFAULT_255_1_234
10
4.9113722
20
4.7664983
11
4.9113722
21
4.6404
0
LINE
8
DEFAULT_255_1_234
10
4.9113722
20
4.6404
11
4.1684364
21
4.6404
0
LINE
8
DEFAULT_255_1_234
10
4.1684364
20
4.6404
11
4.1684364
21
5.8098211
0
LINE
8
DEFAULT_255_1_234
10
4.1684364
20
5.8098211
11
4.9033404
21
5.8098211
0
LINE
8
DEFAULT_255_1_234
10
4.9033404
20
5.8098211
11
4.9033404
21
5.6829196
0
LINE
8
DEFAULT_255_1_234
10
4.9033404
20
5.6829196
11
4.3226458
21
5.6829196
0
LINE
8
DEFAULT_255_1_234
10
4.3226458
20
5.6829196
11
4.3226458
21
5.3070343
0
LINE
8
DEFAULT_255_1_234
10
4.3226458
20
5.3070343
11
4.8294484
21
5.3070343
0
LINE
8
DEFAULT_255_1_234
10
5.9273871
20
5.8098211
11
5.9273871
21
5.6829196
0
LINE
8
DEFAULT_255_1_234
10
5.9273871
20
5.6829196
11
5.5515017
21
5.6829196
0
LINE
8
DEFAULT_255_1_234
10
5.5515017
20
5.6829196
11
5.5515017
21
4.6404
0
LINE
8
DEFAULT_255_1_234
10
5.5515017
20
4.6404
11
5.3980955
21
4.6404
0
LINE
8
DEFAULT_255_1_234
10
5.3980955
20
4.6404
11
5.3980955
21
5.6829196
0
LINE
8
DEFAULT_255_1_234
10
5.3980955
20
5.6829196
11
5.0230133
21
5.6829196
0
LINE
8
DEFAULT_255_1_234
10
5.0230133
20
5.6829196
11
5.0230133
21
5.8098211
0
LINE
8
DEFAULT_255_1_234
10
5.0230133
20
5.8098211
11
5.9273871
21
5.8098211
0
LINE
8
DEFAULT_255_1_234
10
6.9996241
20
5.8098211
11
6.9996241
21
4.6404
0
LINE
8
DEFAULT_255_1_234
10
6.9996241
20
4.6404
11
6.8446116
21
4.6404
0
LINE
8
DEFAULT_255_1_234
10
6.8446116
20
4.6404
11
6.8446116
21
5.180936
0
LINE
8
DEFAULT_255_1_234
10
6.8446116
20
5.180936
11
6.255082
21
5.180936
0
LINE
8
DEFAULT_255_1_234
10
6.255082
20
5.180936
11
6.255082
21
4.6404
0
LINE
8
DEFAULT_255_1_234
10
6.255082
20
4.6404
11
6.1008726
21
4.6404
0
LINE
8
DEFAULT_255_1_234
10
6.1008726
20
4.6404
11
6.1008726
21
5.8098211
0
LINE
8
DEFAULT_255_1_234
10
6.1008726
20
5.8098211
11
6.255082
21
5.8098211
0
LINE
8
DEFAULT_255_1_234
10
6.255082
20
5.8098211
11
6.255082
21
5.3070343
0
LINE
8
DEFAULT_255_1_234
10
6.255082
20
5.3070343
11
6.8446116
21
5.3070343
0
LINE
8
DEFAULT_255_1_234
10
6.8446116
20
5.3070343
11
6.8446116
21
5.8098211
0
LINE
8
DEFAULT_255_1_234
10
6.8446116
20
5.8098211
11
6.9996241
21
5.8098211
0
LINE
8
DEFAULT_255_1_234
10
21.1868663
20
13.1353026
11
21.1868663
21
13.0140234
0
LINE
8
DEFAULT_255_1_234
10
21.1868663
20
13.0140234
11
20.7949174
21
13.0140234
0
LINE
8
DEFAULT_255_1_234
10
20.7949174
20
13.0140234
11
20.7949174
21
13.1353026
0
LINE
8
DEFAULT_255_1_234
10
20.7949174
20
13.1353026
11
21.1868663
21
13.1353026
0
LINE
8
DEFAULT_255_1_234
10
22.0824051
20
12.6991792
11
22.0824051
21
12.5779
0
LINE
8
DEFAULT_255_1_234
10
22.0824051
20
12.5779
11
21.3161772
21
12.5779
0
LINE
8
DEFAULT_255_1_234
10
21.3161772
20
12.5779
11
21.3161772
21
12.6847221
0
LINE
8
DEFAULT_255_1_234
10
21.3161772
20
12.6847221
11
21.7209769
21
13.1344995
0
LINE
8
DEFAULT_255_1_234
10
21.4422755
20
13.4027595
11
21.2936884
21
13.4027595
0
LINE
8
DEFAULT_255_1_234
10
21.8085228
20
13.0389218
11
21.495285
21
12.6991792
0
LINE
8
DEFAULT_255_1_234
10
21.495285
20
12.6991792
11
22.0824051
21
12.6991792
0
ARC
8
DEFAULT_255_1_234
10
20.3719602
20
14.3274527
40
1.8008286
50
318.5132453
51
320.7828378
0
ARC
8
DEFAULT_255_1_234
10
20.9006576
20
13.8971426
40
1.1191493
50
320.7372736
51
323.9737074
0
ARC
8
DEFAULT_255_1_234
10
21.2926433
20
13.6131361
40
0.6350923
50
323.8961724
51
328.6421089
0
ARC
8
DEFAULT_255_1_234
10
21.4973028
20
13.4869031
40
0.3946393
50
328.8299013
51
331.789948
0
ARC
8
DEFAULT_255_1_234
10
21.5970207
20
13.4354509
40
0.2824501
50
331.4255242
51
352.9364833
0
ARC
8
DEFAULT_255_1_234
10
21.6106707
20
13.4323976
40
0.2685315
50
353.2248685
51
0.0169286
0
ARC
8
DEFAULT_255_1_234
10
21.6316584
20
13.434695
40
0.2475536
50
359.4866256
51
15.9339782
0
ARC
8
DEFAULT_255_1_234
10
21.6823569
20
13.4483286
40
0.1950618
50
16.1714718
51
43.5284424
0
ARC
8
DEFAULT_255_1_234
10
21.6900878
20
13.4560573
40
0.184134
50
43.4415429
51
83.1661404
0
ARC
8
DEFAULT_255_1_234
10
21.6766796
20
13.3823771
40
0.258926
50
82.160215
51
90.1505798
0
ARC
8
DEFAULT_255_1_234
10
21.6735224
20
13.3286865
40
0.3126255
50
89.5460705
51
102.5418777
0
ARC
8
DEFAULT_255_1_234
10
21.649231
20
13.4317665
40
0.2067346
50
102.1739365
51
129.2061916
0
ARC
8
DEFAULT_255_1_234
10
21.6413381
20
13.4442094
40
0.1921118
50
129.7279328
51
135.7542026
0
ARC
8
DEFAULT_255_1_234
10
21.6534909
20
13.4345045
40
0.2075944
50
136.175737
51
166.3674722
0
ARC
8
DEFAULT_255_1_234
10
21.7541828
20
13.4075182
40
0.3118201
50
165.9092917
51
178.8683903
0
ARC
8
DEFAULT_255_1_234
10
21.840669
20
13.4028179
40
0.3983935
50
178.438168
51
180.0083905
0
ARC
8
DEFAULT_255_1_234
10
21.7005292
20
13.4067231
40
0.4068601
50
163.2878735
51
180.5581814
0
ARC
8
DEFAULT_255_1_234
10
21.6203553
20
13.428784
40
0.3237344
50
133.454115
51
162.9470031
0
ARC
8
DEFAULT_255_1_234
10
21.6382094
20
13.4098
40
0.349795
50
100.7869394
51
133.4384016
0
ARC
8
DEFAULT_255_1_234
10
21.6729866
20
13.2549319
40
0.5084616
50
89.6605301
51
101.3704185
0
ARC
8
DEFAULT_255_1_234
10
21.6796205
20
13.2610496
40
0.502348
50
78.2171172
51
90.4130393
0
ARC
8
DEFAULT_255_1_234
10
21.7151283
20
13.4234637
40
0.3361092
50
55.9268222
51
78.4888551
0
ARC
8
DEFAULT_255_1_234
10
21.7347723
20
13.4573324
40
0.2970617
50
47.9292255
51
55.4054003
0
ARC
8
DEFAULT_255_1_234
10
21.7449284
20
13.4676502
40
0.2825983
50
4.3347696
51
48.0560701
0
ARC
8
DEFAULT_255_1_234
10
21.6353677
20
13.4506601
40
0.393225
50
359.925209
51
5.5967654
0
ARC
8
DEFAULT_255_1_234
10
21.6782569
20
13.4562816
40
0.3503892
50
337.8914096
51
358.9967724
0
ARC
8
DEFAULT_255_1_234
10
21.4068981
20
13.5609706
40
0.6412172
50
326.9135351
51
338.3505194
0
ARC
8
DEFAULT_255_1_234
10
21.0083285
20
13.8164284
40
1.1146189
50
319.6472867
51
327.095818
0
ARC
8
DEFAULT_255_1_234
10
20.6250288
20
14.1326
40
1.6114559
50
317.2586784
51
319.9046139
0
LINE
8
DEFAULT_255_1_234
10
22.8671059
20
13.7473211
11
22.8671059
21
12.970652
0
LINE
8
DEFAULT_255_1_234
10
22.8671059
20
12.970652
11
23.029347
21
12.970652
0
LINE
8
DEFAULT_255_1_234
10
23.029347
20
12.970652
11
23.029347
21
12.8493728
0
LINE
8
DEFAULT_255_1_234
10
23.029347
20
12.8493728
11
22.8671059
21
12.8493728
0
LINE
8
DEFAULT_255_1_234
10
22.8671059
20
12.8493728
11
22.8671059
21
12.5779
0
LINE
8
DEFAULT_255_1_234
10
22.8671059
20
12.5779
11
22.7177156
21
12.5779
0
LINE
8
DEFAULT_255_1_234
10
22.7177156
20
12.5779
11
22.7177156
21
12.8493728
0
LINE
8
DEFAULT_255_1_234
10
22.7177156
20
12.8493728
11
22.1852113
21
12.8493728
0
LINE
8
DEFAULT_255_1_234
10
22.1852113
20
12.8493728
11
22.1852113
21
12.9369187
0
LINE
8
DEFAULT_255_1_234
10
22.1852113
20
12.9369187
11
22.7088807
21
13.7473211
0
LINE
8
DEFAULT_255_1_234
10
22.7088807
20
13.7473211
11
22.8671059
21
13.7473211
0
LINE
8
DEFAULT_255_1_234
10
22.7000458
20
13.5119912
11
22.3538778
21
12.970652
0
LINE
8
DEFAULT_255_1_234
10
22.3538778
20
12.970652
11
22.7177156
21
12.970652
0
LINE
8
DEFAULT_255_1_234
10
22.7177156
20
12.970652
11
22.7177156
21
13.5441181
0
LINE
8
DEFAULT_255_1_234
10
22.7177156
20
13.5441181
11
22.7000458
21
13.5119912
0
LINE
8
DEFAULT_255_1_234
10
23.2566452
20
13.7473211
11
23.5891592
21
12.7827093
0
LINE
8
DEFAULT_255_1_234
10
23.5891592
20
12.7827093
11
23.9232795
21
13.7473211
0
LINE
8
DEFAULT_255_1_234
10
23.9232795
20
13.7473211
11
24.091946
21
13.7473211
0
LINE
8
DEFAULT_255_1_234
10
24.091946
20
13.7473211
11
23.6582321
21
12.5779
0
LINE
8
DEFAULT_255_1_234
10
23.6582321
20
12.5779
11
23.5216926
21
12.5779
0
LINE
8
DEFAULT_255_1_234
10
23.5216926
20
12.5779
11
23.0887819
21
13.7473211
0
LINE
8
DEFAULT_255_1_234
10
23.0887819
20
13.7473211
11
23.2566452
21
13.7473211
0
ENDSEC
0
EOF