0
SECTION
2
HEADER
9
$MEASUREMENT
70
1
0
ENDSEC
0
SECTION
2
TABLES
0
TABLE
2
LTYPE
0
LTYPE
72
65
70
64
2
CONTINUOUS
3
______
73
0
40
0
0
ENDTAB
0
TABLE
2
LAYER
0
LAYER
2
DEFAULT_255_2_778
70
0
62
255
6
CONTINUOUS
0
ENDTAB
0
ENDSEC
0
SECTION
2
ENTITIES
0
ARC
8
DEFAULT_255_2_778
10
4.6952044
20
89.1656821
40
0.5280127
50
89.8710178
51
180.1289822
0
ARC
8
DEFAULT_255_2_778
10
26.6581817
20
89.1656821
40
0.5280127
50
359.8710178
51
90.1289822
0
ARC
8
DEFAULT_255_2_778
10
26.6581817
20
0.2637048
40
0.5280127
50
269.8710178
51
0.1289822
0
ARC
8
DEFAULT_255_2_778
10
4.6952044
20
0.2637048
40
0.5280127
50
179.8710178
51
270.1289822
0
LINE
8
DEFAULT_255_2_778
10
4.696393
20
89.6936934
11
26.656993
21
89.6936934
0
LINE
8
DEFAULT_255_2_778
10
27.186193
20
89.1644934
11
27.186193
21
0.2648934
0
LINE
8
DEFAULT_255_2_778
10
26.656993
20
-0.2643066
11
4.696393
21
-0.2643066
0
LINE
8
DEFAULT_255_2_778
10
4.167193
20
0.2648934
11
4.167193
21
89.1644934
0
LINE
8
DEFAULT_255_2_778
10
4.1560296
20
88.3708071
11
1.2480296
21
88.3708071
0
ARC
8
DEFAULT_255_2_778
10
1.2351554
20
86.7896877
40
1.5811718
50
89.5334804
51
101.3106556
0
ARC
8
DEFAULT_255_2_778
10
1.1088138
20
87.3934394
40
0.9643824
50
100.9853828
51
121.9362849
0
ARC
8
DEFAULT_255_2_778
10
1.0356315
20
87.5403515
40
0.8011479
50
123.0525788
51
161.6912598
0
ARC
8
DEFAULT_255_2_778
10
1.5244637
20
87.3594503
40
1.3221869
50
160.9032847
51
174.9141543
0
ARC
8
DEFAULT_255_2_778
10
2.1557985
20
87.2885755
40
1.9573738
50
174.4859327
51
180.1278715
0
LINE
8
DEFAULT_255_2_778
10
0.1984296
20
87.2842071
11
0.1984296
21
0.3564071
0
ARC
8
DEFAULT_255_2_778
10
0.9936162
20
0.3435422
40
0.7952907
50
179.0731214
51
197.3113188
0
ARC
8
DEFAULT_255_2_778
10
0.7108651
20
0.2601856
40
0.5005644
50
197.8327851
51
256.9254945
0
ARC
8
DEFAULT_255_2_778
10
0.8698084
20
0.7673707
40
1.0313366
50
254.6978167
51
268.6625108
0
ARC
8
DEFAULT_255_2_778
10
0.8977311
20
1.2244575
40
1.4890505
50
267.9989019
51
270.0191808
0
LINE
8
DEFAULT_255_2_778
10
0.8982296
20
-0.2645929
11
4.8019296
21
-0.2645929
0
LINE
8
DEFAULT_255_2_778
10
27.2015296
20
88.3708071
11
30.3535296
21
88.3708071
0
ARC
8
DEFAULT_255_2_778
10
30.3662061
20
87.1351843
40
1.2356878
50
76.3014859
51
90.5877873
0
ARC
8
DEFAULT_255_2_778
10
30.4944978
20
87.6127763
40
0.7413896
50
22.5421182
51
77.1935458
0
ARC
8
DEFAULT_255_2_778
10
30.0711016
20
87.4214882
40
1.2058558
50
8.6415196
51
23.2244021
0
ARC
8
DEFAULT_255_2_778
10
29.2980916
20
87.2965494
40
1.9888763
50
359.644438
51
8.8539573
0
LINE
8
DEFAULT_255_2_778
10
31.2869296
20
87.2842071
11
31.2869296
21
0.3564071
0
ARC
8
DEFAULT_255_2_778
10
30.3898127
20
0.3439925
40
0.8972028
50
345.1755314
51
0.7928255
0
ARC
8
DEFAULT_255_2_778
10
30.7955879
20
0.2266602
40
0.475011
50
282.9584305
51
346.3342536
0
ARC
8
DEFAULT_255_2_778
10
30.6765586
20
0.6446177
40
0.9092889
50
269.2483124
51
284.3620601
0
LINE
8
DEFAULT_255_2_778
10
30.6646296
20
-0.2645929
11
26.6567296
21
-0.2645929
0
ARC
8
DEFAULT_255_2_778
10
12.695187
20
61.5140773
40
4.4987133
50
165.4879803
51
180.04875
0
ARC
8
DEFAULT_255_2_778
10
12.6674894
20
61.5160956
40
4.4713966
50
140.465993
51
165.4240825
0
ARC
8
DEFAULT_255_2_778
10
12.7394523
20
61.4587376
40
4.5634083
50
111.6150908
51
140.4857016
0
ARC
8
DEFAULT_255_2_778
10
12.7557886
20
61.4158017
40
4.6093427
50
95.7493511
51
111.6072763
0
ARC
8
DEFAULT_255_2_778
10
12.7696792
20
61.2991687
40
4.7267808
50
89.9891376
51
95.7752521
0
ARC
8
DEFAULT_255_2_778
10
12.77463
20
61.3547456
40
4.6712057
50
76.2003169
51
90.0497331
0
ARC
8
DEFAULT_255_2_778
10
12.7957174
20
61.4475785
40
4.5760226
50
56.2017349
51
76.1794756
0
ARC
8
DEFAULT_255_2_778
10
12.8386331
20
61.4979809
40
4.5102718
50
16.4180475
51
56.2986064
0
ARC
8
DEFAULT_255_2_778
10
12.8597891
20
61.5160539
40
4.4848847
50
1.2355705
51
16.272966
0
ARC
8
DEFAULT_255_2_778
10
12.7553224
20
61.5102865
40
4.589453
50
359.9995392
51
1.2794328
0
ARC
8
DEFAULT_255_2_778
10
12.8460252
20
61.5064195
40
4.4987518
50
345.488663
51
0.04878
0
ARC
8
DEFAULT_255_2_778
10
12.8739499
20
61.5043353
40
4.4711984
50
320.466391
51
345.4248542
0
ARC
8
DEFAULT_255_2_778
10
12.8020172
20
61.5616934
40
4.563187
50
291.613764
51
320.4858513
0
ARC
8
DEFAULT_255_2_778
10
12.7854318
20
61.605239
40
4.60978
50
275.748573
51
291.6060493
0
ARC
8
DEFAULT_255_2_778
10
12.7714743
20
61.7223922
40
4.7277426
50
269.9891058
51
275.7746639
0
ARC
8
DEFAULT_255_2_778
10
12.7665125
20
61.6660109
40
4.6713631
50
256.2005594
51
270.049832
0
ARC
8
DEFAULT_255_2_778
10
12.745353
20
61.5728753
40
4.575869
50
236.2741659
51
256.1796952
0
ARC
8
DEFAULT_255_2_778
10
12.7025967
20
61.5225251
40
4.5102599
50
196.4387263
51
236.3707776
0
ARC
8
DEFAULT_255_2_778
10
12.6814392
20
61.5044335
40
4.484862
50
181.2371099
51
196.2935376
0
ARC
8
DEFAULT_255_2_778
10
12.784881
20
61.5101945
40
4.5884056
50
179.9993119
51
181.2811427
0
ARC
8
DEFAULT_255_2_778
10
12.6829681
20
61.6698008
40
6.221594
50
168.0112338
51
180.0363877
0
ARC
8
DEFAULT_255_2_778
10
12.6022881
20
61.6839428
40
6.1397369
50
150.63698
51
167.983935
0
ARC
8
DEFAULT_255_2_778
10
12.7154802
20
61.6114926
40
6.2739172
50
114.4516551
51
150.5672102
0
ARC
8
DEFAULT_255_2_778
10
12.7427891
20
61.559495
40
6.3325559
50
100.0066049
51
114.4818428
0
ARC
8
DEFAULT_255_2_778
10
12.7672861
20
61.4176763
40
6.476474
50
89.9709006
51
100.0020192
0
ARC
8
DEFAULT_255_2_778
10
12.7746374
20
61.4298725
40
6.4642784
50
78.6642737
51
90.0360037
0
ARC
8
DEFAULT_255_2_778
10
12.8008054
20
61.5668117
40
6.3248672
50
63.4866631
51
78.6528697
0
ARC
8
DEFAULT_255_2_778
10
12.8439987
20
61.6331859
40
6.2461982
50
19.5842411
51
63.5694104
0
ARC
8
DEFAULT_255_2_778
10
12.9271441
20
61.6805784
40
6.152
50
5.4832675
51
19.4279522
0
ARC
8
DEFAULT_255_2_778
10
12.8009542
20
61.666885
40
6.2789212
50
359.9905513
51
5.4976178
0
ARC
8
DEFAULT_255_2_778
10
12.85848
20
61.6618992
40
6.2213966
50
348.0108391
51
0.0363803
0
ARC
8
DEFAULT_255_2_778
10
12.9390394
20
61.6477862
40
6.1396635
50
330.6362757
51
347.9835044
0
ARC
8
DEFAULT_255_2_778
10
12.8256646
20
61.7203532
40
6.2740606
50
294.4512999
51
330.5664109
0
ARC
8
DEFAULT_255_2_778
10
12.7983418
20
61.7723606
40
6.332714
50
280.0065649
51
294.4815677
0
ARC
8
DEFAULT_255_2_778
10
12.773863
20
61.9140788
40
6.47653
50
269.9709151
51
280.0019766
0
ARC
8
DEFAULT_255_2_778
10
12.7665114
20
61.9017656
40
6.4642173
50
258.6642209
51
270.0360206
0
ARC
8
DEFAULT_255_2_778
10
12.7403233
20
61.7647251
40
6.3247029
50
243.4863541
51
258.6528138
0
ARC
8
DEFAULT_255_2_778
10
12.6971742
20
61.6984002
40
6.2460975
50
199.5834682
51
243.5689378
0
ARC
8
DEFAULT_255_2_778
10
12.614252
20
61.6511117
40
6.1521449
50
185.4830534
51
199.4273871
0
ARC
8
DEFAULT_255_2_778
10
12.740557
20
61.6648162
40
6.2791817
50
179.9905709
51
185.4974084
0
LINE
8
DEFAULT_255_2_778
10
1.5212753
20
85.1957496
11
3.3733753
21
85.1957496
0
LINE
8
DEFAULT_255_2_778
10
3.3733753
20
85.1957496
11
3.3733753
21
83.3436496
0
LINE
8
DEFAULT_255_2_778
10
3.3733753
20
83.3436496
11
1.5212753
21
83.3436496
0
LINE
8
DEFAULT_255_2_778
10
1.5212753
20
83.3436496
11
1.5212753
21
85.1957496
0
LINE
8
DEFAULT_255_2_778
10
0.7275753
20
82.5499496
11
3.6379753
21
82.5499496
0
LINE
8
DEFAULT_255_2_778
10
3.6379753
20
82.5499496
11
3.6379753
21
80.6978496
0
LINE
8
DEFAULT_255_2_778
10
3.6379753
20
80.6978496
11
0.7275753
21
80.6978496
0
LINE
8
DEFAULT_255_2_778
10
0.7275753
20
80.6978496
11
0.7275753
21
82.5499496
0
LINE
8
DEFAULT_255_2_778
10
0.8598753
20
80.4332496
11
3.5056753
21
80.4332496
0
LINE
8
DEFAULT_255_2_778
10
3.5056753
20
80.4332496
11
3.5056753
21
79.1103496
0
LINE
8
DEFAULT_255_2_778
10
3.5056753
20
79.1103496
11
0.8598753
21
79.1103496
0
LINE
8
DEFAULT_255_2_778
10
0.8598753
20
79.1103496
11
0.8598753
21
80.4332496
0
LINE
8
DEFAULT_255_2_778
10
0.8598753
20
78.5811496
11
3.5056753
21
78.5811496
0
LINE
8
DEFAULT_255_2_778
10
3.5056753
20
78.5811496
11
3.5056753
21
77.2582496
0
LINE
8
DEFAULT_255_2_778
10
3.5056753
20
77.2582496
11
0.8598753
21
77.2582496
0
LINE
8
DEFAULT_255_2_778
10
0.8598753
20
77.2582496
11
0.8598753
21
78.5811496
0
LINE
8
DEFAULT_255_2_778
10
0.8598753
20
74.8770496
11
3.5056753
21
74.8770496
0
LINE
8
DEFAULT_255_2_778
10
3.5056753
20
74.8770496
11
3.5056753
21
73.5541496
0
LINE
8
DEFAULT_255_2_778
10
3.5056753
20
73.5541496
11
0.8598753
21
73.5541496
0
LINE
8
DEFAULT_255_2_778
10
0.8598753
20
73.5541496
11
0.8598753
21
74.8770496
0
LINE
8
DEFAULT_255_2_778
10
0.8598753
20
76.8161496
11
3.5056753
21
76.8161496
0
LINE
8
DEFAULT_255_2_778
10
3.5056753
20
76.8161496
11
3.5056753
21
75.4061496
0
LINE
8
DEFAULT_255_2_778
10
3.5056753
20
75.4061496
11
0.8598753
21
75.4061496
0
LINE
8
DEFAULT_255_2_778
10
0.8598753
20
75.4061496
11
0.8598753
21
76.8161496
0
LINE
8
DEFAULT_255_2_778
10
0.8598753
20
71.1728496
11
3.5056753
21
71.1728496
0
LINE
8
DEFAULT_255_2_778
10
3.5056753
20
71.1728496
11
3.5056753
21
69.8499496
0
LINE
8
DEFAULT_255_2_778
10
3.5056753
20
69.8499496
11
0.8598753
21
69.8499496
0
LINE
8
DEFAULT_255_2_778
10
0.8598753
20
69.8499496
11
0.8598753
21
71.1728496
0
LINE
8
DEFAULT_255_2_778
10
0.8598753
20
73.0249496
11
3.5056753
21
73.0249496
0
LINE
8
DEFAULT_255_2_778
10
3.5056753
20
73.0249496
11
3.5056753
21
71.7020496
0
LINE
8
DEFAULT_255_2_778
10
3.5056753
20
71.7020496
11
0.8598753
21
71.7020496
0
LINE
8
DEFAULT_255_2_778
10
0.8598753
20
71.7020496
11
0.8598753
21
73.0249496
0
LINE
8
DEFAULT_255_2_778
10
0.8598753
20
67.4686496
11
3.5056753
21
67.4686496
0
LINE
8
DEFAULT_255_2_778
10
3.5056753
20
67.4686496
11
3.5056753
21
66.1457496
0
LINE
8
DEFAULT_255_2_778
10
3.5056753
20
66.1457496
11
0.8598753
21
66.1457496
0
LINE
8
DEFAULT_255_2_778
10
0.8598753
20
66.1457496
11
0.8598753
21
67.4686496
0
LINE
8
DEFAULT_255_2_778
10
0.8598753
20
69.3207496
11
3.5056753
21
69.3207496
0
LINE
8
DEFAULT_255_2_778
10
3.5056753
20
69.3207496
11
3.5056753
21
67.9978496
0
LINE
8
DEFAULT_255_2_778
10
3.5056753
20
67.9978496
11
0.8598753
21
67.9978496
0
LINE
8
DEFAULT_255_2_778
10
0.8598753
20
67.9978496
11
0.8598753
21
69.3207496
0
LINE
8
DEFAULT_255_2_778
10
6.8129753
20
87.0478496
11
25.3337753
21
87.0478496
0
LINE
8
DEFAULT_255_2_778
10
25.3337753
20
87.0478496
11
25.3337753
21
84.4020496
0
LINE
8
DEFAULT_255_2_778
10
25.3337753
20
84.4020496
11
6.8129753
21
84.4020496
0
LINE
8
DEFAULT_255_2_778
10
6.8129753
20
84.4020496
11
6.8129753
21
87.0478496
0
LINE
8
DEFAULT_255_2_778
10
8.1964753
20
61.5102496
11
8.1964753
21
61.5102496
0
LINE
8
DEFAULT_255_2_778
10
6.4613753
20
61.6658496
11
6.4613753
21
61.6658496
0
LINE
8
DEFAULT_255_2_778
10
8.6788657
20
34.7281781
11
10.1036657
21
34.7281781
0
LINE
8
DEFAULT_255_2_778
10
10.1036657
20
34.7281781
11
10.1036657
21
33.9494781
0
LINE
8
DEFAULT_255_2_778
10
10.1036657
20
33.9494781
11
8.6788657
21
33.9494781
0
LINE
8
DEFAULT_255_2_778
10
8.6788657
20
33.9494781
11
8.6788657
21
34.7281781
0
LINE
8
DEFAULT_255_2_778
10
10.8950657
20
33.0151781
11
10.8950657
21
33.6380781
0
LINE
8
DEFAULT_255_2_778
10
10.8950657
20
33.6380781
11
11.8448657
21
33.6380781
0
LINE
8
DEFAULT_255_2_778
10
11.8448657
20
33.6380781
11
11.8448657
21
33.0151781
0
LINE
8
DEFAULT_255_2_778
10
11.8448657
20
33.0151781
11
12.4780657
21
33.0151781
0
LINE
8
DEFAULT_255_2_778
10
12.4780657
20
33.0151781
11
12.4780657
21
35.6623781
0
LINE
8
DEFAULT_255_2_778
10
12.4780657
20
35.6623781
11
11.8448657
21
35.6623781
0
LINE
8
DEFAULT_255_2_778
10
11.8448657
20
35.6623781
11
11.8448657
21
35.0395781
0
LINE
8
DEFAULT_255_2_778
10
11.8448657
20
35.0395781
11
10.8950657
21
35.0395781
0
LINE
8
DEFAULT_255_2_778
10
10.8950657
20
35.0395781
11
10.8950657
21
35.6623781
0
LINE
8
DEFAULT_255_2_778
10
10.8950657
20
35.6623781
11
7.2543657
21
35.6623781
0
LINE
8
DEFAULT_255_2_778
10
7.2543657
20
35.6623781
11
7.2543657
21
33.0151781
0
LINE
8
DEFAULT_255_2_778
10
7.2543657
20
33.0151781
11
10.8950657
21
33.0151781
0
LINE
8
DEFAULT_255_2_778
10
8.6788657
20
31.3025781
11
10.1036657
21
31.3025781
0
LINE
8
DEFAULT_255_2_778
10
10.1036657
20
31.3025781
11
10.1036657
21
30.5238781
0
LINE
8
DEFAULT_255_2_778
10
10.1036657
20
30.5238781
11
8.6788657
21
30.5238781
0
LINE
8
DEFAULT_255_2_778
10
8.6788657
20
30.5238781
11
8.6788657
21
31.3025781
0
LINE
8
DEFAULT_255_2_778
10
10.8950657
20
29.5895781
11
10.8950657
21
30.2124781
0
LINE
8
DEFAULT_255_2_778
10
10.8950657
20
30.2124781
11
11.8448657
21
30.2124781
0
LINE
8
DEFAULT_255_2_778
10
11.8448657
20
30.2124781
11
11.8448657
21
29.5895781
0
LINE
8
DEFAULT_255_2_778
10
11.8448657
20
29.5895781
11
12.4780657
21
29.5895781
0
LINE
8
DEFAULT_255_2_778
10
12.4780657
20
29.5895781
11
12.4780657
21
32.2367781
0
LINE
8
DEFAULT_255_2_778
10
12.4780657
20
32.2367781
11
11.8448657
21
32.2367781
0
LINE
8
DEFAULT_255_2_778
10
11.8448657
20
32.2367781
11
11.8448657
21
31.6139781
0
LINE
8
DEFAULT_255_2_778
10
11.8448657
20
31.6139781
11
10.8950657
21
31.6139781
0
LINE
8
DEFAULT_255_2_778
10
10.8950657
20
31.6139781
11
10.8950657
21
32.2367781
0
LINE
8
DEFAULT_255_2_778
10
10.8950657
20
32.2367781
11
7.2543657
21
32.2367781
0
LINE
8
DEFAULT_255_2_778
10
7.2543657
20
32.2367781
11
7.2543657
21
29.5895781
0
LINE
8
DEFAULT_255_2_778
10
7.2543657
20
29.5895781
11
10.8950657
21
29.5895781
0
LINE
8
DEFAULT_255_2_778
10
8.6788657
20
24.4511781
11
10.1036657
21
24.4511781
0
LINE
8
DEFAULT_255_2_778
10
10.1036657
20
24.4511781
11
10.1036657
21
23.6724781
0
LINE
8
DEFAULT_255_2_778
10
10.1036657
20
23.6724781
11
8.6788657
21
23.6724781
0
LINE
8
DEFAULT_255_2_778
10
8.6788657
20
23.6724781
11
8.6788657
21
24.4511781
0
LINE
8
DEFAULT_255_2_778
10
10.8950657
20
22.7381781
11
10.8950657
21
23.3610781
0
LINE
8
DEFAULT_255_2_778
10
10.8950657
20
23.3610781
11
11.8448657
21
23.3610781
0
LINE
8
DEFAULT_255_2_778
10
11.8448657
20
23.3610781
11
11.8448657
21
22.7381781
0
LINE
8
DEFAULT_255_2_778
10
11.8448657
20
22.7381781
11
12.4780657
21
22.7381781
0
LINE
8
DEFAULT_255_2_778
10
12.4780657
20
22.7381781
11
12.4780657
21
25.3853781
0
LINE
8
DEFAULT_255_2_778
10
12.4780657
20
25.3853781
11
11.8448657
21
25.3853781
0
LINE
8
DEFAULT_255_2_778
10
11.8448657
20
25.3853781
11
11.8448657
21
24.7625781
0
LINE
8
DEFAULT_255_2_778
10
11.8448657
20
24.7625781
11
10.8950657
21
24.7625781
0
LINE
8
DEFAULT_255_2_778
10
10.8950657
20
24.7625781
11
10.8950657
21
25.3853781
0
LINE
8
DEFAULT_255_2_778
10
10.8950657
20
25.3853781
11
7.2543657
21
25.3853781
0
LINE
8
DEFAULT_255_2_778
10
7.2543657
20
25.3853781
11
7.2543657
21
22.7381781
0
LINE
8
DEFAULT_255_2_778
10
7.2543657
20
22.7381781
11
10.8950657
21
22.7381781
0
LINE
8
DEFAULT_255_2_778
10
8.6788657
20
27.8770781
11
10.1036657
21
27.8770781
0
LINE
8
DEFAULT_255_2_778
10
10.1036657
20
27.8770781
11
10.1036657
21
27.0983781
0
LINE
8
DEFAULT_255_2_778
10
10.1036657
20
27.0983781
11
8.6788657
21
27.0983781
0
LINE
8
DEFAULT_255_2_778
10
8.6788657
20
27.0983781
11
8.6788657
21
27.8770781
0
LINE
8
DEFAULT_255_2_778
10
10.8950657
20
26.1640781
11
10.8950657
21
26.7869781
0
LINE
8
DEFAULT_255_2_778
10
10.8950657
20
26.7869781
11
11.8448657
21
26.7869781
0
LINE
8
DEFAULT_255_2_778
10
11.8448657
20
26.7869781
11
11.8448657
21
26.1640781
0
LINE
8
DEFAULT_255_2_778
10
11.8448657
20
26.1640781
11
12.4780657
21
26.1640781
0
LINE
8
DEFAULT_255_2_778
10
12.4780657
20
26.1640781
11
12.4780657
21
28.8112781
0
LINE
8
DEFAULT_255_2_778
10
12.4780657
20
28.8112781
11
11.8448657
21
28.8112781
0
LINE
8
DEFAULT_255_2_778
10
11.8448657
20
28.8112781
11
11.8448657
21
28.1884781
0
LINE
8
DEFAULT_255_2_778
10
11.8448657
20
28.1884781
11
10.8950657
21
28.1884781
0
LINE
8
DEFAULT_255_2_778
10
10.8950657
20
28.1884781
11
10.8950657
21
28.8112781
0
LINE
8
DEFAULT_255_2_778
10
10.8950657
20
28.8112781
11
7.2543657
21
28.8112781
0
LINE
8
DEFAULT_255_2_778
10
7.2543657
20
28.8112781
11
7.2543657
21
26.1640781
0
LINE
8
DEFAULT_255_2_778
10
7.2543657
20
26.1640781
11
10.8950657
21
26.1640781
0
LINE
8
DEFAULT_255_2_778
10
8.6788657
20
20.7142781
11
10.1036657
21
20.7142781
0
LINE
8
DEFAULT_255_2_778
10
10.1036657
20
20.7142781
11
10.1036657
21
19.9355781
0
LINE
8
DEFAULT_255_2_778
10
10.1036657
20
19.9355781
11
8.6788657
21
19.9355781
0
LINE
8
DEFAULT_255_2_778
10
8.6788657
20
19.9355781
11
8.6788657
21
20.7142781
0
LINE
8
DEFAULT_255_2_778
10
10.8950657
20
19.0012781
11
10.8950657
21
19.6241781
0
LINE
8
DEFAULT_255_2_778
10
10.8950657
20
19.6241781
11
11.8448657
21
19.6241781
0
LINE
8
DEFAULT_255_2_778
10
11.8448657
20
19.6241781
11
11.8448657
21
19.0012781
0
LINE
8
DEFAULT_255_2_778
10
11.8448657
20
19.0012781
11
12.4780657
21
19.0012781
0
LINE
8
DEFAULT_255_2_778
10
12.4780657
20
19.0012781
11
12.4780657
21
21.6484781
0
LINE
8
DEFAULT_255_2_778
10
12.4780657
20
21.6484781
11
11.8448657
21
21.6484781
0
LINE
8
DEFAULT_255_2_778
10
11.8448657
20
21.6484781
11
11.8448657
21
21.0256781
0
LINE
8
DEFAULT_255_2_778
10
11.8448657
20
21.0256781
11
10.8950657
21
21.0256781
0
LINE
8
DEFAULT_255_2_778
10
10.8950657
20
21.0256781
11
10.8950657
21
21.6484781
0
LINE
8
DEFAULT_255_2_778
10
10.8950657
20
21.6484781
11
7.2543657
21
21.6484781
0
LINE
8
DEFAULT_255_2_778
10
7.2543657
20
21.6484781
11
7.2543657
21
19.0012781
0
LINE
8
DEFAULT_255_2_778
10
7.2543657
20
19.0012781
11
10.8950657
21
19.0012781
0
LINE
8
DEFAULT_255_2_778
10
8.6788657
20
17.2886781
11
10.1036657
21
17.2886781
0
LINE
8
DEFAULT_255_2_778
10
10.1036657
20
17.2886781
11
10.1036657
21
16.5099781
0
LINE
8
DEFAULT_255_2_778
10
10.1036657
20
16.5099781
11
8.6788657
21
16.5099781
0
LINE
8
DEFAULT_255_2_778
10
8.6788657
20
16.5099781
11
8.6788657
21
17.2886781
0
LINE
8
DEFAULT_255_2_778
10
10.8950657
20
15.5756781
11
10.8950657
21
16.1985781
0
LINE
8
DEFAULT_255_2_778
10
10.8950657
20
16.1985781
11
11.8448657
21
16.1985781
0
LINE
8
DEFAULT_255_2_778
10
11.8448657
20
16.1985781
11
11.8448657
21
15.5756781
0
LINE
8
DEFAULT_255_2_778
10
11.8448657
20
15.5756781
11
12.4780657
21
15.5756781
0
LINE
8
DEFAULT_255_2_778
10
12.4780657
20
15.5756781
11
12.4780657
21
18.2228781
0
LINE
8
DEFAULT_255_2_778
10
12.4780657
20
18.2228781
11
11.8448657
21
18.2228781
0
LINE
8
DEFAULT_255_2_778
10
11.8448657
20
18.2228781
11
11.8448657
21
17.6000781
0
LINE
8
DEFAULT_255_2_778
10
11.8448657
20
17.6000781
11
10.8950657
21
17.6000781
0
LINE
8
DEFAULT_255_2_778
10
10.8950657
20
17.6000781
11
10.8950657
21
18.2228781
0
LINE
8
DEFAULT_255_2_778
10
10.8950657
20
18.2228781
11
7.2543657
21
18.2228781
0
LINE
8
DEFAULT_255_2_778
10
7.2543657
20
18.2228781
11
7.2543657
21
15.5756781
0
LINE
8
DEFAULT_255_2_778
10
7.2543657
20
15.5756781
11
10.8950657
21
15.5756781
0
LINE
8
DEFAULT_255_2_778
10
8.6788657
20
10.4375781
11
10.1036657
21
10.4375781
0
LINE
8
DEFAULT_255_2_778
10
10.1036657
20
10.4375781
11
10.1036657
21
9.6588781
0
LINE
8
DEFAULT_255_2_778
10
10.1036657
20
9.6588781
11
8.6788657
21
9.6588781
0
LINE
8
DEFAULT_255_2_778
10
8.6788657
20
9.6588781
11
8.6788657
21
10.4375781
0
LINE
8
DEFAULT_255_2_778
10
10.8950657
20
8.7245781
11
10.8950657
21
9.3474781
0
LINE
8
DEFAULT_255_2_778
10
10.8950657
20
9.3474781
11
11.8448657
21
9.3474781
0
LINE
8
DEFAULT_255_2_778
10
11.8448657
20
9.3474781
11
11.8448657
21
8.7245781
0
LINE
8
DEFAULT_255_2_778
10
11.8448657
20
8.7245781
11
12.4780657
21
8.7245781
0
LINE
8
DEFAULT_255_2_778
10
12.4780657
20
8.7245781
11
12.4780657
21
11.3717781
0
LINE
8
DEFAULT_255_2_778
10
12.4780657
20
11.3717781
11
11.8448657
21
11.3717781
0
LINE
8
DEFAULT_255_2_778
10
11.8448657
20
11.3717781
11
11.8448657
21
10.7489781
0
LINE
8
DEFAULT_255_2_778
10
11.8448657
20
10.7489781
11
10.8950657
21
10.7489781
0
LINE
8
DEFAULT_255_2_778
10
10.8950657
20
10.7489781
11
10.8950657
21
11.3717781
0
LINE
8
DEFAULT_255_2_778
10
10.8950657
20
11.3717781
11
7.2543657
21
11.3717781
0
LINE
8
DEFAULT_255_2_778
10
7.2543657
20
11.3717781
11
7.2543657
21
8.7245781
0
LINE
8
DEFAULT_255_2_778
10
7.2543657
20
8.7245781
11
10.8950657
21
8.7245781
0
LINE
8
DEFAULT_255_2_778
10
8.6788657
20
13.8630781
11
10.1036657
21
13.8630781
0
LINE
8
DEFAULT_255_2_778
10
10.1036657
20
13.8630781
11
10.1036657
21
13.0843781
0
LINE
8
DEFAULT_255_2_778
10
10.1036657
20
13.0843781
11
8.6788657
21
13.0843781
0
LINE
8
DEFAULT_255_2_778
10
8.6788657
20
13.0843781
11
8.6788657
21
13.8630781
0
LINE
8
DEFAULT_255_2_778
10
10.8950657
20
12.1500781
11
10.8950657
21
12.7729781
0
LINE
8
DEFAULT_255_2_778
10
10.8950657
20
12.7729781
11
11.8448657
21
12.7729781
0
LINE
8
DEFAULT_255_2_778
10
11.8448657
20
12.7729781
11
11.8448657
21
12.1500781
0
LINE
8
DEFAULT_255_2_778
10
11.8448657
20
12.1500781
11
12.4780657
21
12.1500781
0
LINE
8
DEFAULT_255_2_778
10
12.4780657
20
12.1500781
11
12.4780657
21
14.7972781
0
LINE
8
DEFAULT_255_2_778
10
12.4780657
20
14.7972781
11
11.8448657
21
14.7972781
0
LINE
8
DEFAULT_255_2_778
10
11.8448657
20
14.7972781
11
11.8448657
21
14.1744781
0
LINE
8
DEFAULT_255_2_778
10
11.8448657
20
14.1744781
11
10.8950657
21
14.1744781
0
LINE
8
DEFAULT_255_2_778
10
10.8950657
20
14.1744781
11
10.8950657
21
14.7972781
0
LINE
8
DEFAULT_255_2_778
10
10.8950657
20
14.7972781
11
7.2543657
21
14.7972781
0
LINE
8
DEFAULT_255_2_778
10
7.2543657
20
14.7972781
11
7.2543657
21
12.1500781
0
LINE
8
DEFAULT_255_2_778
10
7.2543657
20
12.1500781
11
10.8950657
21
12.1500781
0
LINE
8
DEFAULT_255_2_778
10
8.6788657
20
7.0119781
11
10.1036657
21
7.0119781
0
LINE
8
DEFAULT_255_2_778
10
10.1036657
20
7.0119781
11
10.1036657
21
6.2332781
0
LINE
8
DEFAULT_255_2_778
10
10.1036657
20
6.2332781
11
8.6788657
21
6.2332781
0
LINE
8
DEFAULT_255_2_778
10
8.6788657
20
6.2332781
11
8.6788657
21
7.0119781
0
LINE
8
DEFAULT_255_2_778
10
10.8950657
20
5.2989781
11
10.8950657
21
5.9218781
0
LINE
8
DEFAULT_255_2_778
10
10.8950657
20
5.9218781
11
11.8448657
21
5.9218781
0
LINE
8
DEFAULT_255_2_778
10
11.8448657
20
5.9218781
11
11.8448657
21
5.2989781
0
LINE
8
DEFAULT_255_2_778
10
11.8448657
20
5.2989781
11
12.4780657
21
5.2989781
0
LINE
8
DEFAULT_255_2_778
10
12.4780657
20
5.2989781
11
12.4780657
21
7.9461781
0
LINE
8
DEFAULT_255_2_778
10
12.4780657
20
7.9461781
11
11.8448657
21
7.9461781
0
LINE
8
DEFAULT_255_2_778
10
11.8448657
20
7.9461781
11
11.8448657
21
7.3233781
0
LINE
8
DEFAULT_255_2_778
10
11.8448657
20
7.3233781
11
10.8950657
21
7.3233781
0
LINE
8
DEFAULT_255_2_778
10
10.8950657
20
7.3233781
11
10.8950657
21
7.9461781
0
LINE
8
DEFAULT_255_2_778
10
10.8950657
20
7.9461781
11
7.2543657
21
7.9461781
0
LINE
8
DEFAULT_255_2_778
10
7.2543657
20
7.9461781
11
7.2543657
21
5.2989781
0
LINE
8
DEFAULT_255_2_778
10
7.2543657
20
5.2989781
11
10.8950657
21
5.2989781
0
ARC
8
DEFAULT_255_2_778
10
6.6740141
20
36.2243831
40
0.5280127
50
89.8710178
51
180.1289822
0
ARC
8
DEFAULT_255_2_778
10
12.8999913
20
36.2243831
40
0.5280127
50
359.8710178
51
90.1289822
0
ARC
8
DEFAULT_255_2_778
10
12.8999913
20
4.8924058
40
0.5280127
50
269.8710178
51
0.1289822
0
ARC
8
DEFAULT_255_2_778
10
6.6740141
20
4.8924058
40
0.5280127
50
179.8710178
51
270.1289822
0
LINE
8
DEFAULT_255_2_778
10
6.6752027
20
36.7523944
11
12.8988027
21
36.7523944
0
LINE
8
DEFAULT_255_2_778
10
13.4280027
20
36.2231944
11
13.4280027
21
4.8935944
0
LINE
8
DEFAULT_255_2_778
10
12.8988027
20
4.3643944
11
6.6752027
21
4.3643944
0
LINE
8
DEFAULT_255_2_778
10
6.1460027
20
4.8935944
11
6.1460027
21
36.2231944
0
LINE
8
DEFAULT_255_2_778
10
22.8653261
20
34.7512041
11
21.4458261
21
34.7512041
0
LINE
8
DEFAULT_255_2_778
10
21.4458261
20
34.7512041
11
21.4458261
21
33.9720041
0
LINE
8
DEFAULT_255_2_778
10
21.4458261
20
33.9720041
11
22.8653261
21
33.9720041
0
LINE
8
DEFAULT_255_2_778
10
22.8653261
20
33.9720041
11
22.8653261
21
34.7512041
0
LINE
8
DEFAULT_255_2_778
10
20.6570261
20
33.0372041
11
20.6570261
21
33.6606041
0
LINE
8
DEFAULT_255_2_778
10
20.6570261
20
33.6606041
11
19.7106261
21
33.6606041
0
LINE
8
DEFAULT_255_2_778
10
19.7106261
20
33.6606041
11
19.7106261
21
33.0372041
0
LINE
8
DEFAULT_255_2_778
10
19.7106261
20
33.0372041
11
19.0796261
21
33.0372041
0
LINE
8
DEFAULT_255_2_778
10
19.0796261
20
33.0372041
11
19.0796261
21
35.6862041
0
LINE
8
DEFAULT_255_2_778
10
19.0796261
20
35.6862041
11
19.7106261
21
35.6862041
0
LINE
8
DEFAULT_255_2_778
10
19.7106261
20
35.6862041
11
19.7106261
21
35.0628041
0
LINE
8
DEFAULT_255_2_778
10
19.7106261
20
35.0628041
11
20.6570261
21
35.0628041
0
LINE
8
DEFAULT_255_2_778
10
20.6570261
20
35.0628041
11
20.6570261
21
35.6862041
0
LINE
8
DEFAULT_255_2_778
10
20.6570261
20
35.6862041
11
24.2847261
21
35.6862041
0
LINE
8
DEFAULT_255_2_778
10
24.2847261
20
35.6862041
11
24.2847261
21
33.0372041
0
LINE
8
DEFAULT_255_2_778
10
24.2847261
20
33.0372041
11
20.6570261
21
33.0372041
0
LINE
8
DEFAULT_255_2_778
10
22.8653261
20
31.3230041
11
21.4458261
21
31.3230041
0
LINE
8
DEFAULT_255_2_778
10
21.4458261
20
31.3230041
11
21.4458261
21
30.5438041
0
LINE
8
DEFAULT_255_2_778
10
21.4458261
20
30.5438041
11
22.8653261
21
30.5438041
0
LINE
8
DEFAULT_255_2_778
10
22.8653261
20
30.5438041
11
22.8653261
21
31.3230041
0
LINE
8
DEFAULT_255_2_778
10
20.6570261
20
29.6090041
11
20.6570261
21
30.2324041
0
LINE
8
DEFAULT_255_2_778
10
20.6570261
20
30.2324041
11
19.7106261
21
30.2324041
0
LINE
8
DEFAULT_255_2_778
10
19.7106261
20
30.2324041
11
19.7106261
21
29.6090041
0
LINE
8
DEFAULT_255_2_778
10
19.7106261
20
29.6090041
11
19.0796261
21
29.6090041
0
LINE
8
DEFAULT_255_2_778
10
19.0796261
20
29.6090041
11
19.0796261
21
32.2580041
0
LINE
8
DEFAULT_255_2_778
10
19.0796261
20
32.2580041
11
19.7106261
21
32.2580041
0
LINE
8
DEFAULT_255_2_778
10
19.7106261
20
32.2580041
11
19.7106261
21
31.6346041
0
LINE
8
DEFAULT_255_2_778
10
19.7106261
20
31.6346041
11
20.6570261
21
31.6346041
0
LINE
8
DEFAULT_255_2_778
10
20.6570261
20
31.6346041
11
20.6570261
21
32.2580041
0
LINE
8
DEFAULT_255_2_778
10
20.6570261
20
32.2580041
11
24.2847261
21
32.2580041
0
LINE
8
DEFAULT_255_2_778
10
24.2847261
20
32.2580041
11
24.2847261
21
29.6090041
0
LINE
8
DEFAULT_255_2_778
10
24.2847261
20
29.6090041
11
20.6570261
21
29.6090041
0
LINE
8
DEFAULT_255_2_778
10
22.8653261
20
24.4666041
11
21.4458261
21
24.4666041
0
LINE
8
DEFAULT_255_2_778
10
21.4458261
20
24.4666041
11
21.4458261
21
23.6874041
0
LINE
8
DEFAULT_255_2_778
10
21.4458261
20
23.6874041
11
22.8653261
21
23.6874041
0
LINE
8
DEFAULT_255_2_778
10
22.8653261
20
23.6874041
11
22.8653261
21
24.4666041
0
LINE
8
DEFAULT_255_2_778
10
20.6570261
20
22.7526041
11
20.6570261
21
23.3760041
0
LINE
8
DEFAULT_255_2_778
10
20.6570261
20
23.3760041
11
19.7106261
21
23.3760041
0
LINE
8
DEFAULT_255_2_778
10
19.7106261
20
23.3760041
11
19.7106261
21
22.7526041
0
LINE
8
DEFAULT_255_2_778
10
19.7106261
20
22.7526041
11
19.0796261
21
22.7526041
0
LINE
8
DEFAULT_255_2_778
10
19.0796261
20
22.7526041
11
19.0796261
21
25.4016041
0
LINE
8
DEFAULT_255_2_778
10
19.0796261
20
25.4016041
11
19.7106261
21
25.4016041
0
LINE
8
DEFAULT_255_2_778
10
19.7106261
20
25.4016041
11
19.7106261
21
24.7782041
0
LINE
8
DEFAULT_255_2_778
10
19.7106261
20
24.7782041
11
20.6570261
21
24.7782041
0
LINE
8
DEFAULT_255_2_778
10
20.6570261
20
24.7782041
11
20.6570261
21
25.4016041
0
LINE
8
DEFAULT_255_2_778
10
20.6570261
20
25.4016041
11
24.2847261
21
25.4016041
0
LINE
8
DEFAULT_255_2_778
10
24.2847261
20
25.4016041
11
24.2847261
21
22.7526041
0
LINE
8
DEFAULT_255_2_778
10
24.2847261
20
22.7526041
11
20.6570261
21
22.7526041
0
LINE
8
DEFAULT_255_2_778
10
22.8653261
20
27.8948041
11
21.4458261
21
27.8948041
0
LINE
8
DEFAULT_255_2_778
10
21.4458261
20
27.8948041
11
21.4458261
21
27.1156041
0
LINE
8
DEFAULT_255_2_778
10
21.4458261
20
27.1156041
11
22.8653261
21
27.1156041
0
LINE
8
DEFAULT_255_2_778
10
22.8653261
20
27.1156041
11
22.8653261
21
27.8948041
0
LINE
8
DEFAULT_255_2_778
10
20.6570261
20
26.1808041
11
20.6570261
21
26.8042041
0
LINE
8
DEFAULT_255_2_778
10
20.6570261
20
26.8042041
11
19.7106261
21
26.8042041
0
LINE
8
DEFAULT_255_2_778
10
19.7106261
20
26.8042041
11
19.7106261
21
26.1808041
0
LINE
8
DEFAULT_255_2_778
10
19.7106261
20
26.1808041
11
19.0796261
21
26.1808041
0
LINE
8
DEFAULT_255_2_778
10
19.0796261
20
26.1808041
11
19.0796261
21
28.8298041
0
LINE
8
DEFAULT_255_2_778
10
19.0796261
20
28.8298041
11
19.7106261
21
28.8298041
0
LINE
8
DEFAULT_255_2_778
10
19.7106261
20
28.8298041
11
19.7106261
21
28.2064041
0
LINE
8
DEFAULT_255_2_778
10
19.7106261
20
28.2064041
11
20.6570261
21
28.2064041
0
LINE
8
DEFAULT_255_2_778
10
20.6570261
20
28.2064041
11
20.6570261
21
28.8298041
0
LINE
8
DEFAULT_255_2_778
10
20.6570261
20
28.8298041
11
24.2847261
21
28.8298041
0
LINE
8
DEFAULT_255_2_778
10
24.2847261
20
28.8298041
11
24.2847261
21
26.1808041
0
LINE
8
DEFAULT_255_2_778
10
24.2847261
20
26.1808041
11
20.6570261
21
26.1808041
0
LINE
8
DEFAULT_255_2_778
10
22.8653261
20
20.7267041
11
21.4458261
21
20.7267041
0
LINE
8
DEFAULT_255_2_778
10
21.4458261
20
20.7267041
11
21.4458261
21
19.9475041
0
LINE
8
DEFAULT_255_2_778
10
21.4458261
20
19.9475041
11
22.8653261
21
19.9475041
0
LINE
8
DEFAULT_255_2_778
10
22.8653261
20
19.9475041
11
22.8653261
21
20.7267041
0
LINE
8
DEFAULT_255_2_778
10
20.6570261
20
19.0127041
11
20.6570261
21
19.6361041
0
LINE
8
DEFAULT_255_2_778
10
20.6570261
20
19.6361041
11
19.7106261
21
19.6361041
0
LINE
8
DEFAULT_255_2_778
10
19.7106261
20
19.6361041
11
19.7106261
21
19.0127041
0
LINE
8
DEFAULT_255_2_778
10
19.7106261
20
19.0127041
11
19.0796261
21
19.0127041
0
LINE
8
DEFAULT_255_2_778
10
19.0796261
20
19.0127041
11
19.0796261
21
21.6617041
0
LINE
8
DEFAULT_255_2_778
10
19.0796261
20
21.6617041
11
19.7106261
21
21.6617041
0
LINE
8
DEFAULT_255_2_778
10
19.7106261
20
21.6617041
11
19.7106261
21
21.0383041
0
LINE
8
DEFAULT_255_2_778
10
19.7106261
20
21.0383041
11
20.6570261
21
21.0383041
0
LINE
8
DEFAULT_255_2_778
10
20.6570261
20
21.0383041
11
20.6570261
21
21.6617041
0
LINE
8
DEFAULT_255_2_778
10
20.6570261
20
21.6617041
11
24.2847261
21
21.6617041
0
LINE
8
DEFAULT_255_2_778
10
24.2847261
20
21.6617041
11
24.2847261
21
19.0127041
0
LINE
8
DEFAULT_255_2_778
10
24.2847261
20
19.0127041
11
20.6570261
21
19.0127041
0
LINE
8
DEFAULT_255_2_778
10
22.8653261
20
17.2985041
11
21.4458261
21
17.2985041
0
LINE
8
DEFAULT_255_2_778
10
21.4458261
20
17.2985041
11
21.4458261
21
16.5193041
0
LINE
8
DEFAULT_255_2_778
10
21.4458261
20
16.5193041
11
22.8653261
21
16.5193041
0
LINE
8
DEFAULT_255_2_778
10
22.8653261
20
16.5193041
11
22.8653261
21
17.2985041
0
LINE
8
DEFAULT_255_2_778
10
20.6570261
20
15.5845041
11
20.6570261
21
16.2079041
0
LINE
8
DEFAULT_255_2_778
10
20.6570261
20
16.2079041
11
19.7106261
21
16.2079041
0
LINE
8
DEFAULT_255_2_778
10
19.7106261
20
16.2079041
11
19.7106261
21
15.5845041
0
LINE
8
DEFAULT_255_2_778
10
19.7106261
20
15.5845041
11
19.0796261
21
15.5845041
0
LINE
8
DEFAULT_255_2_778
10
19.0796261
20
15.5845041
11
19.0796261
21
18.2335041
0
LINE
8
DEFAULT_255_2_778
10
19.0796261
20
18.2335041
11
19.7106261
21
18.2335041
0
LINE
8
DEFAULT_255_2_778
10
19.7106261
20
18.2335041
11
19.7106261
21
17.6101041
0
LINE
8
DEFAULT_255_2_778
10
19.7106261
20
17.6101041
11
20.6570261
21
17.6101041
0
LINE
8
DEFAULT_255_2_778
10
20.6570261
20
17.6101041
11
20.6570261
21
18.2335041
0
LINE
8
DEFAULT_255_2_778
10
20.6570261
20
18.2335041
11
24.2847261
21
18.2335041
0
LINE
8
DEFAULT_255_2_778
10
24.2847261
20
18.2335041
11
24.2847261
21
15.5845041
0
LINE
8
DEFAULT_255_2_778
10
24.2847261
20
15.5845041
11
20.6570261
21
15.5845041
0
LINE
8
DEFAULT_255_2_778
10
22.8653261
20
10.4420041
11
21.4458261
21
10.4420041
0
LINE
8
DEFAULT_255_2_778
10
21.4458261
20
10.4420041
11
21.4458261
21
9.6628041
0
LINE
8
DEFAULT_255_2_778
10
21.4458261
20
9.6628041
11
22.8653261
21
9.6628041
0
LINE
8
DEFAULT_255_2_778
10
22.8653261
20
9.6628041
11
22.8653261
21
10.4420041
0
LINE
8
DEFAULT_255_2_778
10
20.6570261
20
8.7280041
11
20.6570261
21
9.3514041
0
LINE
8
DEFAULT_255_2_778
10
20.6570261
20
9.3514041
11
19.7106261
21
9.3514041
0
LINE
8
DEFAULT_255_2_778
10
19.7106261
20
9.3514041
11
19.7106261
21
8.7280041
0
LINE
8
DEFAULT_255_2_778
10
19.7106261
20
8.7280041
11
19.0796261
21
8.7280041
0
LINE
8
DEFAULT_255_2_778
10
19.0796261
20
8.7280041
11
19.0796261
21
11.3770041
0
LINE
8
DEFAULT_255_2_778
10
19.0796261
20
11.3770041
11
19.7106261
21
11.3770041
0
LINE
8
DEFAULT_255_2_778
10
19.7106261
20
11.3770041
11
19.7106261
21
10.7536041
0
LINE
8
DEFAULT_255_2_778
10
19.7106261
20
10.7536041
11
20.6570261
21
10.7536041
0
LINE
8
DEFAULT_255_2_778
10
20.6570261
20
10.7536041
11
20.6570261
21
11.3770041
0
LINE
8
DEFAULT_255_2_778
10
20.6570261
20
11.3770041
11
24.2847261
21
11.3770041
0
LINE
8
DEFAULT_255_2_778
10
24.2847261
20
11.3770041
11
24.2847261
21
8.7280041
0
LINE
8
DEFAULT_255_2_778
10
24.2847261
20
8.7280041
11
20.6570261
21
8.7280041
0
LINE
8
DEFAULT_255_2_778
10
22.8653261
20
13.8703041
11
21.4458261
21
13.8703041
0
LINE
8
DEFAULT_255_2_778
10
21.4458261
20
13.8703041
11
21.4458261
21
13.0911041
0
LINE
8
DEFAULT_255_2_778
10
21.4458261
20
13.0911041
11
22.8653261
21
13.0911041
0
LINE
8
DEFAULT_255_2_778
10
22.8653261
20
13.0911041
11
22.8653261
21
13.8703041
0
LINE
8
DEFAULT_255_2_778
10
20.6570261
20
12.1563041
11
20.6570261
21
12.7797041
0
LINE
8
DEFAULT_255_2_778
10
20.6570261
20
12.7797041
11
19.7106261
21
12.7797041
0
LINE
8
DEFAULT_255_2_778
10
19.7106261
20
12.7797041
11
19.7106261
21
12.1563041
0
LINE
8
DEFAULT_255_2_778
10
19.7106261
20
12.1563041
11
19.0796261
21
12.1563041
0
LINE
8
DEFAULT_255_2_778
10
19.0796261
20
12.1563041
11
19.0796261
21
14.8053041
0
LINE
8
DEFAULT_255_2_778
10
19.0796261
20
14.8053041
11
19.7106261
21
14.8053041
0
LINE
8
DEFAULT_255_2_778
10
19.7106261
20
14.8053041
11
19.7106261
21
14.1819041
0
LINE
8
DEFAULT_255_2_778
10
19.7106261
20
14.1819041
11
20.6570261
21
14.1819041
0
LINE
8
DEFAULT_255_2_778
10
20.6570261
20
14.1819041
11
20.6570261
21
14.8053041
0
LINE
8
DEFAULT_255_2_778
10
20.6570261
20
14.8053041
11
24.2847261
21
14.8053041
0
LINE
8
DEFAULT_255_2_778
10
24.2847261
20
14.8053041
11
24.2847261
21
12.1563041
0
LINE
8
DEFAULT_255_2_778
10
24.2847261
20
12.1563041
11
20.6570261
21
12.1563041
0
LINE
8
DEFAULT_255_2_778
10
22.8653261
20
7.0138041
11
21.4458261
21
7.0138041
0
LINE
8
DEFAULT_255_2_778
10
21.4458261
20
7.0138041
11
21.4458261
21
6.2346041
0
LINE
8
DEFAULT_255_2_778
10
21.4458261
20
6.2346041
11
22.8653261
21
6.2346041
0
LINE
8
DEFAULT_255_2_778
10
22.8653261
20
6.2346041
11
22.8653261
21
7.0138041
0
LINE
8
DEFAULT_255_2_778
10
20.6570261
20
5.2998041
11
20.6570261
21
5.9232041
0
LINE
8
DEFAULT_255_2_778
10
20.6570261
20
5.9232041
11
19.7106261
21
5.9232041
0
LINE
8
DEFAULT_255_2_778
10
19.7106261
20
5.9232041
11
19.7106261
21
5.2998041
0
LINE
8
DEFAULT_255_2_778
10
19.7106261
20
5.2998041
11
19.0796261
21
5.2998041
0
LINE
8
DEFAULT_255_2_778
10
19.0796261
20
5.2998041
11
19.0796261
21
7.9488041
0
LINE
8
DEFAULT_255_2_778
10
19.0796261
20
7.9488041
11
19.7106261
21
7.9488041
0
LINE
8
DEFAULT_255_2_778
10
19.7106261
20
7.9488041
11
19.7106261
21
7.3254041
0
LINE
8
DEFAULT_255_2_778
10
19.7106261
20
7.3254041
11
20.6570261
21
7.3254041
0
LINE
8
DEFAULT_255_2_778
10
20.6570261
20
7.3254041
11
20.6570261
21
7.9488041
0
LINE
8
DEFAULT_255_2_778
10
20.6570261
20
7.9488041
11
24.2847261
21
7.9488041
0
LINE
8
DEFAULT_255_2_778
10
24.2847261
20
7.9488041
11
24.2847261
21
5.2998041
0
LINE
8
DEFAULT_255_2_778
10
24.2847261
20
5.2998041
11
20.6570261
21
5.2998041
0
ARC
8
DEFAULT_255_2_778
10
18.6615051
20
36.2490819
40
0.5280127
50
89.8710178
51
180.1289822
0
ARC
8
DEFAULT_255_2_778
10
24.8614824
20
36.2490819
40
0.5280127
50
359.8710178
51
90.1289822
0
ARC
8
DEFAULT_255_2_778
10
24.8614824
20
4.8931047
40
0.5280127
50
269.8710178
51
0.1289822
0
ARC
8
DEFAULT_255_2_778
10
18.6615051
20
4.8931047
40
0.5280127
50
179.8710178
51
270.1289822
0
LINE
8
DEFAULT_255_2_778
10
18.6626937
20
36.7770933
11
24.8602937
21
36.7770933
0
LINE
8
DEFAULT_255_2_778
10
25.3894937
20
36.2478933
11
25.3894937
21
4.8942933
0
LINE
8
DEFAULT_255_2_778
10
24.8602937
20
4.3650933
11
18.6626937
21
4.3650933
0
LINE
8
DEFAULT_255_2_778
10
18.1334937
20
4.8942933
11
18.1334937
21
36.2478933
0
LINE
8
DEFAULT_255_2_778
10
1.5213834
20
38.1000083
11
4.1671834
21
38.1000083
0
LINE
8
DEFAULT_255_2_778
10
4.1671834
20
38.1000083
11
4.1671834
21
35.1896083
0
LINE
8
DEFAULT_255_2_778
10
4.1671834
20
35.1896083
11
1.5213834
21
35.1896083
0
LINE
8
DEFAULT_255_2_778
10
1.5213834
20
35.1896083
11
1.5213834
21
38.1000083
0
LINE
8
DEFAULT_255_2_778
10
1.5213834
20
35.1896
11
4.1671834
21
35.1896
0
LINE
8
DEFAULT_255_2_778
10
4.1671834
20
35.1896
11
4.1671834
21
32.0146
0
LINE
8
DEFAULT_255_2_778
10
4.1671834
20
32.0146
11
1.5213834
21
32.0146
0
LINE
8
DEFAULT_255_2_778
10
1.5213834
20
32.0146
11
1.5213834
21
35.1896
0
LINE
8
DEFAULT_255_2_778
10
1.5213834
20
32.0145916
11
4.1671834
21
32.0145916
0
LINE
8
DEFAULT_255_2_778
10
4.1671834
20
32.0145916
11
4.1671834
21
28.5749916
0
LINE
8
DEFAULT_255_2_778
10
4.1671834
20
28.5749916
11
1.5213834
21
28.5749916
0
LINE
8
DEFAULT_255_2_778
10
1.5213834
20
28.5749916
11
1.5213834
21
32.0145916
0
LINE
8
DEFAULT_255_2_778
10
1.5213834
20
28.5749916
11
4.1671834
21
28.5749916
0
LINE
8
DEFAULT_255_2_778
10
4.1671834
20
28.5749916
11
4.1671834
21
25.1353916
0
LINE
8
DEFAULT_255_2_778
10
4.1671834
20
25.1353916
11
1.5213834
21
25.1353916
0
LINE
8
DEFAULT_255_2_778
10
1.5213834
20
25.1353916
11
1.5213834
21
28.5749916
0
LINE
8
DEFAULT_255_2_778
10
1.5213834
20
25.1353664
11
4.1671834
21
25.1353664
0
LINE
8
DEFAULT_255_2_778
10
4.1671834
20
25.1353664
11
4.1671834
21
21.6957664
0
LINE
8
DEFAULT_255_2_778
10
4.1671834
20
21.6957664
11
1.5213834
21
21.6957664
0
LINE
8
DEFAULT_255_2_778
10
1.5213834
20
21.6957664
11
1.5213834
21
25.1353664
0
LINE
8
DEFAULT_255_2_778
10
1.5213834
20
11.6416664
11
4.1671834
21
11.6416664
0
LINE
8
DEFAULT_255_2_778
10
4.1671834
20
11.6416664
11
4.1671834
21
8.2020664
0
LINE
8
DEFAULT_255_2_778
10
4.1671834
20
8.2020664
11
1.5213834
21
8.2020664
0
LINE
8
DEFAULT_255_2_778
10
1.5213834
20
8.2020664
11
1.5213834
21
11.6416664
0
LINE
8
DEFAULT_255_2_778
10
1.5213834
20
15.0811916
11
4.1671834
21
15.0811916
0
LINE
8
DEFAULT_255_2_778
10
4.1671834
20
15.0811916
11
4.1671834
21
11.6415916
0
LINE
8
DEFAULT_255_2_778
10
4.1671834
20
11.6415916
11
1.5213834
21
11.6415916
0
LINE
8
DEFAULT_255_2_778
10
1.5213834
20
11.6415916
11
1.5213834
21
15.0811916
0
LINE
8
DEFAULT_255_2_778
10
1.5213834
20
18.5207916
11
4.1671834
21
18.5207916
0
LINE
8
DEFAULT_255_2_778
10
4.1671834
20
18.5207916
11
4.1671834
21
15.0811916
0
LINE
8
DEFAULT_255_2_778
10
4.1671834
20
15.0811916
11
1.5213834
21
15.0811916
0
LINE
8
DEFAULT_255_2_778
10
1.5213834
20
15.0811916
11
1.5213834
21
18.5207916
0
LINE
8
DEFAULT_255_2_778
10
1.5213921
20
21.6957412
11
4.1671921
21
21.6957412
0
LINE
8
DEFAULT_255_2_778
10
4.1671921
20
21.6957412
11
4.1671921
21
18.5207412
0
LINE
8
DEFAULT_255_2_778
10
4.1671921
20
18.5207412
11
1.5213921
21
18.5207412
0
LINE
8
DEFAULT_255_2_778
10
1.5213921
20
18.5207412
11
1.5213921
21
21.6957412
0
LINE
8
DEFAULT_255_2_778
10
1.5213921
20
8.2020412
11
4.1671921
21
8.2020412
0
LINE
8
DEFAULT_255_2_778
10
4.1671921
20
8.2020412
11
4.1671921
21
4.4978412
0
LINE
8
DEFAULT_255_2_778
10
4.1671921
20
4.4978412
11
1.5213921
21
4.4978412
0
LINE
8
DEFAULT_255_2_778
10
1.5213921
20
4.4978412
11
1.5213921
21
8.2020412
0
LINE
8
DEFAULT_255_2_778
10
27.1859921
20
38.0999412
11
29.8317921
21
38.0999412
0
LINE
8
DEFAULT_255_2_778
10
29.8317921
20
38.0999412
11
29.8317921
21
35.1895412
0
LINE
8
DEFAULT_255_2_778
10
29.8317921
20
35.1895412
11
27.1859921
21
35.1895412
0
LINE
8
DEFAULT_255_2_778
10
27.1859921
20
35.1895412
11
27.1859921
21
38.0999412
0
LINE
8
DEFAULT_255_2_778
10
27.1859834
20
35.1896
11
29.8317834
21
35.1896
0
LINE
8
DEFAULT_255_2_778
10
29.8317834
20
35.1896
11
29.8317834
21
32.0146
0
LINE
8
DEFAULT_255_2_778
10
29.8317834
20
32.0146
11
27.1859834
21
32.0146
0
LINE
8
DEFAULT_255_2_778
10
27.1859834
20
32.0146
11
27.1859834
21
35.1896
0
LINE
8
DEFAULT_255_2_778
10
27.1859834
20
32.0145916
11
29.8317834
21
32.0145916
0
LINE
8
DEFAULT_255_2_778
10
29.8317834
20
32.0145916
11
29.8317834
21
28.5749916
0
LINE
8
DEFAULT_255_2_778
10
29.8317834
20
28.5749916
11
27.1859834
21
28.5749916
0
LINE
8
DEFAULT_255_2_778
10
27.1859834
20
28.5749916
11
27.1859834
21
32.0145916
0
LINE
8
DEFAULT_255_2_778
10
27.1859834
20
28.5749916
11
29.8317834
21
28.5749916
0
LINE
8
DEFAULT_255_2_778
10
29.8317834
20
28.5749916
11
29.8317834
21
25.1353916
0
LINE
8
DEFAULT_255_2_778
10
29.8317834
20
25.1353916
11
27.1859834
21
25.1353916
0
LINE
8
DEFAULT_255_2_778
10
27.1859834
20
25.1353916
11
27.1859834
21
28.5749916
0
LINE
8
DEFAULT_255_2_778
10
27.1859834
20
25.1353664
11
29.8317834
21
25.1353664
0
LINE
8
DEFAULT_255_2_778
10
29.8317834
20
25.1353664
11
29.8317834
21
21.6957664
0
LINE
8
DEFAULT_255_2_778
10
29.8317834
20
21.6957664
11
27.1859834
21
21.6957664
0
LINE
8
DEFAULT_255_2_778
10
27.1859834
20
21.6957664
11
27.1859834
21
25.1353664
0
LINE
8
DEFAULT_255_2_778
10
27.1859834
20
11.6416664
11
29.8317834
21
11.6416664
0
LINE
8
DEFAULT_255_2_778
10
29.8317834
20
11.6416664
11
29.8317834
21
8.2020664
0
LINE
8
DEFAULT_255_2_778
10
29.8317834
20
8.2020664
11
27.1859834
21
8.2020664
0
LINE
8
DEFAULT_255_2_778
10
27.1859834
20
8.2020664
11
27.1859834
21
11.6416664
0
LINE
8
DEFAULT_255_2_778
10
27.1859834
20
15.0811916
11
29.8317834
21
15.0811916
0
LINE
8
DEFAULT_255_2_778
10
29.8317834
20
15.0811916
11
29.8317834
21
11.6415916
0
LINE
8
DEFAULT_255_2_778
10
29.8317834
20
11.6415916
11
27.1859834
21
11.6415916
0
LINE
8
DEFAULT_255_2_778
10
27.1859834
20
11.6415916
11
27.1859834
21
15.0811916
0
LINE
8
DEFAULT_255_2_778
10
27.1859834
20
18.5207916
11
29.8317834
21
18.5207916
0
LINE
8
DEFAULT_255_2_778
10
29.8317834
20
18.5207916
11
29.8317834
21
15.0811916
0
LINE
8
DEFAULT_255_2_778
10
29.8317834
20
15.0811916
11
27.1859834
21
15.0811916
0
LINE
8
DEFAULT_255_2_778
10
27.1859834
20
15.0811916
11
27.1859834
21
18.5207916
0
LINE
8
DEFAULT_255_2_778
10
27.1858918
20
21.6958114
11
29.8317918
21
21.6958114
0
LINE
8
DEFAULT_255_2_778
10
29.8317918
20
21.6958114
11
29.8317918
21
18.5208114
0
LINE
8
DEFAULT_255_2_778
10
29.8317918
20
18.5208114
11
27.1858918
21
18.5208114
0
LINE
8
DEFAULT_255_2_778
10
27.1858918
20
18.5208114
11
27.1858918
21
21.6958114
0
LINE
8
DEFAULT_255_2_778
10
27.1858918
20
8.2020114
11
29.8317918
21
8.2020114
0
LINE
8
DEFAULT_255_2_778
10
29.8317918
20
8.2020114
11
29.8317918
21
4.4979114
0
LINE
8
DEFAULT_255_2_778
10
29.8317918
20
4.4979114
11
27.1858918
21
4.4979114
0
LINE
8
DEFAULT_255_2_778
10
27.1858918
20
4.4979114
11
27.1858918
21
8.2020114
0
LINE
8
DEFAULT_255_2_778
10
28.3765918
20
85.0635114
11
30.2285918
21
85.0635114
0
LINE
8
DEFAULT_255_2_778
10
30.2285918
20
85.0635114
11
30.2285918
21
83.2114114
0
LINE
8
DEFAULT_255_2_778
10
30.2285918
20
83.2114114
11
28.3765918
21
83.2114114
0
LINE
8
DEFAULT_255_2_778
10
28.3765918
20
83.2114114
11
28.3765918
21
85.0635114
0
LINE
8
DEFAULT_255_2_778
10
27.9796918
20
82.5500114
11
30.6254918
21
82.5500114
0
LINE
8
DEFAULT_255_2_778
10
30.6254918
20
82.5500114
11
30.6254918
21
80.5656114
0
LINE
8
DEFAULT_255_2_778
10
30.6254918
20
80.5656114
11
27.9796918
21
80.5656114
0
LINE
8
DEFAULT_255_2_778
10
27.9796918
20
80.5656114
11
27.9796918
21
82.5500114
0
LINE
8
DEFAULT_255_2_778
10
27.9796918
20
80.3010114
11
30.6254918
21
80.3010114
0
LINE
8
DEFAULT_255_2_778
10
30.6254918
20
80.3010114
11
30.6254918
21
78.9781114
0
LINE
8
DEFAULT_255_2_778
10
30.6254918
20
78.9781114
11
27.9796918
21
78.9781114
0
LINE
8
DEFAULT_255_2_778
10
27.9796918
20
78.9781114
11
27.9796918
21
80.3010114
0
LINE
8
DEFAULT_255_2_778
10
27.9796918
20
78.4489114
11
30.6254918
21
78.4489114
0
LINE
8
DEFAULT_255_2_778
10
30.6254918
20
78.4489114
11
30.6254918
21
77.1260114
0
LINE
8
DEFAULT_255_2_778
10
30.6254918
20
77.1260114
11
27.9796918
21
77.1260114
0
LINE
8
DEFAULT_255_2_778
10
27.9796918
20
77.1260114
11
27.9796918
21
78.4489114
0
LINE
8
DEFAULT_255_2_778
10
27.9796918
20
74.7448114
11
30.6254918
21
74.7448114
0
LINE
8
DEFAULT_255_2_778
10
30.6254918
20
74.7448114
11
30.6254918
21
73.4218114
0
LINE
8
DEFAULT_255_2_778
10
30.6254918
20
73.4218114
11
27.9796918
21
73.4218114
0
LINE
8
DEFAULT_255_2_778
10
27.9796918
20
73.4218114
11
27.9796918
21
74.7448114
0
LINE
8
DEFAULT_255_2_778
10
27.9796918
20
76.6839114
11
30.6254918
21
76.6839114
0
LINE
8
DEFAULT_255_2_778
10
30.6254918
20
76.6839114
11
30.6254918
21
75.2739114
0
LINE
8
DEFAULT_255_2_778
10
30.6254918
20
75.2739114
11
27.9796918
21
75.2739114
0
LINE
8
DEFAULT_255_2_778
10
27.9796918
20
75.2739114
11
27.9796918
21
76.6839114
0
LINE
8
DEFAULT_255_2_778
10
27.9796918
20
71.0406114
11
30.6254918
21
71.0406114
0
LINE
8
DEFAULT_255_2_778
10
30.6254918
20
71.0406114
11
30.6254918
21
69.7177114
0
LINE
8
DEFAULT_255_2_778
10
30.6254918
20
69.7177114
11
27.9796918
21
69.7177114
0
LINE
8
DEFAULT_255_2_778
10
27.9796918
20
69.7177114
11
27.9796918
21
71.0406114
0
LINE
8
DEFAULT_255_2_778
10
27.9796918
20
72.8927114
11
30.6254918
21
72.8927114
0
LINE
8
DEFAULT_255_2_778
10
30.6254918
20
72.8927114
11
30.6254918
21
71.5698114
0
LINE
8
DEFAULT_255_2_778
10
30.6254918
20
71.5698114
11
27.9796918
21
71.5698114
0
LINE
8
DEFAULT_255_2_778
10
27.9796918
20
71.5698114
11
27.9796918
21
72.8927114
0
LINE
8
DEFAULT_255_2_778
10
27.9796918
20
67.3364114
11
30.6254918
21
67.3364114
0
LINE
8
DEFAULT_255_2_778
10
30.6254918
20
67.3364114
11
30.6254918
21
66.0135114
0
LINE
8
DEFAULT_255_2_778
10
30.6254918
20
66.0135114
11
27.9796918
21
66.0135114
0
LINE
8
DEFAULT_255_2_778
10
27.9796918
20
66.0135114
11
27.9796918
21
67.3364114
0
LINE
8
DEFAULT_255_2_778
10
27.9796918
20
69.1885114
11
30.6254918
21
69.1885114
0
LINE
8
DEFAULT_255_2_778
10
30.6254918
20
69.1885114
11
30.6254918
21
67.8656114
0
LINE
8
DEFAULT_255_2_778
10
30.6254918
20
67.8656114
11
27.9796918
21
67.8656114
0
LINE
8
DEFAULT_255_2_778
10
27.9796918
20
67.8656114
11
27.9796918
21
69.1885114
0
LINE
8
DEFAULT_255_2_778
10
21.3650918
20
64.1574114
11
24.6723918
21
64.1574114
0
LINE
8
DEFAULT_255_2_778
10
24.6723918
20
64.1574114
11
24.6723918
21
59.2666114
0
LINE
8
DEFAULT_255_2_778
10
24.6723918
20
59.2666114
11
21.3650918
21
59.2666114
0
LINE
8
DEFAULT_255_2_778
10
21.3650918
20
59.2666114
11
21.3650918
21
64.1574114
0
ARC
8
DEFAULT_255_2_778
10
19.1228797
20
85.6895306
40
0.9727607
50
164.5818865
51
180.7498785
0
ARC
8
DEFAULT_255_2_778
10
18.7776915
20
85.7830152
40
0.6151436
50
142.4637417
51
164.4280276
0
ARC
8
DEFAULT_255_2_778
10
18.6474575
20
85.8896508
40
0.4469335
50
88.3531015
51
143.1319012
0
ARC
8
DEFAULT_255_2_778
10
18.68161
20
85.8924365
40
0.4444742
50
38.5117742
51
92.7477655
0
ARC
8
DEFAULT_255_2_778
10
18.6360116
20
85.0373189
40
0.6062406
50
335.9627941
51
1.2741673
0
ARC
8
DEFAULT_255_2_778
10
18.7729955
20
84.985519
40
0.4601145
50
314.1359489
51
334.9055498
0
ARC
8
DEFAULT_255_2_778
10
18.7355601
20
85.0344366
40
0.5213405
50
273.3433056
51
313.3449236
0
ARC
8
DEFAULT_255_2_778
10
18.6947529
20
85.3085443
40
0.7977454
50
269.9245463
51
275.1213439
0
ARC
8
DEFAULT_255_2_778
10
18.6956471
20
85.1754918
40
0.664695
50
245.5094484
51
269.8323629
0
ARC
8
DEFAULT_255_2_778
10
18.6006517
20
85.0050973
40
0.470517
50
215.1220105
51
247.4353547
0
ARC
8
DEFAULT_255_2_778
10
18.6781363
20
85.1231558
40
0.4319562
50
216.3876756
51
269.9822276
0
ARC
8
DEFAULT_255_2_778
10
18.6916937
20
85.0619886
40
0.3710417
50
267.8853105
51
300.8197636
0
ARC
8
DEFAULT_255_2_778
10
18.7303646
20
84.9800413
40
0.2809911
50
302.6093192
51
315.1868773
0
ARC
8
DEFAULT_255_2_778
10
18.6910659
20
85.0063633
40
0.327546
50
316.7656717
51
358.4553507
0
ARC
8
DEFAULT_255_2_778
10
18.4652555
20
85.037053
40
0.5546471
50
355.9141745
51
0.0564687
0
ARC
8
DEFAULT_255_2_778
10
18.6813167
20
85.4468553
40
0.4511507
50
268.3850645
51
318.6331299
0
ARC
8
DEFAULT_255_2_778
10
18.6579286
20
85.6739695
40
0.6781698
50
269.9977821
51
270.9018141
0
ARC
8
DEFAULT_255_2_778
10
18.6484338
20
85.437574
40
0.4418758
50
215.8792902
51
271.2278309
0
ARC
8
DEFAULT_255_2_778
10
18.8241186
20
85.5746604
40
0.6646181
50
190.0310074
51
216.5784143
0
ARC
8
DEFAULT_255_2_778
10
19.2714449
20
85.6686454
40
1.1215722
50
179.5834322
51
190.7785298
0
ARC
8
DEFAULT_255_2_778
10
19.1139548
20
85.6390823
40
0.7416598
50
179.0252186
51
196.1540141
0
ARC
8
DEFAULT_255_2_778
10
18.8123374
20
85.5553874
40
0.4286799
50
196.625242
51
215.2135437
0
ARC
8
DEFAULT_255_2_778
10
18.7013148
20
85.4745096
40
0.2913444
50
214.8085493
51
272.2990898
0
ARC
8
DEFAULT_255_2_778
10
18.7250664
20
85.507156
40
0.323981
50
267.8659809
51
335.5964403
0
ARC
8
DEFAULT_255_2_778
10
18.7249283
20
85.8212239
40
0.3277171
50
25.7501116
51
91.6831907
0
ARC
8
DEFAULT_255_2_778
10
18.7041093
20
85.855195
40
0.2938179
50
87.8167821
51
145.0767116
0
ARC
8
DEFAULT_255_2_778
10
18.8474855
20
85.7609687
40
0.4653424
50
145.6704306
51
170.4718716
0
ARC
8
DEFAULT_255_2_778
10
19.3453446
20
85.6611508
40
0.9729884
50
169.5279154
51
180.556551
0
ARC
8
DEFAULT_255_2_778
10
11.0627405
20
85.1455861
40
0.3173205
50
188.1729215
51
203.3927735
0
ARC
8
DEFAULT_255_2_778
10
11.7464418
20
85.2755556
40
1.0130428
50
186.7890456
51
189.9521726
0
ARC
8
DEFAULT_255_2_778
10
10.3767362
20
85.4892617
40
0.4934802
50
269.5084136
51
317.4887178
0
ARC
8
DEFAULT_255_2_778
10
10.3574161
20
85.4669601
40
0.4714019
50
236.2544513
51
271.8339425
0
ARC
8
DEFAULT_255_2_778
10
10.3322708
20
85.4134952
40
0.4130704
50
228.525978
51
235.0349331
0
ARC
8
DEFAULT_255_2_778
10
10.2862433
20
85.3701242
40
0.3501388
50
178.645703
51
229.4689959
0
ARC
8
DEFAULT_255_2_778
10
10.3011994
20
85.3940143
40
0.3653309
50
125.3745581
51
182.4496354
0
ARC
8
DEFAULT_255_2_778
10
10.414114
20
85.2254218
40
0.5681941
50
99.9432164
51
124.816652
0
ARC
8
DEFAULT_255_2_778
10
10.5126401
20
84.7468566
40
1.056682
50
89.5086179
51
100.7246564
0
ARC
8
DEFAULT_255_2_778
10
10.4885127
20
85.9172914
40
0.2485888
50
357.1888618
51
43.9436247
0
ARC
8
DEFAULT_255_2_778
10
10.4933269
20
85.899321
40
0.2581069
50
47.5599205
51
88.9674768
0
ARC
8
DEFAULT_255_2_778
10
10.4638515
20
85.6782956
40
0.4803044
50
85.925595
51
90.0655099
0
ARC
8
DEFAULT_255_2_778
10
10.4522209
20
85.836033
40
0.3227569
50
88.0324428
51
125.4984052
0
ARC
8
DEFAULT_255_2_778
10
10.3608913
20
85.9510887
40
0.1762148
50
123.0448272
51
179.020934
0
ARC
8
DEFAULT_255_2_778
10
10.2675274
20
85.9480992
40
0.3051841
50
140.7478573
51
178.873396
0
ARC
8
DEFAULT_255_2_778
10
10.4013399
20
85.8512356
40
0.4701925
50
113.0157196
51
141.9250169
0
ARC
8
DEFAULT_255_2_778
10
10.4689674
20
85.7108964
40
0.625845
50
89.337637
51
113.6908129
0
ARC
8
DEFAULT_255_2_778
10
10.4892341
20
85.7146201
40
0.622216
50
69.6067331
51
91.2000993
0
ARC
8
DEFAULT_255_2_778
10
10.5586791
20
85.9188541
40
0.4066293
50
48.8410225
51
68.750652
0
ARC
8
DEFAULT_255_2_778
10
10.5586512
20
85.929449
40
0.3987321
50
0.0035016
51
47.835967
0
ARC
8
DEFAULT_255_2_778
10
10.3477061
20
85.902395
40
0.6102782
50
1.3994578
51
2.5430806
0
ARC
8
DEFAULT_255_2_778
10
11.8923584
20
85.3099991
40
0.934637
50
179.2459186
51
191.1821036
0
ARC
8
DEFAULT_255_2_778
10
11.4410017
20
85.2243671
40
0.4752555
50
191.606998
51
202.9306505
0
ARC
8
DEFAULT_255_2_778
10
10.4045392
20
85.5765315
40
0.3884318
50
269.9945661
51
300.4861527
0
ARC
8
DEFAULT_255_2_778
10
10.4462582
20
85.5269965
40
0.3247599
50
298.5767235
51
333.383698
0
ARC
8
DEFAULT_255_2_778
10
10.5510578
20
84.7304426
40
0.9165389
50
89.2345317
51
100.926037
0
ARC
8
DEFAULT_255_2_778
10
10.4376973
20
85.282199
40
0.3533618
50
99.8355974
51
125.4573476
0
ARC
8
DEFAULT_255_2_778
10
10.3489204
20
85.417203
40
0.1919892
50
127.2489321
51
182.4190056
0
ARC
8
DEFAULT_255_2_778
10
10.3578515
20
85.3987654
40
0.201015
50
177.0531087
51
229.1993108
0
ARC
8
DEFAULT_255_2_778
10
10.3933832
20
85.4543205
40
0.2664529
50
231.2219478
51
272.3916604
0
ARC
8
DEFAULT_255_2_778
10
11.8946656
20
85.3696977
40
0.1625961
50
357.4627122
51
54.2760606
0
ARC
8
DEFAULT_255_2_778
10
11.7651688
20
85.1693522
40
0.4010302
50
55.968928
51
72.9259913
0
ARC
8
DEFAULT_255_2_778
10
11.5180683
20
84.445331
40
1.165931
50
71.7645787
51
78.3151544
0
ARC
8
DEFAULT_255_2_778
10
12.0374679
20
86.9727231
40
1.4142813
50
250.7608086
51
258.4461159
0
ARC
8
DEFAULT_255_2_778
10
11.8136911
20
86.3222512
40
0.7264066
50
243.3352601
51
250.5194841
0
ARC
8
DEFAULT_255_2_778
10
11.6504341
20
86.0207651
40
0.3838657
50
217.2549812
51
244.9171126
0
ARC
8
DEFAULT_255_2_778
10
11.5615567
20
85.9419908
40
0.2655858
50
214.2025369
51
215.3351916
0
ARC
8
DEFAULT_255_2_778
10
11.580784
20
85.9501029
40
0.2860774
50
178.5184064
51
213.3815689
0
ARC
8
DEFAULT_255_2_778
10
11.6299203
20
85.9579659
40
0.3351183
50
126.7731417
51
180.0797112
0
ARC
8
DEFAULT_255_2_778
10
11.7433538
20
85.8276254
40
0.5075917
50
91.392501
51
128.2219192
0
ARC
8
DEFAULT_255_2_778
10
11.7723376
20
85.5820041
40
0.7541956
50
89.972296
51
93.1405483
0
ARC
8
DEFAULT_255_2_778
10
11.7862506
20
85.7300674
40
0.6062836
50
66.2994891
51
91.2804676
0
ARC
8
DEFAULT_255_2_778
10
11.8402175
20
85.8740449
40
0.452836
50
50.328323
51
65.2293487
0
ARC
8
DEFAULT_255_2_778
10
11.9055123
20
85.9397538
40
0.3606713
50
358.7839814
51
51.648657
0
ARC
8
DEFAULT_255_2_778
10
11.8437702
20
85.9310261
40
0.200135
50
0.3073467
51
52.0302549
0
ARC
8
DEFAULT_255_2_778
10
11.7833323
20
85.8656167
40
0.2889785
50
50.5623855
51
92.1080802
0
ARC
8
DEFAULT_255_2_778
10
11.7599842
20
85.8212818
40
0.3333605
50
87.8135627
51
116.5031574
0
ARC
8
DEFAULT_255_2_778
10
11.7118721
20
85.9355625
40
0.2097701
50
118.6727735
51
127.6274784
0
ARC
8
DEFAULT_255_2_778
10
11.6812815
20
85.9679325
40
0.1655169
50
126.0816777
51
181.223037
0
ARC
8
DEFAULT_255_2_778
10
11.6493809
20
85.9575411
40
0.1337545
50
177.0607636
51
238.252488
0
ARC
8
DEFAULT_255_2_778
10
11.7993471
20
86.2142369
40
0.4310169
50
239.2548244
51
253.2431887
0
ARC
8
DEFAULT_255_2_778
10
12.1075776
20
87.1525938
40
1.418608
50
252.2493983
51
257.8046164
0
ARC
8
DEFAULT_255_2_778
10
11.5060006
20
84.3622643
40
1.4358334
50
69.6263831
51
77.8622723
0
ARC
8
DEFAULT_255_2_778
10
11.72579
20
84.9701743
40
0.789455
50
63.6491916
51
69.2200902
0
ARC
8
DEFAULT_255_2_778
10
11.910096
20
85.3164183
40
0.3975466
50
37.5124666
51
65.3024334
0
ARC
8
DEFAULT_255_2_778
10
11.9977186
20
85.3949495
40
0.2803647
50
34.5620046
51
35.6859277
0
ARC
8
DEFAULT_255_2_778
10
11.975232
20
85.3874232
40
0.303223
50
358.1812655
51
33.3226265
0
ARC
8
DEFAULT_255_2_778
10
11.9476272
20
85.3693049
40
0.3307842
50
305.4973932
51
1.4715464
0
ARC
8
DEFAULT_255_2_778
10
11.825272
20
85.5348453
40
0.5366164
50
274.4011471
51
305.8701218
0
ARC
8
DEFAULT_255_2_778
10
11.7816705
20
85.8308728
40
0.8353748
50
269.8924431
51
275.8248885
0
ARC
8
DEFAULT_255_2_778
10
11.7674433
20
85.6467275
40
0.6513509
50
246.2585012
51
271.1136177
0
ARC
8
DEFAULT_255_2_778
10
11.6854052
20
85.460925
40
0.4482433
50
214.9724718
51
246.2954639
0
ARC
8
DEFAULT_255_2_778
10
11.6215877
20
85.4171958
40
0.3708854
50
179.9839576
51
215.087747
0
ARC
8
DEFAULT_255_2_778
10
11.7012664
20
85.4224438
40
0.2295217
50
181.2842368
51
232.2351899
0
ARC
8
DEFAULT_255_2_778
10
11.7587635
20
85.5118685
40
0.3355565
50
233.8254717
51
270.415717
0
ARC
8
DEFAULT_255_2_778
10
11.77998
20
85.7249224
40
0.5489228
50
268.039195
51
270.0127684
0
ARC
8
DEFAULT_255_2_778
10
11.7928033
20
85.5633363
40
0.3875448
50
268.1219164
51
294.5542628
0
ARC
8
DEFAULT_255_2_778
10
11.8426561
20
85.4345379
40
0.2498112
50
296.4303301
51
303.7385509
0
ARC
8
DEFAULT_255_2_778
10
11.9013358
20
85.3607739
40
0.1560761
50
300.8636578
51
0.6335469
0
ARC
8
DEFAULT_255_2_778
10
13.0509639
20
85.3277598
40
0.1848673
50
176.2037498
51
212.9049175
0
ARC
8
DEFAULT_255_2_778
10
12.9795209
20
85.2904775
40
0.1049013
50
217.0102404
51
219.6079392
0
ARC
8
DEFAULT_255_2_778
10
12.9924541
20
85.3160231
40
0.1316491
50
224.5912094
51
274.3836321
0
ARC
8
DEFAULT_255_2_778
10
13.0084584
20
85.4818989
40
0.2971993
50
268.8544209
51
270.0084579
0
ARC
8
DEFAULT_255_2_778
10
12.9918217
20
85.6952786
40
0.5108514
50
271.8711878
51
282.8735078
0
ARC
8
DEFAULT_255_2_778
10
12.880787
20
86.2908711
40
1.1164793
50
281.6184787
51
282.0517482
0
ARC
8
DEFAULT_255_2_778
10
12.9403377
20
85.6378442
40
0.6418568
50
270.3539068
51
285.6886773
0
ARC
8
DEFAULT_255_2_778
10
12.9305435
20
85.29692
40
0.3012347
50
235.5283476
51
272.6178795
0
ARC
8
DEFAULT_255_2_778
10
12.8984634
20
85.2346979
40
0.2319471
50
219.9695487
51
233.3613321
0
ARC
8
DEFAULT_255_2_778
10
12.9885368
20
85.2959259
40
0.3404855
50
184.0709288
51
218.1287595
0
ARC
8
DEFAULT_255_2_778
10
13.2666049
20
85.3386354
40
0.6213048
50
179.8465266
51
186.1796444
0
ARC
8
DEFAULT_255_2_778
10
13.8811232
20
85.5602872
40
0.5648735
50
223.9145281
51
272.1182711
0
ARC
8
DEFAULT_255_2_778
10
13.9147604
20
85.5785668
40
0.6018692
50
185.0159279
51
222.947093
0
ARC
8
DEFAULT_255_2_778
10
14.2166859
20
85.628331
40
0.9072855
50
179.8819952
51
186.4796363
0
ARC
8
DEFAULT_255_2_778
10
14.0844505
20
85.6846772
40
0.7751689
50
154.826822
51
181.0110121
0
ARC
8
DEFAULT_255_2_778
10
13.9030262
20
85.7700547
40
0.5746593
50
123.1835088
51
154.8366993
0
ARC
8
DEFAULT_255_2_778
10
13.873119
20
85.8194384
40
0.516964
50
89.8134356
51
123.4050393
0
ARC
8
DEFAULT_255_2_778
10
13.8888676
20
85.7945658
40
0.5420164
50
62.4035137
51
91.4869862
0
ARC
8
DEFAULT_255_2_778
10
13.9250625
20
85.8858036
40
0.4445082
50
39.7936425
51
61.0901873
0
ARC
8
DEFAULT_255_2_778
10
13.8157433
20
85.806305
40
0.5794532
50
10.7719449
51
38.9151832
0
ARC
8
DEFAULT_255_2_778
10
13.3600543
20
85.7042713
40
1.046291
50
359.4813157
51
11.5970713
0
ARC
8
DEFAULT_255_2_778
10
14.0204821
20
85.6005597
40
0.4898845
50
179.7497186
51
210.7940428
0
ARC
8
DEFAULT_255_2_778
10
13.9363556
20
85.5610579
40
0.3975004
50
212.1110716
51
222.2679562
0
ARC
8
DEFAULT_255_2_778
10
13.904682
20
85.5271391
40
0.3512684
50
221.6486769
51
271.5530657
0
ARC
8
DEFAULT_255_2_778
10
13.9264351
20
85.5612578
40
0.3854523
50
268.1813476
51
298.8974384
0
ARC
8
DEFAULT_255_2_778
10
13.8560453
20
85.6550777
40
0.50187
50
300.7572131
51
322.6496661
0
ARC
8
DEFAULT_255_2_778
10
13.9348226
20
85.5350347
40
0.5393775
50
268.1549701
51
327.5342895
0
ARC
8
DEFAULT_255_2_778
10
13.9023574
20
85.8279337
40
0.8321339
50
269.9962106
51
271.0397039
0
ARC
8
DEFAULT_255_2_778
10
13.8688876
20
85.8601881
40
0.294765
50
88.9085635
51
137.9803183
0
ARC
8
DEFAULT_255_2_778
10
13.9748666
20
85.7701104
40
0.4338137
50
138.5113645
51
169.7062299
0
ARC
8
DEFAULT_255_2_778
10
14.2502807
20
85.6980241
40
0.7180048
50
167.9734703
51
173.0825815
0
ARC
8
DEFAULT_255_2_778
10
13.6891278
20
85.7857219
40
0.4963159
50
1.7870796
51
24.9638816
0
ARC
8
DEFAULT_255_2_778
10
13.8585269
20
85.8568612
40
0.3127973
50
26.2464329
51
41.054618
0
ARC
8
DEFAULT_255_2_778
10
13.8871911
20
85.8776305
40
0.2775593
50
41.7078075
51
92.6202249
0
ARC
8
DEFAULT_255_2_778
10
15.1821054
20
85.4630039
40
0.6596061
50
80.8406211
51
90.3216616
0
ARC
8
DEFAULT_255_2_778
10
15.154867
20
85.8325397
40
0.2910132
50
85.3612131
51
158.8797125
0
ARC
8
DEFAULT_255_2_778
10
15.1797774
20
85.9927567
40
0.3440721
50
88.4303485
51
150.2675044
0
ARC
8
DEFAULT_255_2_778
10
15.2005679
20
86.1056074
40
0.2313716
50
68.5998803
51
92.815657
0
ARC
8
DEFAULT_255_2_778
10
15.2433008
20
86.2326507
40
0.097716
50
63.3683267
51
64.745397
0
ARC
8
DEFAULT_255_2_778
10
17.5136122
20
85.6902252
40
0.765306
50
154.474969
51
180.9078359
0
ARC
8
DEFAULT_255_2_778
10
17.3270766
20
85.78158
40
0.5576153
50
122.0706886
51
154.6865434
0
ARC
8
DEFAULT_255_2_778
10
17.3254219
20
85.7712405
40
0.5655403
50
89.0293445
51
121.3724205
0
ARC
8
DEFAULT_255_2_778
10
17.3545718
20
85.7920772
40
0.5449739
50
41.5999973
51
92.0578811
0
ARC
8
DEFAULT_255_2_778
10
17.2740625
20
85.7299979
40
0.646433
50
6.5020481
51
40.9769364
0
ARC
8
DEFAULT_255_2_778
10
16.9404033
20
85.6705818
40
0.9849035
50
359.8265152
51
7.7383855
0
ARC
8
DEFAULT_255_2_778
10
17.1557279
20
85.6389991
40
0.7696826
50
334.9656998
51
0.9603716
0
ARC
8
DEFAULT_255_2_778
10
17.3551962
20
85.5454216
40
0.5493552
50
302.0113434
51
335.0052425
0
ARC
8
DEFAULT_255_2_778
10
17.3484215
20
85.5681685
40
0.5722692
50
268.9267294
51
301.3792451
0
ARC
8
DEFAULT_255_2_778
10
17.3186807
20
85.5392529
40
0.5435861
50
221.5228248
51
272.005346
0
ARC
8
DEFAULT_255_2_778
10
17.4002943
20
85.6039013
40
0.6475713
50
185.9539584
51
221.0183702
0
ARC
8
DEFAULT_255_2_778
10
17.7279237
20
85.6602358
40
0.9795248
50
179.8500299
51
187.2436035
0
ARC
8
DEFAULT_255_2_778
10
17.6252064
20
85.6387675
40
0.6546319
50
178.8680554
51
199.895851
0
ARC
8
DEFAULT_255_2_778
10
17.4183386
20
85.5709259
40
0.4370741
50
200.7620158
51
217.2447152
0
ARC
8
DEFAULT_255_2_778
10
17.3278068
20
85.4953896
40
0.3193341
50
216.286623
51
271.7219067
0
ARC
8
DEFAULT_255_2_778
10
17.347285
20
85.4938045
40
0.3177586
50
268.2177455
51
324.2601052
0
ARC
8
DEFAULT_255_2_778
10
17.2007925
20
85.5967408
40
0.496793
50
324.4926327
51
351.9419389
0
ARC
8
DEFAULT_255_2_778
10
16.7977759
20
85.6725265
40
0.9066435
50
350.7699605
51
0.3521977
0
ARC
8
DEFAULT_255_2_778
10
17.0704075
20
85.6913278
40
0.6341328
50
358.8047087
51
21.3896958
0
ARC
8
DEFAULT_255_2_778
10
17.2500509
20
85.7535065
40
0.4442512
50
22.37273
51
37.3295158
0
ARC
8
DEFAULT_255_2_778
10
17.3436132
20
85.8337318
40
0.3212833
50
36.0710743
51
91.5357915
0
ARC
8
DEFAULT_255_2_778
10
17.3272373
20
85.8378945
40
0.3171002
50
88.5968328
51
143.9065216
0
ARC
8
DEFAULT_255_2_778
10
17.4578503
20
85.7418283
40
0.4792364
50
143.8249453
51
171.2234306
0
ARC
8
DEFAULT_255_2_778
10
17.8793934
20
85.6586207
40
0.908716
50
170.0938866
51
180.4237778
0
ARC
8
DEFAULT_255_2_778
10
19.7089684
20
86.6590811
40
0.1322146
50
138.7249506
51
181.5522163
0
ARC
8
DEFAULT_255_2_778
10
19.6980109
20
86.6602695
40
0.1233583
50
85.8200867
51
135.7811582
0
ARC
8
DEFAULT_255_2_778
10
19.7158353
20
86.6586522
40
0.12496
50
44.5397499
51
94.0534157
0
ARC
8
DEFAULT_255_2_778
10
19.7072098
20
86.6589657
40
0.1310383
50
358.4843225
51
41.7957006
0
ARC
8
DEFAULT_255_2_778
10
19.7112032
20
86.6516154
40
0.1270585
50
317.514521
51
1.7518547
0
ARC
8
DEFAULT_255_2_778
10
19.7160472
20
86.6563195
40
0.1268427
50
265.9108987
51
314.4682889
0
ARC
8
DEFAULT_255_2_778
10
19.697799
20
86.6546602
40
0.1251993
50
225.2148159
51
274.2155654
0
ARC
8
DEFAULT_255_2_778
10
19.704229
20
86.651248
40
0.1274975
50
178.0890162
51
222.0822088
0
ARC
8
DEFAULT_255_2_778
10
20.6934387
20
85.4943271
40
0.3181722
50
269.0389977
51
309.2394021
0
ARC
8
DEFAULT_255_2_778
10
20.7412662
20
85.4480433
40
0.2521906
50
307.4748424
51
355.2818641
0
ARC
8
DEFAULT_255_2_778
10
20.8035351
20
85.4516557
40
0.3988116
50
323.7615945
51
356.4986749
0
ARC
8
DEFAULT_255_2_778
10
20.7147406
20
85.5075988
40
0.5035546
50
296.204999
51
324.6000715
0
ARC
8
DEFAULT_255_2_778
10
20.6892858
20
85.5393682
40
0.5433705
50
269.8435757
51
297.1339827
0
ARC
8
DEFAULT_255_2_778
10
20.6731098
20
85.5683848
40
0.5725737
50
240.1194247
51
271.4703991
0
ARC
8
DEFAULT_255_2_778
10
20.6506137
20
85.5078058
40
0.5089523
50
221.2396186
51
238.9176532
0
ARC
8
DEFAULT_255_2_778
10
20.7378812
20
85.5746916
40
0.6187079
50
188.4145738
51
220.569854
0
ARC
8
DEFAULT_255_2_778
10
21.1104974
20
85.6492463
40
0.9984079
50
179.7099989
51
189.5179366
0
ARC
8
DEFAULT_255_2_778
10
20.8907502
20
85.705663
40
0.7787785
50
155.6226303
51
181.04943
0
ARC
8
DEFAULT_255_2_778
10
20.6621688
20
85.8091103
40
0.5278786
50
122.2606341
51
155.6094947
0
ARC
8
DEFAULT_255_2_778
10
20.6725575
20
85.7717664
40
0.5651128
50
88.5555867
51
121.1302652
0
ARC
8
DEFAULT_255_2_778
10
20.7042352
20
85.8184142
40
0.5185785
50
48.4488482
51
91.9264543
0
ARC
8
DEFAULT_255_2_778
10
20.7364103
20
85.8611862
40
0.465248
50
0.8883826
51
47.9203415
0
ARC
8
DEFAULT_255_2_778
10
20.6885982
20
85.8532163
40
0.304383
50
2.8592347
51
46.63462
0
ARC
8
DEFAULT_255_2_778
10
20.6946724
20
85.8600875
40
0.2952171
50
46.5759697
51
91.5276075
0
ARC
8
DEFAULT_255_2_778
10
20.6715619
20
85.8459864
40
0.3095886
50
87.1783099
51
142.6054455
0
ARC
8
DEFAULT_255_2_778
10
20.7922749
20
85.769958
40
0.4518482
50
144.2422706
51
171.644272
0
ARC
8
DEFAULT_255_2_778
10
21.2106279
20
85.6895331
40
0.8776485
50
170.4183741
51
180.4134752
0
ARC
8
DEFAULT_255_2_778
10
21.0792821
20
85.6287919
40
0.7463863
50
179.0321332
51
195.5325319
0
ARC
8
DEFAULT_255_2_778
10
20.7511394
20
85.539647
40
0.406361
50
195.8120751
51
216.6465069
0
ARC
8
DEFAULT_255_2_778
10
20.6713102
20
85.4869917
40
0.3109297
50
217.6418207
51
273.0404755
0
ARC
8
DEFAULT_255_2_778
10
22.7086015
20
85.5961475
40
0.560431
50
89.0388555
51
120.0807352
0
ARC
8
DEFAULT_255_2_778
10
22.7328407
20
85.6463304
40
0.510385
50
57.9197741
51
91.6659937
0
ARC
8
DEFAULT_255_2_778
10
22.7522858
20
85.6963044
40
0.4578252
50
41.4384136
51
56.6599843
0
ARC
8
DEFAULT_255_2_778
10
22.6710149
20
85.6346616
40
0.5595985
50
6.2659021
51
40.6628363
0
ARC
8
DEFAULT_255_2_778
10
22.3466331
20
85.5772413
40
0.8885739
50
359.816767
51
7.6635525
0
ARC
8
DEFAULT_255_2_778
10
22.5144628
20
85.5612411
40
0.7208597
50
339.9831984
51
1.045936
0
ARC
8
DEFAULT_255_2_778
10
22.7262141
20
85.4904661
40
0.4977098
50
316.9639294
51
339.2945497
0
ARC
8
DEFAULT_255_2_778
10
22.7328287
20
85.4955677
40
0.4964252
50
274.3501423
51
316.0124968
0
ARC
8
DEFAULT_255_2_778
10
22.6859667
20
85.7790221
40
0.7830241
50
269.8855334
51
276.1963545
0
ARC
8
DEFAULT_255_2_778
10
22.6705143
20
85.5981851
40
0.6023456
50
244.0859012
51
271.3211562
0
ARC
8
DEFAULT_255_2_778
10
22.6263863
20
85.4864428
40
0.4826407
50
228.709439
51
243.000447
0
ARC
8
DEFAULT_255_2_778
10
22.6413916
20
85.4941623
40
0.498381
50
185.9053108
51
227.9988732
0
ARC
8
DEFAULT_255_2_778
10
22.8754773
20
85.5435731
40
0.7367348
50
185.1376313
51
187.8549691
0
ARC
8
DEFAULT_255_2_778
10
22.7388703
20
85.517268
40
0.3901896
50
185.8350187
51
215.0123431
0
ARC
8
DEFAULT_255_2_778
10
22.636019
20
85.4553382
40
0.2705461
50
216.7680285
51
228.5996338
0
ARC
8
DEFAULT_255_2_778
10
22.6673065
20
85.5046498
40
0.3283534
50
230.1949933
51
272.1169762
0
ARC
8
DEFAULT_255_2_778
10
22.6840948
20
85.6982707
40
0.5217709
50
269.4883939
51
270.0008281
0
ARC
8
DEFAULT_255_2_778
10
22.6985015
20
85.474906
40
0.2987536
50
267.2374191
51
319.6558262
0
ARC
8
DEFAULT_255_2_778
10
22.6169649
20
85.5257594
40
0.3940693
50
321.6955774
51
355.4659439
0
ARC
8
DEFAULT_255_2_778
10
22.3352085
20
85.5700346
40
0.6787962
50
353.6201849
51
0.148985
0
ARC
8
DEFAULT_255_2_778
10
22.5815406
20
85.5856447
40
0.4326832
50
358.1663237
51
30.0625539
0
ARC
8
DEFAULT_255_2_778
10
22.6639958
20
85.62309
40
0.3426775
50
31.5503736
51
41.9131157
0
ARC
8
DEFAULT_255_2_778
10
22.6798044
20
85.6353531
40
0.3227249
50
42.1677872
51
92.3800501
0
ARC
8
DEFAULT_255_2_778
10
22.6537115
20
85.5383668
40
0.4196248
50
88.2669287
51
113.318711
0
ARC
8
DEFAULT_255_2_778
10
22.5979524
20
85.6865728
40
0.2615592
50
114.9535436
51
127.313257
0
ARC
8
DEFAULT_255_2_778
10
22.8767654
20
85.748937
40
1.6911836
50
351.4818938
51
0.4256164
0
ARC
8
DEFAULT_255_2_778
10
23.6744485
20
85.6243028
40
0.8838534
50
336.7028001
51
351.8128251
0
ARC
8
DEFAULT_255_2_778
10
23.9872234
20
85.4960705
40
0.5458965
50
325.1846264
51
336.0808451
0
ARC
8
DEFAULT_255_2_778
10
24.0758817
20
85.441041
40
0.4417237
50
274.3404107
51
324.4791188
0
ARC
8
DEFAULT_255_2_778
10
24.022641
20
85.7363999
40
0.7409026
50
269.8578077
51
276.7178748
0
ARC
8
DEFAULT_255_2_778
10
24.0075327
20
85.5849289
40
0.5895786
50
247.3162049
51
271.2896578
0
ARC
8
DEFAULT_255_2_778
10
23.9480068
20
85.4230677
40
0.4173492
50
215.5864214
51
246.2865805
0
ARC
8
DEFAULT_255_2_778
10
24.1486269
20
85.5555798
40
0.6576753
50
193.5197175
51
214.8038108
0
ARC
8
DEFAULT_255_2_778
10
24.7407989
20
85.7097035
40
1.2695204
50
182.6416327
51
194.034899
0
ARC
8
DEFAULT_255_2_778
10
25.351316
20
85.755116
40
1.8815606
50
180.716119
51
183.1661987
0
ARC
8
DEFAULT_255_2_778
10
25.118144
20
86.0393145
40
1.6482884
50
171.3626476
51
180.4315546
0
ARC
8
DEFAULT_255_2_778
10
24.3430644
20
86.1620588
40
0.8635798
50
156.4108802
51
171.6911216
0
ARC
8
DEFAULT_255_2_778
10
24.0412815
20
86.287435
40
0.536874
50
144.8139549
51
155.7848017
0
ARC
8
DEFAULT_255_2_778
10
23.9586338
20
86.3383678
40
0.4400189
50
95.3727867
51
144.0329524
0
ARC
8
DEFAULT_255_2_778
10
24.0160016
20
86.0380659
40
0.7449378
50
89.8153558
51
97.603606
0
ARC
8
DEFAULT_255_2_778
10
24.0315455
20
86.1688267
40
0.6143135
50
68.6882421
51
91.2259321
0
ARC
8
DEFAULT_255_2_778
10
24.0996894
20
86.3594981
40
0.4119554
50
36.2514489
51
67.8795756
0
ARC
8
DEFAULT_255_2_778
10
23.9254161
20
86.2460247
40
0.6197022
50
13.9824658
51
35.1839985
0
ARC
8
DEFAULT_255_2_778
10
23.335078
20
86.0869009
40
1.231053
50
3.2773596
51
14.5302055
0
ARC
8
DEFAULT_255_2_778
10
22.6575788
20
86.0312982
40
1.9106965
50
0.5008288
51
3.7805279
0
ARC
8
DEFAULT_255_2_778
10
22.9508899
20
86.0756784
40
1.3958646
50
359.5041992
51
8.143994
0
ARC
8
DEFAULT_255_2_778
10
23.7319449
20
86.1935854
40
0.6060141
50
7.5698475
51
24.0565149
0
ARC
8
DEFAULT_255_2_778
10
23.9739334
20
86.2934132
40
0.3444316
50
25.3019783
51
31.4066826
0
ARC
8
DEFAULT_255_2_778
10
24.0366718
20
86.3306573
40
0.2714782
50
31.5979251
51
93.9221821
0
ARC
8
DEFAULT_255_2_778
10
23.9995756
20
86.3340012
40
0.2681392
50
86.038077
51
148.6011749
0
ARC
8
DEFAULT_255_2_778
10
24.2105756
20
86.2222365
40
0.5066776
50
150.2446159
51
169.8501786
0
ARC
8
DEFAULT_255_2_778
10
24.8689335
20
86.0904694
40
1.1780323
50
169.1844534
51
179.285021
0
ARC
8
DEFAULT_255_2_778
10
25.4625158
20
86.064733
40
1.7719845
50
178.6924046
51
179.4869556
0
ARC
8
DEFAULT_255_2_778
10
25.054207
20
85.7144675
40
1.3636604
50
179.4818427
51
188.62337
0
ARC
8
DEFAULT_255_2_778
10
24.3057375
20
85.595006
40
0.605769
50
188.0665906
51
205.2448952
0
ARC
8
DEFAULT_255_2_778
10
24.0840113
20
85.4994271
40
0.364546
50
206.5201439
51
211.233577
0
ARC
8
DEFAULT_255_2_778
10
24.006465
20
85.4464863
40
0.2708353
50
210.1635608
51
272.9074062
0
ARC
8
DEFAULT_255_2_778
10
24.0358727
20
85.442681
40
0.2671413
50
266.6371204
51
328.3992388
0
ARC
8
DEFAULT_255_2_778
10
23.8368568
20
85.5533654
40
0.4947468
50
329.5587511
51
349.439502
0
ARC
8
DEFAULT_255_2_778
10
23.1706586
20
85.6928197
40
1.1753148
50
348.7084544
51
358.6745018
0
ARC
8
DEFAULT_255_2_778
10
22.5379631
20
85.7259466
40
1.8087018
50
358.0890086
51
359.2318849
0
LINE
8
DEFAULT_255_2_778
10
22.0266023
20
63.8967996
11
24.0110023
21
63.8967996
0
LINE
8
DEFAULT_255_2_778
10
24.0110023
20
63.8967996
11
24.0110023
21
61.5102996
0
LINE
8
DEFAULT_255_2_778
10
24.0110023
20
61.5102996
11
22.0266023
21
61.5102996
0
LINE
8
DEFAULT_255_2_778
10
22.0266023
20
61.5102996
11
22.0266023
21
63.8967996
0
LINE
8
DEFAULT_255_2_778
10
21.3651023
20
80.4332996
11
23.8118023
21
80.4332996
0
LINE
8
DEFAULT_255_2_778
10
23.8118023
20
80.4332996
11
23.8118023
21
79.1053996
0
LINE
8
DEFAULT_255_2_778
10
23.8118023
20
79.1053996
11
21.3651023
21
79.1053996
0
LINE
8
DEFAULT_255_2_778
10
21.3651023
20
79.1053996
11
21.3651023
21
80.4332996
0
LINE
8
DEFAULT_255_2_778
10
21.3651023
20
77.7874996
11
23.8118023
21
77.7874996
0
LINE
8
DEFAULT_255_2_778
10
23.8118023
20
77.7874996
11
23.8118023
21
76.4645996
0
LINE
8
DEFAULT_255_2_778
10
23.8118023
20
76.4645996
11
21.3651023
21
76.4645996
0
LINE
8
DEFAULT_255_2_778
10
21.3651023
20
76.4645996
11
21.3651023
21
77.7874996
0
LINE
8
DEFAULT_255_2_778
10
21.3651023
20
75.1415996
11
23.8118023
21
75.1415996
0
LINE
8
DEFAULT_255_2_778
10
23.8118023
20
75.1415996
11
23.8118023
21
73.8186996
0
LINE
8
DEFAULT_255_2_778
10
23.8118023
20
73.8186996
11
21.3651023
21
73.8186996
0
LINE
8
DEFAULT_255_2_778
10
21.3651023
20
73.8186996
11
21.3651023
21
75.1415996
0
LINE
8
DEFAULT_255_2_778
10
19.0294023
20
86.1691996
11
19.0403023
21
86.3125996
0
LINE
8
DEFAULT_255_2_778
10
19.0403023
20
86.3125996
11
19.2421023
21
86.3125996
0
LINE
8
DEFAULT_255_2_778
10
19.2421023
20
86.3125996
11
19.2421023
21
85.0507996
0
LINE
8
DEFAULT_255_2_778
10
18.2158023
20
84.7343996
11
18.3304023
21
84.8668996
0
LINE
8
DEFAULT_255_2_778
10
19.0199023
20
85.0375996
11
19.0199023
21
85.1486996
0
LINE
8
DEFAULT_255_2_778
10
18.1499023
20
85.6767996
11
18.1502023
21
85.6767996
0
LINE
8
DEFAULT_255_2_778
10
19.0201023
20
85.3732996
11
19.0201023
21
85.9635996
0
LINE
8
DEFAULT_255_2_778
10
18.3724023
20
85.6516996
11
18.3724023
21
85.6516996
0
LINE
8
DEFAULT_255_2_778
10
7.8714023
20
86.7594996
11
8.1677023
21
86.7594996
0
LINE
8
DEFAULT_255_2_778
10
8.1677023
20
86.7594996
11
8.7366023
21
85.3399996
0
LINE
8
DEFAULT_255_2_778
10
8.7366023
20
85.3399996
11
9.3054023
21
86.7594996
0
LINE
8
DEFAULT_255_2_778
10
9.3054023
20
86.7594996
11
9.6028023
21
86.7594996
0
LINE
8
DEFAULT_255_2_778
10
9.6028023
20
86.7594996
11
9.6028023
21
85.0195996
0
LINE
8
DEFAULT_255_2_778
10
9.6028023
20
85.0195996
11
9.3734023
21
85.0195996
0
LINE
8
DEFAULT_255_2_778
10
9.3734023
20
85.0195996
11
9.3734023
21
85.6971996
0
LINE
8
DEFAULT_255_2_778
10
9.3734023
20
85.6971996
11
9.3949023
21
86.4284996
0
LINE
8
DEFAULT_255_2_778
10
9.3949023
20
86.4284996
11
8.8236023
21
85.0195996
0
LINE
8
DEFAULT_255_2_778
10
8.8236023
20
85.0195996
11
8.6480023
21
85.0195996
0
LINE
8
DEFAULT_255_2_778
10
8.6480023
20
85.0195996
11
8.0780023
21
86.4247996
0
LINE
8
DEFAULT_255_2_778
10
8.0780023
20
86.4247996
11
8.1008023
21
85.6971996
0
LINE
8
DEFAULT_255_2_778
10
8.1008023
20
85.6971996
11
8.1008023
21
85.0195996
0
LINE
8
DEFAULT_255_2_778
10
8.1008023
20
85.0195996
11
7.8714023
21
85.0195996
0
LINE
8
DEFAULT_255_2_778
10
7.8714023
20
85.0195996
11
7.8714023
21
86.7594996
0
LINE
8
DEFAULT_255_2_778
10
7.8714023
20
86.7594996
11
7.8714023
21
86.7594996
0
LINE
8
DEFAULT_255_2_778
10
11.0033023
20
85.0195996
11
10.7715023
21
85.0195996
0
LINE
8
DEFAULT_255_2_778
10
10.5217023
20
85.8034996
11
10.7368023
21
85.8034996
0
LINE
8
DEFAULT_255_2_778
10
10.7368023
20
85.8034996
11
10.7368023
21
85.9050996
0
LINE
8
DEFAULT_255_2_778
10
10.1847023
20
85.9540996
11
9.9624023
21
85.9540996
0
LINE
8
DEFAULT_255_2_778
10
10.9578023
20
85.9172996
11
10.9578023
21
85.3222996
0
LINE
8
DEFAULT_255_2_778
10
11.0033023
20
85.0391996
11
11.0033023
21
85.0200996
0
LINE
8
DEFAULT_255_2_778
10
11.0033023
20
85.0200996
11
11.0033023
21
85.0195996
0
LINE
8
DEFAULT_255_2_778
10
10.7366023
20
85.3814996
11
10.7366023
21
85.6468996
0
LINE
8
DEFAULT_255_2_778
10
10.7366023
20
85.6468996
11
10.5633023
21
85.6468996
0
LINE
8
DEFAULT_255_2_778
10
10.4045023
20
85.1880996
11
10.4045023
21
85.1880996
0
LINE
8
DEFAULT_255_2_778
10
12.2661023
20
85.9320996
11
12.0439023
21
85.9320996
0
LINE
8
DEFAULT_255_2_778
10
11.2507023
20
85.4172996
11
11.4718023
21
85.4172996
0
LINE
8
DEFAULT_255_2_778
10
12.0574023
20
85.3624996
11
12.0571023
21
85.3624996
0
LINE
8
DEFAULT_255_2_778
10
12.6453023
20
86.6255996
11
12.8665023
21
86.6255996
0
LINE
8
DEFAULT_255_2_778
10
12.8665023
20
86.6255996
11
12.8665023
21
86.3125996
0
LINE
8
DEFAULT_255_2_778
10
12.8665023
20
86.3125996
11
13.1078023
21
86.3125996
0
LINE
8
DEFAULT_255_2_778
10
13.1078023
20
86.3125996
11
13.1078023
21
86.1416996
0
LINE
8
DEFAULT_255_2_778
10
13.1078023
20
86.1416996
11
12.8665023
21
86.1416996
0
LINE
8
DEFAULT_255_2_778
10
12.8665023
20
86.1416996
11
12.8665023
21
85.3399996
0
LINE
8
DEFAULT_255_2_778
10
13.1139023
20
85.1989996
11
13.1139023
21
85.0198996
0
LINE
8
DEFAULT_255_2_778
10
12.6453023
20
85.3402996
11
12.6453023
21
86.1419996
0
LINE
8
DEFAULT_255_2_778
10
12.6453023
20
86.1419996
11
12.4098023
21
86.1419996
0
LINE
8
DEFAULT_255_2_778
10
12.4098023
20
86.1419996
11
12.4098023
21
86.3128996
0
LINE
8
DEFAULT_255_2_778
10
12.4098023
20
86.3128996
11
12.6453023
21
86.3128996
0
LINE
8
DEFAULT_255_2_778
10
12.6453023
20
86.3128996
11
12.6453023
21
86.6258996
0
LINE
8
DEFAULT_255_2_778
10
12.6453023
20
86.6258996
11
12.6453023
21
86.6255996
0
LINE
8
DEFAULT_255_2_778
10
13.3094023
20
85.6301996
11
13.3094023
21
85.6709996
0
LINE
8
DEFAULT_255_2_778
10
14.4063023
20
85.6947996
11
14.4063023
21
85.6026996
0
LINE
8
DEFAULT_255_2_778
10
14.4063023
20
85.6026996
11
13.5306023
21
85.6026996
0
LINE
8
DEFAULT_255_2_778
10
14.2550023
20
85.3505996
11
14.3899023
21
85.2454996
0
LINE
8
DEFAULT_255_2_778
10
13.9023023
20
84.9957996
11
13.9020023
21
84.9957996
0
LINE
8
DEFAULT_255_2_778
10
13.5375023
20
85.7844996
11
14.1852023
21
85.7844996
0
LINE
8
DEFAULT_255_2_778
10
14.1852023
20
85.7844996
11
14.1852023
21
85.8011996
0
LINE
8
DEFAULT_255_2_778
10
13.8745023
20
86.1548996
11
13.8745023
21
86.1548996
0
LINE
8
DEFAULT_255_2_778
10
15.2871023
20
86.3197996
11
15.2871023
21
86.1141996
0
LINE
8
DEFAULT_255_2_778
10
14.8834023
20
85.9373996
11
14.8834023
21
85.0198996
0
LINE
8
DEFAULT_255_2_778
10
14.8834023
20
85.0198996
11
14.6622023
21
85.0198996
0
LINE
8
DEFAULT_255_2_778
10
14.6622023
20
85.0198996
11
14.6622023
21
86.3125996
0
LINE
8
DEFAULT_255_2_778
10
14.6622023
20
86.3125996
11
14.8773023
21
86.3125996
0
LINE
8
DEFAULT_255_2_778
10
14.8773023
20
86.3125996
11
14.8810023
21
86.1633996
0
LINE
8
DEFAULT_255_2_778
10
15.2871023
20
86.3199996
11
15.2871023
21
86.3197996
0
LINE
8
DEFAULT_255_2_778
10
15.7557023
20
86.7594996
11
15.7557023
21
85.2073996
0
LINE
8
DEFAULT_255_2_778
10
15.7557023
20
85.2073996
11
16.5802023
21
85.2073996
0
LINE
8
DEFAULT_255_2_778
10
16.5802023
20
85.2073996
11
16.5802023
21
85.0198996
0
LINE
8
DEFAULT_255_2_778
10
16.5802023
20
85.0198996
11
15.5250023
21
85.0198996
0
LINE
8
DEFAULT_255_2_778
10
15.5250023
20
85.0198996
11
15.5250023
21
86.7594996
0
LINE
8
DEFAULT_255_2_778
10
15.5250023
20
86.7594996
11
15.7557023
21
86.7594996
0
LINE
8
DEFAULT_255_2_778
10
15.7557023
20
86.7594996
11
15.7557023
21
86.7594996
0
LINE
8
DEFAULT_255_2_778
10
16.7484023
20
85.6624996
11
16.7484023
21
85.6780996
0
LINE
8
DEFAULT_255_2_778
10
17.9253023
20
85.6675996
11
17.9253023
21
85.6518996
0
LINE
8
DEFAULT_255_2_778
10
16.7484023
20
85.6627996
11
16.7484023
21
85.6624996
0
LINE
8
DEFAULT_255_2_778
10
16.9707023
20
85.6518996
11
16.9707023
21
85.6516996
0
LINE
8
DEFAULT_255_2_778
10
19.8157023
20
86.3125996
11
19.8157023
21
85.0195996
0
LINE
8
DEFAULT_255_2_778
10
19.8157023
20
85.0195996
11
19.5946023
21
85.0195996
0
LINE
8
DEFAULT_255_2_778
10
19.5946023
20
85.0195996
11
19.5946023
21
86.3122996
0
LINE
8
DEFAULT_255_2_778
10
19.5946023
20
86.3122996
11
19.8157023
21
86.3122996
0
LINE
8
DEFAULT_255_2_778
10
19.8157023
20
86.3122996
11
19.8157023
21
86.3125996
0
LINE
8
DEFAULT_255_2_778
10
19.5768023
20
86.6554996
11
19.5768023
21
86.6554996
0
LINE
8
DEFAULT_255_2_778
10
20.9926023
20
85.4272996
11
21.2016023
21
85.4272996
0
LINE
8
DEFAULT_255_2_778
10
20.1121023
20
85.6542996
11
20.1121023
21
85.6913996
0
LINE
8
DEFAULT_255_2_778
10
21.2016023
20
85.8683996
11
20.9926023
21
85.8683996
0
LINE
8
DEFAULT_255_2_778
10
20.3330023
20
85.6831996
11
20.3330023
21
85.6413996
0
LINE
8
DEFAULT_255_2_778
10
20.6878023
20
85.1764996
11
20.6881023
21
85.1761996
0
LINE
8
DEFAULT_255_2_778
10
21.9105023
20
85.8487996
11
21.9105023
21
85.6682996
0
LINE
8
DEFAULT_255_2_778
10
21.9105023
20
85.6682996
11
21.3273023
21
85.6682996
0
LINE
8
DEFAULT_255_2_778
10
21.3273023
20
85.6682996
11
21.3273023
21
85.8487996
0
LINE
8
DEFAULT_255_2_778
10
21.3273023
20
85.8487996
11
21.9105023
21
85.8487996
0
LINE
8
DEFAULT_255_2_778
10
21.9105023
20
85.8487996
11
21.9105023
21
85.8487996
0
LINE
8
DEFAULT_255_2_778
10
22.3811023
20
85.8466996
11
22.2044023
21
85.8921996
0
LINE
8
DEFAULT_255_2_778
10
22.2044023
20
85.8921996
11
22.2928023
21
86.7597996
0
LINE
8
DEFAULT_255_2_778
10
22.2928023
20
86.7597996
11
23.1842023
21
86.7597996
0
LINE
8
DEFAULT_255_2_778
10
23.1842023
20
86.7597996
11
23.1842023
21
86.5554996
0
LINE
8
DEFAULT_255_2_778
10
23.1842023
20
86.5554996
11
22.4804023
21
86.5554996
0
LINE
8
DEFAULT_255_2_778
10
22.4804023
20
86.5554996
11
22.4277023
21
86.0810996
0
LINE
8
DEFAULT_255_2_778
10
22.1417023
20
85.4775996
11
22.3507023
21
85.4775996
0
LINE
8
DEFAULT_255_2_778
10
22.4394023
20
85.8945996
11
22.3809023
21
85.8466996
0
LINE
8
DEFAULT_255_2_778
10
22.3809023
20
85.8466996
11
22.3811023
21
85.8466996
0
LINE
8
DEFAULT_255_2_778
10
24.5679023
20
86.0482996
11
24.5679023
21
85.7614996
0
LINE
8
DEFAULT_255_2_778
10
23.4699023
20
85.7315996
11
23.4699023
21
86.0268996
0
LINE
8
DEFAULT_255_2_778
10
24.5682023
20
86.0479996
11
24.5679023
21
86.0482996
0
LINE
8
DEFAULT_255_2_778
10
24.3467023
20
85.7016996
11
24.3467023
21
86.0635996
0
LINE
8
DEFAULT_255_2_778
10
23.6906023
20
86.0805996
11
23.6906023
21
85.7267996
0
LINE
8
DEFAULT_255_2_778
10
24.3465023
20
85.7016996
11
24.3467023
21
85.7016996
0
ARC
8
DEFAULT_255_2_778
10
12.2248152
20
82.5102998
40
0.5120373
50
60.7692526
51
91.1479024
0
ARC
8
DEFAULT_255_2_778
10
12.2555159
20
82.5748052
40
0.4407792
50
26.5660269
51
60.1571852
0
ARC
8
DEFAULT_255_2_778
10
12.1088808
20
82.5045953
40
0.6033388
50
359.1774893
51
26.3018043
0
ARC
8
DEFAULT_255_2_778
10
12.1063924
20
82.4105267
40
0.6059156
50
333.9077603
51
1.2774026
0
ARC
8
DEFAULT_255_2_778
10
12.262584
20
82.3381431
40
0.4338221
50
299.2498139
51
333.4205381
0
ARC
8
DEFAULT_255_2_778
10
12.2145327
20
82.4394
40
0.5456994
50
269.3621059
51
298.4569276
0
ARC
8
DEFAULT_255_2_778
10
12.2161473
20
82.3761602
40
0.3612206
50
267.6851651
51
305.6004089
0
ARC
8
DEFAULT_255_2_778
10
12.2405603
20
82.3266154
40
0.3068561
50
307.2794848
51
318.2121247
0
ARC
8
DEFAULT_255_2_778
10
12.1740852
20
82.3721931
40
0.3869303
50
319.7395658
51
354.2612836
0
ARC
8
DEFAULT_255_2_778
10
11.8771308
20
82.4240591
40
0.6879316
50
352.4359062
51
0.214485
0
ARC
8
DEFAULT_255_2_778
10
12.0146718
20
82.5053379
40
0.5505345
50
358.6673793
51
20.3938704
0
ARC
8
DEFAULT_255_2_778
10
12.2157032
20
82.5737641
40
0.338311
50
21.3959383
51
40.0018237
0
ARC
8
DEFAULT_255_2_778
10
12.2356446
20
82.5809007
40
0.3185326
50
41.32434
51
91.6464738
0
ARC
8
DEFAULT_255_2_778
10
12.213815
20
82.386244
40
0.5132143
50
88.5845379
51
89.4482144
0
ARC
8
DEFAULT_255_2_778
10
13.3225255
20
82.4642507
40
0.5581275
50
70.6415169
51
91.3005814
0
ARC
8
DEFAULT_255_2_778
10
13.3947846
20
82.6851808
40
0.3257752
50
50.1906248
51
69.7516251
0
ARC
8
DEFAULT_255_2_778
10
13.4020949
20
82.7084421
40
0.3033679
50
359.4770071
51
48.4382303
0
ARC
8
DEFAULT_255_2_778
10
13.1955323
20
82.6829232
40
0.5104251
50
359.9788023
51
2.5545348
0
ARC
8
DEFAULT_255_2_778
10
13.4020653
20
82.6762974
40
0.3039603
50
324.3487986
51
1.2134399
0
ARC
8
DEFAULT_255_2_778
10
13.3775044
20
82.7014202
40
0.3386157
50
289.5037229
51
323.3167529
0
ARC
8
DEFAULT_255_2_778
10
13.3279674
20
82.7301458
40
0.2585699
50
266.9828006
51
309.047542
0
ARC
8
DEFAULT_255_2_778
10
13.3629731
20
82.6747494
40
0.193649
50
311.3298025
51
2.3632034
0
ARC
8
DEFAULT_255_2_778
10
13.3532972
20
82.6960371
40
0.2035953
50
356.2536662
51
46.2611344
0
ARC
8
DEFAULT_255_2_778
10
13.3371243
20
82.6502361
40
0.248672
50
50.8698002
51
89.5807433
0
ARC
8
DEFAULT_255_2_778
10
13.3110219
20
82.436172
40
0.463571
50
86.5468452
51
89.6495408
0
ARC
8
DEFAULT_255_2_778
10
15.2983784
20
82.5039327
40
0.3974595
50
89.0227258
51
124.2693861
0
ARC
8
DEFAULT_255_2_778
10
15.2660952
20
82.5671038
40
0.3271976
50
125.8266329
51
134.0845689
0
ARC
8
DEFAULT_255_2_778
10
15.3179879
20
82.5272733
40
0.392028
50
135.48257
51
173.141629
0
ARC
8
DEFAULT_255_2_778
10
15.5503993
20
82.4761535
40
0.6293012
50
171.0470468
51
174.9329446
0
ARC
8
DEFAULT_255_2_778
10
15.1523201
20
82.3281526
40
0.3062318
50
87.2603278
51
138.333295
0
ARC
8
DEFAULT_255_2_778
10
15.178472
20
82.3417219
40
0.2925392
50
40.0951554
51
92.2557941
0
ARC
8
DEFAULT_255_2_778
10
15.0944861
20
82.2812025
40
0.3958412
50
358.8578368
51
38.9666462
0
ARC
8
DEFAULT_255_2_778
10
14.8887656
20
82.2618712
40
0.6015917
50
359.9964952
51
1.0897115
0
ARC
8
DEFAULT_255_2_778
10
15.0598896
20
82.2479157
40
0.4306928
50
330.1726887
51
1.851945
0
ARC
8
DEFAULT_255_2_778
10
15.1457928
20
82.2089965
40
0.3369307
50
317.7910903
51
328.6482247
0
ARC
8
DEFAULT_255_2_778
10
15.1553255
20
82.2050403
40
0.3272304
50
267.4483865
51
317.1827907
0
ARC
8
DEFAULT_255_2_778
10
15.1324533
20
82.2001748
40
0.3221475
50
217.8436743
51
271.4771002
0
ARC
8
DEFAULT_255_2_778
10
15.251792
20
82.2932442
40
0.4734868
50
181.5054738
51
217.8775971
0
ARC
8
DEFAULT_255_2_778
10
15.4962407
20
82.3225223
40
0.7189833
50
179.9671591
51
183.3263553
0
ARC
8
DEFAULT_255_2_778
10
15.8414514
20
82.3906357
40
1.0642698
50
167.0967464
51
180.6838016
0
ARC
8
DEFAULT_255_2_778
10
15.3583644
20
82.5060734
40
0.5676225
50
142.1666287
51
167.565796
0
ARC
8
DEFAULT_255_2_778
10
15.259286
20
82.5646226
40
0.4536911
50
95.5287456
51
140.3314269
0
ARC
8
DEFAULT_255_2_778
10
15.3144769
20
82.2763239
40
0.7464603
50
90.6616152
51
97.6137544
0
ARC
8
DEFAULT_255_2_778
10
15.1428169
20
82.285171
40
0.2293636
50
89.9149458
51
126.1678297
0
ARC
8
DEFAULT_255_2_778
10
15.1383188
20
82.2800595
40
0.2309312
50
124.5182127
51
159.896535
0
ARC
8
DEFAULT_255_2_778
10
15.3217038
20
82.2937207
40
0.4004612
50
178.1234386
51
206.6062035
0
ARC
8
DEFAULT_255_2_778
10
15.2089756
20
82.2467751
40
0.2787755
50
208.3558395
51
216.2495332
0
ARC
8
DEFAULT_255_2_778
10
15.1415961
20
82.1847934
40
0.188061
50
213.1577095
51
269.7444885
0
ARC
8
DEFAULT_255_2_778
10
15.1483592
20
82.1793219
40
0.1827458
50
267.6159527
51
322.4054847
0
ARC
8
DEFAULT_255_2_778
10
15.0519478
20
82.2408272
40
0.2968309
50
324.352334
51
2.6660976
0
ARC
8
DEFAULT_255_2_778
10
15.0521779
20
82.2686288
40
0.2966098
50
357.2957073
51
35.8956545
0
ARC
8
DEFAULT_255_2_778
10
15.1485959
20
82.3342661
40
0.1800504
50
36.9646335
51
91.7309001
0
ARC
8
DEFAULT_255_2_778
10
16.2943048
20
83.3609571
40
0.999776
50
243.7316112
51
254.6742467
0
ARC
8
DEFAULT_255_2_778
10
16.0507053
20
82.8684895
40
0.450354
50
228.3581213
51
243.7937756
0
ARC
8
DEFAULT_255_2_778
10
15.9222131
20
82.7254655
40
0.2580926
50
179.0300868
51
228.5775234
0
ARC
8
DEFAULT_255_2_778
10
15.9374516
20
82.7339253
40
0.2733248
50
127.5805277
51
180.8575872
0
ARC
8
DEFAULT_255_2_778
10
16.0229958
20
82.6270657
40
0.4101904
50
90.3862627
51
127.9468312
0
ARC
8
DEFAULT_255_2_778
10
16.0475454
20
82.4024879
40
0.6353465
50
89.9808764
51
92.4640247
0
ARC
8
DEFAULT_255_2_778
10
16.0559394
20
82.5746598
40
0.4632468
50
64.5157473
51
91.0120297
0
ARC
8
DEFAULT_255_2_778
10
16.1089952
20
82.6845034
40
0.3412632
50
32.6734261
51
64.6218598
0
ARC
8
DEFAULT_255_2_778
10
16.1292936
20
82.6978552
40
0.316969
50
359.6708654
51
32.6226455
0
ARC
8
DEFAULT_255_2_778
10
16.092033
20
82.7067294
40
0.2050036
50
357.0095183
51
47.0716827
0
ARC
8
DEFAULT_255_2_778
10
16.0697091
20
82.660468
40
0.2545329
50
50.4867315
51
90.7793209
0
ARC
8
DEFAULT_255_2_778
10
16.0482206
20
82.4600711
40
0.4552632
50
87.7307329
51
90.0205356
0
ARC
8
DEFAULT_255_2_778
10
16.0353164
20
82.6226881
40
0.2929235
50
87.5070737
51
118.5820594
0
ARC
8
DEFAULT_255_2_778
10
15.9910618
20
82.7207551
40
0.1858103
50
121.0667999
51
128.1206776
0
ARC
8
DEFAULT_255_2_778
10
15.97573
20
82.7399521
40
0.1612433
50
128.0456882
51
182.636742
0
ARC
8
DEFAULT_255_2_778
10
15.9598901
20
82.7323248
40
0.1452329
50
179.9173228
51
233.3305509
0
ARC
8
DEFAULT_255_2_778
10
16.1097399
20
82.9309878
40
0.3940723
50
233.1048143
51
250.3979813
0
ARC
8
DEFAULT_255_2_778
10
16.3506358
20
83.5333628
40
1.0426501
50
249.0324397
51
254.5203963
0
ARC
8
DEFAULT_255_2_778
10
15.7800157
20
81.439911
40
1.1271932
50
66.0862183
51
74.9682835
0
ARC
8
DEFAULT_255_2_778
10
16.0054637
20
81.9603249
40
0.5600864
50
59.163604
51
65.5889362
0
ARC
8
DEFAULT_255_2_778
10
16.1288855
20
82.1501053
40
0.3339829
50
32.5977149
51
60.6554307
0
ARC
8
DEFAULT_255_2_778
10
16.1656191
20
82.1875205
40
0.283122
50
358.606304
51
30.2229087
0
ARC
8
DEFAULT_255_2_778
10
16.1849603
20
82.1728918
40
0.2638108
50
306.4666326
51
1.6818081
0
ARC
8
DEFAULT_255_2_778
10
16.0953614
20
82.2978498
40
0.4175617
50
273.4352072
51
306.1628856
0
ARC
8
DEFAULT_255_2_778
10
16.0569434
20
82.5722527
40
0.6941194
50
269.9021034
51
275.2437981
0
ARC
8
DEFAULT_255_2_778
10
16.0514494
20
82.4084665
40
0.5303496
50
246.3567265
51
270.4654196
0
ARC
8
DEFAULT_255_2_778
10
15.9784529
20
82.2599517
40
0.3650997
50
216.1003668
51
247.5037569
0
ARC
8
DEFAULT_255_2_778
10
15.9274525
20
82.2168279
40
0.2985219
50
179.2310024
51
215.1802263
0
ARC
8
DEFAULT_255_2_778
10
15.9726549
20
82.2131786
40
0.1943484
50
177.7424195
51
232.4309524
0
ARC
8
DEFAULT_255_2_778
10
16.0358625
20
82.3089064
40
0.3088734
50
233.9647156
51
270.8380313
0
ARC
8
DEFAULT_255_2_778
10
16.0558674
20
82.5173064
40
0.5174722
50
268.2849525
51
270.0099698
0
ARC
8
DEFAULT_255_2_778
10
16.0682144
20
82.338629
40
0.3390163
50
267.9280433
51
293.6510499
0
ARC
8
DEFAULT_255_2_778
10
16.1213963
20
82.1997258
40
0.1905742
50
295.7585355
51
307.2529372
0
ARC
8
DEFAULT_255_2_778
10
16.1433112
20
82.1732651
40
0.1562528
50
306.7300299
51
2.1159969
0
ARC
8
DEFAULT_255_2_778
10
16.1461997
20
82.1868634
40
0.1534575
50
357.0756303
51
51.7247688
0
ARC
8
DEFAULT_255_2_778
10
16.0056525
20
81.9777947
40
0.4051001
50
54.4370654
51
69.7547923
0
ARC
8
DEFAULT_255_2_778
10
15.6915985
20
81.199278
40
1.2444515
50
68.5919485
51
74.2038597
0
LINE
8
DEFAULT_255_2_778
10
7.8319574
20
83.0222344
11
8.0243574
21
83.0222344
0
LINE
8
DEFAULT_255_2_778
10
8.0243574
20
83.0222344
11
8.3931574
21
82.1014344
0
LINE
8
DEFAULT_255_2_778
10
8.3931574
20
82.1014344
11
8.7622574
21
83.0222344
0
LINE
8
DEFAULT_255_2_778
10
8.7622574
20
83.0222344
11
8.9553574
21
83.0222344
0
LINE
8
DEFAULT_255_2_778
10
8.9553574
20
83.0222344
11
8.9553574
21
81.8935344
0
LINE
8
DEFAULT_255_2_778
10
8.9553574
20
81.8935344
11
8.8066574
21
81.8935344
0
LINE
8
DEFAULT_255_2_778
10
8.8066574
20
81.8935344
11
8.8066574
21
82.3330344
0
LINE
8
DEFAULT_255_2_778
10
8.8066574
20
82.3330344
11
8.8206574
21
82.8073344
0
LINE
8
DEFAULT_255_2_778
10
8.8206574
20
82.8073344
11
8.4502574
21
81.8935344
0
LINE
8
DEFAULT_255_2_778
10
8.4502574
20
81.8935344
11
8.3362574
21
81.8935344
0
LINE
8
DEFAULT_255_2_778
10
8.3362574
20
81.8935344
11
7.9663574
21
82.8050344
0
LINE
8
DEFAULT_255_2_778
10
7.9663574
20
82.8050344
11
7.9811574
21
82.3330344
0
LINE
8
DEFAULT_255_2_778
10
7.9811574
20
82.3330344
11
7.9811574
21
81.8935344
0
LINE
8
DEFAULT_255_2_778
10
7.9811574
20
81.8935344
11
7.8324574
21
81.8935344
0
LINE
8
DEFAULT_255_2_778
10
7.8324574
20
81.8935344
11
7.8324574
21
83.0222344
0
LINE
8
DEFAULT_255_2_778
10
7.8324574
20
83.0222344
11
7.8319574
21
83.0222344
0
LINE
8
DEFAULT_255_2_778
10
9.3673574
20
83.0222344
11
9.3673574
21
82.0152344
0
LINE
8
DEFAULT_255_2_778
10
9.3673574
20
82.0152344
11
9.9023574
21
82.0152344
0
LINE
8
DEFAULT_255_2_778
10
9.9023574
20
82.0152344
11
9.9023574
21
81.8935344
0
LINE
8
DEFAULT_255_2_778
10
9.9023574
20
81.8935344
11
9.2178574
21
81.8935344
0
LINE
8
DEFAULT_255_2_778
10
9.2178574
20
81.8935344
11
9.2178574
21
83.0222344
0
LINE
8
DEFAULT_255_2_778
10
9.2178574
20
83.0222344
11
9.3673574
21
83.0222344
0
LINE
8
DEFAULT_255_2_778
10
9.3673574
20
83.0222344
11
9.3673574
21
83.0222344
0
LINE
8
DEFAULT_255_2_778
10
10.0721574
20
83.0222344
11
10.2645574
21
83.0222344
0
LINE
8
DEFAULT_255_2_778
10
10.2645574
20
83.0222344
11
10.6336574
21
82.1014344
0
LINE
8
DEFAULT_255_2_778
10
10.6336574
20
82.1014344
11
11.0027574
21
83.0222344
0
LINE
8
DEFAULT_255_2_778
10
11.0027574
20
83.0222344
11
11.1958574
21
83.0222344
0
LINE
8
DEFAULT_255_2_778
10
11.1958574
20
83.0222344
11
11.1958574
21
81.8935344
0
LINE
8
DEFAULT_255_2_778
10
11.1958574
20
81.8935344
11
11.0471574
21
81.8935344
0
LINE
8
DEFAULT_255_2_778
10
11.0471574
20
81.8935344
11
11.0471574
21
82.3330344
0
LINE
8
DEFAULT_255_2_778
10
11.0471574
20
82.3330344
11
11.0611574
21
82.8073344
0
LINE
8
DEFAULT_255_2_778
10
11.0611574
20
82.8073344
11
10.6907574
21
81.8935344
0
LINE
8
DEFAULT_255_2_778
10
10.6907574
20
81.8935344
11
10.5767574
21
81.8935344
0
LINE
8
DEFAULT_255_2_778
10
10.5767574
20
81.8935344
11
10.2068574
21
82.8050344
0
LINE
8
DEFAULT_255_2_778
10
10.2068574
20
82.8050344
11
10.2216574
21
82.3330344
0
LINE
8
DEFAULT_255_2_778
10
10.2216574
20
82.3330344
11
10.2216574
21
81.8935344
0
LINE
8
DEFAULT_255_2_778
10
10.2216574
20
81.8935344
11
10.0729574
21
81.8935344
0
LINE
8
DEFAULT_255_2_778
10
10.0729574
20
81.8935344
11
10.0729574
21
83.0222344
0
LINE
8
DEFAULT_255_2_778
10
10.0729574
20
83.0222344
11
10.0721574
21
83.0222344
0
LINE
8
DEFAULT_255_2_778
10
11.7340574
20
82.4316344
11
11.7340574
21
82.3147344
0
LINE
8
DEFAULT_255_2_778
10
11.7340574
20
82.3147344
11
11.3556574
21
82.3147344
0
LINE
8
DEFAULT_255_2_778
10
11.3556574
20
82.3147344
11
11.3556574
21
82.4316344
0
LINE
8
DEFAULT_255_2_778
10
11.3556574
20
82.4316344
11
11.7340574
21
82.4316344
0
LINE
8
DEFAULT_255_2_778
10
11.7340574
20
82.4316344
11
11.7340574
21
82.4316344
0
LINE
8
DEFAULT_255_2_778
10
12.2084574
20
81.8935344
11
11.8959574
21
81.8935344
0
LINE
8
DEFAULT_255_2_778
10
11.8959574
20
81.8935344
11
11.8959574
21
83.0222344
0
LINE
8
DEFAULT_255_2_778
10
11.8959574
20
83.0222344
11
12.2145574
21
83.0222344
0
LINE
8
DEFAULT_255_2_778
10
12.7121574
20
82.4959344
11
12.7121574
21
82.4240344
0
LINE
8
DEFAULT_255_2_778
10
12.2084574
20
81.8937344
11
12.2084574
21
81.8935344
0
LINE
8
DEFAULT_255_2_778
10
12.2184574
20
82.8997344
11
12.0449574
21
82.8997344
0
LINE
8
DEFAULT_255_2_778
10
12.0449574
20
82.8997344
11
12.0449574
21
82.0152344
0
LINE
8
DEFAULT_255_2_778
10
12.0449574
20
82.0152344
11
12.2015574
21
82.0152344
0
LINE
8
DEFAULT_255_2_778
10
12.5650574
20
82.4266344
11
12.5650574
21
82.4925344
0
LINE
8
DEFAULT_255_2_778
10
12.2187574
20
82.8994344
11
12.2184574
21
82.8997344
0
LINE
8
DEFAULT_255_2_778
10
13.5958574
20
81.8935344
11
13.3508574
21
82.3501344
0
LINE
8
DEFAULT_255_2_778
10
13.3508574
20
82.3501344
11
13.0857574
21
82.3501344
0
LINE
8
DEFAULT_255_2_778
10
13.0857574
20
82.3501344
11
13.0857574
21
81.8935344
0
LINE
8
DEFAULT_255_2_778
10
13.0857574
20
81.8935344
11
12.9362574
21
81.8935344
0
LINE
8
DEFAULT_255_2_778
10
12.9362574
20
81.8935344
11
12.9362574
21
83.0222344
0
LINE
8
DEFAULT_255_2_778
10
12.9362574
20
83.0222344
11
13.3098574
21
83.0222344
0
LINE
8
DEFAULT_255_2_778
10
13.4905574
20
82.3822344
11
13.7557574
21
81.9030344
0
LINE
8
DEFAULT_255_2_778
10
13.7557574
20
81.9030344
11
13.7557574
21
81.8937344
0
LINE
8
DEFAULT_255_2_778
10
13.7557574
20
81.8937344
11
13.5961574
21
81.8937344
0
LINE
8
DEFAULT_255_2_778
10
13.5961574
20
81.8937344
11
13.5958574
21
81.8935344
0
LINE
8
DEFAULT_255_2_778
10
13.0857574
20
82.8997344
11
13.0857574
21
82.4719344
0
LINE
8
DEFAULT_255_2_778
10
13.0857574
20
82.4719344
11
13.3143574
21
82.4719344
0
LINE
8
DEFAULT_255_2_778
10
13.3138574
20
82.8997344
11
13.0860574
21
82.8997344
0
LINE
8
DEFAULT_255_2_778
10
13.0860574
20
82.8997344
11
13.0857574
21
82.8997344
0
LINE
8
DEFAULT_255_2_778
10
14.3486574
20
83.0277344
11
14.3486574
21
81.8937344
0
LINE
8
DEFAULT_255_2_778
10
14.3486574
20
81.8937344
11
14.2044574
21
81.8937344
0
LINE
8
DEFAULT_255_2_778
10
14.2044574
20
81.8937344
11
14.2044574
21
82.8494344
0
LINE
8
DEFAULT_255_2_778
10
14.2044574
20
82.8494344
11
13.9152574
21
82.7433344
0
LINE
8
DEFAULT_255_2_778
10
13.9152574
20
82.7433344
11
13.9152574
21
82.8735344
0
LINE
8
DEFAULT_255_2_778
10
13.9152574
20
82.8735344
11
14.3261574
21
83.0277344
0
LINE
8
DEFAULT_255_2_778
10
14.3261574
20
83.0277344
11
14.3486574
21
83.0277344
0
LINE
8
DEFAULT_255_2_778
10
14.3486574
20
83.0277344
11
14.3486574
21
83.0277344
0
LINE
8
DEFAULT_255_2_778
10
15.3058574
20
83.0230344
11
15.3315574
21
83.0230344
0
LINE
8
DEFAULT_255_2_778
10
15.3315574
20
83.0230344
11
15.3315574
21
82.9013344
0
LINE
8
DEFAULT_255_2_778
10
15.3315574
20
82.9013344
11
15.3051574
21
82.9013344
0
LINE
8
DEFAULT_255_2_778
10
14.7772574
20
82.3229344
11
14.7772574
21
82.3779344
0
LINE
8
DEFAULT_255_2_778
10
15.3058574
20
83.0227344
11
15.3058574
21
83.0230344
0
LINE
8
DEFAULT_255_2_778
10
14.9214574
20
82.3594344
11
14.9214574
21
82.3068344
0
LINE
8
DEFAULT_255_2_778
10
15.1431574
20
82.5142344
11
15.1431574
21
82.5145344
0
LINE
8
DEFAULT_255_2_778
10
16.4462574
20
82.6960344
11
16.2967574
21
82.6960344
0
LINE
8
DEFAULT_255_2_778
10
15.6289574
20
82.2208344
11
15.7784574
21
82.2208344
0
LINE
8
DEFAULT_255_2_778
10
16.0303574
20
82.3967344
11
16.0300574
21
82.3967344
0
ENDSEC
0
EOF