0
SECTION
2
HEADER
9
$MEASUREMENT
70
1
0
ENDSEC
0
SECTION
2
TABLES
0
TABLE
2
LTYPE
0
LTYPE
72
65
70
64
2
CONTINUOUS
3
______
73
0
40
0
0
ENDTAB
0
TABLE
2
LAYER
0
LAYER
2
DEFAULT_255_2_778
70
0
62
255
6
CONTINUOUS
0
LAYER
2
DEFAULT_255_1_234
70
0
62
255
6
CONTINUOUS
0
ENDTAB
0
ENDSEC
0
SECTION
2
ENTITIES
0
ARC
8
DEFAULT_255_2_778
10
3.5700693
20
171.0552017
40
0.7914215
50
129.1312896
51
180.1450914
0
ARC
8
DEFAULT_255_2_778
10
3.5703345
20
171.0556888
40
0.7912112
50
89.854026
51
129.1684493
0
ARC
8
DEFAULT_255_2_778
10
25.7993937
20
171.0553754
40
0.7915249
50
39.4792447
51
90.147911
0
ARC
8
DEFAULT_255_2_778
10
25.7999935
20
171.055222
40
0.7911595
50
359.8533901
51
39.5154338
0
ARC
8
DEFAULT_255_2_778
10
25.7996693
20
-1.9863506
40
0.7914836
50
309.4761667
51
0.1482649
0
ARC
8
DEFAULT_255_2_778
10
25.799398
20
-1.9867816
40
0.7913235
50
269.8517415
51
309.511178
0
ARC
8
DEFAULT_255_2_778
10
3.570342
20
-1.9867235
40
0.7913815
50
219.1282118
51
270.1454017
0
ARC
8
DEFAULT_255_2_778
10
3.5700247
20
-1.986341
40
0.7913769
50
179.8524075
51
219.1641908
0
LINE
8
DEFAULT_255_2_778
10
3.5723503
20
171.8468976
11
25.7973503
21
171.8468976
0
LINE
8
DEFAULT_255_2_778
10
26.5911503
20
171.0531976
11
26.5911503
21
-1.9843024
0
LINE
8
DEFAULT_255_2_778
10
25.7973503
20
-2.7781024
11
3.5723503
21
-2.7781024
0
LINE
8
DEFAULT_255_2_778
10
2.7786503
20
-1.9843024
11
2.7786503
21
171.0531976
0
LINE
8
DEFAULT_255_1_234
10
9.6502364
20
0.5181211
11
9.8494235
21
0.5181211
0
LINE
8
DEFAULT_255_1_234
10
9.8494235
20
0.5181211
11
10.2317342
21
-0.4360494
0
LINE
8
DEFAULT_255_1_234
10
10.2317342
20
-0.4360494
11
10.614045
21
0.5181211
0
LINE
8
DEFAULT_255_1_234
10
10.614045
20
0.5181211
11
10.8140353
21
0.5181211
0
LINE
8
DEFAULT_255_1_234
10
10.8140353
20
0.5181211
11
10.8140353
21
-0.6513
0
LINE
8
DEFAULT_255_1_234
10
10.8140353
20
-0.6513
11
10.6598259
21
-0.6513
0
LINE
8
DEFAULT_255_1_234
10
10.6598259
20
-0.6513
11
10.6598259
21
-0.1959004
0
LINE
8
DEFAULT_255_1_234
10
10.6598259
20
-0.1959004
11
10.674283
21
0.2956419
0
LINE
8
DEFAULT_255_1_234
10
10.674283
20
0.2956419
11
10.2903659
21
-0.6513
0
LINE
8
DEFAULT_255_1_234
10
10.2903659
20
-0.6513
11
10.1722994
21
-0.6513
0
LINE
8
DEFAULT_255_1_234
10
10.1722994
20
-0.6513
11
9.7891854
21
0.2932324
0
LINE
8
DEFAULT_255_1_234
10
9.7891854
20
0.2932324
11
9.8044458
21
-0.1959004
0
LINE
8
DEFAULT_255_1_234
10
9.8044458
20
-0.1959004
11
9.8044458
21
-0.6513
0
LINE
8
DEFAULT_255_1_234
10
9.8044458
20
-0.6513
11
9.6502364
21
-0.6513
0
LINE
8
DEFAULT_255_1_234
10
9.6502364
20
-0.6513
11
9.6502364
21
0.5181211
0
LINE
8
DEFAULT_255_1_234
10
11.2413237
20
0.5181211
11
11.2413237
21
-0.5252017
0
LINE
8
DEFAULT_255_1_234
10
11.2413237
20
-0.5252017
11
11.7955137
21
-0.5252017
0
LINE
8
DEFAULT_255_1_234
10
11.7955137
20
-0.5252017
11
11.7955137
21
-0.6513
0
LINE
8
DEFAULT_255_1_234
10
11.7955137
20
-0.6513
11
11.0863112
21
-0.6513
0
LINE
8
DEFAULT_255_1_234
10
11.0863112
20
-0.6513
11
11.0863112
21
0.5181211
0
LINE
8
DEFAULT_255_1_234
10
11.0863112
20
0.5181211
11
11.2413237
21
0.5181211
0
LINE
8
DEFAULT_255_1_234
10
11.9714087
20
0.5181211
11
12.1705958
21
0.5181211
0
LINE
8
DEFAULT_255_1_234
10
12.1705958
20
0.5181211
11
12.5529066
21
-0.4360494
0
LINE
8
DEFAULT_255_1_234
10
12.5529066
20
-0.4360494
11
12.9352173
21
0.5181211
0
LINE
8
DEFAULT_255_1_234
10
12.9352173
20
0.5181211
11
13.1352076
21
0.5181211
0
LINE
8
DEFAULT_255_1_234
10
13.1352076
20
0.5181211
11
13.1352076
21
-0.6513
0
LINE
8
DEFAULT_255_1_234
10
13.1352076
20
-0.6513
11
12.9809982
21
-0.6513
0
LINE
8
DEFAULT_255_1_234
10
12.9809982
20
-0.6513
11
12.9809982
21
-0.1959004
0
LINE
8
DEFAULT_255_1_234
10
12.9809982
20
-0.1959004
11
12.9954554
21
0.2956419
0
LINE
8
DEFAULT_255_1_234
10
12.9954554
20
0.2956419
11
12.6115383
21
-0.6513
0
LINE
8
DEFAULT_255_1_234
10
12.6115383
20
-0.6513
11
12.4934717
21
-0.6513
0
LINE
8
DEFAULT_255_1_234
10
12.4934717
20
-0.6513
11
12.1103578
21
0.2932324
0
LINE
8
DEFAULT_255_1_234
10
12.1103578
20
0.2932324
11
12.1256181
21
-0.1959004
0
LINE
8
DEFAULT_255_1_234
10
12.1256181
20
-0.1959004
11
12.1256181
21
-0.6513
0
LINE
8
DEFAULT_255_1_234
10
12.1256181
20
-0.6513
11
11.9714087
21
-0.6513
0
LINE
8
DEFAULT_255_1_234
10
11.9714087
20
-0.6513
11
11.9714087
21
0.5181211
0
LINE
8
DEFAULT_255_1_234
10
13.6934134
20
-0.0938974
11
13.6934134
21
-0.2151766
0
LINE
8
DEFAULT_255_1_234
10
13.6934134
20
-0.2151766
11
13.3014646
21
-0.2151766
0
LINE
8
DEFAULT_255_1_234
10
13.3014646
20
-0.2151766
11
13.3014646
21
-0.0938974
0
LINE
8
DEFAULT_255_1_234
10
13.3014646
20
-0.0938974
11
13.6934134
21
-0.0938974
0
LINE
8
DEFAULT_255_1_234
10
14.1849558
20
-0.6513
11
13.8612768
21
-0.6513
0
LINE
8
DEFAULT_255_1_234
10
13.8612768
20
-0.6513
11
13.8612768
21
0.5181211
0
LINE
8
DEFAULT_255_1_234
10
13.8612768
20
0.5181211
11
14.1913812
21
0.5181211
0
LINE
8
DEFAULT_255_1_234
10
14.7070188
20
-0.0272339
11
14.7070188
21
-0.1019291
0
LINE
8
DEFAULT_255_1_234
10
14.1953971
20
0.3912196
11
14.0154861
21
0.3912196
0
LINE
8
DEFAULT_255_1_234
10
14.0154861
20
0.3912196
11
14.0154861
21
-0.5252017
0
LINE
8
DEFAULT_255_1_234
10
14.0154861
20
-0.5252017
11
14.1777272
21
-0.5252017
0
LINE
8
DEFAULT_255_1_234
10
14.5544158
20
-0.0987164
11
14.5544158
21
-0.0304466
0
ARC
8
DEFAULT_255_1_234
10
14.1952754
20
-0.0684106
40
0.5865446
50
75.4101064
51
90.3804066
0
ARC
8
DEFAULT_255_1_234
10
14.2182268
20
0.0272492
40
0.4881916
50
60.145586
51
75.1888407
0
ARC
8
DEFAULT_255_1_234
10
14.2341043
20
0.0549199
40
0.4562893
50
26.5253612
51
60.1450928
0
ARC
8
DEFAULT_255_1_234
10
14.1220793
20
-0.0044842
40
0.5830602
50
7.4030428
51
26.8320788
0
ARC
8
DEFAULT_255_1_234
10
13.9626549
20
-0.0293196
40
0.7443669
50
0.1605367
51
7.7176192
0
ARC
8
DEFAULT_255_1_234
10
13.9790454
20
-0.1057566
40
0.7279835
50
348.7289388
51
0.3012466
0
ARC
8
DEFAULT_255_1_234
10
14.1446884
20
-0.1386614
40
0.559104
50
333.0706509
51
348.7181832
0
ARC
8
DEFAULT_255_1_234
10
14.2413642
20
-0.1911681
40
0.4491417
50
299.2531685
51
333.4571258
0
ARC
8
DEFAULT_255_1_234
10
14.2052782
20
-0.1226172
40
0.5265881
50
278.107187
51
299.0339503
0
ARC
8
DEFAULT_255_1_234
10
14.1796861
20
0.0281216
40
0.679442
50
270.4443897
51
278.4511052
0
ARC
8
DEFAULT_255_1_234
10
14.1817691
20
-0.0647787
40
0.4604407
50
269.4970433
51
284.0205042
0
ARC
8
DEFAULT_255_1_234
10
14.2172992
20
-0.2013022
40
0.3193797
50
283.7700273
51
318.1555492
0
ARC
8
DEFAULT_255_1_234
10
14.183575
20
-0.1760633
40
0.3613588
50
318.7415601
51
343.6873628
0
ARC
8
DEFAULT_255_1_234
10
14.0031773
20
-0.1197168
40
0.5503313
50
343.3325091
51
355.8548958
0
ARC
8
DEFAULT_255_1_234
10
13.7933457
20
-0.0997681
40
0.7610708
50
355.4988528
51
0.0791727
0
ARC
8
DEFAULT_255_1_234
10
13.871608
20
-0.026222
40
0.6828208
50
359.6455037
51
9.8607896
0
ARC
8
DEFAULT_255_1_234
10
14.1076778
20
0.0164099
40
0.4429406
50
9.6571907
51
26.1932807
0
ARC
8
DEFAULT_255_1_234
10
14.2004767
20
0.0595118
40
0.3406537
50
26.5777228
51
40.1532208
0
ARC
8
DEFAULT_255_1_234
10
14.2260493
20
0.0794619
40
0.308246
50
40.3840491
51
80.1431104
0
ARC
8
DEFAULT_255_1_234
10
14.1933611
20
-0.0654667
40
0.4566909
50
79.2152159
51
89.7445637
0
LINE
8
DEFAULT_255_1_234
10
15.8386907
20
0.5181211
11
15.8386907
21
-0.6513
0
LINE
8
DEFAULT_255_1_234
10
15.8386907
20
-0.6513
11
15.6836782
21
-0.6513
0
LINE
8
DEFAULT_255_1_234
10
15.6836782
20
-0.6513
11
15.0949518
21
0.249861
0
LINE
8
DEFAULT_255_1_234
10
15.0949518
20
0.249861
11
15.0949518
21
-0.6513
0
LINE
8
DEFAULT_255_1_234
10
15.0949518
20
-0.6513
11
14.9399392
21
-0.6513
0
LINE
8
DEFAULT_255_1_234
10
14.9399392
20
-0.6513
11
14.9399392
21
0.5181211
0
LINE
8
DEFAULT_255_1_234
10
14.9399392
20
0.5181211
11
15.0949518
21
0.5181211
0
LINE
8
DEFAULT_255_1_234
10
15.0949518
20
0.5181211
11
15.6852845
21
-0.3870558
0
LINE
8
DEFAULT_255_1_234
10
15.6852845
20
-0.3870558
11
15.6852845
21
0.5181211
0
LINE
8
DEFAULT_255_1_234
10
15.6852845
20
0.5181211
11
15.8386907
21
0.5181211
0
LINE
8
DEFAULT_255_1_234
10
16.5623503
20
0.5237433
11
16.5623503
21
-0.6513
0
LINE
8
DEFAULT_255_1_234
10
16.5623503
20
-0.6513
11
16.41296
21
-0.6513
0
LINE
8
DEFAULT_255_1_234
10
16.41296
20
-0.6513
11
16.41296
21
0.3390133
0
LINE
8
DEFAULT_255_1_234
10
16.41296
20
0.3390133
11
16.1133762
21
0.2289785
0
LINE
8
DEFAULT_255_1_234
10
16.1133762
20
0.2289785
11
16.1133762
21
0.3639117
0
LINE
8
DEFAULT_255_1_234
10
16.1133762
20
0.3639117
11
16.5390583
21
0.5237433
0
LINE
8
DEFAULT_255_1_234
10
16.5390583
20
0.5237433
11
16.5623503
21
0.5237433
0
LINE
8
DEFAULT_255_1_234
10
17.55427
20
0.5189243
11
17.5807748
21
0.5189243
0
LINE
8
DEFAULT_255_1_234
10
17.5807748
20
0.5189243
11
17.5807748
21
0.392826
0
LINE
8
DEFAULT_255_1_234
10
17.5807748
20
0.392826
11
17.5534668
21
0.392826
0
LINE
8
DEFAULT_255_1_234
10
17.0065055
20
-0.2063417
11
17.0065055
21
-0.1493164
0
LINE
8
DEFAULT_255_1_234
10
17.1558958
20
-0.1685925
11
17.1558958
21
-0.2232083
0
ARC
8
DEFAULT_255_1_234
10
17.5587016
20
-0.1069545
40
0.4998079
50
90.6001036
51
104.514704
0
ARC
8
DEFAULT_255_1_234
10
17.5198532
20
0.0375131
40
0.3502176
50
104.2855254
51
133.862935
0
ARC
8
DEFAULT_255_1_234
10
17.5362289
20
0.026683
40
0.3693984
50
134.5302688
51
161.6210873
0
ARC
8
DEFAULT_255_1_234
10
17.7015478
20
-0.0316105
40
0.5446739
50
161.2849839
51
174.2076652
0
ARC
8
DEFAULT_255_1_234
10
17.8422415
20
-0.0510213
40
0.6866274
50
173.7810589
51
174.9254635
0
ARC
8
DEFAULT_255_1_234
10
17.3872247
20
-0.1893161
40
0.3033419
50
95.8330959
51
138.9954921
0
ARC
8
DEFAULT_255_1_234
10
17.4095603
20
-0.3171625
40
0.4328947
50
89.8753725
51
97.0544009
0
ARC
8
DEFAULT_255_1_234
10
17.4143069
20
-0.2336252
40
0.3493769
50
71.6407809
51
90.6240094
0
ARC
8
DEFAULT_255_1_234
10
17.4293643
20
-0.1781918
40
0.2920396
50
39.6367836
51
71.019018
0
ARC
8
DEFAULT_255_1_234
10
17.3657116
20
-0.2332002
40
0.3761538
50
10.658731
51
39.9043955
0
ARC
8
DEFAULT_255_1_234
10
17.2109198
20
-0.2668314
40
0.5345136
50
359.682601
51
11.132623
0
ARC
8
DEFAULT_255_1_234
10
17.2069329
20
-0.273899
40
0.5385081
50
347.2486944
51
0.4369317
0
ARC
8
DEFAULT_255_1_234
10
17.3736806
20
-0.3140193
40
0.3670249
50
318.1409698
51
347.6118597
0
ARC
8
DEFAULT_255_1_234
10
17.4061799
20
-0.3407298
40
0.3250007
50
275.6342139
51
317.8248465
0
ARC
8
DEFAULT_255_1_234
10
17.3840911
20
-0.2107781
40
0.4565864
50
269.8874292
51
276.7917694
0
ARC
8
DEFAULT_255_1_234
10
17.3785981
20
-0.3133257
40
0.3540676
50
246.9140195
51
270.7437342
0
ARC
8
DEFAULT_255_1_234
10
17.3792371
20
-0.3275616
40
0.3412781
50
218.1665114
51
245.878116
0
ARC
8
DEFAULT_255_1_234
10
17.4671832
20
-0.2539721
40
0.455911
50
191.4115814
51
218.6077802
0
ARC
8
DEFAULT_255_1_234
10
17.6609922
20
-0.2105167
40
0.6545001
50
179.6345085
51
191.7836486
0
ARC
8
DEFAULT_255_1_234
10
18.2192258
20
-0.1426303
40
1.2127388
50
171.4525249
51
180.3158839
0
ARC
8
DEFAULT_255_1_234
10
17.7797134
20
-0.0742392
40
0.7679464
50
157.9802646
51
171.6246686
0
ARC
8
DEFAULT_255_1_234
10
17.5583155
20
0.0140421
40
0.5296008
50
141.4298019
51
157.854097
0
ARC
8
DEFAULT_255_1_234
10
17.4941476
20
0.0594381
40
0.4511509
50
102.8715806
51
140.8564722
0
ARC
8
DEFAULT_255_1_234
10
17.5589091
20
-0.1845448
40
0.7034845
50
90.3778349
51
103.5869322
0
ARC
8
DEFAULT_255_1_234
10
17.3850867
20
-0.245027
40
0.2370698
50
89.8751008
51
126.2071704
0
ARC
8
DEFAULT_255_1_234
10
17.3896657
20
-0.2604697
40
0.2522934
50
124.9745049
51
144.895901
0
ARC
8
DEFAULT_255_1_234
10
17.3720848
20
-0.246144
40
0.2296779
50
145.2974905
51
160.2660252
0
ARC
8
DEFAULT_255_1_234
10
17.6793386
20
-0.2263929
40
0.5234525
50
179.6514266
51
190.2855912
0
ARC
8
DEFAULT_255_1_234
10
17.5099524
20
-0.2583214
40
0.3510893
50
190.0945431
51
207.5098196
0
ARC
8
DEFAULT_255_1_234
10
17.4533793
20
-0.2852377
40
0.288489
50
207.9583163
51
216.3251085
0
ARC
8
DEFAULT_255_1_234
10
17.4193901
20
-0.3131895
40
0.2445587
50
215.7661442
51
232.5456785
0
ARC
8
DEFAULT_255_1_234
10
17.3810884
20
-0.3618518
40
0.1826382
50
232.8005391
51
270.6605633
0
ARC
8
DEFAULT_255_1_234
10
17.3856585
20
-0.3254388
40
0.2190529
50
269.35537
51
288.4744281
0
ARC
8
DEFAULT_255_1_234
10
17.3949482
20
-0.3603882
40
0.1829749
50
289.1833337
51
322.9683818
0
ARC
8
DEFAULT_255_1_234
10
17.3338005
20
-0.3121609
40
0.2608399
50
322.6007884
51
346.5182367
0
ARC
8
DEFAULT_255_1_234
10
17.21806
20
-0.2826384
40
0.3802777
50
346.2582162
51
358.7741648
0
ARC
8
DEFAULT_255_1_234
10
17.1162269
20
-0.2771035
40
0.4822176
50
358.3755224
51
0.0098023
0
ARC
8
DEFAULT_255_1_234
10
17.1918456
20
-0.2743343
40
0.4066078
50
359.6214041
51
11.2839074
0
ARC
8
DEFAULT_255_1_234
10
17.3195603
20
-0.2476934
40
0.2761514
50
11.0482309
51
31.8146458
0
ARC
8
DEFAULT_255_1_234
10
17.3504646
20
-0.2309416
40
0.2410679
50
32.3035391
51
38.082671
0
ARC
8
DEFAULT_255_1_234
10
17.3925306
20
-0.1928338
40
0.1844966
50
36.825067
51
85.7415724
0
ARC
8
DEFAULT_255_1_234
10
17.385814
20
-0.2428699
40
0.2349122
50
85.0140713
51
90.0513278
0
LINE
8
DEFAULT_255_1_234
10
18.7357387
20
0.1799849
11
18.5807262
21
0.1799849
0
LINE
8
DEFAULT_255_1_234
10
17.8883903
20
-0.3123606
11
18.0434029
21
-0.3123606
0
ARC
8
DEFAULT_255_1_234
10
18.6466075
20
1.0746768
40
1.252368
50
248.9199003
51
254.1439814
0
ARC
8
DEFAULT_255_1_234
10
18.4785569
20
0.6420234
40
0.788226
50
241.633709
51
249.0064503
0
ARC
8
DEFAULT_255_1_234
10
18.3256964
20
0.3619317
40
0.4691427
50
230.498225
51
241.8087113
0
ARC
8
DEFAULT_255_1_234
10
18.2472538
20
0.2619906
40
0.3421437
50
227.4064532
51
229.9881192
0
ARC
8
DEFAULT_255_1_234
10
18.1985059
20
0.2144088
40
0.2741476
50
200.6781896
51
228.1763934
0
ARC
8
DEFAULT_255_1_234
10
18.2057369
20
0.2129077
40
0.2804109
50
179.5061581
51
199.8694617
0
ARC
8
DEFAULT_255_1_234
10
18.2048121
20
0.220321
40
0.2795204
50
132.4834203
51
181.0242172
0
ARC
8
DEFAULT_255_1_234
10
18.2643703
20
0.1640704
40
0.3612768
50
129.2532479
51
133.4242687
0
ARC
8
DEFAULT_255_1_234
10
18.2790153
20
0.1420965
40
0.3875675
50
101.98776
51
128.8742646
0
ARC
8
DEFAULT_255_1_234
10
18.3188764
20
-0.0300259
40
0.5642249
50
89.5906553
51
102.3169264
0
ARC
8
DEFAULT_255_1_234
10
18.3259256
20
0.0018148
40
0.5323783
50
77.2360837
51
90.3248275
0
ARC
8
DEFAULT_255_1_234
10
18.3466335
20
0.09854
40
0.4334697
50
63.837784
51
77.0809408
0
ARC
8
DEFAULT_255_1_234
10
18.3744097
20
0.1502911
40
0.3747796
50
45.9864267
51
64.1607727
0
ARC
8
DEFAULT_255_1_234
10
18.4004978
20
0.1800866
40
0.3352302
50
32.2747395
51
45.6547121
0
ARC
8
DEFAULT_255_1_234
10
18.4071419
20
0.181988
40
0.328603
50
359.6507365
51
32.6130309
0
ARC
8
DEFAULT_255_1_234
10
18.3128514
20
0.182466
40
0.2678863
50
359.469343
51
14.9832209
0
ARC
8
DEFAULT_255_1_234
10
18.3833576
20
0.2013539
40
0.1948938
50
14.9781179
51
48.2004265
0
ARC
8
DEFAULT_255_1_234
10
18.366922
20
0.1806983
40
0.2212521
50
48.5927837
51
74.1241538
0
ARC
8
DEFAULT_255_1_234
10
18.333571
20
0.0706248
40
0.3362561
50
73.7888341
51
86.6652678
0
ARC
8
DEFAULT_255_1_234
10
18.3233276
20
-0.0501119
40
0.4573953
50
86.2640471
51
90.0526343
0
ARC
8
DEFAULT_255_1_234
10
18.3204988
20
-0.0105808
40
0.4178709
50
89.6697524
51
99.2309573
0
ARC
8
DEFAULT_255_1_234
10
18.2962439
20
0.1338964
40
0.2713749
50
99.069534
51
113.7658566
0
ARC
8
DEFAULT_255_1_234
10
18.268863
20
0.1984677
40
0.2012469
50
114.0401004
51
127.9850673
0
ARC
8
DEFAULT_255_1_234
10
18.2448194
20
0.228073
40
0.1631167
50
127.7287463
51
176.7105154
0
ARC
8
DEFAULT_255_1_234
10
18.3126911
20
0.2179693
40
0.2315392
50
175.1779447
51
180.0581938
0
ARC
8
DEFAULT_255_1_234
10
18.2283758
20
0.2167428
40
0.1472271
50
179.6142195
51
228.1246017
0
ARC
8
DEFAULT_255_1_234
10
18.2725427
20
0.2576308
40
0.2072299
50
226.5779593
51
230.8800004
0
ARC
8
DEFAULT_255_1_234
10
18.3196506
20
0.3201636
40
0.2854818
50
231.4635071
51
241.9260842
0
ARC
8
DEFAULT_255_1_234
10
18.4393684
20
0.54048
40
0.53622
50
241.7178533
51
248.3259551
0
ARC
8
DEFAULT_255_1_234
10
18.5779055
20
0.8837064
40
0.9063478
50
248.2007737
51
252.4528373
0
ARC
8
DEFAULT_255_1_234
10
18.698278
20
1.2558441
40
1.2974635
50
252.3391078
51
254.3469452
0
ARC
8
DEFAULT_255_1_234
10
17.9440483
20
-1.4418852
40
1.5037162
50
71.0197183
51
74.4087047
0
ARC
8
DEFAULT_255_1_234
10
18.1135168
20
-0.9526889
40
0.9859993
50
66.1847285
51
71.086374
0
ARC
8
DEFAULT_255_1_234
10
18.2691481
20
-0.60228
40
0.6025855
50
59.3536294
51
66.2691831
0
ARC
8
DEFAULT_255_1_234
10
18.3580133
20
-0.4519391
40
0.4279449
50
49.1020879
51
59.3293958
0
ARC
8
DEFAULT_255_1_234
10
18.4398873
20
-0.3586166
40
0.3038015
50
32.7919921
51
49.2505539
0
ARC
8
DEFAULT_255_1_234
10
18.4719963
20
-0.3357809
40
0.264448
50
31.1181161
51
32.4005348
0
ARC
8
DEFAULT_255_1_234
10
18.46315
20
-0.3393221
40
0.2738556
50
8.1116974
51
30.7958831
0
ARC
8
DEFAULT_255_1_234
10
18.3821169
20
-0.3531247
40
0.3560327
50
359.8389159
51
8.4706516
0
ARC
8
DEFAULT_255_1_234
10
18.444696
20
-0.3579863
40
0.2934776
50
337.4731098
51
0.7537279
0
ARC
8
DEFAULT_255_1_234
10
18.4625655
20
-0.3599613
40
0.2762607
50
307.5917067
51
336.4315538
0
ARC
8
DEFAULT_255_1_234
10
18.4165483
20
-0.3086898
40
0.3449979
50
307.6551545
51
308.4529766
0
ARC
8
DEFAULT_255_1_234
10
18.3935202
20
-0.273175
40
0.3871988
50
284.3734338
51
307.1424381
0
ARC
8
DEFAULT_255_1_234
10
18.3440032
20
-0.0910068
40
0.5759636
50
272.4382747
51
284.646547
0
ARC
8
DEFAULT_255_1_234
10
18.3313241
20
0.0889893
40
0.7563528
50
269.9708387
51
272.8178037
0
ARC
8
DEFAULT_255_1_234
10
18.327028
20
-0.1148284
40
0.5525489
50
248.2707594
51
270.4055579
0
ARC
8
DEFAULT_255_1_234
10
18.3216021
20
-0.1338808
40
0.5328452
50
246.1383403
51
248.0542782
0
ARC
8
DEFAULT_255_1_234
10
18.27974
20
-0.2218157
40
0.4355005
50
233.1670131
51
246.4950969
0
ARC
8
DEFAULT_255_1_234
10
18.2243305
20
-0.2966188
40
0.3424126
50
215.3403242
51
233.0843104
0
ARC
8
DEFAULT_255_1_234
10
18.1970737
20
-0.3164451
40
0.3087104
50
179.2419209
51
215.2648451
0
ARC
8
DEFAULT_255_1_234
10
18.273833
20
-0.3150334
40
0.2304457
50
179.335461
51
199.1045811
0
ARC
8
DEFAULT_255_1_234
10
18.2406007
20
-0.3237234
40
0.1962176
50
199.8828939
51
232.7063202
0
ARC
8
DEFAULT_255_1_234
10
18.2878275
20
-0.2643212
40
0.2720938
50
232.3738199
51
255.5136649
0
ARC
8
DEFAULT_255_1_234
10
18.3219142
20
-0.1399165
40
0.4010747
50
255.2446292
51
267.5320849
0
ARC
8
DEFAULT_255_1_234
10
18.3306765
20
-0.0166298
40
0.5246356
50
267.1557994
51
270.0286766
0
ARC
8
DEFAULT_255_1_234
10
18.3334538
20
-0.061005
40
0.4802668
50
269.7000017
51
278.1660162
0
ARC
8
DEFAULT_255_1_234
10
18.3590542
20
-0.2340485
40
0.3053425
50
278.0231263
51
290.625471
0
ARC
8
DEFAULT_255_1_234
10
18.3938229
20
-0.3267975
40
0.206291
50
290.6619762
51
307.0370976
0
ARC
8
DEFAULT_255_1_234
10
18.4238619
20
-0.3636496
40
0.1587906
50
306.3943566
51
355.3030547
0
ARC
8
DEFAULT_255_1_234
10
18.372655
20
-0.3559887
40
0.2104809
50
354.3660432
51
0.0698737
0
ARC
8
DEFAULT_255_1_234
10
18.3868895
20
-0.3537383
40
0.1962563
50
359.417946
51
16.1971788
0
ARC
8
DEFAULT_255_1_234
10
18.4324206
20
-0.3412582
40
0.149053
50
16.4723299
51
52.6262157
0
ARC
8
DEFAULT_255_1_234
10
18.350326
20
-0.4496567
40
0.2850296
50
52.7386432
51
62.4979148
0
ARC
8
DEFAULT_255_1_234
10
18.2118336
20
-0.7102717
40
0.5801521
50
62.2515216
51
68.1220564
0
ARC
8
DEFAULT_255_1_234
10
18.0398247
20
-1.1330128
40
1.0365451
50
68.0062803
51
71.8053402
0
ARC
8
DEFAULT_255_1_234
10
17.8602619
20
-1.6715242
40
1.6042013
50
71.7183119
51
73.9258742
0
ARC
8
DEFAULT_255_2_778
10
12.6050348
20
169.3538041
40
0.3813723
50
156.9728279
51
180.9672924
0
ARC
8
DEFAULT_255_2_778
10
12.4650905
20
169.4164556
40
0.2280903
50
120.6143155
51
157.7057572
0
ARC
8
DEFAULT_255_2_778
10
12.423185
20
169.4783889
40
0.1535155
50
105.6024085
51
118.9253865
0
ARC
8
DEFAULT_255_2_778
10
12.4163051
20
169.503158
40
0.1278087
50
90.2188612
51
105.6183161
0
ARC
8
DEFAULT_255_2_778
10
12.4186564
20
169.3360412
40
0.2949385
50
82.1187511
51
90.5516271
0
ARC
8
DEFAULT_255_2_778
10
12.4470429
20
169.5007036
40
0.128059
50
23.164146
51
84.5981403
0
ARC
8
DEFAULT_255_2_778
10
12.3195078
20
169.4489267
40
0.2656921
50
1.2065942
51
22.6109196
0
ARC
8
DEFAULT_255_2_778
10
12.1068205
20
169.4310377
40
0.4788966
50
359.9555286
51
2.8107684
0
ARC
8
DEFAULT_255_2_778
10
12.4802764
20
169.4196207
40
0.6523641
50
359.5121336
51
18.1513483
0
ARC
8
DEFAULT_255_2_778
10
12.6313291
20
169.4706245
40
0.4929411
50
17.987628
51
47.7515239
0
ARC
8
DEFAULT_255_2_778
10
12.6654537
20
169.5023389
40
0.4465388
50
48.2567149
51
90.320171
0
ARC
8
DEFAULT_255_2_778
10
12.6638541
20
169.4542874
40
0.4945841
50
90.103751
51
104.0317339
0
ARC
8
DEFAULT_255_2_778
10
12.6706581
20
169.4229342
40
0.5266526
50
103.9228462
51
106.737064
0
ARC
8
DEFAULT_255_2_778
10
12.6850928
20
169.3802316
40
0.5717052
50
106.8899656
51
120.2615348
0
ARC
8
DEFAULT_255_2_778
10
12.7341581
20
169.2957122
40
0.6694339
50
120.2432243
51
131.2854864
0
ARC
8
DEFAULT_255_2_778
10
12.785036
20
169.234952
40
0.7486631
50
131.143212
51
134.0802792
0
ARC
8
DEFAULT_255_2_778
10
15.2709404
20
168.2619131
40
0.1197666
50
309.5218924
51
339.9060311
0
ARC
8
DEFAULT_255_2_778
10
15.3039085
20
168.2244254
40
0.0698871
50
287.710739
51
308.230668
0
ARC
8
DEFAULT_255_2_778
10
15.3092212
20
168.2087982
40
0.0533853
50
270.2503717
51
287.3813074
0
ARC
8
DEFAULT_255_2_778
10
15.3118783
20
168.2096536
40
0.0542942
50
194.7346052
51
267.4414086
0
ARC
8
DEFAULT_255_2_778
10
15.3603123
20
168.232672
40
0.107451
50
190.9475811
51
200.0439116
0
ARC
8
DEFAULT_255_2_778
10
14.9941035
20
168.2197621
40
0.2608211
50
358.353068
51
64.1268931
0
ARC
8
DEFAULT_255_2_778
10
15.0249058
20
168.2654249
40
0.206441
50
66.2890109
51
89.9969258
0
ARC
8
DEFAULT_255_2_778
10
15.0382115
20
168.2301645
40
0.2420668
50
93.1483498
51
177.0819403
0
ARC
8
DEFAULT_255_2_778
10
15.0906424
20
168.2123292
40
0.2957256
50
174.1467469
51
180.0122521
0
ARC
8
DEFAULT_255_2_778
10
15.0902349
20
168.215793
40
0.2953391
50
180.6842551
51
197.2976119
0
ARC
8
DEFAULT_255_2_778
10
15.1427344
20
168.2319135
40
0.3502574
50
197.2618666
51
237.3003567
0
ARC
8
DEFAULT_255_2_778
10
15.1574152
20
168.260555
40
0.3823034
50
237.7678185
51
267.0989043
0
ARC
8
DEFAULT_255_2_778
10
15.1676437
20
168.345885
40
0.468079
50
266.3770992
51
270.0209723
0
ARC
8
DEFAULT_255_2_778
10
15.1676985
20
168.3761308
40
0.4983248
50
270.0133909
51
272.716577
0
ARC
8
DEFAULT_255_2_778
10
15.1758148
20
168.2615424
40
0.3834899
50
272.3167324
51
299.1303886
0
ARC
8
DEFAULT_255_2_778
10
15.1234049
20
168.3350329
40
0.4733038
50
300.3417229
51
327.7658215
0
ARC
8
DEFAULT_255_2_778
10
14.9406676
20
168.4635134
40
0.6964958
50
326.843622
51
335.4998036
0
ARC
8
DEFAULT_255_2_778
10
14.8514976
20
168.5057766
40
0.7951648
50
335.3932154
51
340.0324022
0
ARC
8
DEFAULT_255_2_778
10
14.8370312
20
168.5113094
40
0.8106509
50
340.0140149
51
340.5492811
0
ARC
8
DEFAULT_255_2_778
10
10.7612214
20
169.2094581
40
0.768197
50
90.8730151
51
175.0627552
0
ARC
8
DEFAULT_255_2_778
10
10.8136126
20
169.1930058
40
0.8218958
50
174.2343992
51
180.0097514
0
ARC
8
DEFAULT_255_2_778
10
10.7889867
20
169.1897729
40
0.7972759
50
179.7777162
51
222.1414196
0
ARC
8
DEFAULT_255_2_778
10
10.7511509
20
169.151835
40
0.7437709
50
221.9300285
51
269.8741254
0
ARC
8
DEFAULT_255_2_778
10
10.7376549
20
169.1762244
40
0.7682501
50
270.8846918
51
355.0667038
0
ARC
8
DEFAULT_255_2_778
10
10.6852873
20
169.1927267
40
0.8219296
50
354.2345114
51
0.0097094
0
ARC
8
DEFAULT_255_2_778
10
10.7100678
20
169.1959703
40
0.7971551
50
359.7768758
51
42.1436072
0
ARC
8
DEFAULT_255_2_778
10
10.7478782
20
169.2338788
40
0.7436889
50
41.9327014
51
89.8737509
0
ARC
8
DEFAULT_255_2_778
10
10.7319112
20
168.8166045
40
0.2064136
50
282.3154686
51
2.5716381
0
ARC
8
DEFAULT_255_2_778
10
10.749558
20
168.7815913
40
0.1687253
50
269.98603
51
278.995025
0
ARC
8
DEFAULT_255_2_778
10
10.7617107
20
168.8130042
40
0.2005094
50
178.6786273
51
266.5134562
0
ARC
8
DEFAULT_255_2_778
10
10.8074017
20
168.8258655
40
0.2462849
50
179.9999044
51
181.9167359
0
ARC
8
DEFAULT_255_2_778
10
10.7673954
20
169.5691548
40
0.2064787
50
103.0315545
51
182.5228891
0
ARC
8
DEFAULT_255_2_778
10
10.7494718
20
169.6042048
40
0.1685611
50
89.9846994
51
99.7807169
0
ARC
8
DEFAULT_255_2_778
10
10.7371616
20
169.5722176
40
0.2009286
50
358.490526
51
86.4746259
0
ARC
8
DEFAULT_255_2_778
10
10.6939639
20
169.5600644
40
0.244153
50
0.0003602
51
1.6101146
0
ARC
8
DEFAULT_255_2_778
10
13.7769085
20
169.1923122
40
1.0339085
50
353.7729731
51
0.0306848
0
ARC
8
DEFAULT_255_2_778
10
14.0136678
20
169.1959703
40
0.7971551
50
359.7768758
51
42.1436072
0
ARC
8
DEFAULT_255_2_778
10
14.0514782
20
169.2338788
40
0.7436889
50
41.9327014
51
89.8737509
0
ARC
8
DEFAULT_255_2_778
10
14.0648214
20
169.2094581
40
0.768197
50
90.8730151
51
175.0627552
0
ARC
8
DEFAULT_255_2_778
10
14.1172126
20
169.1930058
40
0.8218958
50
174.2343992
51
180.0097514
0
ARC
8
DEFAULT_255_2_778
10
14.0925867
20
169.1897729
40
0.7972759
50
179.7777162
51
222.1414196
0
ARC
8
DEFAULT_255_2_778
10
14.0547509
20
169.151835
40
0.7437709
50
221.9300285
51
269.8741254
0
ARC
8
DEFAULT_255_2_778
10
14.0479775
20
169.1618375
40
0.753789
50
270.3906469
51
332.9011285
0
ARC
8
DEFAULT_255_2_778
10
14.0503073
20
169.1733988
40
0.5766383
50
270.2493497
51
330.3649047
0
ARC
8
DEFAULT_255_2_778
10
14.0738266
20
168.8017117
40
0.2060198
50
188.4673322
51
264.146848
0
ARC
8
DEFAULT_255_2_778
10
14.1170452
20
168.8258502
40
0.2529285
50
180.0643852
51
192.4374066
0
ARC
8
DEFAULT_255_2_778
10
14.070552
20
169.5693297
40
0.2060435
50
102.2220352
51
182.5768883
0
ARC
8
DEFAULT_255_2_778
10
14.0532765
20
169.6035306
40
0.1692354
50
89.9863487
51
98.9553742
0
ARC
8
DEFAULT_255_2_778
10
14.0410627
20
169.5724487
40
0.2006917
50
358.1298546
51
86.4993767
0
ARC
8
DEFAULT_255_2_778
10
13.9951604
20
169.5600582
40
0.2465564
50
0.0018041
51
1.3574921
0
ARC
8
DEFAULT_255_2_778
10
18.8395085
20
169.1923122
40
1.0339085
50
353.7729731
51
0.0306848
0
ARC
8
DEFAULT_255_2_778
10
19.0763127
20
169.1959756
40
0.7971102
50
359.7764759
51
42.1460177
0
ARC
8
DEFAULT_255_2_778
10
19.1140101
20
169.2337511
40
0.7438166
50
41.9370909
51
89.8762358
0
ARC
8
DEFAULT_255_2_778
10
19.1273214
20
169.2094581
40
0.768197
50
90.8730151
51
175.0627552
0
ARC
8
DEFAULT_255_2_778
10
19.1797126
20
169.1930058
40
0.8218958
50
174.2343992
51
180.0097514
0
ARC
8
DEFAULT_255_2_778
10
19.1550867
20
169.1897729
40
0.7972759
50
179.7777162
51
222.1414196
0
ARC
8
DEFAULT_255_2_778
10
19.1172509
20
169.151835
40
0.7437709
50
221.9300285
51
269.8741254
0
ARC
8
DEFAULT_255_2_778
10
19.1104966
20
169.1622973
40
0.7542487
50
270.3889576
51
332.8797533
0
ARC
8
DEFAULT_255_2_778
10
19.1131073
20
169.1733988
40
0.5766383
50
270.2493497
51
330.3649047
0
ARC
8
DEFAULT_255_2_778
10
19.1366787
20
168.801307
40
0.2056225
50
188.7424888
51
264.120891
0
ARC
8
DEFAULT_255_2_778
10
19.180402
20
168.8258673
40
0.2531853
50
180.0682018
51
192.7352383
0
ARC
8
DEFAULT_255_2_778
10
19.1332623
20
169.569031
40
0.2062492
50
102.479692
51
182.5468765
0
ARC
8
DEFAULT_255_2_778
10
19.1155784
20
169.6040755
40
0.1684904
50
89.986931
51
99.1816697
0
ARC
8
DEFAULT_255_2_778
10
19.1031384
20
169.5718685
40
0.201085
50
358.3379179
51
86.4421934
0
ARC
8
DEFAULT_255_2_778
10
19.0609425
20
169.5598683
40
0.2432745
50
359.9994511
51
1.4527903
0
LINE
8
DEFAULT_255_2_778
10
20.0578169
20
168.5043659
11
20.5605169
21
168.5043659
0
LINE
8
DEFAULT_255_2_778
10
20.5605169
20
168.5043659
11
20.5605169
21
170.5239659
0
LINE
8
DEFAULT_255_2_778
10
20.5605169
20
170.5239659
11
20.0578169
21
170.5239659
0
LINE
8
DEFAULT_255_2_778
10
20.0578169
20
170.5239659
11
20.0578169
21
168.5043659
0
LINE
8
DEFAULT_255_2_778
10
20.0578169
20
168.5043659
11
20.0578169
21
168.5043659
0
LINE
8
DEFAULT_255_2_778
10
20.0578169
20
168.5043659
11
20.0578169
21
168.5043659
0
LINE
8
DEFAULT_255_2_778
10
21.2995169
20
170.5239659
11
21.2995169
21
168.5043659
0
LINE
8
DEFAULT_255_2_778
10
21.2995169
20
168.5043659
11
20.7970169
21
168.5043659
0
LINE
8
DEFAULT_255_2_778
10
20.7970169
20
168.5043659
11
20.7970169
21
170.5239659
0
LINE
8
DEFAULT_255_2_778
10
20.7970169
20
170.5239659
11
21.2995169
21
170.5239659
0
LINE
8
DEFAULT_255_2_778
10
21.2995169
20
170.5239659
11
21.2995169
21
170.5239659
0
LINE
8
DEFAULT_255_2_778
10
21.2995169
20
170.5239659
11
21.2995169
21
170.5239659
0
LINE
8
DEFAULT_255_2_778
10
9.1419169
20
169.7394659
11
8.7355169
21
169.7394659
0
LINE
8
DEFAULT_255_2_778
10
8.7355169
20
169.7394659
11
8.7355169
21
170.5239659
0
LINE
8
DEFAULT_255_2_778
10
8.7355169
20
170.5239659
11
8.0703169
21
170.5239659
0
LINE
8
DEFAULT_255_2_778
10
8.0703169
20
170.5239659
11
8.0703169
21
168.5043659
0
LINE
8
DEFAULT_255_2_778
10
8.0703169
20
168.5043659
11
8.7355169
21
168.5043659
0
LINE
8
DEFAULT_255_2_778
10
8.7355169
20
168.5043659
11
8.7355169
21
169.5058659
0
LINE
8
DEFAULT_255_2_778
10
8.7355169
20
169.5058659
11
9.1419169
21
169.5058659
0
LINE
8
DEFAULT_255_2_778
10
9.1419169
20
169.5058659
11
9.1419169
21
168.5043659
0
LINE
8
DEFAULT_255_2_778
10
9.1419169
20
168.5043659
11
9.8070169
21
168.5043659
0
LINE
8
DEFAULT_255_2_778
10
9.8070169
20
168.5043659
11
9.8070169
21
170.5239659
0
LINE
8
DEFAULT_255_2_778
10
9.8070169
20
170.5239659
11
9.1419169
21
170.5239659
0
LINE
8
DEFAULT_255_2_778
10
9.1419169
20
170.5239659
11
9.1419169
21
169.7394659
0
LINE
8
DEFAULT_255_2_778
10
9.1419169
20
169.7394659
11
9.1419169
21
169.7394659
0
LINE
8
DEFAULT_255_2_778
10
9.1419169
20
169.7394659
11
9.1419169
21
169.7394659
0
LINE
8
DEFAULT_255_2_778
10
12.2645169
20
169.7730659
11
12.2237169
21
169.9066659
0
LINE
8
DEFAULT_255_2_778
10
12.2237169
20
169.9066659
11
11.6768169
21
169.9066659
0
LINE
8
DEFAULT_255_2_778
10
11.6768169
20
169.9066659
11
11.6768169
21
168.5046659
0
LINE
8
DEFAULT_255_2_778
10
11.6768169
20
168.5046659
11
12.2237169
21
168.5046659
0
LINE
8
DEFAULT_255_2_778
10
12.2237169
20
168.5046659
11
12.2237169
21
169.3473659
0
LINE
8
DEFAULT_255_2_778
10
12.2237169
20
169.3473659
11
12.2237169
21
169.3473659
0
LINE
8
DEFAULT_255_2_778
10
12.5857169
20
169.4306659
11
12.5857169
21
169.4306659
0
LINE
8
DEFAULT_255_2_778
10
12.5857169
20
169.4306659
11
12.5857169
21
168.5043659
0
LINE
8
DEFAULT_255_2_778
10
12.5857169
20
168.5043659
11
13.1326169
21
168.5043659
0
LINE
8
DEFAULT_255_2_778
10
13.1326169
20
168.5043659
11
13.1326169
21
169.4140659
0
LINE
8
DEFAULT_255_2_778
10
13.1326169
20
169.4140659
11
13.1326169
21
169.4140659
0
LINE
8
DEFAULT_255_2_778
10
12.2642169
20
169.7727659
11
12.2642169
21
169.7727659
0
LINE
8
DEFAULT_255_2_778
10
12.2642169
20
169.7727659
11
12.2642169
21
169.7727659
0
LINE
8
DEFAULT_255_2_778
10
12.2642169
20
169.7727659
11
12.2642169
21
169.7727659
0
LINE
8
DEFAULT_255_2_778
10
12.2642169
20
169.7727659
11
12.2645169
21
169.7730659
0
LINE
8
DEFAULT_255_2_778
10
17.8816169
20
169.0928659
11
17.6265169
21
169.9064659
0
LINE
8
DEFAULT_255_2_778
10
17.6265169
20
169.9064659
11
17.2532169
21
169.9064659
0
LINE
8
DEFAULT_255_2_778
10
17.2532169
20
169.9064659
11
16.9981169
21
169.0594659
0
LINE
8
DEFAULT_255_2_778
10
16.9981169
20
169.0594659
11
16.7322169
21
169.9064659
0
LINE
8
DEFAULT_255_2_778
10
16.7322169
20
169.9064659
11
16.2113169
21
169.9064659
0
LINE
8
DEFAULT_255_2_778
10
16.2113169
20
169.9064659
11
16.2076169
21
169.9064659
0
LINE
8
DEFAULT_255_2_778
10
16.2076169
20
169.9064659
11
16.0007169
21
169.9064659
0
LINE
8
DEFAULT_255_2_778
10
16.0007169
20
169.9064659
11
15.7382169
21
169.1930659
0
LINE
8
DEFAULT_255_2_778
10
15.7382169
20
169.1930659
11
15.3688169
21
169.9064659
0
LINE
8
DEFAULT_255_2_778
10
15.3688169
20
169.9064659
11
14.7441169
21
169.9064659
0
LINE
8
DEFAULT_255_2_778
10
14.7441169
20
169.9064659
11
15.4794169
21
168.4877659
0
LINE
8
DEFAULT_255_2_778
10
15.4794169
20
168.4877659
11
15.3834169
21
168.2207659
0
LINE
8
DEFAULT_255_2_778
10
15.3834169
20
168.2207659
11
15.3834169
21
168.2207659
0
LINE
8
DEFAULT_255_2_778
10
15.6014169
20
168.2413659
11
15.6014169
21
168.2413659
0
LINE
8
DEFAULT_255_2_778
10
15.6014169
20
168.2413659
11
16.2091169
21
169.9005659
0
LINE
8
DEFAULT_255_2_778
10
16.2091169
20
169.9005659
11
16.6473169
21
168.5041659
0
LINE
8
DEFAULT_255_2_778
10
16.6473169
20
168.5041659
11
17.0463169
21
168.5041659
0
LINE
8
DEFAULT_255_2_778
10
17.0463169
20
168.5041659
11
17.2902169
21
169.3095659
0
LINE
8
DEFAULT_255_2_778
10
17.2902169
20
169.3095659
11
17.5416169
21
168.5041659
0
LINE
8
DEFAULT_255_2_778
10
17.5416169
20
168.5041659
11
17.9186169
21
168.5041659
0
LINE
8
DEFAULT_255_2_778
10
17.9186169
20
168.5041659
11
18.3435169
21
169.9061659
0
LINE
8
DEFAULT_255_2_778
10
18.3435169
20
169.9061659
11
18.1255169
21
169.9061659
0
LINE
8
DEFAULT_255_2_778
10
18.1255169
20
169.9061659
11
17.8816169
21
169.0925659
0
LINE
8
DEFAULT_255_2_778
10
17.8816169
20
169.0925659
11
17.8816169
21
169.0925659
0
LINE
8
DEFAULT_255_2_778
10
17.8816169
20
169.0925659
11
17.8816169
21
169.0925659
0
LINE
8
DEFAULT_255_2_778
10
17.8816169
20
169.0925659
11
17.8816169
21
169.0928659
0
LINE
8
DEFAULT_255_2_778
10
10.7495169
20
169.9775659
11
10.7495169
21
169.9775659
0
LINE
8
DEFAULT_255_2_778
10
10.7495169
20
169.9775659
11
10.7495169
21
169.9775659
0
LINE
8
DEFAULT_255_2_778
10
10.7495169
20
169.9775659
11
10.7495169
21
169.9775659
0
LINE
8
DEFAULT_255_2_778
10
10.7495169
20
169.9775659
11
10.7495169
21
169.9775659
0
LINE
8
DEFAULT_255_2_778
10
10.5611169
20
168.8258659
11
10.5611169
21
168.8258659
0
LINE
8
DEFAULT_255_2_778
10
10.5611169
20
168.8258659
11
10.5611169
21
169.5600659
0
LINE
8
DEFAULT_255_2_778
10
10.5611169
20
169.5600659
11
10.5611169
21
169.5600659
0
LINE
8
DEFAULT_255_2_778
10
10.9381169
20
169.5600659
11
10.9381169
21
169.5600659
0
LINE
8
DEFAULT_255_2_778
10
10.9381169
20
169.5600659
11
10.9381169
21
168.8258659
0
LINE
8
DEFAULT_255_2_778
10
10.9381169
20
168.8258659
11
10.9381169
21
168.8258659
0
LINE
8
DEFAULT_255_2_778
10
10.9381169
20
168.8258659
11
10.9381169
21
168.8258659
0
LINE
8
DEFAULT_255_2_778
10
10.9381169
20
168.8258659
11
10.9381169
21
168.8258659
0
LINE
8
DEFAULT_255_2_778
10
14.7190169
20
168.8184659
11
14.7190169
21
168.8184659
0
LINE
8
DEFAULT_255_2_778
10
14.7190169
20
168.8184659
11
14.5515169
21
168.8882659
0
LINE
8
DEFAULT_255_2_778
10
14.5515169
20
168.8882659
11
14.5515169
21
168.8882659
0
LINE
8
DEFAULT_255_2_778
10
13.8641169
20
168.8255659
11
13.8641169
21
168.8255659
0
LINE
8
DEFAULT_255_2_778
10
13.8641169
20
168.8255659
11
13.8641169
21
169.0801659
0
LINE
8
DEFAULT_255_2_778
10
13.8641169
20
169.0801659
11
14.8042169
21
169.0801659
0
LINE
8
DEFAULT_255_2_778
10
14.8042169
20
169.0801659
11
14.8042169
21
169.0801659
0
LINE
8
DEFAULT_255_2_778
10
14.8042169
20
169.0801659
11
14.8042169
21
169.0801659
0
LINE
8
DEFAULT_255_2_778
10
14.8042169
20
169.0801659
11
14.8047169
21
169.0801659
0
LINE
8
DEFAULT_255_2_778
10
14.2417169
20
169.5600659
11
14.2417169
21
169.5600659
0
LINE
8
DEFAULT_255_2_778
10
14.2417169
20
169.5600659
11
14.2417169
21
169.2804659
0
LINE
8
DEFAULT_255_2_778
10
14.2417169
20
169.2804659
11
13.8647169
21
169.2804659
0
LINE
8
DEFAULT_255_2_778
10
13.8647169
20
169.2804659
11
13.8647169
21
169.5600659
0
LINE
8
DEFAULT_255_2_778
10
13.8647169
20
169.5600659
11
13.8647169
21
169.5600659
0
LINE
8
DEFAULT_255_2_778
10
13.8647169
20
169.5600659
11
13.8647169
21
169.5600659
0
LINE
8
DEFAULT_255_2_778
10
13.8647169
20
169.5600659
11
13.8647169
21
169.5600659
0
LINE
8
DEFAULT_255_2_778
10
19.7818169
20
168.8184659
11
19.7818169
21
168.8184659
0
LINE
8
DEFAULT_255_2_778
10
19.7818169
20
168.8184659
11
19.6143169
21
168.8882659
0
LINE
8
DEFAULT_255_2_778
10
19.6143169
20
168.8882659
11
19.6143169
21
168.8882659
0
LINE
8
DEFAULT_255_2_778
10
18.9272169
20
168.8255659
11
18.9272169
21
168.8255659
0
LINE
8
DEFAULT_255_2_778
10
18.9272169
20
168.8255659
11
18.9272169
21
169.0801659
0
LINE
8
DEFAULT_255_2_778
10
18.9272169
20
169.0801659
11
19.8673169
21
169.0801659
0
LINE
8
DEFAULT_255_2_778
10
19.8673169
20
169.0801659
11
19.8673169
21
169.0801659
0
LINE
8
DEFAULT_255_2_778
10
19.8673169
20
169.0801659
11
19.8673169
21
169.0801659
0
LINE
8
DEFAULT_255_2_778
10
19.8673169
20
169.0801659
11
19.8673169
21
169.0801659
0
LINE
8
DEFAULT_255_2_778
10
19.3042169
20
169.5598659
11
19.3042169
21
169.5598659
0
LINE
8
DEFAULT_255_2_778
10
19.3042169
20
169.5598659
11
19.3042169
21
169.2804659
0
LINE
8
DEFAULT_255_2_778
10
19.3042169
20
169.2804659
11
18.9272169
21
169.2804659
0
LINE
8
DEFAULT_255_2_778
10
18.9272169
20
169.2804659
11
18.9272169
21
169.5600659
0
LINE
8
DEFAULT_255_2_778
10
18.9272169
20
169.5600659
11
18.9272169
21
169.5600659
0
LINE
8
DEFAULT_255_2_778
10
18.9272169
20
169.5600659
11
18.9272169
21
169.5600659
0
LINE
8
DEFAULT_255_2_778
10
18.9272169
20
169.5600659
11
18.9272169
21
169.5598659
0
LINE
8
DEFAULT_255_1_234
10
7.4316364
20
166.5441211
11
7.6308235
21
166.5441211
0
LINE
8
DEFAULT_255_1_234
10
7.6308235
20
166.5441211
11
8.0131342
21
165.5899506
0
LINE
8
DEFAULT_255_1_234
10
8.0131342
20
165.5899506
11
8.395445
21
166.5441211
0
LINE
8
DEFAULT_255_1_234
10
8.395445
20
166.5441211
11
8.5954353
21
166.5441211
0
LINE
8
DEFAULT_255_1_234
10
8.5954353
20
166.5441211
11
8.5954353
21
165.3747
0
LINE
8
DEFAULT_255_1_234
10
8.5954353
20
165.3747
11
8.4412259
21
165.3747
0
LINE
8
DEFAULT_255_1_234
10
8.4412259
20
165.3747
11
8.4412259
21
165.8300996
0
LINE
8
DEFAULT_255_1_234
10
8.4412259
20
165.8300996
11
8.455683
21
166.3216419
0
LINE
8
DEFAULT_255_1_234
10
8.455683
20
166.3216419
11
8.0717659
21
165.3747
0
LINE
8
DEFAULT_255_1_234
10
8.0717659
20
165.3747
11
7.9536994
21
165.3747
0
LINE
8
DEFAULT_255_1_234
10
7.9536994
20
165.3747
11
7.5705854
21
166.3192324
0
LINE
8
DEFAULT_255_1_234
10
7.5705854
20
166.3192324
11
7.5858458
21
165.8300996
0
LINE
8
DEFAULT_255_1_234
10
7.5858458
20
165.8300996
11
7.5858458
21
165.3747
0
LINE
8
DEFAULT_255_1_234
10
7.5858458
20
165.3747
11
7.4316364
21
165.3747
0
LINE
8
DEFAULT_255_1_234
10
7.4316364
20
165.3747
11
7.4316364
21
166.5441211
0
LINE
8
DEFAULT_255_1_234
10
9.536755
20
165.3747
11
9.3809393
21
165.3747
0
LINE
8
DEFAULT_255_1_234
10
9.2130759
20
165.901582
11
9.3576472
21
165.901582
0
LINE
8
DEFAULT_255_1_234
10
9.3576472
20
165.901582
11
9.3576472
21
165.9698518
0
LINE
8
DEFAULT_255_1_234
10
8.9865809
20
166.0027819
11
8.8371906
21
166.0027819
0
LINE
8
DEFAULT_255_1_234
10
9.5062344
20
165.9778835
11
9.5062344
21
165.577903
0
LINE
8
DEFAULT_255_1_234
10
9.536755
20
165.3875508
11
9.536755
21
165.3747
0
LINE
8
DEFAULT_255_1_234
10
9.3576472
20
165.6180617
11
9.3576472
21
165.7963663
0
LINE
8
DEFAULT_255_1_234
10
9.3576472
20
165.7963663
11
9.241187
21
165.7963663
0
ARC
8
DEFAULT_255_1_234
10
9.4848931
20
165.4251194
40
0.1155358
50
197.0791116
51
205.8741701
0
ARC
8
DEFAULT_255_1_234
10
9.608753
20
165.4643654
40
0.2454626
50
192.2918602
51
197.3448991
0
ARC
8
DEFAULT_255_1_234
10
9.8040979
20
165.5077663
40
0.4455697
50
189.1576348
51
192.3971359
0
ARC
8
DEFAULT_255_1_234
10
10.085526
20
165.5536549
40
0.7307142
50
186.8689952
51
189.1979448
0
ARC
8
DEFAULT_255_1_234
10
9.1026414
20
165.7083258
40
0.353352
50
294.0080019
51
316.7604136
0
ARC
8
DEFAULT_255_1_234
10
9.1155478
20
165.6901572
40
0.3315331
50
269.5042461
51
293.2479736
0
ARC
8
DEFAULT_255_1_234
10
9.1095963
20
165.7302491
40
0.3716254
50
255.403374
51
270.4753162
0
ARC
8
DEFAULT_255_1_234
10
9.0865935
20
165.6409825
40
0.2794431
50
228.6140946
51
255.354999
0
ARC
8
DEFAULT_255_1_234
10
9.0533459
20
165.6091491
40
0.2336109
50
181.8953303
51
229.5703879
0
ARC
8
DEFAULT_255_1_234
10
9.1124964
20
165.6155708
40
0.2929755
50
179.984097
51
182.7679515
0
ARC
8
DEFAULT_255_1_234
10
9.1041906
20
165.6190413
40
0.28469
50
161.0341165
51
180.6820968
0
ARC
8
DEFAULT_255_1_234
10
9.0602452
20
165.6304729
40
0.2394402
50
125.0523775
51
160.2033967
0
ARC
8
DEFAULT_255_1_234
10
9.1264461
20
165.5401431
40
0.3514152
50
106.2671988
51
125.4298572
0
ARC
8
DEFAULT_255_1_234
10
9.1836917
20
165.3530842
40
0.5470269
50
95.4857064
51
106.534858
0
ARC
8
DEFAULT_255_1_234
10
9.2110071
20
165.1031758
40
0.7984089
50
89.8515322
51
95.7224983
0
ARC
8
DEFAULT_255_1_234
10
9.1470666
20
165.9716759
40
0.2105886
50
359.503704
51
14.3184734
0
ARC
8
DEFAULT_255_1_234
10
9.204479
20
165.9866017
40
0.1512684
50
14.2187004
51
45.2025693
0
ARC
8
DEFAULT_255_1_234
10
9.2080986
20
165.9880251
40
0.1477163
50
45.8098026
51
73.0032427
0
ARC
8
DEFAULT_255_1_234
10
9.1831954
20
165.9118896
40
0.2278113
50
72.610967
51
85.7232876
0
ARC
8
DEFAULT_255_1_234
10
9.1741948
20
165.8205569
40
0.3195681
50
85.3352114
51
90.0850615
0
ARC
8
DEFAULT_255_1_234
10
9.1718351
20
165.8796391
40
0.2604924
50
89.5853149
51
103.4592217
0
ARC
8
DEFAULT_255_1_234
10
9.1565954
20
165.9431597
40
0.1951693
50
103.44851
51
126.5404292
0
ARC
8
DEFAULT_255_1_234
10
9.1326834
20
165.973743
40
0.1563639
50
126.1729825
51
141.5004088
0
ARC
8
DEFAULT_255_1_234
10
9.0948435
20
166.0034385
40
0.1082645
50
141.3333588
51
180.3474677
0
ARC
8
DEFAULT_255_1_234
10
9.0274145
20
166.0017174
40
0.1902269
50
151.6374668
51
179.6793754
0
ARC
8
DEFAULT_255_1_234
10
9.0876387
20
165.9717334
40
0.2574753
50
142.4988163
51
152.1325379
0
ARC
8
DEFAULT_255_1_234
10
9.1194347
20
165.9467735
40
0.2978957
50
120.8284787
51
142.4132259
0
ARC
8
DEFAULT_255_1_234
10
9.1610456
20
165.8816301
40
0.3751664
50
113.9638113
51
121.1869885
0
ARC
8
DEFAULT_255_1_234
10
9.1746608
20
165.8484544
40
0.4110136
50
93.3784663
51
113.8198047
0
ARC
8
DEFAULT_255_1_234
10
9.182339
20
165.7719446
40
0.487853
50
89.9745882
51
93.7491274
0
ARC
8
DEFAULT_255_1_234
10
9.1858276
20
165.7755605
40
0.4842481
50
79.1325877
51
90.3871757
0
ARC
8
DEFAULT_255_1_234
10
9.2183396
20
165.9380435
40
0.3185522
50
60.1435559
51
79.3654871
0
ARC
8
DEFAULT_255_1_234
10
9.2440085
20
165.987343
40
0.2630271
50
48.6192091
51
59.646742
0
ARC
8
DEFAULT_255_1_234
10
9.2487823
20
165.9936691
40
0.2551253
50
9.0349315
51
48.4844544
0
ARC
8
DEFAULT_255_1_234
10
9.1411667
20
165.9701793
40
0.3651489
50
1.2089744
51
10.0233366
0
ARC
8
DEFAULT_255_1_234
10
10.2698412
20
165.5754518
40
0.7636108
50
179.8160804
51
185.3206488
0
ARC
8
DEFAULT_255_1_234
10
10.0002894
20
165.5497155
40
0.4928344
50
185.2474014
51
192.7953707
0
ARC
8
DEFAULT_255_1_234
10
9.8241151
20
165.5092824
40
0.3120807
50
192.7197759
51
202.9585048
0
ARC
8
DEFAULT_255_1_234
10
9.1343334
20
165.7490928
40
0.2611453
50
270.0069004
51
300.5035019
0
ARC
8
DEFAULT_255_1_234
10
9.1465942
20
165.7362927
40
0.2439274
50
299.5482464
51
315.6095048
0
ARC
8
DEFAULT_255_1_234
10
9.1756039
20
165.7066155
40
0.2024389
50
315.868035
51
334.0596869
0
ARC
8
DEFAULT_255_1_234
10
9.2368399
20
165.0989943
40
0.6973855
50
89.6428514
51
97.2870891
0
ARC
8
DEFAULT_255_1_234
10
9.1927162
20
165.4293571
40
0.3640992
50
96.9938028
51
109.7781797
0
ARC
8
DEFAULT_255_1_234
10
9.1261787
20
165.6074891
40
0.1739759
50
109.0087453
51
135.326626
0
ARC
8
DEFAULT_255_1_234
10
9.0988392
20
165.6413473
40
0.1308198
50
137.4539381
51
182.1082805
0
ARC
8
DEFAULT_255_1_234
10
9.1362382
20
165.6348893
40
0.1681384
50
179.4392907
51
195.7200177
0
ARC
8
DEFAULT_255_1_234
10
9.095081
20
165.6236426
40
0.1254738
50
195.8684065
51
230.1572205
0
ARC
8
DEFAULT_255_1_234
10
9.1193237
20
165.6526769
40
0.1632985
50
230.1530708
51
259.7485588
0
ARC
8
DEFAULT_255_1_234
10
9.1331941
20
165.7180386
40
0.230094
50
259.2463819
51
270.291543
0
LINE
8
DEFAULT_255_1_234
10
10.3857097
20
165.9883248
11
10.2363194
21
165.9883248
0
LINE
8
DEFAULT_255_1_234
10
9.703012
20
165.6421569
11
9.8515991
21
165.6421569
0
ARC
8
DEFAULT_255_1_234
10
10.1175012
20
165.6066959
40
0.1276617
50
359.3334982
51
18.5871358
0
ARC
8
DEFAULT_255_1_234
10
10.138365
20
165.6122133
40
0.1061371
50
19.3540742
51
54.6485071
0
ARC
8
DEFAULT_255_1_234
10
10.0879552
20
165.5426919
40
0.1920087
50
54.3827097
51
65.0622807
0
ARC
8
DEFAULT_255_1_234
10
10.0110948
20
165.38099
40
0.3710447
50
64.8282493
51
71.4200025
0
ARC
8
DEFAULT_255_1_234
10
9.9208823
20
165.1163107
40
0.6506741
50
71.3164301
51
75.8006402
0
ARC
8
DEFAULT_255_1_234
10
9.8367643
20
164.7922561
40
0.9854641
50
75.6809531
51
78.0061883
0
ARC
8
DEFAULT_255_1_234
10
10.2816177
20
166.890177
40
1.1591028
50
254.6901892
51
258.0466452
0
ARC
8
DEFAULT_255_1_234
10
10.1778085
20
166.5142781
40
0.7691345
50
249.9010773
51
254.755261
0
ARC
8
DEFAULT_255_1_234
10
10.0774427
20
166.2416982
40
0.478665
50
243.3097214
51
249.9709442
0
ARC
8
DEFAULT_255_1_234
10
10.0145448
20
166.1162778
40
0.3383568
50
234.4047477
51
243.2862168
0
ARC
8
DEFAULT_255_1_234
10
9.9522972
20
166.0303232
40
0.2322322
50
220.8667099
51
234.5493881
0
ARC
8
DEFAULT_255_1_234
10
9.9180913
20
165.9991817
40
0.1859923
50
214.3062465
51
220.5065136
0
ARC
8
DEFAULT_255_1_234
10
9.9154992
20
165.996088
40
0.1821108
50
186.912965
51
213.9618616
0
ARC
8
DEFAULT_255_1_234
10
9.9687087
20
166.0047009
40
0.2359799
50
179.8808832
51
187.4339886
0
ARC
8
DEFAULT_255_1_234
10
9.953222
20
166.0067088
40
0.2204978
50
132.005434
51
180.3942919
0
ARC
8
DEFAULT_255_1_234
10
10.0188834
20
165.9461083
40
0.3095791
50
129.2319861
51
133.5302299
0
ARC
8
DEFAULT_255_1_234
10
10.0242342
20
165.9366928
40
0.3202615
50
100.4410011
51
128.9081242
0
ARC
8
DEFAULT_255_1_234
10
10.0516225
20
165.8081455
40
0.4516583
50
89.6985377
51
100.9026564
0
ARC
8
DEFAULT_255_1_234
10
10.0573267
20
165.7921166
40
0.4676928
50
77.6965325
51
90.4076836
0
ARC
8
DEFAULT_255_1_234
10
10.0904252
20
165.9348413
40
0.3211988
50
50.7276602
51
78.0399361
0
ARC
8
DEFAULT_255_1_234
10
10.134871
20
165.9866296
40
0.2529778
50
25.7545084
51
51.0957453
0
ARC
8
DEFAULT_255_1_234
10
10.1349935
20
165.9916206
40
0.250738
50
359.2468627
51
24.7394243
0
ARC
8
DEFAULT_255_1_234
10
10.1065387
20
165.9887664
40
0.1297815
50
359.8050318
51
45.1544908
0
ARC
8
DEFAULT_255_1_234
10
10.0658528
20
165.9539794
40
0.1831883
50
43.8047702
51
49.6271585
0
ARC
8
DEFAULT_255_1_234
10
10.066643
20
165.9540678
40
0.18261
50
49.7980766
51
82.1218353
0
ARC
8
DEFAULT_255_1_234
10
10.0547402
20
165.8893998
40
0.2483163
50
81.4465357
51
90.1710293
0
ARC
8
DEFAULT_255_1_234
10
10.0523005
20
165.836788
40
0.300932
50
89.6766211
51
99.1264602
0
ARC
8
DEFAULT_255_1_234
10
10.0351466
20
165.9401537
40
0.1961547
50
98.968313
51
113.4570237
0
ARC
8
DEFAULT_255_1_234
10
10.0155551
20
165.9869965
40
0.1453859
50
113.722589
51
127.4763106
0
ARC
8
DEFAULT_255_1_234
10
9.9987198
20
166.0070124
40
0.1192639
50
126.9083309
51
150.3165862
0
ARC
8
DEFAULT_255_1_234
10
9.993953
20
166.0120981
40
0.112623
50
151.3635175
51
180.0701457
0
ARC
8
DEFAULT_255_1_234
10
10.0248315
20
166.009999
40
0.1435149
50
179.2169974
51
179.9954013
0
ARC
8
DEFAULT_255_1_234
10
9.9887372
20
166.0087056
40
0.1074286
50
179.3040112
51
198.4225446
0
ARC
8
DEFAULT_255_1_234
10
9.9695506
20
166.0037127
40
0.0876573
50
199.2895851
51
238.6034594
0
ARC
8
DEFAULT_255_1_234
10
10.0298352
20
166.098345
40
0.1998512
50
237.9846301
51
246.8744712
0
ARC
8
DEFAULT_255_1_234
10
10.1156297
20
166.2946205
40
0.4140547
50
246.6234531
51
251.8168941
0
ARC
8
DEFAULT_255_1_234
10
10.2186841
20
166.6040905
40
0.7402308
50
251.713434
51
255.0778414
0
ARC
8
DEFAULT_255_1_234
10
10.3386104
20
167.0507563
40
1.2027155
50
255.0367487
51
257.4705983
0
ARC
8
DEFAULT_255_1_234
10
9.8278113
20
164.7493863
40
1.1546601
50
73.6837552
51
77.5016755
0
ARC
8
DEFAULT_255_1_234
10
9.9366888
20
165.1193581
40
0.7690009
50
68.7044154
51
73.7249639
0
ARC
8
DEFAULT_255_1_234
10
10.0269909
20
165.3520654
40
0.5193873
50
63.590599
51
68.6626804
0
ARC
8
DEFAULT_255_1_234
10
10.1040928
20
165.5058123
40
0.3473927
50
54.7106439
51
63.7013633
0
ARC
8
DEFAULT_255_1_234
10
10.1665382
20
165.59304
40
0.2401192
50
41.0622434
51
54.8487496
0
ARC
8
DEFAULT_255_1_234
10
10.2006769
20
165.6243592
40
0.1938094
50
34.4950568
51
40.7105546
0
ARC
8
DEFAULT_255_1_234
10
10.2053576
20
165.6292078
40
0.1872106
50
9.3763373
51
34.0833615
0
ARC
8
DEFAULT_255_1_234
10
10.1400447
20
165.6166728
40
0.2536988
50
359.7694872
51
9.7663171
0
ARC
8
DEFAULT_255_1_234
10
10.1597947
20
165.6123764
40
0.2339696
50
335.8654732
51
0.8022045
0
ARC
8
DEFAULT_255_1_234
10
10.1672992
20
165.6137197
40
0.2277108
50
307.7357725
51
334.7849066
0
ARC
8
DEFAULT_255_1_234
10
10.1272168
20
165.6587645
40
0.2878951
50
307.0241536
51
308.5578354
0
ARC
8
DEFAULT_255_1_234
10
10.1014499
20
165.6973801
40
0.3342515
50
282.9362969
51
306.5646424
0
ARC
8
DEFAULT_255_1_234
10
10.0652796
20
165.8441108
40
0.4853615
50
271.1026298
51
283.2200835
0
ARC
8
DEFAULT_255_1_234
10
10.058904
20
165.9682418
40
0.6096052
50
269.9919117
51
271.4772449
0
ARC
8
DEFAULT_255_1_234
10
10.0562795
20
165.8604436
40
0.5018135
50
259.0723564
51
270.289833
0
ARC
8
DEFAULT_255_1_234
10
10.0350528
20
165.7487271
40
0.388099
50
245.4963068
51
259.0227342
0
ARC
8
DEFAULT_255_1_234
10
10.0072484
20
165.6905615
40
0.3236422
50
228.9684658
51
245.7044727
0
ARC
8
DEFAULT_255_1_234
10
9.9806928
20
165.6578575
40
0.2815426
50
214.4011705
51
228.6759915
0
ARC
8
DEFAULT_255_1_234
10
9.9517668
20
165.642029
40
0.2487548
50
179.9705531
51
215.1572795
0
ARC
8
DEFAULT_255_1_234
10
10.0218268
20
165.6493806
40
0.1703809
50
182.4299387
51
203.0329699
0
ARC
8
DEFAULT_255_1_234
10
10.0033926
20
165.6437396
40
0.1512226
50
203.798802
51
232.548466
0
ARC
8
DEFAULT_255_1_234
10
10.0310447
20
165.6788826
40
0.1959374
50
232.3782728
51
256.3934612
0
ARC
8
DEFAULT_255_1_234
10
10.0540809
20
165.7678842
40
0.2878639
50
256.104506
51
268.4626716
0
ARC
8
DEFAULT_255_1_234
10
10.0587293
20
165.8475487
40
0.3676329
50
268.0715632
51
270.0138206
0
ARC
8
DEFAULT_255_1_234
10
10.0605818
20
165.8203083
40
0.3403971
50
269.7031147
51
278.8341955
0
ARC
8
DEFAULT_255_1_234
10
10.0787911
20
165.7072876
40
0.2259217
50
278.6728789
51
292.8232582
0
ARC
8
DEFAULT_255_1_234
10
10.0988449
20
165.6571449
40
0.171929
50
293.1452328
51
303.6655899
0
ARC
8
DEFAULT_255_1_234
10
10.1253328
20
165.6195204
40
0.1259367
50
303.1248165
51
321.742847
0
ARC
8
DEFAULT_255_1_234
10
10.1439208
20
165.6032156
40
0.1012531
50
322.4748573
51
1.1291126
0
LINE
8
DEFAULT_255_1_234
10
10.6403158
20
166.4541656
11
10.788903
21
166.4541656
0
LINE
8
DEFAULT_255_1_234
10
10.788903
20
166.4541656
11
10.788903
21
166.2437341
0
LINE
8
DEFAULT_255_1_234
10
10.788903
20
166.2437341
11
10.9511441
21
166.2437341
0
LINE
8
DEFAULT_255_1_234
10
10.9511441
20
166.2437341
11
10.9511441
21
166.1288802
0
LINE
8
DEFAULT_255_1_234
10
10.9511441
20
166.1288802
11
10.788903
21
166.1288802
0
LINE
8
DEFAULT_255_1_234
10
10.788903
20
166.1288802
11
10.788903
21
165.5899506
0
LINE
8
DEFAULT_255_1_234
10
10.95516
20
165.4951761
11
10.95516
21
165.3747
0
LINE
8
DEFAULT_255_1_234
10
10.6403158
20
165.5899506
11
10.6403158
21
166.1288802
0
LINE
8
DEFAULT_255_1_234
10
10.6403158
20
166.1288802
11
10.4820906
21
166.1288802
0
LINE
8
DEFAULT_255_1_234
10
10.4820906
20
166.1288802
11
10.4820906
21
166.2437341
0
LINE
8
DEFAULT_255_1_234
10
10.4820906
20
166.2437341
11
10.6403158
21
166.2437341
0
LINE
8
DEFAULT_255_1_234
10
10.6403158
20
166.2437341
11
10.6403158
21
166.4541656
0
ARC
8
DEFAULT_255_1_234
10
10.9896533
20
165.5889084
40
0.200753
50
179.7025659
51
187.917967
0
ARC
8
DEFAULT_255_1_234
10
10.9150559
20
165.5781724
40
0.1253883
50
187.7545981
51
200.2447476
0
ARC
8
DEFAULT_255_1_234
10
10.872988
20
165.5624859
40
0.0804913
50
200.130383
51
219.174133
0
ARC
8
DEFAULT_255_1_234
10
10.8594056
20
165.5532515
40
0.0641445
50
220.4434483
51
249.6172
0
ARC
8
DEFAULT_255_1_234
10
10.8748907
20
165.5921968
40
0.1060489
50
249.1032952
51
262.775154
0
ARC
8
DEFAULT_255_1_234
10
10.8837079
20
165.6550715
40
0.1695354
50
262.4913187
51
270.2611758
0
ARC
8
DEFAULT_255_1_234
10
10.8834496
20
165.6766103
40
0.191075
50
270.3091804
51
275.6625139
0
ARC
8
DEFAULT_255_1_234
10
10.869172
20
165.8267435
40
0.3418851
50
275.5610264
51
279.0879356
0
ARC
8
DEFAULT_255_1_234
10
10.8361598
20
166.0362699
40
0.5539959
50
279.0365489
51
281.5011378
0
ARC
8
DEFAULT_255_1_234
10
10.8004674
20
166.2166423
40
0.7378639
50
281.4243939
51
282.1017894
0
ARC
8
DEFAULT_255_1_234
10
10.8347921
20
165.8084858
40
0.4501761
50
275.2597045
51
285.5083879
0
ARC
8
DEFAULT_255_1_234
10
10.8409246
20
165.7528606
40
0.3942242
50
270.0268409
51
275.1132796
0
ARC
8
DEFAULT_255_1_234
10
10.8389211
20
165.6201614
40
0.261534
50
257.3573315
51
270.479383
0
ARC
8
DEFAULT_255_1_234
10
10.8176102
20
165.5303406
40
0.1692304
50
230.8037497
51
257.741658
0
ARC
8
DEFAULT_255_1_234
10
10.8108005
20
165.5193777
40
0.1564393
50
219.974146
51
230.1990686
0
ARC
8
DEFAULT_255_1_234
10
10.8439952
20
165.5447579
40
0.1981916
50
196.5084186
51
219.4318458
0
ARC
8
DEFAULT_255_1_234
10
10.9455397
20
165.5766194
40
0.3046086
50
184.6404872
51
196.8269686
0
ARC
8
DEFAULT_255_1_234
10
11.0700461
20
165.5891908
40
0.4297309
50
179.8986958
51
184.9681077
0
LINE
8
DEFAULT_255_1_234
10
11.0868805
20
165.7851218
11
11.0868805
21
165.8124297
0
LINE
8
DEFAULT_255_1_234
10
11.824194
20
165.8284932
11
11.824194
21
165.7666488
0
LINE
8
DEFAULT_255_1_234
10
11.824194
20
165.7666488
11
11.2354676
21
165.7666488
0
LINE
8
DEFAULT_255_1_234
10
11.722191
20
165.5971792
11
11.8129496
21
165.5264999
0
LINE
8
DEFAULT_255_1_234
10
11.2402867
20
165.8887313
11
11.6756069
21
165.8887313
0
LINE
8
DEFAULT_255_1_234
10
11.6756069
20
165.8887313
11
11.6756069
21
165.8999757
0
ARC
8
DEFAULT_255_1_234
10
11.480817
20
165.7962332
40
0.4376191
50
252.3266134
51
270.5810217
0
ARC
8
DEFAULT_255_1_234
10
11.4603259
20
165.7221644
40
0.3608374
50
223.3000567
51
251.8561855
0
ARC
8
DEFAULT_255_1_234
10
11.4814619
20
165.7426937
40
0.3902993
50
190.9374509
51
223.3654032
0
ARC
8
DEFAULT_255_1_234
10
11.6539592
20
165.7816885
40
0.5670891
50
179.6531105
51
191.4989439
0
ARC
8
DEFAULT_255_1_234
10
11.6661604
20
165.8156417
40
0.5792888
50
167.4007466
51
180.3176909
0
ARC
8
DEFAULT_255_1_234
10
11.5609666
20
165.8378885
40
0.471777
50
154.1835823
51
167.250763
0
ARC
8
DEFAULT_255_1_234
10
11.4978133
20
165.8711417
40
0.4004528
50
134.3149965
51
154.5315275
0
ARC
8
DEFAULT_255_1_234
10
11.4760628
20
165.8902228
40
0.371612
50
122.8616532
51
133.9707695
0
ARC
8
DEFAULT_255_1_234
10
11.4657202
20
165.9124703
40
0.3473289
50
89.8249009
51
123.4199222
0
ARC
8
DEFAULT_255_1_234
10
11.4707243
20
165.8477967
40
0.4120197
50
74.7876118
51
90.5482747
0
ARC
8
DEFAULT_255_1_234
10
11.5000987
20
165.956303
40
0.2996077
50
39.8178249
51
74.7633718
0
ARC
8
DEFAULT_255_1_234
10
11.4488307
20
165.9163351
40
0.3645855
50
16.8990863
51
39.4829761
0
ARC
8
DEFAULT_255_1_234
10
11.2593603
20
165.8556526
40
0.5635218
50
4.9636328
51
17.2026414
0
ARC
8
DEFAULT_255_1_234
10
11.0175673
20
165.830134
40
0.8066286
50
359.8834553
51
5.2834307
0
ARC
8
DEFAULT_255_1_234
10
11.6213198
20
165.7732803
40
0.3859091
50
180.9846213
51
194.9401313
0
ARC
8
DEFAULT_255_1_234
10
11.5163476
20
165.7445849
40
0.2770883
50
194.80314
51
222.0412631
0
ARC
8
DEFAULT_255_1_234
10
11.4859357
20
165.7144116
40
0.2343055
50
221.5417084
51
268.8614402
0
ARC
8
DEFAULT_255_1_234
10
11.4932352
20
165.7820686
40
0.3021528
50
267.732405
51
270.0097136
0
ARC
8
DEFAULT_255_1_234
10
11.4950162
20
165.8022105
40
0.3222994
50
269.6924892
51
280.4117579
0
ARC
8
DEFAULT_255_1_234
10
11.5126569
20
165.7103193
40
0.2287344
50
280.2255091
51
298.6338936
0
ARC
8
DEFAULT_255_1_234
10
11.5243361
20
165.6859223
40
0.2017294
50
299.0430333
51
300.4643464
0
ARC
8
DEFAULT_255_1_234
10
11.4563366
20
165.7993038
40
0.3339357
50
300.6577328
51
322.0378878
0
ARC
8
DEFAULT_255_1_234
10
11.4212905
20
165.8297021
40
0.3802736
50
321.6750233
51
322.3046845
0
ARC
8
DEFAULT_255_1_234
10
11.5143867
20
165.713037
40
0.3520454
50
276.9728461
51
328.0035423
0
ARC
8
DEFAULT_255_1_234
10
11.486692
20
165.8610841
40
0.5024498
50
269.8361028
51
278.0581756
0
ARC
8
DEFAULT_255_1_234
10
11.4639657
20
165.9355757
40
0.202159
50
89.2018686
51
117.2851756
0
ARC
8
DEFAULT_255_1_234
10
11.4692826
20
165.9313752
40
0.2083484
50
118.0551165
51
137.4540413
0
ARC
8
DEFAULT_255_1_234
10
11.5067566
20
165.8973304
40
0.2589774
50
137.5109581
51
158.8516286
0
ARC
8
DEFAULT_255_1_234
10
11.6205402
20
165.8514074
40
0.38167
50
158.5845963
51
170.1721436
0
ARC
8
DEFAULT_255_1_234
10
11.7374791
20
165.8281823
40
0.5008657
50
169.8376422
51
173.0566086
0
ARC
8
DEFAULT_255_1_234
10
11.2677865
20
165.8792509
40
0.4083467
50
2.9091802
51
12.8847116
0
ARC
8
DEFAULT_255_1_234
10
11.4048541
20
165.9115101
40
0.2675383
50
12.6957781
51
28.6404489
0
ARC
8
DEFAULT_255_1_234
10
11.4590212
20
165.9395458
40
0.2065654
50
29.0169854
51
41.1487595
0
ARC
8
DEFAULT_255_1_234
10
11.4792997
20
165.9572003
40
0.1796786
50
41.1646065
51
85.0013516
0
ARC
8
DEFAULT_255_1_234
10
11.4672094
20
165.8837431
40
0.2539726
50
83.7280015
51
90.0964893
0
LINE
8
DEFAULT_255_1_234
10
12.4161332
20
166.2485531
11
12.4161332
21
166.1104072
0
LINE
8
DEFAULT_255_1_234
10
12.1446604
20
165.9915375
11
12.1446604
21
165.3747
0
LINE
8
DEFAULT_255_1_234
10
12.1446604
20
165.3747
11
11.9960732
21
165.3747
0
LINE
8
DEFAULT_255_1_234
10
11.9960732
20
165.3747
11
11.9960732
21
166.2437341
0
LINE
8
DEFAULT_255_1_234
10
11.9960732
20
166.2437341
11
12.1406445
21
166.2437341
0
LINE
8
DEFAULT_255_1_234
10
12.1406445
20
166.2437341
11
12.1430541
21
166.1433374
0
ARC
8
DEFAULT_255_1_234
10
12.3494737
20
165.7044342
40
0.4114092
50
80.6754243
51
86.8932892
0
ARC
8
DEFAULT_255_1_234
10
12.3434271
20
165.60767
40
0.5083596
50
86.8038578
51
90.0431435
0
ARC
8
DEFAULT_255_1_234
10
12.3397252
20
165.8533866
40
0.2626638
50
89.2759698
51
106.6213787
0
ARC
8
DEFAULT_255_1_234
10
12.3192816
20
165.927683
40
0.1856317
50
107.1346045
51
157.6458115
0
ARC
8
DEFAULT_255_1_234
10
12.3884418
20
165.8893311
40
0.2643398
50
155.6586782
51
157.2539184
0
ARC
8
DEFAULT_255_1_234
10
12.367962
20
166.0062157
40
0.2634121
50
127.8165941
51
148.6302098
0
ARC
8
DEFAULT_255_1_234
10
12.3426089
20
166.0322218
40
0.2273596
50
91.3329982
51
126.7875809
0
ARC
8
DEFAULT_255_1_234
10
12.3502029
20
165.9607195
40
0.299078
50
89.986594
51
92.4688449
0
ARC
8
DEFAULT_255_1_234
10
12.3510424
20
165.9882078
40
0.2715908
50
85.3589899
51
90.1623399
0
ARC
8
DEFAULT_255_1_234
10
12.359494
20
166.0886164
40
0.1708278
50
78.401942
51
85.4594656
0
ARC
8
DEFAULT_255_1_234
10
12.3739824
20
166.1577236
40
0.1002194
50
67.7858312
51
78.5728455
0
ARC
8
DEFAULT_255_1_234
10
12.3847676
20
166.1856887
40
0.0702548
50
63.4835954
51
67.3062642
0
LINE
8
DEFAULT_255_1_234
10
12.7309773
20
166.5441211
11
12.7309773
21
165.5007983
0
LINE
8
DEFAULT_255_1_234
10
12.7309773
20
165.5007983
11
13.2851672
21
165.5007983
0
LINE
8
DEFAULT_255_1_234
10
13.2851672
20
165.5007983
11
13.2851672
21
165.3747
0
LINE
8
DEFAULT_255_1_234
10
13.2851672
20
165.3747
11
12.5759647
21
165.3747
0
LINE
8
DEFAULT_255_1_234
10
12.5759647
20
165.3747
11
12.5759647
21
166.5441211
0
LINE
8
DEFAULT_255_1_234
10
12.5759647
20
166.5441211
11
12.7309773
21
166.5441211
0
LINE
8
DEFAULT_255_1_234
10
13.3984147
20
165.8068075
11
13.3984147
21
165.8172488
0
LINE
8
DEFAULT_255_1_234
10
14.189541
20
165.8100202
11
14.189541
21
165.799579
0
ARC
8
DEFAULT_255_1_234
10
13.9570327
20
165.8204837
40
0.5586273
50
166.3003825
51
180.3317926
0
ARC
8
DEFAULT_255_1_234
10
13.8707486
20
165.8397964
40
0.4702272
50
153.8608245
51
166.0967125
0
ARC
8
DEFAULT_255_1_234
10
13.8041889
20
165.875475
40
0.3947658
50
135.1316692
51
154.253643
0
ARC
8
DEFAULT_255_1_234
10
13.7763448
20
165.9000666
40
0.3576898
50
121.7044358
51
134.776924
0
ARC
8
DEFAULT_255_1_234
10
13.7830442
20
165.8871867
40
0.3721701
50
93.4002104
51
121.5398234
0
ARC
8
DEFAULT_255_1_234
10
13.7925398
20
165.8046228
40
0.4551749
50
89.9706281
51
93.9769836
0
ARC
8
DEFAULT_255_1_234
10
13.797249
20
165.8436362
40
0.4161854
50
71.3323442
51
90.6161982
0
ARC
8
DEFAULT_255_1_234
10
13.8135186
20
165.9038578
40
0.3539455
50
41.1815071
51
70.707185
0
ARC
8
DEFAULT_255_1_234
10
13.7657586
20
165.8604919
40
0.4184468
50
12.1971897
51
41.3445735
0
ARC
8
DEFAULT_255_1_234
10
13.5731594
20
165.8146425
40
0.616399
50
359.5703439
51
12.5804035
0
ARC
8
DEFAULT_255_1_234
10
13.6204669
20
165.7964116
40
0.5690829
50
347.0197749
51
0.3188898
0
ARC
8
DEFAULT_255_1_234
10
13.7163171
20
165.7757808
40
0.4710501
50
334.3504053
51
346.846361
0
ARC
8
DEFAULT_255_1_234
10
13.8008594
20
165.7318805
40
0.3758475
50
310.422922
51
334.8045033
0
ARC
8
DEFAULT_255_1_234
10
13.809042
20
165.7254782
40
0.3656736
50
301.8486886
51
310.097356
0
ARC
8
DEFAULT_255_1_234
10
13.8058146
20
165.7330638
40
0.3738224
50
274.307774
51
301.655379
0
ARC
8
DEFAULT_255_1_234
10
13.7947453
20
165.8208361
40
0.4621997
50
269.9546461
51
274.8588071
0
ARC
8
DEFAULT_255_1_234
10
13.7898387
20
165.7707249
40
0.4121134
50
250.888809
51
270.631312
0
ARC
8
DEFAULT_255_1_234
10
13.7748307
20
165.7148277
40
0.3544073
50
221.1701932
51
250.2227191
0
ARC
8
DEFAULT_255_1_234
10
13.8232461
20
165.7589439
40
0.4198961
50
191.6263638
51
221.3526367
0
ARC
8
DEFAULT_255_1_234
10
14.0120457
20
165.8026329
40
0.6136451
50
179.610213
51
192.0693181
0
ARC
8
DEFAULT_255_1_234
10
14.0543685
20
165.7963633
40
0.5065736
50
179.636298
51
190.6162791
0
ARC
8
DEFAULT_255_1_234
10
13.8901353
20
165.764359
40
0.3392576
50
190.4136628
51
208.7170242
0
ARC
8
DEFAULT_255_1_234
10
13.8390977
20
165.7390366
40
0.2823401
50
209.1867941
51
217.4225593
0
ARC
8
DEFAULT_255_1_234
10
13.7861811
20
165.6924558
40
0.2120636
50
216.1156896
51
265.2575835
0
ARC
8
DEFAULT_255_1_234
10
13.794096
20
165.7498109
40
0.2698952
50
264.5897417
51
270.0601757
0
ARC
8
DEFAULT_255_1_234
10
13.797402
20
165.7118185
40
0.2319225
50
269.2532621
51
291.8792492
0
ARC
8
DEFAULT_255_1_234
10
13.8003242
20
165.6940238
40
0.2143562
50
292.9269754
51
323.1776747
0
ARC
8
DEFAULT_255_1_234
10
13.7610064
20
165.7288452
40
0.2667346
50
322.2518483
51
323.0930371
0
ARC
8
DEFAULT_255_1_234
10
13.7315723
20
165.746999
40
0.3011886
50
323.6941278
51
343.8493282
0
ARC
8
DEFAULT_255_1_234
10
13.5737266
20
165.795035
40
0.4661719
50
343.5748474
51
355.0079071
0
ARC
8
DEFAULT_255_1_234
10
13.3729511
20
165.8158424
40
0.6680042
50
354.7285225
51
0.1206288
0
ARC
8
DEFAULT_255_1_234
10
13.5497977
20
165.8204751
40
0.4911667
50
359.623636
51
11.2015604
0
ARC
8
DEFAULT_255_1_234
10
13.7032205
20
165.852064
40
0.3345323
50
10.9989411
51
30.8319188
0
ARC
8
DEFAULT_255_1_234
10
13.7428077
20
165.8729297
40
0.2898553
50
31.3008956
51
37.3959224
0
ARC
8
DEFAULT_255_1_234
10
13.7924656
20
165.9148653
40
0.2249582
50
36.5915954
51
62.2442953
0
ARC
8
DEFAULT_255_1_234
10
13.7971109
20
165.9145602
40
0.2231053
50
63.3365542
51
89.7195421
0
ARC
8
DEFAULT_255_1_234
10
13.7927963
20
165.8576884
40
0.2800267
50
88.8936788
51
90.0047485
0
ARC
8
DEFAULT_255_1_234
10
13.7896322
20
165.9149787
40
0.2227586
50
89.1921125
51
114.7099455
0
ARC
8
DEFAULT_255_1_234
10
13.7925086
20
165.9187628
40
0.2205633
50
115.7997161
51
142.2900762
0
ARC
8
DEFAULT_255_1_234
10
13.8363819
20
165.8797658
40
0.2791541
50
141.4658779
51
142.3795754
0
ARC
8
DEFAULT_255_1_234
10
13.8472723
20
165.8754557
40
0.2904292
50
143.0175714
51
163.234115
0
ARC
8
DEFAULT_255_1_234
10
14.0050896
20
165.8255054
40
0.4559523
50
162.9447461
51
174.3732162
0
ARC
8
DEFAULT_255_1_234
10
14.219671
20
165.8014143
40
0.6718682
50
174.1228657
51
180.1565175
0
LINE
8
DEFAULT_255_1_234
10
14.9316736
20
166.1473532
11
14.9389021
21
166.2437341
0
LINE
8
DEFAULT_255_1_234
10
14.9389021
20
166.2437341
11
15.0746385
21
166.2437341
0
LINE
8
DEFAULT_255_1_234
10
15.0746385
20
166.2437341
11
15.0746385
21
165.3955825
0
LINE
8
DEFAULT_255_1_234
10
14.3847122
20
165.1827415
11
14.4618169
21
165.2718938
0
LINE
8
DEFAULT_255_1_234
10
14.9252482
20
165.3867476
11
14.9252482
21
165.4614428
0
LINE
8
DEFAULT_255_1_234
10
14.9252482
20
165.6124395
11
14.9252482
21
166.0092073
0
ARC
8
DEFAULT_255_1_234
10
15.0551184
20
165.820767
40
0.7145938
50
169.8803029
51
180.346492
0
ARC
8
DEFAULT_255_1_234
10
14.8197956
20
165.8644732
40
0.4752555
50
152.8532592
51
170.0826994
0
ARC
8
DEFAULT_255_1_234
10
14.736473
20
165.9039298
40
0.3831198
50
142.0149503
51
152.4184154
0
ARC
8
DEFAULT_255_1_234
10
14.6727687
20
165.9619197
40
0.2972906
50
94.3317211
51
143.267544
0
ARC
8
DEFAULT_255_1_234
10
14.6831586
20
165.8836614
40
0.3761364
50
89.949086
51
95.0094918
0
ARC
8
DEFAULT_255_1_234
10
14.6873156
20
165.8995946
40
0.3602233
50
72.9495766
51
90.6080422
0
ARC
8
DEFAULT_255_1_234
10
14.7078262
20
165.9738804
40
0.2831969
50
37.7742493
51
72.5100279
0
ARC
8
DEFAULT_255_1_234
10
14.6158175
20
165.3917461
40
0.4588371
50
346.3654765
51
0.4790689
0
ARC
8
DEFAULT_255_1_234
10
14.7525999
20
165.3569784
40
0.3177173
50
314.3365179
51
346.6439967
0
ARC
8
DEFAULT_255_1_234
10
14.7423901
20
165.371312
40
0.3351156
50
280.7143003
51
313.8723582
0
ARC
8
DEFAULT_255_1_234
10
14.7088554
20
165.5207406
40
0.4882011
50
269.662739
51
281.3210136
0
ARC
8
DEFAULT_255_1_234
10
14.7072233
20
165.479507
40
0.4469607
50
245.5258041
51
269.8408437
0
ARC
8
DEFAULT_255_1_234
10
14.6690789
20
165.4079537
40
0.3660692
50
232.6665166
51
246.3199597
0
ARC
8
DEFAULT_255_1_234
10
14.6206583
20
165.3437155
40
0.2856276
50
214.3037329
51
232.5747698
0
ARC
8
DEFAULT_255_1_234
10
14.7324764
20
165.4862759
40
0.3452771
50
218.3818001
51
236.3658697
0
ARC
8
DEFAULT_255_1_234
10
14.6924588
20
165.4304637
40
0.2766535
50
236.8638847
51
270.6382346
0
ARC
8
DEFAULT_255_1_234
10
14.6979419
20
165.4635542
40
0.3097363
50
269.5557741
51
282.3971413
0
ARC
8
DEFAULT_255_1_234
10
14.7215494
20
165.3620559
40
0.2055403
50
282.04403
51
308.3081445
0
ARC
8
DEFAULT_255_1_234
10
14.7300892
20
165.3484365
40
0.1895677
50
308.8344832
51
315.2032883
0
ARC
8
DEFAULT_255_1_234
10
14.7222465
20
165.354177
40
0.199183
50
315.6210926
51
345.6795494
0
ARC
8
DEFAULT_255_1_234
10
14.6243352
20
165.3814308
40
0.3008009
50
345.2625808
51
358.6313382
0
ARC
8
DEFAULT_255_1_234
10
14.5354774
20
165.3866622
40
0.3897707
50
358.1745328
51
0.0125581
0
ARC
8
DEFAULT_255_1_234
10
14.7039432
20
165.6527802
40
0.2925507
50
275.695063
51
319.1537421
0
ARC
8
DEFAULT_255_1_234
10
14.6827576
20
165.7751945
40
0.4165589
50
269.8801937
51
276.923904
0
ARC
8
DEFAULT_255_1_234
10
14.6774482
20
165.664205
40
0.3056007
50
244.0749417
51
270.8321594
0
ARC
8
DEFAULT_255_1_234
10
14.6849595
20
165.6662057
40
0.3107397
50
217.7817538
51
242.9905588
0
ARC
8
DEFAULT_255_1_234
10
14.7460153
20
165.7204252
40
0.3922508
50
217.5213304
51
218.5773048
0
ARC
8
DEFAULT_255_1_234
10
14.7730685
20
165.7361333
40
0.4232938
50
195.3495212
51
216.9774018
0
ARC
8
DEFAULT_255_1_234
10
14.9753699
20
165.7949389
40
0.6339531
50
183.9386736
51
195.634887
0
ARC
8
DEFAULT_255_1_234
10
15.2029999
20
165.8153851
40
0.8624629
50
179.9295504
51
184.2550478
0
ARC
8
DEFAULT_255_1_234
10
15.0708412
20
165.7965275
40
0.5809212
50
179.6990322
51
188.5748787
0
ARC
8
DEFAULT_255_1_234
10
14.869523
20
165.7650858
40
0.377167
50
188.411837
51
202.0556851
0
ARC
8
DEFAULT_255_1_234
10
14.772646
20
165.727053
40
0.2731001
50
202.2924333
51
215.4475715
0
ARC
8
DEFAULT_255_1_234
10
14.7082087
20
165.6771537
40
0.191695
50
214.4673484
51
264.336154
0
ARC
8
DEFAULT_255_1_234
10
14.7184027
20
165.7408255
40
0.2560911
50
263.4724496
51
270.0961704
0
ARC
8
DEFAULT_255_1_234
10
14.7224229
20
165.725892
40
0.2411839
50
269.1470351
51
291.7977507
0
ARC
8
DEFAULT_255_1_234
10
14.7286663
20
165.6979994
40
0.2130159
50
293.0244875
51
327.6231489
0
ARC
8
DEFAULT_255_1_234
10
14.6578844
20
165.7497511
40
0.3005627
50
326.5166824
51
332.8160514
0
ARC
8
DEFAULT_255_1_234
10
14.6929878
20
165.8857491
40
0.2630339
50
27.9929136
51
47.6313992
0
ARC
8
DEFAULT_255_1_234
10
14.7291402
20
165.9201486
40
0.2132848
50
48.5793389
51
88.624502
0
ARC
8
DEFAULT_255_1_234
10
14.7205248
20
165.8452538
40
0.2884455
50
87.2706405
51
90.0170635
0
ARC
8
DEFAULT_255_1_234
10
14.7176572
20
165.911145
40
0.2225717
50
89.2839171
51
110.1848324
0
ARC
8
DEFAULT_255_1_234
10
14.7115059
20
165.937727
40
0.1955293
50
111.1807684
51
145.0424799
0
ARC
8
DEFAULT_255_1_234
10
14.7221839
20
165.925455
40
0.2113491
50
143.9743769
51
144.1060945
0
ARC
8
DEFAULT_255_1_234
10
14.7764806
20
165.890275
40
0.2759807
50
144.7982748
51
162.8715388
0
ARC
8
DEFAULT_255_1_234
10
14.9459456
20
165.8357842
40
0.453983
50
162.5984223
51
173.3418672
0
ARC
8
DEFAULT_255_1_234
10
15.2127234
20
165.8026851
40
0.7228019
50
173.1877442
51
180.2462216
0
LINE
8
DEFAULT_255_1_234
10
15.460162
20
166.2437341
11
15.460162
21
165.3747
0
LINE
8
DEFAULT_255_1_234
10
15.460162
20
165.3747
11
15.3115748
21
165.3747
0
LINE
8
DEFAULT_255_1_234
10
15.3115748
20
165.3747
11
15.3115748
21
166.2437341
0
LINE
8
DEFAULT_255_1_234
10
15.3115748
20
166.2437341
11
15.460162
21
166.2437341
0
ARC
8
DEFAULT_255_1_234
10
15.3973897
20
166.4751889
40
0.097867
50
161.415052
51
180.5526306
0
ARC
8
DEFAULT_255_1_234
10
15.3849675
20
166.4786077
40
0.0850062
50
138.1827368
51
160.9307106
0
ARC
8
DEFAULT_255_1_234
10
15.373962
20
166.4881588
40
0.0704362
50
104.6368899
51
138.0039868
0
ARC
8
DEFAULT_255_1_234
10
15.3846775
20
166.4514963
40
0.1086221
50
92.0600725
51
105.2189128
0
ARC
8
DEFAULT_255_1_234
10
15.3870124
20
166.4172117
40
0.1429728
50
89.9756393
51
92.5012496
0
ARC
8
DEFAULT_255_1_234
10
15.3880143
20
166.4397731
40
0.1204151
50
78.0235316
51
90.4478182
0
ARC
8
DEFAULT_255_1_234
10
15.3972235
20
166.4811295
40
0.0780493
50
55.051506
51
78.3369085
0
ARC
8
DEFAULT_255_1_234
10
15.4022509
20
166.4895711
40
0.0682538
50
42.0501187
51
54.4513741
0
ARC
8
DEFAULT_255_1_234
10
15.3887376
20
166.4771798
40
0.0865878
50
1.7497075
51
42.1496013
0
ARC
8
DEFAULT_255_1_234
10
15.3632709
20
166.4742738
40
0.1121515
50
359.9852656
51
2.8364544
0
ARC
8
DEFAULT_255_1_234
10
15.3798701
20
166.4733229
40
0.0955566
50
342.1070653
51
0.552888
0
ARC
8
DEFAULT_255_1_234
10
15.3941399
20
166.4693904
40
0.0807713
50
316.7107116
51
341.6516965
0
ARC
8
DEFAULT_255_1_234
10
15.4008436
20
166.4633823
40
0.0717724
50
285.4397031
51
316.5324284
0
ARC
8
DEFAULT_255_1_234
10
15.3898353
20
166.4999554
40
0.1099597
50
272.3547054
51
285.8953117
0
ARC
8
DEFAULT_255_1_234
10
15.3871511
20
166.5365048
40
0.1465932
50
269.9695369
51
272.8160237
0
ARC
8
DEFAULT_255_1_234
10
15.3861692
20
166.5145863
40
0.1246779
50
258.8431134
51
270.4153935
0
ARC
8
DEFAULT_255_1_234
10
15.3771735
20
166.4710414
40
0.0802162
50
238.5431189
51
259.1288175
0
ARC
8
DEFAULT_255_1_234
10
15.3703619
20
166.4586856
40
0.0661247
50
222.5062634
51
237.9906969
0
ARC
8
DEFAULT_255_1_234
10
15.3831207
20
166.4702889
40
0.0833707
50
184.1069131
51
222.460413
0
ARC
8
DEFAULT_255_1_234
10
15.4100448
20
166.4741349
40
0.1105176
50
179.9429482
51
185.0960898
0
LINE
8
DEFAULT_255_1_234
10
16.2512882
20
165.6485823
11
16.3918436
21
165.6485823
0
LINE
8
DEFAULT_255_1_234
10
15.6593491
20
165.8011853
11
15.6593491
21
165.8260837
0
LINE
8
DEFAULT_255_1_234
10
16.3918436
20
165.9449534
11
16.2512882
21
165.9449534
0
LINE
8
DEFAULT_255_1_234
10
15.8079362
20
165.8204615
11
15.8079362
21
165.7923504
0
ARC
8
DEFAULT_255_1_234
10
16.0500917
20
165.6939121
40
0.2140268
50
269.0327816
51
309.2224514
0
ARC
8
DEFAULT_255_1_234
10
16.0710672
20
165.6724108
40
0.1841255
50
308.396669
51
329.6984113
0
ARC
8
DEFAULT_255_1_234
10
16.0848527
20
165.661982
40
0.166974
50
330.401383
51
355.3970571
0
ARC
8
DEFAULT_255_1_234
10
16.1305393
20
165.6637082
40
0.2617417
50
329.2357853
51
356.6870514
0
ARC
8
DEFAULT_255_1_234
10
16.0755415
20
165.6927971
40
0.3238945
50
324.8706984
51
329.7905871
0
ARC
8
DEFAULT_255_1_234
10
16.0677133
20
165.6995106
40
0.3341614
50
298.8769168
51
324.7016144
0
ARC
8
DEFAULT_255_1_234
10
16.0345325
20
165.7523917
40
0.3965068
50
296.9023738
51
299.385174
0
ARC
8
DEFAULT_255_1_234
10
16.0474938
20
165.7236422
40
0.365007
50
269.8406811
51
297.1299281
0
ARC
8
DEFAULT_255_1_234
10
16.0421595
20
165.7874407
40
0.4288259
50
253.315473
51
270.5771285
0
ARC
8
DEFAULT_255_1_234
10
16.017463
20
165.6980739
40
0.3361372
50
221.1002312
51
252.9744583
0
ARC
8
DEFAULT_255_1_234
10
16.0634627
20
165.737559
40
0.3967576
50
194.5394537
51
221.0302238
0
ARC
8
DEFAULT_255_1_234
10
16.2483448
20
165.7890952
40
0.5886672
50
182.0499201
51
194.8773585
0
ARC
8
DEFAULT_255_1_234
10
16.4253646
20
165.800906
40
0.7660157
50
179.9791086
51
182.4591564
0
ARC
8
DEFAULT_255_1_234
10
16.251569
20
165.8290498
40
0.5922274
50
168.614861
51
180.2869651
0
ARC
8
DEFAULT_255_1_234
10
16.1313835
20
165.8526269
40
0.4697532
50
154.9162259
51
168.5402336
0
ARC
8
DEFAULT_255_1_234
10
16.0392343
20
165.898163
40
0.3669966
50
133.5746694
51
155.2558665
0
ARC
8
DEFAULT_255_1_234
10
16.0229502
20
165.9120467
40
0.3457206
50
122.0165146
51
133.2055214
0
ARC
8
DEFAULT_255_1_234
10
16.026534
20
165.9032361
40
0.355095
50
97.8731644
51
121.7531281
0
ARC
8
DEFAULT_255_1_234
10
16.0444423
20
165.7975159
40
0.4622833
50
89.8471353
51
98.2769494
0
ARC
8
DEFAULT_255_1_234
10
16.0493176
20
165.8585091
40
0.401305
50
73.3760412
51
90.5199766
0
ARC
8
DEFAULT_255_1_234
10
16.0689539
20
165.9307516
40
0.3264695
50
47.7085968
51
73.0509704
0
ARC
8
DEFAULT_255_1_234
10
16.0819409
20
165.9420128
40
0.309407
50
3.7443473
51
48.0843753
0
ARC
8
DEFAULT_255_1_234
10
15.9832359
20
165.9262614
40
0.4090351
50
2.6192045
51
5.0432185
0
ARC
8
DEFAULT_255_1_234
10
16.0289212
20
165.9302592
40
0.2228519
50
3.780656
51
23.9356886
0
ARC
8
DEFAULT_255_1_234
10
16.0517828
20
165.9383155
40
0.198697
50
24.4869552
51
46.9440088
0
ARC
8
DEFAULT_255_1_234
10
16.0518679
20
165.9406484
40
0.1969404
50
46.498716
51
89.3298174
0
ARC
8
DEFAULT_255_1_234
10
16.0457033
20
165.8811723
40
0.2565428
50
88.1083975
51
90.0061569
0
ARC
8
DEFAULT_255_1_234
10
16.0429463
20
165.8865759
40
0.251154
50
89.3773333
51
107.2071161
0
ARC
8
DEFAULT_255_1_234
10
16.0286586
20
165.938319
40
0.1975072
50
107.6883219
51
143.3583002
0
ARC
8
DEFAULT_255_1_234
10
16.0853969
20
165.8956873
40
0.2684762
50
143.2846717
51
162.935323
0
ARC
8
DEFAULT_255_1_234
10
16.2359571
20
165.8473652
40
0.4265927
50
162.6650068
51
174.0805419
0
ARC
8
DEFAULT_255_1_234
10
16.450241
20
165.8224636
40
0.6423078
50
173.8423985
51
180.1785963
0
ARC
8
DEFAULT_255_1_234
10
16.395451
20
165.7893039
40
0.5875227
50
179.7028978
51
188.2277152
0
ARC
8
DEFAULT_255_1_234
10
16.1852812
20
165.7578247
40
0.3750127
50
188.0629871
51
201.1160002
0
ARC
8
DEFAULT_255_1_234
10
16.075501
20
165.7159238
40
0.2575093
50
201.2187293
51
216.9761968
0
ARC
8
DEFAULT_255_1_234
10
16.0303573
20
165.6820993
40
0.2010998
50
217.0135981
51
265.2056839
0
ARC
8
DEFAULT_255_1_234
10
16.0459433
20
165.7742695
40
0.2943543
50
263.681807
51
270.104251
0
LINE
8
DEFAULT_255_1_234
10
16.9894049
20
166.5441211
11
17.188592
21
166.5441211
0
LINE
8
DEFAULT_255_1_234
10
17.188592
20
166.5441211
11
17.5709028
21
165.5899506
0
LINE
8
DEFAULT_255_1_234
10
17.5709028
20
165.5899506
11
17.9532135
21
166.5441211
0
LINE
8
DEFAULT_255_1_234
10
17.9532135
20
166.5441211
11
18.1532038
21
166.5441211
0
LINE
8
DEFAULT_255_1_234
10
18.1532038
20
166.5441211
11
18.1532038
21
165.3747
0
LINE
8
DEFAULT_255_1_234
10
18.1532038
20
165.3747
11
17.9989944
21
165.3747
0
LINE
8
DEFAULT_255_1_234
10
17.9989944
20
165.3747
11
17.9989944
21
165.8300996
0
LINE
8
DEFAULT_255_1_234
10
17.9989944
20
165.8300996
11
18.0134516
21
166.3216419
0
LINE
8
DEFAULT_255_1_234
10
18.0134516
20
166.3216419
11
17.6295345
21
165.3747
0
LINE
8
DEFAULT_255_1_234
10
17.6295345
20
165.3747
11
17.5114679
21
165.3747
0
LINE
8
DEFAULT_255_1_234
10
17.5114679
20
165.3747
11
17.128354
21
166.3192324
0
LINE
8
DEFAULT_255_1_234
10
17.128354
20
166.3192324
11
17.1436143
21
165.8300996
0
LINE
8
DEFAULT_255_1_234
10
17.1436143
20
165.8300996
11
17.1436143
21
165.3747
0
LINE
8
DEFAULT_255_1_234
10
17.1436143
20
165.3747
11
16.9894049
21
165.3747
0
LINE
8
DEFAULT_255_1_234
10
16.9894049
20
165.3747
11
16.9894049
21
166.5441211
0
LINE
8
DEFAULT_255_1_234
10
18.5804923
20
166.5441211
11
18.5804923
21
165.5007983
0
LINE
8
DEFAULT_255_1_234
10
18.5804923
20
165.5007983
11
19.1346822
21
165.5007983
0
LINE
8
DEFAULT_255_1_234
10
19.1346822
20
165.5007983
11
19.1346822
21
165.3747
0
LINE
8
DEFAULT_255_1_234
10
19.1346822
20
165.3747
11
18.4254797
21
165.3747
0
LINE
8
DEFAULT_255_1_234
10
18.4254797
20
165.3747
11
18.4254797
21
166.5441211
0
LINE
8
DEFAULT_255_1_234
10
18.4254797
20
166.5441211
11
18.5804923
21
166.5441211
0
LINE
8
DEFAULT_255_1_234
10
19.4591645
20
165.9304963
11
19.3402947
21
165.9610169
0
LINE
8
DEFAULT_255_1_234
10
19.3402947
20
165.9610169
11
19.3997296
21
166.5441211
0
LINE
8
DEFAULT_255_1_234
10
19.3997296
20
166.5441211
11
19.9988973
21
166.5441211
0
LINE
8
DEFAULT_255_1_234
10
19.9988973
20
166.5441211
11
19.9988973
21
166.4067784
0
LINE
8
DEFAULT_255_1_234
10
19.9988973
20
166.4067784
11
19.5258279
21
166.4067784
0
LINE
8
DEFAULT_255_1_234
10
19.5258279
20
166.4067784
11
19.4904882
21
166.0879184
0
LINE
8
DEFAULT_255_1_234
10
19.2985297
20
165.6823156
11
19.4390851
21
165.6823156
0
LINE
8
DEFAULT_255_1_234
10
19.49852
20
165.9626232
11
19.4591645
21
165.9304963
0
ARC
8
DEFAULT_255_1_234
10
19.6759666
20
165.769923
40
0.3681349
50
93.7182161
51
120.2538958
0
ARC
8
DEFAULT_255_1_234
10
19.6853929
20
165.6891394
40
0.449379
50
89.9660152
51
94.2496022
0
ARC
8
DEFAULT_255_1_234
10
19.6894663
20
165.7480549
40
0.390482
50
73.8043271
51
90.5585896
0
ARC
8
DEFAULT_255_1_234
10
19.712956
20
165.8338602
40
0.3015334
50
41.3071453
51
73.5430202
0
ARC
8
DEFAULT_255_1_234
10
19.6713388
20
165.7980324
40
0.3564457
50
13.5075983
51
41.2174222
0
ARC
8
DEFAULT_255_1_234
10
19.5071591
20
165.7550486
40
0.5261351
50
1.1331335
51
13.8829381
0
ARC
8
DEFAULT_255_1_234
10
19.365996
20
165.7474665
40
0.6674378
50
359.9919444
51
1.544251
0
ARC
8
DEFAULT_255_1_234
10
19.4936786
20
165.743328
40
0.5397702
50
347.8572367
51
0.4293338
0
ARC
8
DEFAULT_255_1_234
10
19.6687104
20
165.7036736
40
0.3603188
50
323.673004
51
348.1672506
0
ARC
8
DEFAULT_255_1_234
10
19.6981612
20
165.6857168
40
0.3259678
50
316.8171152
51
323.1492751
0
ARC
8
DEFAULT_255_1_234
10
19.7042801
20
165.682046
40
0.3189975
50
281.8396411
51
316.5457803
0
ARC
8
DEFAULT_255_1_234
10
19.6667065
20
165.8375762
40
0.4789527
50
269.5770101
51
282.4214771
0
ARC
8
DEFAULT_255_1_234
10
19.6595877
20
165.8162125
40
0.45759
50
256.2427136
51
270.4486331
0
ARC
8
DEFAULT_255_1_234
10
19.6296779
20
165.6962229
40
0.3339303
50
228.9023911
51
256.3314342
0
ARC
8
DEFAULT_255_1_234
10
19.6223011
20
165.6845746
40
0.32031
50
193.753695
51
228.5271154
0
ARC
8
DEFAULT_255_1_234
10
19.7460965
20
165.72088
40
0.4492253
50
184.924711
51
194.497588
0
ARC
8
DEFAULT_255_1_234
10
19.7653532
20
165.7244591
40
0.3289787
50
187.3600538
51
198.6732863
0
ARC
8
DEFAULT_255_1_234
10
19.6603826
20
165.6880674
40
0.217884
50
198.4451669
51
217.794479
0
ARC
8
DEFAULT_255_1_234
10
19.6308001
20
165.6671085
40
0.1816698
50
218.2887171
51
228.5612368
0
ARC
8
DEFAULT_255_1_234
10
19.6405788
20
165.6802963
40
0.1980329
50
228.9654866
51
258.1234728
0
ARC
8
DEFAULT_255_1_234
10
19.6611498
20
165.7683833
40
0.2884748
50
257.7258293
51
270.401361
0
ARC
8
DEFAULT_255_1_234
10
19.6656385
20
165.7238821
40
0.2439788
50
269.4204404
51
286.4209037
0
ARC
8
DEFAULT_255_1_234
10
19.6804872
20
165.6699657
40
0.1880666
50
286.7251356
51
320.600362
0
ARC
8
DEFAULT_255_1_234
10
19.6421697
20
165.7010595
40
0.2374121
50
320.6712579
51
344.5441685
0
ARC
8
DEFAULT_255_1_234
10
19.5265023
20
165.7350045
40
0.3579479
50
344.2412205
51
356.7357071
0
ARC
8
DEFAULT_255_1_234
10
19.4016172
20
165.7453444
40
0.4832297
50
356.3548756
51
0.0500261
0
ARC
8
DEFAULT_255_1_234
10
19.5352681
20
165.748465
40
0.3495889
50
359.5576869
51
12.953486
0
ARC
8
DEFAULT_255_1_234
10
19.6407578
20
165.7740434
40
0.2410532
50
12.6490276
51
41.6081334
0
ARC
8
DEFAULT_255_1_234
10
19.6637949
20
165.7936321
40
0.2108218
50
41.7850273
51
85.9892764
0
ARC
8
DEFAULT_255_1_234
10
19.6514686
20
165.7123462
40
0.2928454
50
84.6957577
51
90.0676183
0
ARC
8
DEFAULT_255_1_234
10
19.649117
20
165.6454716
40
0.3597255
50
89.6804936
51
99.1614436
0
ARC
8
DEFAULT_255_1_234
10
19.6285801
20
165.7682131
40
0.235281
50
98.9830931
51
113.8908934
0
ARC
8
DEFAULT_255_1_234
10
19.6056211
20
165.8223587
40
0.176479
50
114.1950727
51
127.3641004
0
LINE
8
DEFAULT_255_1_234
10
20.9289726
20
166.0662327
11
20.9289726
21
165.8734709
0
LINE
8
DEFAULT_255_1_234
10
20.1908558
20
165.8533916
11
20.1908558
21
166.0517755
0
LINE
8
DEFAULT_255_1_234
10
20.7803854
20
165.8333123
11
20.7803854
21
166.0766739
0
LINE
8
DEFAULT_255_1_234
10
20.339443
20
166.0879184
11
20.339443
21
165.8501789
0
ARC
8
DEFAULT_255_1_234
10
19.7042615
20
165.8685805
40
1.2247208
50
353.8441951
51
0.2287902
0
ARC
8
DEFAULT_255_1_234
10
20.1682119
20
165.8167806
40
0.7578929
50
344.4934747
51
353.9765454
0
ARC
8
DEFAULT_255_1_234
10
20.4674709
20
165.7316981
40
0.4467846
50
329.2803592
51
344.7472793
0
ARC
8
DEFAULT_255_1_234
10
20.5667534
20
165.6772018
40
0.3336173
50
324.9352394
51
328.6160465
0
ARC
8
DEFAULT_255_1_234
10
20.6044643
20
165.6508427
40
0.2876076
50
280.580143
51
324.9173126
0
ARC
8
DEFAULT_255_1_234
10
20.5643435
20
165.8179099
40
0.4592847
50
269.5977311
51
281.6734359
0
ARC
8
DEFAULT_255_1_234
10
20.5571341
20
165.8059173
40
0.4472986
50
256.6228859
51
270.51044
0
ARC
8
DEFAULT_255_1_234
10
20.5169319
20
165.6510877
40
0.2873874
50
215.8618325
51
257.2788573
0
ARC
8
DEFAULT_255_1_234
10
20.619035
20
165.7195977
40
0.4102928
50
197.9693508
51
215.2623606
0
ARC
8
DEFAULT_255_1_234
10
20.8675466
20
165.8034709
40
0.6725652
50
187.8816417
51
198.2346507
0
ARC
8
DEFAULT_255_1_234
10
21.2633674
20
165.8606079
40
1.0724845
50
180.8976217
51
188.0055519
0
ARC
8
DEFAULT_255_1_234
10
21.5433862
20
165.8709777
40
1.3526448
50
180.7449369
51
181.1510016
0
ARC
8
DEFAULT_255_1_234
10
21.3856591
20
166.0566042
40
1.1948131
50
173.7675579
51
180.231553
0
ARC
8
DEFAULT_255_1_234
10
20.9338738
20
166.1076666
40
0.7401564
50
164.3058563
51
173.9002247
0
ARC
8
DEFAULT_255_1_234
10
20.6426807
20
166.1915656
40
0.4371288
50
148.7922025
51
164.568378
0
ARC
8
DEFAULT_255_1_234
10
20.5475259
20
166.2446929
40
0.3282386
50
144.5883898
51
148.1176286
0
ARC
8
DEFAULT_255_1_234
10
20.5132157
20
166.2686315
40
0.2864044
50
101.6440918
51
144.514236
0
ARC
8
DEFAULT_255_1_234
10
20.5557224
20
166.0997069
40
0.4604934
50
89.5284041
51
102.5819763
0
ARC
8
DEFAULT_255_1_234
10
20.5636311
20
166.0958018
40
0.464401
50
77.0437873
51
90.5081339
0
ARC
8
DEFAULT_255_1_234
10
20.6038313
20
166.2600615
40
0.2953195
50
48.2778575
51
77.4994676
0
ARC
8
DEFAULT_255_1_234
10
20.6110944
20
166.2729746
40
0.2808655
50
36.3142134
51
47.6305865
0
ARC
8
DEFAULT_255_1_234
10
20.5242251
20
166.2144515
40
0.3855453
50
18.2931786
51
35.6769206
0
ARC
8
DEFAULT_255_1_234
10
20.269901
20
166.1271593
40
0.654423
50
8.024666
51
18.5605216
0
ARC
8
DEFAULT_255_1_234
10
19.853593
20
166.0656792
40
1.0752407
50
1.1274072
51
8.1718305
0
ARC
8
DEFAULT_255_1_234
10
19.5300121
20
166.0529885
40
1.3990231
50
0.5424119
51
1.3863029
0
ARC
8
DEFAULT_255_1_234
10
19.7121499
20
166.0802342
40
1.0682415
50
359.8090433
51
4.9407866
0
ARC
8
DEFAULT_255_1_234
10
20.1331513
20
166.1178113
40
0.6455691
50
4.8362157
51
12.2904523
0
ARC
8
DEFAULT_255_1_234
10
20.4086628
20
166.1791965
40
0.3633074
50
12.0805627
51
23.8173984
0
ARC
8
DEFAULT_255_1_234
10
20.5260333
20
166.2288919
40
0.2358723
50
24.2871213
51
31.3935614
0
ARC
8
DEFAULT_255_1_234
10
20.578503
20
166.2632233
40
0.1732111
50
30.7407893
51
82.4657128
0
ARC
8
DEFAULT_255_1_234
10
20.5605164
20
166.1748691
40
0.263235
50
81.1060089
51
90.2184952
0
ARC
8
DEFAULT_255_1_234
10
20.5569463
20
166.2006924
40
0.2374236
50
89.3806855
51
105.6762551
0
ARC
8
DEFAULT_255_1_234
10
20.5386094
20
166.2673567
40
0.1682847
50
105.7981136
51
149.7388061
0
ARC
8
DEFAULT_255_1_234
10
20.6450172
20
166.203395
40
0.2924306
50
149.4208916
51
163.6286378
0
ARC
8
DEFAULT_255_1_234
10
20.854106
20
166.139625
40
0.5110213
50
163.3763315
51
172.1410975
0
ARC
8
DEFAULT_255_1_234
10
21.1841779
20
166.0923518
40
0.8444586
50
172.0259487
51
178.0703232
0
ARC
8
DEFAULT_255_1_234
10
21.4871869
20
166.0779906
40
1.1477868
50
177.8631668
51
179.5044149
0
ARC
8
DEFAULT_255_1_234
10
21.3799273
20
165.8465389
40
1.0404907
50
179.7995573
51
185.2460446
0
ARC
8
DEFAULT_255_1_234
10
20.9756312
20
165.8082513
40
0.6343885
50
185.1411642
51
193.0079639
0
ARC
8
DEFAULT_255_1_234
10
20.7112785
20
165.7457641
40
0.3627568
50
192.7897626
51
205.2507664
0
ARC
8
DEFAULT_255_1_234
10
20.6066332
20
165.6990415
40
0.2481908
50
205.8005384
51
211.2537509
0
ARC
8
DEFAULT_255_1_234
10
20.5542772
20
165.663958
40
0.1852521
50
210.3789793
51
238.4008143
0
ARC
8
DEFAULT_255_1_234
10
20.5523294
20
165.6686376
40
0.1882621
50
239.6520629
51
265.9793761
0
ARC
8
DEFAULT_255_1_234
10
20.5608495
20
165.7358427
40
0.2559272
50
265.1315437
51
270.060332
0
ARC
8
DEFAULT_255_1_234
10
20.5637273
20
165.7034534
40
0.2235528
50
269.3314664
51
287.2178029
0
ARC
8
DEFAULT_255_1_234
10
20.5775125
20
165.6531279
40
0.1714108
50
287.7958004
51
329.080874
0
ARC
8
DEFAULT_255_1_234
10
20.4817582
20
165.712893
40
0.2842745
50
328.6634704
51
343.3325132
0
ARC
8
DEFAULT_255_1_234
10
20.2644602
20
165.7805863
40
0.5118644
50
343.0499468
51
351.9393422
0
ARC
8
DEFAULT_255_1_234
10
19.9177902
20
165.8316949
40
0.8622784
50
351.8069023
51
357.7959224
0
ARC
8
DEFAULT_255_1_234
10
19.5942458
20
165.8484721
40
1.1862365
50
357.5871873
51
359.2677531
0
LINE
8
DEFAULT_255_2_778
10
9.3932417
20
155.9718479
11
10.7161417
21
155.9718479
0
LINE
8
DEFAULT_255_2_778
10
10.7161417
20
155.9718479
11
10.7161417
21
83.2114479
0
LINE
8
DEFAULT_255_2_778
10
10.7161417
20
77.9197479
11
10.7161417
21
5.1593479
0
LINE
8
DEFAULT_255_2_778
10
10.7161417
20
5.1593479
11
9.3932417
21
5.1593479
0
LINE
8
DEFAULT_255_2_778
10
9.3932834
20
83.2114333
11
12.0390834
21
83.2114333
0
LINE
8
DEFAULT_255_2_778
10
12.0390834
20
83.2114333
11
12.0390834
21
77.9197333
0
LINE
8
DEFAULT_255_2_778
10
12.0390834
20
77.9197333
11
9.3932834
21
77.9197333
0
LINE
8
DEFAULT_255_2_778
10
9.3932834
20
77.9197333
11
9.3932834
21
83.2114333
0
LINE
8
DEFAULT_255_2_778
10
10.187
20
78.4489666
11
10.187
21
82.6822666
0
LINE
8
DEFAULT_255_2_778
10
9.9224167
20
81.888575
11
10.1870167
21
82.682275
0
LINE
8
DEFAULT_255_2_778
10
10.1870167
20
82.682275
11
10.4516167
21
81.888575
0
LINE
8
DEFAULT_255_2_778
10
10.4516167
20
81.888575
11
9.9224167
21
81.888575
0
LINE
8
DEFAULT_255_2_778
10
11.2453
20
82.6822666
11
11.2453
21
78.4489666
0
LINE
8
DEFAULT_255_2_778
10
10.9807167
20
79.242675
11
11.2453167
21
78.448975
0
LINE
8
DEFAULT_255_2_778
10
11.2453167
20
78.448975
11
11.5099167
21
79.242675
0
LINE
8
DEFAULT_255_2_778
10
11.5099167
20
79.242675
11
10.9807167
21
79.242675
0
LINE
8
DEFAULT_255_2_778
10
19.9765417
20
155.9718479
11
18.6536417
21
155.9718479
0
LINE
8
DEFAULT_255_2_778
10
18.6536417
20
155.9718479
11
18.6536417
21
83.2114479
0
LINE
8
DEFAULT_255_2_778
10
18.6536417
20
77.9197479
11
18.6536417
21
5.1593479
0
LINE
8
DEFAULT_255_2_778
10
18.6536417
20
5.1593479
11
19.9765417
21
5.1593479
0
LINE
8
DEFAULT_255_2_778
10
17.3307834
20
83.2114333
11
19.9765834
21
83.2114333
0
LINE
8
DEFAULT_255_2_778
10
19.9765834
20
83.2114333
11
19.9765834
21
77.9197333
0
LINE
8
DEFAULT_255_2_778
10
19.9765834
20
77.9197333
11
17.3307834
21
77.9197333
0
LINE
8
DEFAULT_255_2_778
10
17.3307834
20
77.9197333
11
17.3307834
21
83.2114333
0
LINE
8
DEFAULT_255_2_778
10
18.1245
20
78.4489666
11
18.1245
21
82.6822666
0
LINE
8
DEFAULT_255_2_778
10
17.8599167
20
81.888575
11
18.1245167
21
82.682275
0
LINE
8
DEFAULT_255_2_778
10
18.1245167
20
82.682275
11
18.3891167
21
81.888575
0
LINE
8
DEFAULT_255_2_778
10
18.3891167
20
81.888575
11
17.8599167
21
81.888575
0
LINE
8
DEFAULT_255_2_778
10
19.1828
20
82.6822666
11
19.1828
21
78.4489666
0
LINE
8
DEFAULT_255_2_778
10
18.9182167
20
79.242675
11
19.1828167
21
78.448975
0
LINE
8
DEFAULT_255_2_778
10
19.1828167
20
78.448975
11
19.4474167
21
79.242675
0
LINE
8
DEFAULT_255_2_778
10
19.4474167
20
79.242675
11
18.9182167
21
79.242675
0
LINE
8
DEFAULT_255_1_234
10
4.9274119
20
163.5116792
11
4.9274119
21
163.3904
0
LINE
8
DEFAULT_255_1_234
10
4.9274119
20
163.3904
11
4.161184
21
163.3904
0
LINE
8
DEFAULT_255_1_234
10
4.161184
20
163.3904
11
4.161184
21
163.4972221
0
LINE
8
DEFAULT_255_1_234
10
4.161184
20
163.4972221
11
4.5659836
21
163.9469995
0
LINE
8
DEFAULT_255_1_234
10
4.2872823
20
164.2152595
11
4.1386952
21
164.2152595
0
LINE
8
DEFAULT_255_1_234
10
4.6535296
20
163.8514218
11
4.3402918
21
163.5116792
0
LINE
8
DEFAULT_255_1_234
10
4.3402918
20
163.5116792
11
4.9274119
21
163.5116792
0
ARC
8
DEFAULT_255_1_234
10
3.216967
20
165.1399527
40
1.8008286
50
318.5132453
51
320.7828378
0
ARC
8
DEFAULT_255_1_234
10
3.7456644
20
164.7096426
40
1.1191493
50
320.7372736
51
323.9737074
0
ARC
8
DEFAULT_255_1_234
10
4.1376501
20
164.4256361
40
0.6350923
50
323.8961724
51
328.6421089
0
ARC
8
DEFAULT_255_1_234
10
4.3423096
20
164.2994031
40
0.3946393
50
328.8299013
51
331.789948
0
ARC
8
DEFAULT_255_1_234
10
4.4420274
20
164.2479509
40
0.2824501
50
331.4255242
51
352.9364833
0
ARC
8
DEFAULT_255_1_234
10
4.4556775
20
164.2448976
40
0.2685315
50
353.2248685
51
0.0169286
0
ARC
8
DEFAULT_255_1_234
10
4.4766652
20
164.247195
40
0.2475536
50
359.4866256
51
15.9339782
0
ARC
8
DEFAULT_255_1_234
10
4.5273637
20
164.2608286
40
0.1950618
50
16.1714718
51
43.5284424
0
ARC
8
DEFAULT_255_1_234
10
4.5350946
20
164.2685573
40
0.184134
50
43.4415429
51
83.1661404
0
ARC
8
DEFAULT_255_1_234
10
4.5216864
20
164.1948771
40
0.258926
50
82.160215
51
90.1505798
0
ARC
8
DEFAULT_255_1_234
10
4.5185291
20
164.1411865
40
0.3126255
50
89.5460705
51
102.5418777
0
ARC
8
DEFAULT_255_1_234
10
4.4942377
20
164.2442665
40
0.2067346
50
102.1739365
51
129.2061916
0
ARC
8
DEFAULT_255_1_234
10
4.4863449
20
164.2567094
40
0.1921118
50
129.7279328
51
135.7542026
0
ARC
8
DEFAULT_255_1_234
10
4.4984977
20
164.2470045
40
0.2075944
50
136.175737
51
166.3674722
0
ARC
8
DEFAULT_255_1_234
10
4.5991896
20
164.2200182
40
0.3118201
50
165.9092917
51
178.8683903
0
ARC
8
DEFAULT_255_1_234
10
4.6856757
20
164.2153179
40
0.3983935
50
178.438168
51
180.0083905
0
ARC
8
DEFAULT_255_1_234
10
4.5455359
20
164.2192231
40
0.4068601
50
163.2878735
51
180.5581814
0
ARC
8
DEFAULT_255_1_234
10
4.4653621
20
164.241284
40
0.3237344
50
133.454115
51
162.9470031
0
ARC
8
DEFAULT_255_1_234
10
4.4832162
20
164.2223
40
0.349795
50
100.7869394
51
133.4384016
0
ARC
8
DEFAULT_255_1_234
10
4.5179934
20
164.0674319
40
0.5084616
50
89.6605301
51
101.3704185
0
ARC
8
DEFAULT_255_1_234
10
4.5246273
20
164.0735496
40
0.502348
50
78.2171172
51
90.4130393
0
ARC
8
DEFAULT_255_1_234
10
4.5601351
20
164.2359637
40
0.3361092
50
55.9268222
51
78.4888551
0
ARC
8
DEFAULT_255_1_234
10
4.5797791
20
164.2698324
40
0.2970617
50
47.9292255
51
55.4054003
0
ARC
8
DEFAULT_255_1_234
10
4.5899352
20
164.2801502
40
0.2825983
50
4.3347696
51
48.0560701
0
ARC
8
DEFAULT_255_1_234
10
4.4803745
20
164.2631601
40
0.393225
50
359.925209
51
5.5967654
0
ARC
8
DEFAULT_255_1_234
10
4.5232637
20
164.2687816
40
0.3503892
50
337.8914096
51
358.9967724
0
ARC
8
DEFAULT_255_1_234
10
4.2519049
20
164.3734706
40
0.6412172
50
326.9135351
51
338.3505194
0
ARC
8
DEFAULT_255_1_234
10
3.8533353
20
164.6289284
40
1.1146189
50
319.6472867
51
327.095818
0
ARC
8
DEFAULT_255_1_234
10
3.4700356
20
164.9451
40
1.6114559
50
317.2586784
51
319.9046139
0
LINE
8
DEFAULT_255_1_234
10
5.7121127
20
164.5598211
11
5.7121127
21
163.783152
0
LINE
8
DEFAULT_255_1_234
10
5.7121127
20
163.783152
11
5.8743538
21
163.783152
0
LINE
8
DEFAULT_255_1_234
10
5.8743538
20
163.783152
11
5.8743538
21
163.6618728
0
LINE
8
DEFAULT_255_1_234
10
5.8743538
20
163.6618728
11
5.7121127
21
163.6618728
0
LINE
8
DEFAULT_255_1_234
10
5.7121127
20
163.6618728
11
5.7121127
21
163.3904
0
LINE
8
DEFAULT_255_1_234
10
5.7121127
20
163.3904
11
5.5627224
21
163.3904
0
LINE
8
DEFAULT_255_1_234
10
5.5627224
20
163.3904
11
5.5627224
21
163.6618728
0
LINE
8
DEFAULT_255_1_234
10
5.5627224
20
163.6618728
11
5.0302181
21
163.6618728
0
LINE
8
DEFAULT_255_1_234
10
5.0302181
20
163.6618728
11
5.0302181
21
163.7494187
0
LINE
8
DEFAULT_255_1_234
10
5.0302181
20
163.7494187
11
5.5538875
21
164.5598211
0
LINE
8
DEFAULT_255_1_234
10
5.5538875
20
164.5598211
11
5.7121127
21
164.5598211
0
LINE
8
DEFAULT_255_1_234
10
5.5450525
20
164.3244912
11
5.1988846
21
163.783152
0
LINE
8
DEFAULT_255_1_234
10
5.1988846
20
163.783152
11
5.5627224
21
163.783152
0
LINE
8
DEFAULT_255_1_234
10
5.5627224
20
163.783152
11
5.5627224
21
164.3566181
0
LINE
8
DEFAULT_255_1_234
10
5.5627224
20
164.3566181
11
5.5450525
21
164.3244912
0
LINE
8
DEFAULT_255_1_234
10
6.101652
20
164.5598211
11
6.434166
21
163.5952093
0
LINE
8
DEFAULT_255_1_234
10
6.434166
20
163.5952093
11
6.7682863
21
164.5598211
0
LINE
8
DEFAULT_255_1_234
10
6.7682863
20
164.5598211
11
6.9369528
21
164.5598211
0
LINE
8
DEFAULT_255_1_234
10
6.9369528
20
164.5598211
11
6.5032389
21
163.3904
0
LINE
8
DEFAULT_255_1_234
10
6.5032389
20
163.3904
11
6.3666994
21
163.3904
0
LINE
8
DEFAULT_255_1_234
10
6.3666994
20
163.3904
11
5.9337887
21
164.5598211
0
LINE
8
DEFAULT_255_1_234
10
5.9337887
20
164.5598211
11
6.101652
21
164.5598211
0
LINE
8
DEFAULT_255_1_234
10
5.0274293
20
4.6404
11
4.9157881
21
4.9456061
0
LINE
8
DEFAULT_255_1_234
10
4.9157881
20
4.9456061
11
4.4258521
21
4.9456061
0
LINE
8
DEFAULT_255_1_234
10
4.4258521
20
4.9456061
11
4.3158173
21
4.6404
0
LINE
8
DEFAULT_255_1_234
10
4.3158173
20
4.6404
11
4.1567889
21
4.6404
0
LINE
8
DEFAULT_255_1_234
10
4.1567889
20
4.6404
11
4.6033535
21
5.8098211
0
LINE
8
DEFAULT_255_1_234
10
4.6033535
20
5.8098211
11
4.7382867
21
5.8098211
0
LINE
8
DEFAULT_255_1_234
10
4.7382867
20
5.8098211
11
5.1856545
21
4.6404
0
LINE
8
DEFAULT_255_1_234
10
5.1856545
20
4.6404
11
5.0274293
21
4.6404
0
LINE
8
DEFAULT_255_1_234
10
4.6708201
20
5.6194689
11
4.4724362
21
5.0725075
0
LINE
8
DEFAULT_255_1_234
10
4.4724362
20
5.0725075
11
4.8700072
21
5.0725075
0
LINE
8
DEFAULT_255_1_234
10
4.8700072
20
5.0725075
11
4.6708201
21
5.6194689
0
LINE
8
DEFAULT_255_1_234
10
6.0707521
20
4.7616792
11
6.0707521
21
4.6404
0
LINE
8
DEFAULT_255_1_234
10
6.0707521
20
4.6404
11
5.3045243
21
4.6404
0
LINE
8
DEFAULT_255_1_234
10
5.3045243
20
4.6404
11
5.3045243
21
4.7472221
0
LINE
8
DEFAULT_255_1_234
10
5.3045243
20
4.7472221
11
5.7093239
21
5.1969995
0
LINE
8
DEFAULT_255_1_234
10
5.4306226
20
5.4652595
11
5.2820354
21
5.4652595
0
LINE
8
DEFAULT_255_1_234
10
5.7968698
20
5.1014218
11
5.483632
21
4.7616792
0
LINE
8
DEFAULT_255_1_234
10
5.483632
20
4.7616792
11
6.0707521
21
4.7616792
0
ARC
8
DEFAULT_255_1_234
10
4.3603072
20
6.3899527
40
1.8008286
50
318.5132453
51
320.7828378
0
ARC
8
DEFAULT_255_1_234
10
4.8890047
20
5.9596426
40
1.1191493
50
320.7372736
51
323.9737074
0
ARC
8
DEFAULT_255_1_234
10
5.2809903
20
5.6756361
40
0.6350923
50
323.8961724
51
328.6421089
0
ARC
8
DEFAULT_255_1_234
10
5.4856498
20
5.5494031
40
0.3946393
50
328.8299013
51
331.789948
0
ARC
8
DEFAULT_255_1_234
10
5.5853677
20
5.4979509
40
0.2824501
50
331.4255242
51
352.9364833
0
ARC
8
DEFAULT_255_1_234
10
5.5990177
20
5.4948976
40
0.2685315
50
353.2248685
51
0.0169286
0
ARC
8
DEFAULT_255_1_234
10
5.6200054
20
5.497195
40
0.2475536
50
359.4866256
51
15.9339782
0
ARC
8
DEFAULT_255_1_234
10
5.670704
20
5.5108286
40
0.1950618
50
16.1714718
51
43.5284424
0
ARC
8
DEFAULT_255_1_234
10
5.6784348
20
5.5185573
40
0.184134
50
43.4415429
51
83.1661404
0
ARC
8
DEFAULT_255_1_234
10
5.6650266
20
5.4448771
40
0.258926
50
82.160215
51
90.1505798
0
ARC
8
DEFAULT_255_1_234
10
5.6618694
20
5.3911865
40
0.3126255
50
89.5460705
51
102.5418777
0
ARC
8
DEFAULT_255_1_234
10
5.637578
20
5.4942665
40
0.2067346
50
102.1739365
51
129.2061916
0
ARC
8
DEFAULT_255_1_234
10
5.6296852
20
5.5067094
40
0.1921118
50
129.7279328
51
135.7542026
0
ARC
8
DEFAULT_255_1_234
10
5.6418379
20
5.4970045
40
0.2075944
50
136.175737
51
166.3674722
0
ARC
8
DEFAULT_255_1_234
10
5.7425298
20
5.4700182
40
0.3118201
50
165.9092917
51
178.8683903
0
ARC
8
DEFAULT_255_1_234
10
5.829016
20
5.4653179
40
0.3983935
50
178.438168
51
180.0083905
0
ARC
8
DEFAULT_255_1_234
10
5.6888762
20
5.4692231
40
0.4068601
50
163.2878735
51
180.5581814
0
ARC
8
DEFAULT_255_1_234
10
5.6087023
20
5.491284
40
0.3237344
50
133.454115
51
162.9470031
0
ARC
8
DEFAULT_255_1_234
10
5.6265565
20
5.4723
40
0.349795
50
100.7869394
51
133.4384016
0
ARC
8
DEFAULT_255_1_234
10
5.6613336
20
5.3174319
40
0.5084616
50
89.6605301
51
101.3704185
0
ARC
8
DEFAULT_255_1_234
10
5.6679675
20
5.3235496
40
0.502348
50
78.2171172
51
90.4130393
0
ARC
8
DEFAULT_255_1_234
10
5.7034753
20
5.4859637
40
0.3361092
50
55.9268222
51
78.4888551
0
ARC
8
DEFAULT_255_1_234
10
5.7231193
20
5.5198324
40
0.2970617
50
47.9292255
51
55.4054003
0
ARC
8
DEFAULT_255_1_234
10
5.7332754
20
5.5301502
40
0.2825983
50
4.3347696
51
48.0560701
0
ARC
8
DEFAULT_255_1_234
10
5.6237148
20
5.5131601
40
0.393225
50
359.925209
51
5.5967654
0
ARC
8
DEFAULT_255_1_234
10
5.6666039
20
5.5187816
40
0.3503892
50
337.8914096
51
358.9967724
0
ARC
8
DEFAULT_255_1_234
10
5.3952451
20
5.6234706
40
0.6412172
50
326.9135351
51
338.3505194
0
ARC
8
DEFAULT_255_1_234
10
4.9966755
20
5.8789284
40
1.1146189
50
319.6472867
51
327.095818
0
ARC
8
DEFAULT_255_1_234
10
4.6133758
20
6.1951
40
1.6114559
50
317.2586784
51
319.9046139
0
LINE
8
DEFAULT_255_1_234
10
6.9614719
20
5.3319327
11
6.9614719
21
5.1391709
0
LINE
8
DEFAULT_255_1_234
10
6.2233551
20
5.1190916
11
6.2233551
21
5.3174755
0
LINE
8
DEFAULT_255_1_234
10
6.8128847
20
5.0990123
11
6.8128847
21
5.3423739
0
LINE
8
DEFAULT_255_1_234
10
6.3719423
20
5.3536184
11
6.3719423
21
5.1158789
0
ARC
8
DEFAULT_255_1_234
10
5.7367608
20
5.1342805
40
1.2247208
50
353.8441951
51
0.2287902
0
ARC
8
DEFAULT_255_1_234
10
6.2007112
20
5.0824806
40
0.7578929
50
344.4934747
51
353.9765454
0
ARC
8
DEFAULT_255_1_234
10
6.4999702
20
4.9973981
40
0.4467846
50
329.2803592
51
344.7472793
0
ARC
8
DEFAULT_255_1_234
10
6.5992527
20
4.9429018
40
0.3336173
50
324.9352394
51
328.6160465
0
ARC
8
DEFAULT_255_1_234
10
6.6369636
20
4.9165427
40
0.2876076
50
280.580143
51
324.9173126
0
ARC
8
DEFAULT_255_1_234
10
6.5968428
20
5.0836099
40
0.4592847
50
269.5977311
51
281.6734359
0
ARC
8
DEFAULT_255_1_234
10
6.5896334
20
5.0716173
40
0.4472986
50
256.6228859
51
270.51044
0
ARC
8
DEFAULT_255_1_234
10
6.5494312
20
4.9167877
40
0.2873874
50
215.8618325
51
257.2788573
0
ARC
8
DEFAULT_255_1_234
10
6.6515343
20
4.9852977
40
0.4102928
50
197.9693508
51
215.2623606
0
ARC
8
DEFAULT_255_1_234
10
6.9000459
20
5.0691709
40
0.6725652
50
187.8816417
51
198.2346507
0
ARC
8
DEFAULT_255_1_234
10
7.2958667
20
5.1263079
40
1.0724845
50
180.8976217
51
188.0055519
0
ARC
8
DEFAULT_255_1_234
10
7.5758855
20
5.1366777
40
1.3526448
50
180.7449369
51
181.1510016
0
ARC
8
DEFAULT_255_1_234
10
7.4181584
20
5.3223042
40
1.1948131
50
173.7675579
51
180.231553
0
ARC
8
DEFAULT_255_1_234
10
6.9663731
20
5.3733666
40
0.7401564
50
164.3058563
51
173.9002247
0
ARC
8
DEFAULT_255_1_234
10
6.67518
20
5.4572656
40
0.4371288
50
148.7922025
51
164.568378
0
ARC
8
DEFAULT_255_1_234
10
6.5800252
20
5.5103929
40
0.3282386
50
144.5883898
51
148.1176286
0
ARC
8
DEFAULT_255_1_234
10
6.545715
20
5.5343315
40
0.2864044
50
101.6440918
51
144.514236
0
ARC
8
DEFAULT_255_1_234
10
6.5882217
20
5.3654069
40
0.4604934
50
89.5284041
51
102.5819763
0
ARC
8
DEFAULT_255_1_234
10
6.5961305
20
5.3615018
40
0.464401
50
77.0437873
51
90.5081339
0
ARC
8
DEFAULT_255_1_234
10
6.6363306
20
5.5257615
40
0.2953195
50
48.2778575
51
77.4994676
0
ARC
8
DEFAULT_255_1_234
10
6.6435938
20
5.5386746
40
0.2808655
50
36.3142134
51
47.6305865
0
ARC
8
DEFAULT_255_1_234
10
6.5567245
20
5.4801515
40
0.3855453
50
18.2931786
51
35.6769206
0
ARC
8
DEFAULT_255_1_234
10
6.3024003
20
5.3928593
40
0.654423
50
8.024666
51
18.5605216
0
ARC
8
DEFAULT_255_1_234
10
5.8860923
20
5.3313792
40
1.0752407
50
1.1274072
51
8.1718305
0
ARC
8
DEFAULT_255_1_234
10
5.5625114
20
5.3186885
40
1.3990231
50
0.5424119
51
1.3863029
0
ARC
8
DEFAULT_255_1_234
10
5.7446492
20
5.3459342
40
1.0682415
50
359.8090433
51
4.9407866
0
ARC
8
DEFAULT_255_1_234
10
6.1656506
20
5.3835113
40
0.6455691
50
4.8362157
51
12.2904523
0
ARC
8
DEFAULT_255_1_234
10
6.4411621
20
5.4448965
40
0.3633074
50
12.0805627
51
23.8173984
0
ARC
8
DEFAULT_255_1_234
10
6.5585326
20
5.4945919
40
0.2358723
50
24.2871213
51
31.3935614
0
ARC
8
DEFAULT_255_1_234
10
6.6110023
20
5.5289233
40
0.1732111
50
30.7407893
51
82.4657128
0
ARC
8
DEFAULT_255_1_234
10
6.5930157
20
5.4405691
40
0.263235
50
81.1060089
51
90.2184952
0
ARC
8
DEFAULT_255_1_234
10
6.5894456
20
5.4663924
40
0.2374236
50
89.3806855
51
105.6762551
0
ARC
8
DEFAULT_255_1_234
10
6.5711087
20
5.5330567
40
0.1682847
50
105.7981136
51
149.7388061
0
ARC
8
DEFAULT_255_1_234
10
6.6775165
20
5.469095
40
0.2924306
50
149.4208916
51
163.6286378
0
ARC
8
DEFAULT_255_1_234
10
6.8866053
20
5.405325
40
0.5110213
50
163.3763315
51
172.1410975
0
ARC
8
DEFAULT_255_1_234
10
7.2166772
20
5.3580518
40
0.8444586
50
172.0259487
51
178.0703232
0
ARC
8
DEFAULT_255_1_234
10
7.5196862
20
5.3436906
40
1.1477868
50
177.8631668
51
179.5044149
0
ARC
8
DEFAULT_255_1_234
10
7.4124266
20
5.1122389
40
1.0404907
50
179.7995573
51
185.2460446
0
ARC
8
DEFAULT_255_1_234
10
7.0081306
20
5.0739513
40
0.6343885
50
185.1411642
51
193.0079639
0
ARC
8
DEFAULT_255_1_234
10
6.7437778
20
5.0114641
40
0.3627568
50
192.7897626
51
205.2507664
0
ARC
8
DEFAULT_255_1_234
10
6.6391325
20
4.9647415
40
0.2481908
50
205.8005384
51
211.2537509
0
ARC
8
DEFAULT_255_1_234
10
6.5867766
20
4.929658
40
0.1852521
50
210.3789793
51
238.4008143
0
ARC
8
DEFAULT_255_1_234
10
6.5848287
20
4.9343376
40
0.1882621
50
239.6520629
51
265.9793761
0
ARC
8
DEFAULT_255_1_234
10
6.5933488
20
5.0015427
40
0.2559272
50
265.1315437
51
270.060332
0
ARC
8
DEFAULT_255_1_234
10
6.5962266
20
4.9691534
40
0.2235528
50
269.3314664
51
287.2178029
0
ARC
8
DEFAULT_255_1_234
10
6.6100118
20
4.9188279
40
0.1714108
50
287.7958004
51
329.080874
0
ARC
8
DEFAULT_255_1_234
10
6.5142575
20
4.978593
40
0.2842745
50
328.6634704
51
343.3325132
0
ARC
8
DEFAULT_255_1_234
10
6.2969595
20
5.0462863
40
0.5118644
50
343.0499468
51
351.9393422
0
ARC
8
DEFAULT_255_1_234
10
5.9502895
20
5.0973949
40
0.8622784
50
351.8069023
51
357.7959224
0
ARC
8
DEFAULT_255_1_234
10
5.6267451
20
5.1141721
40
1.1862365
50
357.5871873
51
359.2677531
0
LINE
8
DEFAULT_255_1_234
10
5.0274293
20
12.5779
11
4.9157881
21
12.8831061
0
LINE
8
DEFAULT_255_1_234
10
4.9157881
20
12.8831061
11
4.4258521
21
12.8831061
0
LINE
8
DEFAULT_255_1_234
10
4.4258521
20
12.8831061
11
4.3158173
21
12.5779
0
LINE
8
DEFAULT_255_1_234
10
4.3158173
20
12.5779
11
4.1567889
21
12.5779
0
LINE
8
DEFAULT_255_1_234
10
4.1567889
20
12.5779
11
4.6033535
21
13.7473211
0
LINE
8
DEFAULT_255_1_234
10
4.6033535
20
13.7473211
11
4.7382867
21
13.7473211
0
LINE
8
DEFAULT_255_1_234
10
4.7382867
20
13.7473211
11
5.1856545
21
12.5779
0
LINE
8
DEFAULT_255_1_234
10
5.1856545
20
12.5779
11
5.0274293
21
12.5779
0
LINE
8
DEFAULT_255_1_234
10
4.6708201
20
13.5569689
11
4.4724362
21
13.0100075
0
LINE
8
DEFAULT_255_1_234
10
4.4724362
20
13.0100075
11
4.8700072
21
13.0100075
0
LINE
8
DEFAULT_255_1_234
10
4.8700072
20
13.0100075
11
4.6708201
21
13.5569689
0
LINE
8
DEFAULT_255_1_234
10
5.792854
20
13.7529433
11
5.792854
21
12.5779
0
LINE
8
DEFAULT_255_1_234
10
5.792854
20
12.5779
11
5.6434636
21
12.5779
0
LINE
8
DEFAULT_255_1_234
10
5.6434636
20
12.5779
11
5.6434636
21
13.5682133
0
LINE
8
DEFAULT_255_1_234
10
5.6434636
20
13.5682133
11
5.3438798
21
13.4581785
0
LINE
8
DEFAULT_255_1_234
10
5.3438798
20
13.4581785
11
5.3438798
21
13.5931117
0
LINE
8
DEFAULT_255_1_234
10
5.3438798
20
13.5931117
11
5.7695619
21
13.7529433
0
LINE
8
DEFAULT_255_1_234
10
5.7695619
20
13.7529433
11
5.792854
21
13.7529433
0
LINE
8
DEFAULT_255_1_234
10
6.9470147
20
13.2798739
11
6.9470147
21
13.2365025
0
LINE
8
DEFAULT_255_1_234
10
6.4048724
20
12.5770968
11
6.3759582
21
12.5770968
0
LINE
8
DEFAULT_255_1_234
10
6.3759582
20
12.5770968
11
6.3759582
21
12.7023919
0
LINE
8
DEFAULT_255_1_234
10
6.3759582
20
12.7023919
11
6.4072819
21
12.7023919
0
LINE
8
DEFAULT_255_1_234
10
6.7984276
20
13.2509597
11
6.7984276
21
13.3103945
0
ARC
8
DEFAULT_255_1_234
10
6.5190546
20
13.3255403
40
0.3635579
50
297.4037347
51
320.016758
0
ARC
8
DEFAULT_255_1_234
10
6.5480494
20
13.269824
40
0.3007486
50
270.2633101
51
297.3851877
0
ARC
8
DEFAULT_255_1_234
10
6.544645
20
13.3161904
40
0.3471448
50
269.9966443
51
270.7900392
0
ARC
8
DEFAULT_255_1_234
10
6.5420931
20
13.3160143
40
0.3469779
50
254.5999133
51
270.4180344
0
ARC
8
DEFAULT_255_1_234
10
6.5278291
20
13.2595647
40
0.2887697
50
236.4717942
51
254.3541279
0
ARC
8
DEFAULT_255_1_234
10
6.5434508
20
13.2805711
40
0.3149125
50
208.4727207
51
236.2134933
0
ARC
8
DEFAULT_255_1_234
10
6.6073283
20
13.3196455
40
0.3897115
50
204.3447514
51
209.0453999
0
ARC
8
DEFAULT_255_1_234
10
6.6752859
20
13.3484656
40
0.4635101
50
183.9375985
51
204.1276318
0
ARC
8
DEFAULT_255_1_234
10
6.7661111
20
13.3582482
40
0.5548037
50
179.9652252
51
184.3013875
0
ARC
8
DEFAULT_255_1_234
10
6.7421157
20
13.3615507
40
0.5308164
50
166.7585989
51
180.3201225
0
ARC
8
DEFAULT_255_1_234
10
6.657477
20
13.3799488
40
0.4442163
50
154.6955053
51
166.5679793
0
ARC
8
DEFAULT_255_1_234
10
6.572164
20
13.422921
40
0.3487299
50
136.3324195
51
155.0871442
0
ARC
8
DEFAULT_255_1_234
10
6.5440713
20
13.4469954
40
0.3117924
50
121.236733
51
135.9680508
0
ARC
8
DEFAULT_255_1_234
10
6.5581211
20
13.4209743
40
0.3413302
50
96.845628
51
120.9881519
0
ARC
8
DEFAULT_255_1_234
10
6.5726793
20
13.3274515
40
0.4359341
50
89.8870174
51
97.2802754
0
ARC
8
DEFAULT_255_1_234
10
6.5779231
20
13.3912095
40
0.3722009
50
70.6505584
51
90.6749113
0
ARC
8
DEFAULT_255_1_234
10
6.591051
20
13.4425361
40
0.3194571
50
36.7492984
51
69.8219918
0
ARC
8
DEFAULT_255_1_234
10
6.4911675
20
13.3646993
40
0.4460685
50
15.39587
51
37.0840084
0
ARC
8
DEFAULT_255_1_234
10
6.2782109
20
13.3026242
40
0.6678714
50
3.9488873
51
15.6798563
0
ARC
8
DEFAULT_255_1_234
10
6.0380736
20
13.2809964
40
0.9089418
50
359.929245
51
4.2665314
0
ARC
8
DEFAULT_255_1_234
10
5.5775174
20
13.2298513
40
1.3695135
50
352.8366322
51
0.2782669
0
ARC
8
DEFAULT_255_1_234
10
6.1062852
20
13.1611629
40
0.8363105
50
341.8359505
51
352.9884176
0
ARC
8
DEFAULT_255_1_234
10
6.4281571
20
13.05267
40
0.4966642
50
322.8578092
51
342.1527901
0
ARC
8
DEFAULT_255_1_234
10
6.5145527
20
12.9937384
40
0.3922466
50
319.334325
51
322.0998941
0
ARC
8
DEFAULT_255_1_234
10
6.4835864
20
13.0248209
40
0.4360033
50
285.9541367
51
318.8878087
0
ARC
8
DEFAULT_255_1_234
10
6.4109125
20
13.25586
40
0.678149
50
272.9281676
51
286.4922826
0
ARC
8
DEFAULT_255_1_234
10
6.3919243
20
13.4809587
40
0.9039547
50
270.8207226
51
273.4012994
0
ARC
8
DEFAULT_255_1_234
10
6.4008094
20
13.2990666
40
0.5967098
50
270.6214993
51
281.4062806
0
ARC
8
DEFAULT_255_1_234
10
6.4438075
20
13.0934833
40
0.3866861
50
281.1852553
51
299.0621114
0
ARC
8
DEFAULT_255_1_234
10
6.4811647
20
13.0213798
40
0.3055236
50
299.5067782
51
313.1200873
0
ARC
8
DEFAULT_255_1_234
10
6.4833613
20
13.0134554
40
0.2982623
50
313.8526205
51
338.5989322
0
ARC
8
DEFAULT_255_1_234
10
6.3209687
20
13.0801781
40
0.4738131
50
338.2523585
51
351.2430902
0
ARC
8
DEFAULT_255_1_234
10
6.0798983
20
13.1211447
40
0.7183203
50
350.9409515
51
357.6691871
0
ARC
8
DEFAULT_255_1_234
10
6.5689413
20
13.3213764
40
0.2294452
50
269.9447023
51
306.8248917
0
ARC
8
DEFAULT_255_1_234
10
6.5452328
20
13.3636898
40
0.2775994
50
305.5072438
51
327.0773448
0
ARC
8
DEFAULT_255_1_234
10
6.5570769
20
13.3542025
40
0.2625056
50
327.4104943
51
336.840169
0
ARC
8
DEFAULT_255_1_234
10
6.2476834
20
13.3136302
40
0.5507537
50
359.6633817
51
10.117533
0
ARC
8
DEFAULT_255_1_234
10
6.4230632
20
13.3460777
40
0.372403
50
9.9430141
51
26.7700076
0
ARC
8
DEFAULT_255_1_234
10
6.4827845
20
13.3736187
40
0.3066865
50
27.2015464
51
34.6829435
0
ARC
8
DEFAULT_255_1_234
10
6.5317325
20
13.4103977
40
0.245519
50
34.1250343
51
50.3070065
0
ARC
8
DEFAULT_255_1_234
10
6.5764004
20
13.4638385
40
0.1758693
50
50.3851167
51
90.6705993
0
ARC
8
DEFAULT_255_1_234
10
6.5717237
20
13.4333799
40
0.2063326
50
89.272901
51
111.9140407
0
ARC
8
DEFAULT_255_1_234
10
6.5697765
20
13.447444
40
0.1925887
50
112.9382311
51
142.5320782
0
ARC
8
DEFAULT_255_1_234
10
6.6243945
20
13.4030969
40
0.2629232
50
142.1021256
51
166.3835592
0
ARC
8
DEFAULT_255_1_234
10
6.7425251
20
13.3725915
40
0.3849193
50
166.1100289
51
178.665427
0
ARC
8
DEFAULT_255_1_234
10
6.847284
20
13.3667117
40
0.4897989
50
178.2632126
51
180.0111093
0
ARC
8
DEFAULT_255_1_234
10
6.767096
20
13.3638728
40
0.40962
50
179.6161962
51
191.8787166
0
ARC
8
DEFAULT_255_1_234
10
6.6450799
20
13.3368896
40
0.2846655
50
191.6191692
51
215.2972286
0
ARC
8
DEFAULT_255_1_234
10
6.625399
20
13.3253918
40
0.2619665
50
215.7320102
51
216.5355409
0
ARC
8
DEFAULT_255_1_234
10
6.5715077
20
13.2821647
40
0.1929497
50
215.7486685
51
239.9727502
0
ARC
8
DEFAULT_255_1_234
10
6.5644992
20
13.2770894
40
0.1850822
50
241.0650169
51
269.2810483
0
ARC
8
DEFAULT_255_1_234
10
6.5686907
20
13.3261371
40
0.2342059
50
268.4062526
51
270.0071348
0
LINE
8
DEFAULT_255_1_234
10
5.0274293
20
20.5154
11
4.9157881
21
20.8206061
0
LINE
8
DEFAULT_255_1_234
10
4.9157881
20
20.8206061
11
4.4258521
21
20.8206061
0
LINE
8
DEFAULT_255_1_234
10
4.4258521
20
20.8206061
11
4.3158173
21
20.5154
0
LINE
8
DEFAULT_255_1_234
10
4.3158173
20
20.5154
11
4.1567889
21
20.5154
0
LINE
8
DEFAULT_255_1_234
10
4.1567889
20
20.5154
11
4.6033535
21
21.6848211
0
LINE
8
DEFAULT_255_1_234
10
4.6033535
20
21.6848211
11
4.7382867
21
21.6848211
0
LINE
8
DEFAULT_255_1_234
10
4.7382867
20
21.6848211
11
5.1856545
21
20.5154
0
LINE
8
DEFAULT_255_1_234
10
5.1856545
20
20.5154
11
5.0274293
21
20.5154
0
LINE
8
DEFAULT_255_1_234
10
4.6708201
20
21.4944689
11
4.4724362
21
20.9475075
0
LINE
8
DEFAULT_255_1_234
10
4.4724362
20
20.9475075
11
4.8700072
21
20.9475075
0
LINE
8
DEFAULT_255_1_234
10
4.8700072
20
20.9475075
11
4.6708201
21
21.4944689
0
LINE
8
DEFAULT_255_1_234
10
5.792854
20
21.6904433
11
5.792854
21
20.5154
0
LINE
8
DEFAULT_255_1_234
10
5.792854
20
20.5154
11
5.6434636
21
20.5154
0
LINE
8
DEFAULT_255_1_234
10
5.6434636
20
20.5154
11
5.6434636
21
21.5057133
0
LINE
8
DEFAULT_255_1_234
10
5.6434636
20
21.5057133
11
5.3438798
21
21.3956785
0
LINE
8
DEFAULT_255_1_234
10
5.3438798
20
21.3956785
11
5.3438798
21
21.5306117
0
LINE
8
DEFAULT_255_1_234
10
5.3438798
20
21.5306117
11
5.7695619
21
21.6904433
0
LINE
8
DEFAULT_255_1_234
10
5.7695619
20
21.6904433
11
5.792854
21
21.6904433
0
ARC
8
DEFAULT_255_1_234
10
6.6551525
20
21.3770703
40
0.2822356
50
338.8763615
51
0.5166041
0
ARC
8
DEFAULT_255_1_234
10
6.672018
20
21.3725208
40
0.2648703
50
325.8412414
51
338.4795939
0
ARC
8
DEFAULT_255_1_234
10
6.6329547
20
21.3996042
40
0.3124019
50
296.7586019
51
325.753654
0
ARC
8
DEFAULT_255_1_234
10
6.6041656
20
21.4480789
40
0.368668
50
296.0902311
51
297.3618122
0
ARC
8
DEFAULT_255_1_234
10
6.6299113
20
20.7926041
40
0.3518806
50
47.9009248
51
67.1946869
0
ARC
8
DEFAULT_255_1_234
10
6.6495355
20
20.8172395
40
0.320451
50
35.236241
51
47.551371
0
ARC
8
DEFAULT_255_1_234
10
6.6756973
20
20.8346993
40
0.2890103
50
359.2759738
51
35.4014081
0
ARC
8
DEFAULT_255_1_234
10
6.6012004
20
20.8273826
40
0.3635026
50
343.1294516
51
0.5776525
0
ARC
8
DEFAULT_255_1_234
10
6.6736549
20
20.807433
40
0.2883832
50
310.8497458
51
342.744803
0
ARC
8
DEFAULT_255_1_234
10
6.6318663
20
20.8551294
40
0.3517954
50
281.5473923
51
310.9169905
0
ARC
8
DEFAULT_255_1_234
10
6.5962112
20
21.0104084
40
0.5110832
50
269.6192722
51
281.9789957
0
ARC
8
DEFAULT_255_1_234
10
6.5889901
20
21.0104828
40
0.5111606
50
257.4584469
51
270.4287458
0
ARC
8
DEFAULT_255_1_234
10
6.5509044
20
20.8501344
40
0.3463762
50
228.7553743
51
257.8484423
0
ARC
8
DEFAULT_255_1_234
10
6.5199242
20
20.8128442
40
0.297916
50
184.0104442
51
228.5071787
0
ARC
8
DEFAULT_255_1_234
10
6.6362186
20
20.8305512
40
0.4152734
50
179.9315461
51
185.3254504
0
ARC
8
DEFAULT_255_1_234
10
6.5185832
20
20.8342992
40
0.2976554
50
145.6795913
51
180.6259649
0
ARC
8
DEFAULT_255_1_234
10
6.5349182
20
20.8228929
40
0.3175776
50
115.5537925
51
145.6416199
0
ARC
8
DEFAULT_255_1_234
10
6.5690112
20
20.7618028
40
0.3874232
50
113.2437915
51
116.2054627
0
ARC
8
DEFAULT_255_1_234
10
6.5537324
20
21.401658
40
0.3154751
50
222.9548379
51
244.1372485
0
ARC
8
DEFAULT_255_1_234
10
6.54154
20
21.3879834
40
0.2972382
50
213.3439227
51
222.6271327
0
ARC
8
DEFAULT_255_1_234
10
6.5223334
20
21.3749308
40
0.274019
50
180.4316517
51
213.2713999
0
ARC
8
DEFAULT_255_1_234
10
6.5798335
20
21.379611
40
0.33158
50
179.9992944
51
181.1655061
0
ARC
8
DEFAULT_255_1_234
10
6.6207752
20
21.3830561
40
0.3725376
50
164.6186108
51
180.5292368
0
ARC
8
DEFAULT_255_1_234
10
6.5309615
20
21.4072101
40
0.2795349
50
132.2454369
51
164.5092287
0
ARC
8
DEFAULT_255_1_234
10
6.5596719
20
21.3747028
40
0.3229019
50
100.7052766
51
132.1387266
0
ARC
8
DEFAULT_255_1_234
10
6.5901692
20
21.2369086
40
0.4639835
50
89.6732617
51
101.2449487
0
ARC
8
DEFAULT_255_1_234
10
6.596389
20
21.254399
40
0.4464999
50
76.2876631
51
90.4586123
0
ARC
8
DEFAULT_255_1_234
10
6.6270121
20
21.376622
40
0.3205023
50
47.8240157
51
76.4266918
0
ARC
8
DEFAULT_255_1_234
10
6.6492671
20
21.402659
40
0.2862661
50
6.9168658
51
47.6261438
0
ARC
8
DEFAULT_255_1_234
10
6.5306074
20
21.380737
40
0.4067708
50
359.8419705
51
7.9694496
0
ARC
8
DEFAULT_255_1_234
10
6.5647971
20
20.8366925
40
0.2513121
50
359.4454068
51
16.9256425
0
ARC
8
DEFAULT_255_1_234
10
6.6116782
20
20.8496033
40
0.2027071
50
17.292259
51
45.462717
0
ARC
8
DEFAULT_255_1_234
10
6.6062718
20
20.8449434
40
0.2098212
50
45.3028762
51
83.1921472
0
ARC
8
DEFAULT_255_1_234
10
6.5919402
20
20.7647895
40
0.2911472
50
82.2614531
51
90.143954
0
ARC
8
DEFAULT_255_1_234
10
6.5888522
20
20.788095
40
0.2678513
50
89.4959189
51
104.8579811
0
ARC
8
DEFAULT_255_1_234
10
6.5711781
20
20.855089
40
0.1985654
50
104.8855873
51
135.2448349
0
ARC
8
DEFAULT_255_1_234
10
6.5761554
20
20.8506336
40
0.2052373
50
135.3398955
51
172.104394
0
ARC
8
DEFAULT_255_1_234
10
6.6568612
20
20.8351925
40
0.2873299
50
171.2651929
51
180.1859362
0
ARC
8
DEFAULT_255_1_234
10
6.6399313
20
20.8319733
40
0.2704083
50
179.515471
51
193.6466734
0
ARC
8
DEFAULT_255_1_234
10
6.5583082
20
20.8111777
40
0.1861855
50
193.3540587
51
225.8256931
0
ARC
8
DEFAULT_255_1_234
10
6.562384
20
20.8182524
40
0.1941102
50
226.418029
51
255.8553723
0
ARC
8
DEFAULT_255_1_234
10
6.5880272
20
20.9118998
40
0.2911917
50
255.4655572
51
268.7985967
0
ARC
8
DEFAULT_255_1_234
10
6.5927464
20
20.9957491
40
0.3751331
50
268.3464808
51
270.0104874
0
ARC
8
DEFAULT_255_1_234
10
6.5950852
20
20.9273138
40
0.3067064
50
269.575914
51
282.0823146
0
ARC
8
DEFAULT_255_1_234
10
6.6175761
20
20.8278803
40
0.2047712
50
281.7522535
51
306.6056425
0
ARC
8
DEFAULT_255_1_234
10
6.6274188
20
20.8117487
40
0.1859604
50
307.1350025
51
314.0277951
0
ARC
8
DEFAULT_255_1_234
10
6.6238272
20
20.8143766
40
0.1903475
50
314.2553419
51
350.169324
0
ARC
8
DEFAULT_255_1_234
10
6.538674
20
20.8328409
40
0.2774269
50
349.4145679
51
0.2930737
0
ARC
8
DEFAULT_255_1_234
10
6.5907173
20
21.3487353
40
0.2300764
50
89.477591
51
105.729794
0
ARC
8
DEFAULT_255_1_234
10
6.5771087
20
21.3992637
40
0.1777519
50
105.922966
51
135.1662921
0
ARC
8
DEFAULT_255_1_234
10
6.5791589
20
21.3978419
40
0.1802087
50
135.3053131
51
168.9882338
0
ARC
8
DEFAULT_255_1_234
10
6.6619162
20
21.3788721
40
0.2650806
50
168.3802067
51
180.3602358
0
ARC
8
DEFAULT_255_1_234
10
6.6390741
20
21.3751041
40
0.2422425
50
179.5029707
51
194.9126783
0
ARC
8
DEFAULT_255_1_234
10
6.5805402
20
21.359711
40
0.1817188
50
194.9722181
51
224.1943972
0
ARC
8
DEFAULT_255_1_234
10
6.5777269
20
21.3574169
40
0.1781027
50
224.2961434
51
262.0157375
0
ARC
8
DEFAULT_255_1_234
10
6.5919512
20
21.4305661
40
0.2525492
50
261.1250369
51
270.1959853
0
ARC
8
DEFAULT_255_1_234
10
6.5949267
20
21.4118339
40
0.233825
50
269.4825617
51
285.0988277
0
ARC
8
DEFAULT_255_1_234
10
6.6103426
20
21.353999
40
0.1739712
50
285.1585659
51
315.9484648
0
ARC
8
DEFAULT_255_1_234
10
6.6014438
20
21.3621886
40
0.1860616
50
316.0412958
51
351.9162715
0
ARC
8
DEFAULT_255_1_234
10
6.5281393
20
21.3763245
40
0.2606517
50
351.1056823
51
0.1936567
0
ARC
8
DEFAULT_255_1_234
10
6.5544222
20
21.3793369
40
0.234377
50
359.4789506
51
16.0679113
0
ARC
8
DEFAULT_255_1_234
10
6.6020181
20
21.392181
40
0.1850875
50
16.3251951
51
44.791304
0
ARC
8
DEFAULT_255_1_234
10
6.6002462
20
21.3922339
40
0.186312
50
44.3958661
51
88.2498933
0
ARC
8
DEFAULT_255_1_234
10
6.5929016
20
21.3311154
40
0.2476868
50
86.9833827
51
90.0200148
0
LINE
8
DEFAULT_255_1_234
10
5.0274293
20
28.4529
11
4.9157881
21
28.7581061
0
LINE
8
DEFAULT_255_1_234
10
4.9157881
20
28.7581061
11
4.4258521
21
28.7581061
0
LINE
8
DEFAULT_255_1_234
10
4.4258521
20
28.7581061
11
4.3158173
21
28.4529
0
LINE
8
DEFAULT_255_1_234
10
4.3158173
20
28.4529
11
4.1567889
21
28.4529
0
LINE
8
DEFAULT_255_1_234
10
4.1567889
20
28.4529
11
4.6033535
21
29.6223211
0
LINE
8
DEFAULT_255_1_234
10
4.6033535
20
29.6223211
11
4.7382867
21
29.6223211
0
LINE
8
DEFAULT_255_1_234
10
4.7382867
20
29.6223211
11
5.1856545
21
28.4529
0
LINE
8
DEFAULT_255_1_234
10
5.1856545
20
28.4529
11
5.0274293
21
28.4529
0
LINE
8
DEFAULT_255_1_234
10
4.6708201
20
29.4319689
11
4.4724362
21
28.8850075
0
LINE
8
DEFAULT_255_1_234
10
4.4724362
20
28.8850075
11
4.8700072
21
28.8850075
0
LINE
8
DEFAULT_255_1_234
10
4.8700072
20
28.8850075
11
4.6708201
21
29.4319689
0
LINE
8
DEFAULT_255_1_234
10
5.792854
20
29.6279433
11
5.792854
21
28.4529
0
LINE
8
DEFAULT_255_1_234
10
5.792854
20
28.4529
11
5.6434636
21
28.4529
0
LINE
8
DEFAULT_255_1_234
10
5.6434636
20
28.4529
11
5.6434636
21
29.4432133
0
LINE
8
DEFAULT_255_1_234
10
5.6434636
20
29.4432133
11
5.3438798
21
29.3331785
0
LINE
8
DEFAULT_255_1_234
10
5.3438798
20
29.3331785
11
5.3438798
21
29.4681117
0
LINE
8
DEFAULT_255_1_234
10
5.3438798
20
29.4681117
11
5.7695619
21
29.6279433
0
LINE
8
DEFAULT_255_1_234
10
5.7695619
20
29.6279433
11
5.792854
21
29.6279433
0
LINE
8
DEFAULT_255_1_234
10
6.9831576
20
29.6223211
11
6.9831576
21
29.538791
0
LINE
8
DEFAULT_255_1_234
10
6.9831576
20
29.538791
11
6.4988438
21
28.4529
0
LINE
8
DEFAULT_255_1_234
10
6.4988438
20
28.4529
11
6.343028
21
28.4529
0
LINE
8
DEFAULT_255_1_234
10
6.343028
20
28.4529
11
6.8257355
21
29.5002387
0
LINE
8
DEFAULT_255_1_234
10
6.8257355
20
29.5002387
11
6.1928345
21
29.5002387
0
LINE
8
DEFAULT_255_1_234
10
6.1928345
20
29.5002387
11
6.1928345
21
29.6223211
0
LINE
8
DEFAULT_255_1_234
10
6.1928345
20
29.6223211
11
6.9831576
21
29.6223211
0
LINE
8
DEFAULT_255_1_234
10
5.0274293
20
36.3904
11
4.9157881
21
36.6956061
0
LINE
8
DEFAULT_255_1_234
10
4.9157881
20
36.6956061
11
4.4258521
21
36.6956061
0
LINE
8
DEFAULT_255_1_234
10
4.4258521
20
36.6956061
11
4.3158173
21
36.3904
0
LINE
8
DEFAULT_255_1_234
10
4.3158173
20
36.3904
11
4.1567889
21
36.3904
0
LINE
8
DEFAULT_255_1_234
10
4.1567889
20
36.3904
11
4.6033535
21
37.5598211
0
LINE
8
DEFAULT_255_1_234
10
4.6033535
20
37.5598211
11
4.7382867
21
37.5598211
0
LINE
8
DEFAULT_255_1_234
10
4.7382867
20
37.5598211
11
5.1856545
21
36.3904
0
LINE
8
DEFAULT_255_1_234
10
5.1856545
20
36.3904
11
5.0274293
21
36.3904
0
LINE
8
DEFAULT_255_1_234
10
4.6708201
20
37.3694689
11
4.4724362
21
36.8225075
0
LINE
8
DEFAULT_255_1_234
10
4.4724362
20
36.8225075
11
4.8700072
21
36.8225075
0
LINE
8
DEFAULT_255_1_234
10
4.8700072
20
36.8225075
11
4.6708201
21
37.3694689
0
LINE
8
DEFAULT_255_1_234
10
5.792854
20
37.5654433
11
5.792854
21
36.3904
0
LINE
8
DEFAULT_255_1_234
10
5.792854
20
36.3904
11
5.6434636
21
36.3904
0
LINE
8
DEFAULT_255_1_234
10
5.6434636
20
36.3904
11
5.6434636
21
37.3807133
0
LINE
8
DEFAULT_255_1_234
10
5.6434636
20
37.3807133
11
5.3438798
21
37.2706785
0
LINE
8
DEFAULT_255_1_234
10
5.3438798
20
37.2706785
11
5.3438798
21
37.4056117
0
LINE
8
DEFAULT_255_1_234
10
5.3438798
20
37.4056117
11
5.7695619
21
37.5654433
0
LINE
8
DEFAULT_255_1_234
10
5.7695619
20
37.5654433
11
5.792854
21
37.5654433
0
LINE
8
DEFAULT_255_1_234
10
6.7847736
20
37.5606243
11
6.8112784
21
37.5606243
0
LINE
8
DEFAULT_255_1_234
10
6.8112784
20
37.5606243
11
6.8112784
21
37.434526
0
LINE
8
DEFAULT_255_1_234
10
6.8112784
20
37.434526
11
6.7839705
21
37.434526
0
LINE
8
DEFAULT_255_1_234
10
6.2370091
20
36.8353583
11
6.2370091
21
36.8923836
0
LINE
8
DEFAULT_255_1_234
10
6.3863994
20
36.8731075
11
6.3863994
21
36.8184917
0
ARC
8
DEFAULT_255_1_234
10
6.7892052
20
36.9347455
40
0.4998079
50
90.6001036
51
104.514704
0
ARC
8
DEFAULT_255_1_234
10
6.7503568
20
37.0792131
40
0.3502176
50
104.2855254
51
133.862935
0
ARC
8
DEFAULT_255_1_234
10
6.7667325
20
37.068383
40
0.3693984
50
134.5302688
51
161.6210873
0
ARC
8
DEFAULT_255_1_234
10
6.9320514
20
37.0100895
40
0.5446739
50
161.2849839
51
174.2076652
0
ARC
8
DEFAULT_255_1_234
10
7.0727451
20
36.9906787
40
0.6866274
50
173.7810589
51
174.9254635
0
ARC
8
DEFAULT_255_1_234
10
6.6177283
20
36.8523839
40
0.3033419
50
95.8330959
51
138.9954921
0
ARC
8
DEFAULT_255_1_234
10
6.6400639
20
36.7245375
40
0.4328947
50
89.8753725
51
97.0544009
0
ARC
8
DEFAULT_255_1_234
10
6.6448105
20
36.8080748
40
0.3493769
50
71.6407809
51
90.6240094
0
ARC
8
DEFAULT_255_1_234
10
6.6598679
20
36.8635082
40
0.2920396
50
39.6367836
51
71.019018
0
ARC
8
DEFAULT_255_1_234
10
6.5962152
20
36.8084998
40
0.3761538
50
10.658731
51
39.9043955
0
ARC
8
DEFAULT_255_1_234
10
6.4414235
20
36.7748686
40
0.5345136
50
359.682601
51
11.132623
0
ARC
8
DEFAULT_255_1_234
10
6.4374365
20
36.767801
40
0.5385081
50
347.2486944
51
0.4369317
0
ARC
8
DEFAULT_255_1_234
10
6.6041842
20
36.7276807
40
0.3670249
50
318.1409698
51
347.6118597
0
ARC
8
DEFAULT_255_1_234
10
6.6366835
20
36.7009702
40
0.3250007
50
275.6342139
51
317.8248465
0
ARC
8
DEFAULT_255_1_234
10
6.6145947
20
36.8309219
40
0.4565864
50
269.8874292
51
276.7917694
0
ARC
8
DEFAULT_255_1_234
10
6.6091017
20
36.7283743
40
0.3540676
50
246.9140195
51
270.7437342
0
ARC
8
DEFAULT_255_1_234
10
6.6097408
20
36.7141384
40
0.3412781
50
218.1665114
51
245.878116
0
ARC
8
DEFAULT_255_1_234
10
6.6976868
20
36.7877279
40
0.455911
50
191.4115814
51
218.6077802
0
ARC
8
DEFAULT_255_1_234
10
6.8914958
20
36.8311833
40
0.6545001
50
179.6345085
51
191.7836486
0
ARC
8
DEFAULT_255_1_234
10
7.4497294
20
36.8990697
40
1.2127388
50
171.4525249
51
180.3158839
0
ARC
8
DEFAULT_255_1_234
10
7.010217
20
36.9674608
40
0.7679464
50
157.9802646
51
171.6246686
0
ARC
8
DEFAULT_255_1_234
10
6.7888191
20
37.0557421
40
0.5296008
50
141.4298019
51
157.854097
0
ARC
8
DEFAULT_255_1_234
10
6.7246512
20
37.1011381
40
0.4511509
50
102.8715806
51
140.8564722
0
ARC
8
DEFAULT_255_1_234
10
6.7894127
20
36.8571552
40
0.7034845
50
90.3778349
51
103.5869322
0
ARC
8
DEFAULT_255_1_234
10
6.6155903
20
36.796673
40
0.2370698
50
89.8751008
51
126.2071704
0
ARC
8
DEFAULT_255_1_234
10
6.6201693
20
36.7812303
40
0.2522934
50
124.9745049
51
144.895901
0
ARC
8
DEFAULT_255_1_234
10
6.6025884
20
36.795556
40
0.2296779
50
145.2974905
51
160.2660252
0
ARC
8
DEFAULT_255_1_234
10
6.9098423
20
36.8153071
40
0.5234525
50
179.6514266
51
190.2855912
0
ARC
8
DEFAULT_255_1_234
10
6.740456
20
36.7833786
40
0.3510893
50
190.0945431
51
207.5098196
0
ARC
8
DEFAULT_255_1_234
10
6.683883
20
36.7564623
40
0.288489
50
207.9583163
51
216.3251085
0
ARC
8
DEFAULT_255_1_234
10
6.6498937
20
36.7285105
40
0.2445587
50
215.7661442
51
232.5456785
0
ARC
8
DEFAULT_255_1_234
10
6.611592
20
36.6798482
40
0.1826382
50
232.8005391
51
270.6605633
0
ARC
8
DEFAULT_255_1_234
10
6.6161621
20
36.7162612
40
0.2190529
50
269.35537
51
288.4744281
0
ARC
8
DEFAULT_255_1_234
10
6.6254518
20
36.6813118
40
0.1829749
50
289.1833337
51
322.9683818
0
ARC
8
DEFAULT_255_1_234
10
6.5643041
20
36.7295391
40
0.2608399
50
322.6007884
51
346.5182367
0
ARC
8
DEFAULT_255_1_234
10
6.4485636
20
36.7590616
40
0.3802777
50
346.2582162
51
358.7741648
0
ARC
8
DEFAULT_255_1_234
10
6.3467305
20
36.7645965
40
0.4822176
50
358.3755224
51
0.0098023
0
ARC
8
DEFAULT_255_1_234
10
6.4223493
20
36.7673657
40
0.4066078
50
359.6214041
51
11.2839074
0
ARC
8
DEFAULT_255_1_234
10
6.5500639
20
36.7940066
40
0.2761514
50
11.0482309
51
31.8146458
0
ARC
8
DEFAULT_255_1_234
10
6.5809682
20
36.8107584
40
0.2410679
50
32.3035391
51
38.082671
0
ARC
8
DEFAULT_255_1_234
10
6.6230342
20
36.8488662
40
0.1844966
50
36.825067
51
85.7415724
0
ARC
8
DEFAULT_255_1_234
10
6.6163176
20
36.7988301
40
0.2349122
50
85.0140713
51
90.0513278
0
LINE
8
DEFAULT_255_1_234
10
5.0274293
20
44.3279
11
4.9157881
21
44.6331061
0
LINE
8
DEFAULT_255_1_234
10
4.9157881
20
44.6331061
11
4.4258521
21
44.6331061
0
LINE
8
DEFAULT_255_1_234
10
4.4258521
20
44.6331061
11
4.3158173
21
44.3279
0
LINE
8
DEFAULT_255_1_234
10
4.3158173
20
44.3279
11
4.1567889
21
44.3279
0
LINE
8
DEFAULT_255_1_234
10
4.1567889
20
44.3279
11
4.6033535
21
45.4973211
0
LINE
8
DEFAULT_255_1_234
10
4.6033535
20
45.4973211
11
4.7382867
21
45.4973211
0
LINE
8
DEFAULT_255_1_234
10
4.7382867
20
45.4973211
11
5.1856545
21
44.3279
0
LINE
8
DEFAULT_255_1_234
10
5.1856545
20
44.3279
11
5.0274293
21
44.3279
0
LINE
8
DEFAULT_255_1_234
10
4.6708201
20
45.3069689
11
4.4724362
21
44.7600075
0
LINE
8
DEFAULT_255_1_234
10
4.4724362
20
44.7600075
11
4.8700072
21
44.7600075
0
LINE
8
DEFAULT_255_1_234
10
4.8700072
20
44.7600075
11
4.6708201
21
45.3069689
0
LINE
8
DEFAULT_255_1_234
10
5.792854
20
45.5029433
11
5.792854
21
44.3279
0
LINE
8
DEFAULT_255_1_234
10
5.792854
20
44.3279
11
5.6434636
21
44.3279
0
LINE
8
DEFAULT_255_1_234
10
5.6434636
20
44.3279
11
5.6434636
21
45.3182133
0
LINE
8
DEFAULT_255_1_234
10
5.6434636
20
45.3182133
11
5.3438798
21
45.2081785
0
LINE
8
DEFAULT_255_1_234
10
5.3438798
20
45.2081785
11
5.3438798
21
45.3431117
0
LINE
8
DEFAULT_255_1_234
10
5.3438798
20
45.3431117
11
5.7695619
21
45.5029433
0
LINE
8
DEFAULT_255_1_234
10
5.7695619
20
45.5029433
11
5.792854
21
45.5029433
0
LINE
8
DEFAULT_255_1_234
10
6.4153137
20
44.8836963
11
6.2964439
21
44.9142169
0
LINE
8
DEFAULT_255_1_234
10
6.2964439
20
44.9142169
11
6.3558788
21
45.4973211
0
LINE
8
DEFAULT_255_1_234
10
6.3558788
20
45.4973211
11
6.9550465
21
45.4973211
0
LINE
8
DEFAULT_255_1_234
10
6.9550465
20
45.4973211
11
6.9550465
21
45.3599784
0
LINE
8
DEFAULT_255_1_234
10
6.9550465
20
45.3599784
11
6.4819771
21
45.3599784
0
LINE
8
DEFAULT_255_1_234
10
6.4819771
20
45.3599784
11
6.4466375
21
45.0411184
0
LINE
8
DEFAULT_255_1_234
10
6.2546789
20
44.6355156
11
6.3952343
21
44.6355156
0
LINE
8
DEFAULT_255_1_234
10
6.4546692
20
44.9158232
11
6.4153137
21
44.8836963
0
ARC
8
DEFAULT_255_1_234
10
6.6321158
20
44.723123
40
0.3681349
50
93.7182161
51
120.2538958
0
ARC
8
DEFAULT_255_1_234
10
6.6415421
20
44.6423394
40
0.449379
50
89.9660152
51
94.2496022
0
ARC
8
DEFAULT_255_1_234
10
6.6456155
20
44.7012549
40
0.390482
50
73.8043271
51
90.5585896
0
ARC
8
DEFAULT_255_1_234
10
6.6691052
20
44.7870602
40
0.3015334
50
41.3071453
51
73.5430202
0
ARC
8
DEFAULT_255_1_234
10
6.627488
20
44.7512324
40
0.3564457
50
13.5075983
51
41.2174222
0
ARC
8
DEFAULT_255_1_234
10
6.4633083
20
44.7082486
40
0.5261351
50
1.1331335
51
13.8829381
0
ARC
8
DEFAULT_255_1_234
10
6.3221452
20
44.7006665
40
0.6674378
50
359.9919444
51
1.544251
0
ARC
8
DEFAULT_255_1_234
10
6.4498279
20
44.696528
40
0.5397702
50
347.8572367
51
0.4293338
0
ARC
8
DEFAULT_255_1_234
10
6.6248596
20
44.6568736
40
0.3603188
50
323.673004
51
348.1672506
0
ARC
8
DEFAULT_255_1_234
10
6.6543104
20
44.6389168
40
0.3259678
50
316.8171152
51
323.1492751
0
ARC
8
DEFAULT_255_1_234
10
6.6604293
20
44.635246
40
0.3189975
50
281.8396411
51
316.5457803
0
ARC
8
DEFAULT_255_1_234
10
6.6228557
20
44.7907762
40
0.4789527
50
269.5770101
51
282.4214771
0
ARC
8
DEFAULT_255_1_234
10
6.6157369
20
44.7694125
40
0.45759
50
256.2427136
51
270.4486331
0
ARC
8
DEFAULT_255_1_234
10
6.5858271
20
44.6494229
40
0.3339303
50
228.9023911
51
256.3314342
0
ARC
8
DEFAULT_255_1_234
10
6.5784504
20
44.6377746
40
0.32031
50
193.753695
51
228.5271154
0
ARC
8
DEFAULT_255_1_234
10
6.7022458
20
44.67408
40
0.4492253
50
184.924711
51
194.497588
0
ARC
8
DEFAULT_255_1_234
10
6.7215024
20
44.6776591
40
0.3289787
50
187.3600538
51
198.6732863
0
ARC
8
DEFAULT_255_1_234
10
6.6165318
20
44.6412674
40
0.217884
50
198.4451669
51
217.794479
0
ARC
8
DEFAULT_255_1_234
10
6.5869494
20
44.6203085
40
0.1816698
50
218.2887171
51
228.5612368
0
ARC
8
DEFAULT_255_1_234
10
6.5967281
20
44.6334963
40
0.1980329
50
228.9654866
51
258.1234728
0
ARC
8
DEFAULT_255_1_234
10
6.6172991
20
44.7215833
40
0.2884748
50
257.7258293
51
270.401361
0
ARC
8
DEFAULT_255_1_234
10
6.6217877
20
44.6770821
40
0.2439788
50
269.4204404
51
286.4209037
0
ARC
8
DEFAULT_255_1_234
10
6.6366364
20
44.6231657
40
0.1880666
50
286.7251356
51
320.600362
0
ARC
8
DEFAULT_255_1_234
10
6.5983189
20
44.6542595
40
0.2374121
50
320.6712579
51
344.5441685
0
ARC
8
DEFAULT_255_1_234
10
6.4826516
20
44.6882045
40
0.3579479
50
344.2412205
51
356.7357071
0
ARC
8
DEFAULT_255_1_234
10
6.3577664
20
44.6985444
40
0.4832297
50
356.3548756
51
0.0500261
0
ARC
8
DEFAULT_255_1_234
10
6.4914173
20
44.701665
40
0.3495889
50
359.5576869
51
12.953486
0
ARC
8
DEFAULT_255_1_234
10
6.5969071
20
44.7272434
40
0.2410532
50
12.6490276
51
41.6081334
0
ARC
8
DEFAULT_255_1_234
10
6.6199442
20
44.7468321
40
0.2108218
50
41.7850273
51
85.9892764
0
ARC
8
DEFAULT_255_1_234
10
6.6076178
20
44.6655462
40
0.2928454
50
84.6957577
51
90.0676183
0
ARC
8
DEFAULT_255_1_234
10
6.6052662
20
44.5986716
40
0.3597255
50
89.6804936
51
99.1614436
0
ARC
8
DEFAULT_255_1_234
10
6.5847294
20
44.7214131
40
0.235281
50
98.9830931
51
113.8908934
0
ARC
8
DEFAULT_255_1_234
10
6.5617704
20
44.7755587
40
0.176479
50
114.1950727
51
127.3641004
0
LINE
8
DEFAULT_255_1_234
10
5.1332293
20
52.2654
11
5.0215881
21
52.5706061
0
LINE
8
DEFAULT_255_1_234
10
5.0215881
20
52.5706061
11
4.5316521
21
52.5706061
0
LINE
8
DEFAULT_255_1_234
10
4.5316521
20
52.5706061
11
4.4216173
21
52.2654
0
LINE
8
DEFAULT_255_1_234
10
4.4216173
20
52.2654
11
4.2625889
21
52.2654
0
LINE
8
DEFAULT_255_1_234
10
4.2625889
20
52.2654
11
4.7091535
21
53.4348211
0
LINE
8
DEFAULT_255_1_234
10
4.7091535
20
53.4348211
11
4.8440867
21
53.4348211
0
LINE
8
DEFAULT_255_1_234
10
4.8440867
20
53.4348211
11
5.2914545
21
52.2654
0
LINE
8
DEFAULT_255_1_234
10
5.2914545
20
52.2654
11
5.1332293
21
52.2654
0
LINE
8
DEFAULT_255_1_234
10
4.7766201
20
53.2444689
11
4.5782362
21
52.6975075
0
LINE
8
DEFAULT_255_1_234
10
4.5782362
20
52.6975075
11
4.9758072
21
52.6975075
0
LINE
8
DEFAULT_255_1_234
10
4.9758072
20
52.6975075
11
4.7766201
21
53.2444689
0
LINE
8
DEFAULT_255_1_234
10
5.898654
20
53.4404433
11
5.898654
21
52.2654
0
LINE
8
DEFAULT_255_1_234
10
5.898654
20
52.2654
11
5.7492636
21
52.2654
0
LINE
8
DEFAULT_255_1_234
10
5.7492636
20
52.2654
11
5.7492636
21
53.2557133
0
LINE
8
DEFAULT_255_1_234
10
5.7492636
20
53.2557133
11
5.4496798
21
53.1456785
0
LINE
8
DEFAULT_255_1_234
10
5.4496798
20
53.1456785
11
5.4496798
21
53.2806117
0
LINE
8
DEFAULT_255_1_234
10
5.4496798
20
53.2806117
11
5.8753619
21
53.4404433
0
LINE
8
DEFAULT_255_1_234
10
5.8753619
20
53.4404433
11
5.898654
21
53.4404433
0
LINE
8
DEFAULT_255_1_234
10
6.9612529
20
53.4348211
11
6.9612529
21
52.658152
0
LINE
8
DEFAULT_255_1_234
10
6.9612529
20
52.658152
11
7.123494
21
52.658152
0
LINE
8
DEFAULT_255_1_234
10
7.123494
20
52.658152
11
7.123494
21
52.5368728
0
LINE
8
DEFAULT_255_1_234
10
7.123494
20
52.5368728
11
6.9612529
21
52.5368728
0
LINE
8
DEFAULT_255_1_234
10
6.9612529
20
52.5368728
11
6.9612529
21
52.2654
0
LINE
8
DEFAULT_255_1_234
10
6.9612529
20
52.2654
11
6.8118626
21
52.2654
0
LINE
8
DEFAULT_255_1_234
10
6.8118626
20
52.2654
11
6.8118626
21
52.5368728
0
LINE
8
DEFAULT_255_1_234
10
6.8118626
20
52.5368728
11
6.2793583
21
52.5368728
0
LINE
8
DEFAULT_255_1_234
10
6.2793583
20
52.5368728
11
6.2793583
21
52.6244187
0
LINE
8
DEFAULT_255_1_234
10
6.2793583
20
52.6244187
11
6.8030277
21
53.4348211
0
LINE
8
DEFAULT_255_1_234
10
6.8030277
20
53.4348211
11
6.9612529
21
53.4348211
0
LINE
8
DEFAULT_255_1_234
10
6.7941928
20
53.1994912
11
6.4480249
21
52.658152
0
LINE
8
DEFAULT_255_1_234
10
6.4480249
20
52.658152
11
6.8118626
21
52.658152
0
LINE
8
DEFAULT_255_1_234
10
6.8118626
20
52.658152
11
6.8118626
21
53.2316181
0
LINE
8
DEFAULT_255_1_234
10
6.8118626
20
53.2316181
11
6.7941928
21
53.1994912
0
LINE
8
DEFAULT_255_1_234
10
5.0274293
20
60.2029
11
4.9157881
21
60.5081061
0
LINE
8
DEFAULT_255_1_234
10
4.9157881
20
60.5081061
11
4.4258521
21
60.5081061
0
LINE
8
DEFAULT_255_1_234
10
4.4258521
20
60.5081061
11
4.3158173
21
60.2029
0
LINE
8
DEFAULT_255_1_234
10
4.3158173
20
60.2029
11
4.1567889
21
60.2029
0
LINE
8
DEFAULT_255_1_234
10
4.1567889
20
60.2029
11
4.6033535
21
61.3723211
0
LINE
8
DEFAULT_255_1_234
10
4.6033535
20
61.3723211
11
4.7382867
21
61.3723211
0
LINE
8
DEFAULT_255_1_234
10
4.7382867
20
61.3723211
11
5.1856545
21
60.2029
0
LINE
8
DEFAULT_255_1_234
10
5.1856545
20
60.2029
11
5.0274293
21
60.2029
0
LINE
8
DEFAULT_255_1_234
10
4.6708201
20
61.1819689
11
4.4724362
21
60.6350075
0
LINE
8
DEFAULT_255_1_234
10
4.4724362
20
60.6350075
11
4.8700072
21
60.6350075
0
LINE
8
DEFAULT_255_1_234
10
4.8700072
20
60.6350075
11
4.6708201
21
61.1819689
0
LINE
8
DEFAULT_255_1_234
10
5.792854
20
61.3779433
11
5.792854
21
60.2029
0
LINE
8
DEFAULT_255_1_234
10
5.792854
20
60.2029
11
5.6434636
21
60.2029
0
LINE
8
DEFAULT_255_1_234
10
5.6434636
20
60.2029
11
5.6434636
21
61.1932133
0
LINE
8
DEFAULT_255_1_234
10
5.6434636
20
61.1932133
11
5.3438798
21
61.0831785
0
LINE
8
DEFAULT_255_1_234
10
5.3438798
20
61.0831785
11
5.3438798
21
61.2181117
0
LINE
8
DEFAULT_255_1_234
10
5.3438798
20
61.2181117
11
5.7695619
21
61.3779433
0
LINE
8
DEFAULT_255_1_234
10
5.7695619
20
61.3779433
11
5.792854
21
61.3779433
0
LINE
8
DEFAULT_255_1_234
10
6.4442279
20
60.7386169
11
6.4442279
21
60.8598962
0
LINE
8
DEFAULT_255_1_234
10
6.4442279
20
60.8598962
11
6.5558691
21
60.8598962
0
LINE
8
DEFAULT_255_1_234
10
6.3655169
20
61.0655087
11
6.2169297
21
61.0655087
0
LINE
8
DEFAULT_255_1_234
10
6.2064885
20
60.5113188
11
6.3558788
21
60.5113188
0
LINE
8
DEFAULT_255_1_234
10
6.5558691
20
60.7386169
11
6.4442279
21
60.7386169
0
ARC
8
DEFAULT_255_1_234
10
6.5529557
20
61.1991713
40
0.3392876
50
270.4919872
51
281.8951556
0
ARC
8
DEFAULT_255_1_234
10
6.5770819
20
61.0889702
40
0.2264817
50
281.6691735
51
301.2943132
0
ARC
8
DEFAULT_255_1_234
10
6.5941029
20
61.0578304
40
0.1910381
50
301.7833094
51
311.7545298
0
ARC
8
DEFAULT_255_1_234
10
6.6032605
20
61.0476748
40
0.1773635
50
311.7323931
51
354.2802411
0
ARC
8
DEFAULT_255_1_234
10
6.530623
20
61.0601722
40
0.2509385
50
353.0937916
51
0.1181479
0
ARC
8
DEFAULT_255_1_234
10
6.4845015
20
61.0649386
40
0.2970898
50
359.1805295
51
15.0453146
0
ARC
8
DEFAULT_255_1_234
10
6.6190852
20
61.1041992
40
0.1569564
50
13.9577229
51
77.6713066
0
ARC
8
DEFAULT_255_1_234
10
6.5804381
20
60.9656949
40
0.3006298
50
76.1116566
51
90.7026153
0
ARC
8
DEFAULT_255_1_234
10
6.574522
20
60.9930545
40
0.2732568
50
89.5324876
51
103.531937
0
ARC
8
DEFAULT_255_1_234
10
6.5544664
20
61.0729884
40
0.1908508
50
103.2931773
51
133.5619022
0
ARC
8
DEFAULT_255_1_234
10
6.5500152
20
61.0789375
40
0.1834746
50
133.8349307
51
173.5344437
0
ARC
8
DEFAULT_255_1_234
10
6.6223195
20
61.0661213
40
0.2568033
50
172.5096846
51
180.1366907
0
ARC
8
DEFAULT_255_1_234
10
6.5272089
20
61.0695622
40
0.3103056
50
155.3484492
51
180.7484736
0
ARC
8
DEFAULT_255_1_234
10
6.5223178
20
61.0666846
40
0.3070957
50
131.5744599
51
154.4798489
0
ARC
8
DEFAULT_255_1_234
10
6.5536326
20
61.035031
40
0.3515643
50
96.9875458
51
131.9690667
0
ARC
8
DEFAULT_255_1_234
10
6.5755805
20
60.9104636
40
0.4779224
50
89.8596053
51
97.7825159
0
ARC
8
DEFAULT_255_1_234
10
6.5803869
20
60.8842616
40
0.5041361
50
78.3655447
51
90.4131539
0
ARC
8
DEFAULT_255_1_234
10
6.6161786
20
61.0501887
40
0.3344039
50
56.6229102
51
78.638727
0
ARC
8
DEFAULT_255_1_234
10
6.637673
20
61.0877805
40
0.2912001
50
47.0253525
51
56.0854072
0
ARC
8
DEFAULT_255_1_234
10
6.639651
20
61.0917223
40
0.2869704
50
10.9208013
51
46.7778124
0
ARC
8
DEFAULT_255_1_234
10
6.5032577
20
61.0601857
40
0.426899
50
359.6364486
51
11.6087304
0
ARC
8
DEFAULT_255_1_234
10
6.6867421
20
61.0586752
40
0.243409
50
332.3549906
51
359.7179418
0
ARC
8
DEFAULT_255_1_234
10
6.6217022
20
61.0895142
40
0.3153459
50
325.2333722
51
332.8745602
0
ARC
8
DEFAULT_255_1_234
10
6.6369646
20
61.0788828
40
0.2967456
50
292.9802137
51
325.2392345
0
ARC
8
DEFAULT_255_1_234
10
6.609502
20
61.1322863
40
0.3566604
50
292.5402179
51
293.6924929
0
ARC
8
DEFAULT_255_1_234
10
6.6487616
20
60.4868091
40
0.3307468
50
57.6435486
51
72.8625112
0
ARC
8
DEFAULT_255_1_234
10
6.6842115
20
60.5442549
40
0.2632492
50
36.7248896
51
57.4697979
0
ARC
8
DEFAULT_255_1_234
10
6.6830748
20
60.545522
40
0.2634081
50
8.0545065
51
36.356114
0
ARC
8
DEFAULT_255_1_234
10
6.5967933
20
60.5300174
40
0.3510261
50
359.8320645
51
8.5869982
0
ARC
8
DEFAULT_255_1_234
10
6.559271
20
60.5252101
40
0.3885653
50
343.9829931
51
0.5571613
0
ARC
8
DEFAULT_255_1_234
10
6.6478907
20
60.5009438
40
0.2966924
50
311.6359546
51
343.7651759
0
ARC
8
DEFAULT_255_1_234
10
6.6100476
20
60.5436102
40
0.3537231
50
279.7829875
51
311.6255694
0
ARC
8
DEFAULT_255_1_234
10
6.5799252
20
60.687328
40
0.5004971
50
269.7286406
51
280.3856417
0
ARC
8
DEFAULT_255_1_234
10
6.5737325
20
60.6831996
40
0.4963778
50
256.6828919
51
270.4412052
0
ARC
8
DEFAULT_255_1_234
10
6.5398621
20
60.5447394
40
0.3538406
50
229.4223008
51
256.8556159
0
ARC
8
DEFAULT_255_1_234
10
6.4984013
20
60.4980736
40
0.2914296
50
181.818294
51
229.6455059
0
ARC
8
DEFAULT_255_1_234
10
6.602397
20
60.5111496
40
0.3959084
50
179.9755256
51
183.2323064
0
ARC
8
DEFAULT_255_1_234
10
6.5851715
20
60.5091037
40
0.2293034
50
179.4465117
51
196.2869258
0
ARC
8
DEFAULT_255_1_234
10
6.5364123
20
60.4957651
40
0.1787621
50
196.5661473
51
227.705904
0
ARC
8
DEFAULT_255_1_234
10
6.5528218
20
60.5141155
40
0.2033784
50
227.7652068
51
257.8762805
0
ARC
8
DEFAULT_255_1_234
10
6.5753188
20
60.6084156
40
0.3003081
50
257.4584385
51
270.426602
0
ARC
8
DEFAULT_255_1_234
10
6.5798755
20
60.6373996
40
0.329292
50
269.5962073
51
280.8789248
0
ARC
8
DEFAULT_255_1_234
10
6.6028283
20
60.5227685
40
0.2123908
50
280.6346389
51
299.8595945
0
ARC
8
DEFAULT_255_1_234
10
6.621919
20
60.4865212
40
0.171457
50
300.3576302
51
314.5517981
0
ARC
8
DEFAULT_255_1_234
10
6.613625
20
60.4925919
40
0.1816095
50
315.0728369
51
345.0431014
0
ARC
8
DEFAULT_255_1_234
10
6.5213065
20
60.5194841
40
0.2777492
50
344.5986631
51
357.9269593
0
ARC
8
DEFAULT_255_1_234
10
6.4317391
20
60.5256276
40
0.3674917
50
357.4748886
51
0.0231117
0
ARC
8
DEFAULT_255_1_234
10
6.53405
20
60.5280679
40
0.2651907
50
359.5047933
51
13.4239635
0
ARC
8
DEFAULT_255_1_234
10
6.6207144
20
60.5502478
40
0.1757509
50
12.9498199
51
48.7551375
0
ARC
8
DEFAULT_255_1_234
10
6.6024878
20
60.52534
40
0.2065134
50
49.5088623
51
72.1836453
0
ARC
8
DEFAULT_255_1_234
10
6.566703
20
60.4191291
40
0.3185836
50
71.9010081
51
84.3554254
0
ARC
8
DEFAULT_255_1_234
10
6.5505662
20
60.2830326
40
0.4556151
50
84.0193428
51
89.333121
0
LINE
8
DEFAULT_255_1_234
10
5.0274293
20
68.1404
11
4.9157881
21
68.4456061
0
LINE
8
DEFAULT_255_1_234
10
4.9157881
20
68.4456061
11
4.4258521
21
68.4456061
0
LINE
8
DEFAULT_255_1_234
10
4.4258521
20
68.4456061
11
4.3158173
21
68.1404
0
LINE
8
DEFAULT_255_1_234
10
4.3158173
20
68.1404
11
4.1567889
21
68.1404
0
LINE
8
DEFAULT_255_1_234
10
4.1567889
20
68.1404
11
4.6033535
21
69.3098211
0
LINE
8
DEFAULT_255_1_234
10
4.6033535
20
69.3098211
11
4.7382867
21
69.3098211
0
LINE
8
DEFAULT_255_1_234
10
4.7382867
20
69.3098211
11
5.1856545
21
68.1404
0
LINE
8
DEFAULT_255_1_234
10
5.1856545
20
68.1404
11
5.0274293
21
68.1404
0
LINE
8
DEFAULT_255_1_234
10
4.6708201
20
69.1194689
11
4.4724362
21
68.5725075
0
LINE
8
DEFAULT_255_1_234
10
4.4724362
20
68.5725075
11
4.8700072
21
68.5725075
0
LINE
8
DEFAULT_255_1_234
10
4.8700072
20
68.5725075
11
4.6708201
21
69.1194689
0
LINE
8
DEFAULT_255_1_234
10
5.792854
20
69.3154433
11
5.792854
21
68.1404
0
LINE
8
DEFAULT_255_1_234
10
5.792854
20
68.1404
11
5.6434636
21
68.1404
0
LINE
8
DEFAULT_255_1_234
10
5.6434636
20
68.1404
11
5.6434636
21
69.1307133
0
LINE
8
DEFAULT_255_1_234
10
5.6434636
20
69.1307133
11
5.3438798
21
69.0206785
0
LINE
8
DEFAULT_255_1_234
10
5.3438798
20
69.0206785
11
5.3438798
21
69.1556117
0
LINE
8
DEFAULT_255_1_234
10
5.3438798
20
69.1556117
11
5.7695619
21
69.3154433
0
LINE
8
DEFAULT_255_1_234
10
5.7695619
20
69.3154433
11
5.792854
21
69.3154433
0
LINE
8
DEFAULT_255_1_234
10
6.994402
20
68.2616792
11
6.994402
21
68.1404
0
LINE
8
DEFAULT_255_1_234
10
6.994402
20
68.1404
11
6.2281742
21
68.1404
0
LINE
8
DEFAULT_255_1_234
10
6.2281742
20
68.1404
11
6.2281742
21
68.2472221
0
LINE
8
DEFAULT_255_1_234
10
6.2281742
20
68.2472221
11
6.6329738
21
68.6969995
0
LINE
8
DEFAULT_255_1_234
10
6.3542725
20
68.9652595
11
6.2056853
21
68.9652595
0
LINE
8
DEFAULT_255_1_234
10
6.7205197
20
68.6014218
11
6.4072819
21
68.2616792
0
LINE
8
DEFAULT_255_1_234
10
6.4072819
20
68.2616792
11
6.994402
21
68.2616792
0
ARC
8
DEFAULT_255_1_234
10
5.2839571
20
69.8899527
40
1.8008286
50
318.5132453
51
320.7828378
0
ARC
8
DEFAULT_255_1_234
10
5.8126546
20
69.4596426
40
1.1191493
50
320.7372736
51
323.9737074
0
ARC
8
DEFAULT_255_1_234
10
6.2046402
20
69.1756361
40
0.6350923
50
323.8961724
51
328.6421089
0
ARC
8
DEFAULT_255_1_234
10
6.4092997
20
69.0494031
40
0.3946393
50
328.8299013
51
331.789948
0
ARC
8
DEFAULT_255_1_234
10
6.5090176
20
68.9979509
40
0.2824501
50
331.4255242
51
352.9364833
0
ARC
8
DEFAULT_255_1_234
10
6.5226677
20
68.9948976
40
0.2685315
50
353.2248685
51
0.0169286
0
ARC
8
DEFAULT_255_1_234
10
6.5436553
20
68.997195
40
0.2475536
50
359.4866256
51
15.9339782
0
ARC
8
DEFAULT_255_1_234
10
6.5943539
20
69.0108286
40
0.1950618
50
16.1714718
51
43.5284424
0
ARC
8
DEFAULT_255_1_234
10
6.6020847
20
69.0185573
40
0.184134
50
43.4415429
51
83.1661404
0
ARC
8
DEFAULT_255_1_234
10
6.5886765
20
68.9448771
40
0.258926
50
82.160215
51
90.1505798
0
ARC
8
DEFAULT_255_1_234
10
6.5855193
20
68.8911865
40
0.3126255
50
89.5460705
51
102.5418777
0
ARC
8
DEFAULT_255_1_234
10
6.5612279
20
68.9942665
40
0.2067346
50
102.1739365
51
129.2061916
0
ARC
8
DEFAULT_255_1_234
10
6.5533351
20
69.0067094
40
0.1921118
50
129.7279328
51
135.7542026
0
ARC
8
DEFAULT_255_1_234
10
6.5654878
20
68.9970045
40
0.2075944
50
136.175737
51
166.3674722
0
ARC
8
DEFAULT_255_1_234
10
6.6661797
20
68.9700182
40
0.3118201
50
165.9092917
51
178.8683903
0
ARC
8
DEFAULT_255_1_234
10
6.7526659
20
68.9653179
40
0.3983935
50
178.438168
51
180.0083905
0
ARC
8
DEFAULT_255_1_234
10
6.6125261
20
68.9692231
40
0.4068601
50
163.2878735
51
180.5581814
0
ARC
8
DEFAULT_255_1_234
10
6.5323522
20
68.991284
40
0.3237344
50
133.454115
51
162.9470031
0
ARC
8
DEFAULT_255_1_234
10
6.5502064
20
68.9723
40
0.349795
50
100.7869394
51
133.4384016
0
ARC
8
DEFAULT_255_1_234
10
6.5849835
20
68.8174319
40
0.5084616
50
89.6605301
51
101.3704185
0
ARC
8
DEFAULT_255_1_234
10
6.5916174
20
68.8235496
40
0.502348
50
78.2171172
51
90.4130393
0
ARC
8
DEFAULT_255_1_234
10
6.6271252
20
68.9859637
40
0.3361092
50
55.9268222
51
78.4888551
0
ARC
8
DEFAULT_255_1_234
10
6.6467692
20
69.0198324
40
0.2970617
50
47.9292255
51
55.4054003
0
ARC
8
DEFAULT_255_1_234
10
6.6569253
20
69.0301502
40
0.2825983
50
4.3347696
51
48.0560701
0
ARC
8
DEFAULT_255_1_234
10
6.5473647
20
69.0131601
40
0.393225
50
359.925209
51
5.5967654
0
ARC
8
DEFAULT_255_1_234
10
6.5902538
20
69.0187816
40
0.3503892
50
337.8914096
51
358.9967724
0
ARC
8
DEFAULT_255_1_234
10
6.3188951
20
69.1234706
40
0.6412172
50
326.9135351
51
338.3505194
0
ARC
8
DEFAULT_255_1_234
10
5.9203254
20
69.3789284
40
1.1146189
50
319.6472867
51
327.095818
0
ARC
8
DEFAULT_255_1_234
10
5.5370257
20
69.6951
40
1.6114559
50
317.2586784
51
319.9046139
0
LINE
8
DEFAULT_255_1_234
10
5.0195293
20
76.0779
11
4.9078881
21
76.3831061
0
LINE
8
DEFAULT_255_1_234
10
4.9078881
20
76.3831061
11
4.4179521
21
76.3831061
0
LINE
8
DEFAULT_255_1_234
10
4.4179521
20
76.3831061
11
4.3079173
21
76.0779
0
LINE
8
DEFAULT_255_1_234
10
4.3079173
20
76.0779
11
4.1488889
21
76.0779
0
LINE
8
DEFAULT_255_1_234
10
4.1488889
20
76.0779
11
4.5954535
21
77.2473211
0
LINE
8
DEFAULT_255_1_234
10
4.5954535
20
77.2473211
11
4.7303867
21
77.2473211
0
LINE
8
DEFAULT_255_1_234
10
4.7303867
20
77.2473211
11
5.1777545
21
76.0779
0
LINE
8
DEFAULT_255_1_234
10
5.1777545
20
76.0779
11
5.0195293
21
76.0779
0
LINE
8
DEFAULT_255_1_234
10
4.6629201
20
77.0569689
11
4.4645362
21
76.5100075
0
LINE
8
DEFAULT_255_1_234
10
4.4645362
20
76.5100075
11
4.8621072
21
76.5100075
0
LINE
8
DEFAULT_255_1_234
10
4.8621072
20
76.5100075
11
4.6629201
21
77.0569689
0
LINE
8
DEFAULT_255_1_234
10
5.784954
20
77.2529433
11
5.784954
21
76.0779
0
LINE
8
DEFAULT_255_1_234
10
5.784954
20
76.0779
11
5.6355636
21
76.0779
0
LINE
8
DEFAULT_255_1_234
10
5.6355636
20
76.0779
11
5.6355636
21
77.0682133
0
LINE
8
DEFAULT_255_1_234
10
5.6355636
20
77.0682133
11
5.3359798
21
76.9581785
0
LINE
8
DEFAULT_255_1_234
10
5.3359798
20
76.9581785
11
5.3359798
21
77.0931117
0
LINE
8
DEFAULT_255_1_234
10
5.3359798
20
77.0931117
11
5.7616619
21
77.2529433
0
LINE
8
DEFAULT_255_1_234
10
5.7616619
20
77.2529433
11
5.784954
21
77.2529433
0
LINE
8
DEFAULT_255_1_234
10
6.7086039
20
77.2529433
11
6.7086039
21
76.0779
0
LINE
8
DEFAULT_255_1_234
10
6.7086039
20
76.0779
11
6.5592135
21
76.0779
0
LINE
8
DEFAULT_255_1_234
10
6.5592135
20
76.0779
11
6.5592135
21
77.0682133
0
LINE
8
DEFAULT_255_1_234
10
6.5592135
20
77.0682133
11
6.2596297
21
76.9581785
0
LINE
8
DEFAULT_255_1_234
10
6.2596297
20
76.9581785
11
6.2596297
21
77.0931117
0
LINE
8
DEFAULT_255_1_234
10
6.2596297
20
77.0931117
11
6.6853118
21
77.2529433
0
LINE
8
DEFAULT_255_1_234
10
6.6853118
20
77.2529433
11
6.7086039
21
77.2529433
0
LINE
8
DEFAULT_255_1_234
10
5.0274293
20
84.0154
11
4.9157881
21
84.3206061
0
LINE
8
DEFAULT_255_1_234
10
4.9157881
20
84.3206061
11
4.4258521
21
84.3206061
0
LINE
8
DEFAULT_255_1_234
10
4.4258521
20
84.3206061
11
4.3158173
21
84.0154
0
LINE
8
DEFAULT_255_1_234
10
4.3158173
20
84.0154
11
4.1567889
21
84.0154
0
LINE
8
DEFAULT_255_1_234
10
4.1567889
20
84.0154
11
4.6033535
21
85.1848211
0
LINE
8
DEFAULT_255_1_234
10
4.6033535
20
85.1848211
11
4.7382867
21
85.1848211
0
LINE
8
DEFAULT_255_1_234
10
4.7382867
20
85.1848211
11
5.1856545
21
84.0154
0
LINE
8
DEFAULT_255_1_234
10
5.1856545
20
84.0154
11
5.0274293
21
84.0154
0
LINE
8
DEFAULT_255_1_234
10
4.6708201
20
84.9944689
11
4.4724362
21
84.4475075
0
LINE
8
DEFAULT_255_1_234
10
4.4724362
20
84.4475075
11
4.8700072
21
84.4475075
0
LINE
8
DEFAULT_255_1_234
10
4.8700072
20
84.4475075
11
4.6708201
21
84.9944689
0
LINE
8
DEFAULT_255_1_234
10
5.792854
20
85.1904433
11
5.792854
21
84.0154
0
LINE
8
DEFAULT_255_1_234
10
5.792854
20
84.0154
11
5.6434636
21
84.0154
0
LINE
8
DEFAULT_255_1_234
10
5.6434636
20
84.0154
11
5.6434636
21
85.0057133
0
LINE
8
DEFAULT_255_1_234
10
5.6434636
20
85.0057133
11
5.3438798
21
84.8956785
0
LINE
8
DEFAULT_255_1_234
10
5.3438798
20
84.8956785
11
5.3438798
21
85.0306117
0
LINE
8
DEFAULT_255_1_234
10
5.3438798
20
85.0306117
11
5.7695619
21
85.1904433
0
LINE
8
DEFAULT_255_1_234
10
5.7695619
20
85.1904433
11
5.792854
21
85.1904433
0
LINE
8
DEFAULT_255_1_234
10
6.9614719
20
84.7069327
11
6.9614719
21
84.5141709
0
LINE
8
DEFAULT_255_1_234
10
6.2233551
20
84.4940916
11
6.2233551
21
84.6924755
0
LINE
8
DEFAULT_255_1_234
10
6.8128847
20
84.4740123
11
6.8128847
21
84.7173739
0
LINE
8
DEFAULT_255_1_234
10
6.3719423
20
84.7286184
11
6.3719423
21
84.4908789
0
ARC
8
DEFAULT_255_1_234
10
5.7367608
20
84.5092805
40
1.2247208
50
353.8441951
51
0.2287902
0
ARC
8
DEFAULT_255_1_234
10
6.2007112
20
84.4574806
40
0.7578929
50
344.4934747
51
353.9765454
0
ARC
8
DEFAULT_255_1_234
10
6.4999702
20
84.3723981
40
0.4467846
50
329.2803592
51
344.7472793
0
ARC
8
DEFAULT_255_1_234
10
6.5992527
20
84.3179018
40
0.3336173
50
324.9352394
51
328.6160465
0
ARC
8
DEFAULT_255_1_234
10
6.6369636
20
84.2915427
40
0.2876076
50
280.580143
51
324.9173126
0
ARC
8
DEFAULT_255_1_234
10
6.5968428
20
84.4586099
40
0.4592847
50
269.5977311
51
281.6734359
0
ARC
8
DEFAULT_255_1_234
10
6.5896334
20
84.4466173
40
0.4472986
50
256.6228859
51
270.51044
0
ARC
8
DEFAULT_255_1_234
10
6.5494312
20
84.2917877
40
0.2873874
50
215.8618325
51
257.2788573
0
ARC
8
DEFAULT_255_1_234
10
6.6515343
20
84.3602977
40
0.4102928
50
197.9693508
51
215.2623606
0
ARC
8
DEFAULT_255_1_234
10
6.9000459
20
84.4441709
40
0.6725652
50
187.8816417
51
198.2346507
0
ARC
8
DEFAULT_255_1_234
10
7.2958667
20
84.5013079
40
1.0724845
50
180.8976217
51
188.0055519
0
ARC
8
DEFAULT_255_1_234
10
7.5758855
20
84.5116777
40
1.3526448
50
180.7449369
51
181.1510016
0
ARC
8
DEFAULT_255_1_234
10
7.4181584
20
84.6973042
40
1.1948131
50
173.7675579
51
180.231553
0
ARC
8
DEFAULT_255_1_234
10
6.9663731
20
84.7483666
40
0.7401564
50
164.3058563
51
173.9002247
0
ARC
8
DEFAULT_255_1_234
10
6.67518
20
84.8322656
40
0.4371288
50
148.7922025
51
164.568378
0
ARC
8
DEFAULT_255_1_234
10
6.5800252
20
84.8853929
40
0.3282386
50
144.5883898
51
148.1176286
0
ARC
8
DEFAULT_255_1_234
10
6.545715
20
84.9093315
40
0.2864044
50
101.6440918
51
144.514236
0
ARC
8
DEFAULT_255_1_234
10
6.5882217
20
84.7404069
40
0.4604934
50
89.5284041
51
102.5819763
0
ARC
8
DEFAULT_255_1_234
10
6.5961305
20
84.7365018
40
0.464401
50
77.0437873
51
90.5081339
0
ARC
8
DEFAULT_255_1_234
10
6.6363306
20
84.9007615
40
0.2953195
50
48.2778575
51
77.4994676
0
ARC
8
DEFAULT_255_1_234
10
6.6435938
20
84.9136746
40
0.2808655
50
36.3142134
51
47.6305865
0
ARC
8
DEFAULT_255_1_234
10
6.5567245
20
84.8551515
40
0.3855453
50
18.2931786
51
35.6769206
0
ARC
8
DEFAULT_255_1_234
10
6.3024003
20
84.7678593
40
0.654423
50
8.024666
51
18.5605216
0
ARC
8
DEFAULT_255_1_234
10
5.8860923
20
84.7063792
40
1.0752407
50
1.1274072
51
8.1718305
0
ARC
8
DEFAULT_255_1_234
10
5.5625114
20
84.6936885
40
1.3990231
50
0.5424119
51
1.3863029
0
ARC
8
DEFAULT_255_1_234
10
5.7446492
20
84.7209342
40
1.0682415
50
359.8090433
51
4.9407866
0
ARC
8
DEFAULT_255_1_234
10
6.1656506
20
84.7585113
40
0.6455691
50
4.8362157
51
12.2904523
0
ARC
8
DEFAULT_255_1_234
10
6.4411621
20
84.8198965
40
0.3633074
50
12.0805627
51
23.8173984
0
ARC
8
DEFAULT_255_1_234
10
6.5585326
20
84.8695919
40
0.2358723
50
24.2871213
51
31.3935614
0
ARC
8
DEFAULT_255_1_234
10
6.6110023
20
84.9039233
40
0.1732111
50
30.7407893
51
82.4657128
0
ARC
8
DEFAULT_255_1_234
10
6.5930157
20
84.8155691
40
0.263235
50
81.1060089
51
90.2184952
0
ARC
8
DEFAULT_255_1_234
10
6.5894456
20
84.8413924
40
0.2374236
50
89.3806855
51
105.6762551
0
ARC
8
DEFAULT_255_1_234
10
6.5711087
20
84.9080567
40
0.1682847
50
105.7981136
51
149.7388061
0
ARC
8
DEFAULT_255_1_234
10
6.6775165
20
84.844095
40
0.2924306
50
149.4208916
51
163.6286378
0
ARC
8
DEFAULT_255_1_234
10
6.8866053
20
84.780325
40
0.5110213
50
163.3763315
51
172.1410975
0
ARC
8
DEFAULT_255_1_234
10
7.2166772
20
84.7330518
40
0.8444586
50
172.0259487
51
178.0703232
0
ARC
8
DEFAULT_255_1_234
10
7.5196862
20
84.7186906
40
1.1477868
50
177.8631668
51
179.5044149
0
ARC
8
DEFAULT_255_1_234
10
7.4124266
20
84.4872389
40
1.0404907
50
179.7995573
51
185.2460446
0
ARC
8
DEFAULT_255_1_234
10
7.0081306
20
84.4489513
40
0.6343885
50
185.1411642
51
193.0079639
0
ARC
8
DEFAULT_255_1_234
10
6.7437778
20
84.3864641
40
0.3627568
50
192.7897626
51
205.2507664
0
ARC
8
DEFAULT_255_1_234
10
6.6391325
20
84.3397415
40
0.2481908
50
205.8005384
51
211.2537509
0
ARC
8
DEFAULT_255_1_234
10
6.5867766
20
84.304658
40
0.1852521
50
210.3789793
51
238.4008143
0
ARC
8
DEFAULT_255_1_234
10
6.5848287
20
84.3093376
40
0.1882621
50
239.6520629
51
265.9793761
0
ARC
8
DEFAULT_255_1_234
10
6.5933488
20
84.3765427
40
0.2559272
50
265.1315437
51
270.060332
0
ARC
8
DEFAULT_255_1_234
10
6.5962266
20
84.3441534
40
0.2235528
50
269.3314664
51
287.2178029
0
ARC
8
DEFAULT_255_1_234
10
6.6100118
20
84.2938279
40
0.1714108
50
287.7958004
51
329.080874
0
ARC
8
DEFAULT_255_1_234
10
6.5142575
20
84.353593
40
0.2842745
50
328.6634704
51
343.3325132
0
ARC
8
DEFAULT_255_1_234
10
6.2969595
20
84.4212863
40
0.5118644
50
343.0499468
51
351.9393422
0
ARC
8
DEFAULT_255_1_234
10
5.9502895
20
84.4723949
40
0.8622784
50
351.8069023
51
357.7959224
0
ARC
8
DEFAULT_255_1_234
10
5.6267451
20
84.4891721
40
1.1862365
50
357.5871873
51
359.2677531
0
LINE
8
DEFAULT_255_1_234
10
4.9677293
20
91.9529
11
4.8560881
21
92.2581061
0
LINE
8
DEFAULT_255_1_234
10
4.8560881
20
92.2581061
11
4.3661521
21
92.2581061
0
LINE
8
DEFAULT_255_1_234
10
4.3661521
20
92.2581061
11
4.2561173
21
91.9529
0
LINE
8
DEFAULT_255_1_234
10
4.2561173
20
91.9529
11
4.0970889
21
91.9529
0
LINE
8
DEFAULT_255_1_234
10
4.0970889
20
91.9529
11
4.5436535
21
93.1223211
0
LINE
8
DEFAULT_255_1_234
10
4.5436535
20
93.1223211
11
4.6785867
21
93.1223211
0
LINE
8
DEFAULT_255_1_234
10
4.6785867
20
93.1223211
11
5.1259545
21
91.9529
0
LINE
8
DEFAULT_255_1_234
10
5.1259545
20
91.9529
11
4.9677293
21
91.9529
0
LINE
8
DEFAULT_255_1_234
10
4.6111201
20
92.9319689
11
4.4127362
21
92.3850075
0
LINE
8
DEFAULT_255_1_234
10
4.4127362
20
92.3850075
11
4.8103072
21
92.3850075
0
LINE
8
DEFAULT_255_1_234
10
4.8103072
20
92.3850075
11
4.6111201
21
92.9319689
0
LINE
8
DEFAULT_255_1_234
10
5.9636648
20
92.6548739
11
5.9636648
21
92.6115025
0
LINE
8
DEFAULT_255_1_234
10
5.4215225
20
91.9520968
11
5.3926083
21
91.9520968
0
LINE
8
DEFAULT_255_1_234
10
5.3926083
20
91.9520968
11
5.3926083
21
92.0773919
0
LINE
8
DEFAULT_255_1_234
10
5.3926083
20
92.0773919
11
5.423932
21
92.0773919
0
LINE
8
DEFAULT_255_1_234
10
5.8150777
20
92.6259597
11
5.8150777
21
92.6853945
0
ARC
8
DEFAULT_255_1_234
10
5.5357046
20
92.7005403
40
0.3635579
50
297.4037347
51
320.016758
0
ARC
8
DEFAULT_255_1_234
10
5.5646995
20
92.644824
40
0.3007486
50
270.2633101
51
297.3851877
0
ARC
8
DEFAULT_255_1_234
10
5.5612951
20
92.6911904
40
0.3471448
50
269.9966443
51
270.7900392
0
ARC
8
DEFAULT_255_1_234
10
5.5587432
20
92.6910143
40
0.3469779
50
254.5999133
51
270.4180344
0
ARC
8
DEFAULT_255_1_234
10
5.5444792
20
92.6345647
40
0.2887697
50
236.4717942
51
254.3541279
0
ARC
8
DEFAULT_255_1_234
10
5.5601009
20
92.6555711
40
0.3149125
50
208.4727207
51
236.2134933
0
ARC
8
DEFAULT_255_1_234
10
5.6239784
20
92.6946455
40
0.3897115
50
204.3447514
51
209.0453999
0
ARC
8
DEFAULT_255_1_234
10
5.691936
20
92.7234656
40
0.4635101
50
183.9375985
51
204.1276318
0
ARC
8
DEFAULT_255_1_234
10
5.7827612
20
92.7332482
40
0.5548037
50
179.9652252
51
184.3013875
0
ARC
8
DEFAULT_255_1_234
10
5.7587658
20
92.7365507
40
0.5308164
50
166.7585989
51
180.3201225
0
ARC
8
DEFAULT_255_1_234
10
5.6741271
20
92.7549488
40
0.4442163
50
154.6955053
51
166.5679793
0
ARC
8
DEFAULT_255_1_234
10
5.5888141
20
92.797921
40
0.3487299
50
136.3324195
51
155.0871442
0
ARC
8
DEFAULT_255_1_234
10
5.5607214
20
92.8219954
40
0.3117924
50
121.236733
51
135.9680508
0
ARC
8
DEFAULT_255_1_234
10
5.5747712
20
92.7959743
40
0.3413302
50
96.845628
51
120.9881519
0
ARC
8
DEFAULT_255_1_234
10
5.5893294
20
92.7024515
40
0.4359341
50
89.8870174
51
97.2802754
0
ARC
8
DEFAULT_255_1_234
10
5.5945732
20
92.7662095
40
0.3722009
50
70.6505584
51
90.6749113
0
ARC
8
DEFAULT_255_1_234
10
5.6077011
20
92.8175361
40
0.3194571
50
36.7492984
51
69.8219918
0
ARC
8
DEFAULT_255_1_234
10
5.5078176
20
92.7396993
40
0.4460685
50
15.39587
51
37.0840084
0
ARC
8
DEFAULT_255_1_234
10
5.294861
20
92.6776242
40
0.6678714
50
3.9488873
51
15.6798563
0
ARC
8
DEFAULT_255_1_234
10
5.0547237
20
92.6559964
40
0.9089418
50
359.929245
51
4.2665314
0
ARC
8
DEFAULT_255_1_234
10
4.5941675
20
92.6048513
40
1.3695135
50
352.8366322
51
0.2782669
0
ARC
8
DEFAULT_255_1_234
10
5.1229353
20
92.5361629
40
0.8363105
50
341.8359505
51
352.9884176
0
ARC
8
DEFAULT_255_1_234
10
5.4448072
20
92.42767
40
0.4966642
50
322.8578092
51
342.1527901
0
ARC
8
DEFAULT_255_1_234
10
5.5312028
20
92.3687384
40
0.3922466
50
319.334325
51
322.0998941
0
ARC
8
DEFAULT_255_1_234
10
5.5002365
20
92.3998209
40
0.4360033
50
285.9541367
51
318.8878087
0
ARC
8
DEFAULT_255_1_234
10
5.4275626
20
92.63086
40
0.678149
50
272.9281676
51
286.4922826
0
ARC
8
DEFAULT_255_1_234
10
5.4085744
20
92.8559587
40
0.9039547
50
270.8207226
51
273.4012994
0
ARC
8
DEFAULT_255_1_234
10
5.4174595
20
92.6740666
40
0.5967098
50
270.6214993
51
281.4062806
0
ARC
8
DEFAULT_255_1_234
10
5.4604576
20
92.4684833
40
0.3866861
50
281.1852553
51
299.0621114
0
ARC
8
DEFAULT_255_1_234
10
5.4978148
20
92.3963798
40
0.3055236
50
299.5067782
51
313.1200873
0
ARC
8
DEFAULT_255_1_234
10
5.5000114
20
92.3884554
40
0.2982623
50
313.8526205
51
338.5989322
0
ARC
8
DEFAULT_255_1_234
10
5.3376188
20
92.4551781
40
0.4738131
50
338.2523585
51
351.2430902
0
ARC
8
DEFAULT_255_1_234
10
5.0965484
20
92.4961447
40
0.7183203
50
350.9409515
51
357.6691871
0
ARC
8
DEFAULT_255_1_234
10
5.5855914
20
92.6963764
40
0.2294452
50
269.9447023
51
306.8248917
0
ARC
8
DEFAULT_255_1_234
10
5.5618829
20
92.7386898
40
0.2775994
50
305.5072438
51
327.0773448
0
ARC
8
DEFAULT_255_1_234
10
5.573727
20
92.7292025
40
0.2625056
50
327.4104943
51
336.840169
0
ARC
8
DEFAULT_255_1_234
10
5.2643335
20
92.6886302
40
0.5507537
50
359.6633817
51
10.117533
0
ARC
8
DEFAULT_255_1_234
10
5.4397133
20
92.7210777
40
0.372403
50
9.9430141
51
26.7700076
0
ARC
8
DEFAULT_255_1_234
10
5.4994346
20
92.7486187
40
0.3066865
50
27.2015464
51
34.6829435
0
ARC
8
DEFAULT_255_1_234
10
5.5483826
20
92.7853977
40
0.245519
50
34.1250343
51
50.3070065
0
ARC
8
DEFAULT_255_1_234
10
5.5930505
20
92.8388385
40
0.1758693
50
50.3851167
51
90.6705993
0
ARC
8
DEFAULT_255_1_234
10
5.5883738
20
92.8083799
40
0.2063326
50
89.272901
51
111.9140407
0
ARC
8
DEFAULT_255_1_234
10
5.5864266
20
92.822444
40
0.1925887
50
112.9382311
51
142.5320782
0
ARC
8
DEFAULT_255_1_234
10
5.6410446
20
92.7780969
40
0.2629232
50
142.1021256
51
166.3835592
0
ARC
8
DEFAULT_255_1_234
10
5.7591752
20
92.7475915
40
0.3849193
50
166.1100289
51
178.665427
0
ARC
8
DEFAULT_255_1_234
10
5.8639341
20
92.7417117
40
0.4897989
50
178.2632126
51
180.0111093
0
ARC
8
DEFAULT_255_1_234
10
5.7837461
20
92.7388728
40
0.40962
50
179.6161962
51
191.8787166
0
ARC
8
DEFAULT_255_1_234
10
5.66173
20
92.7118896
40
0.2846655
50
191.6191692
51
215.2972286
0
ARC
8
DEFAULT_255_1_234
10
5.6420491
20
92.7003918
40
0.2619665
50
215.7320102
51
216.5355409
0
ARC
8
DEFAULT_255_1_234
10
5.5881578
20
92.6571647
40
0.1929497
50
215.7486685
51
239.9727502
0
ARC
8
DEFAULT_255_1_234
10
5.5811493
20
92.6520894
40
0.1850822
50
241.0650169
51
269.2810483
0
ARC
8
DEFAULT_255_1_234
10
5.5853408
20
92.7011371
40
0.2342059
50
268.4062526
51
270.0071348
0
LINE
8
DEFAULT_255_1_234
10
4.9677293
20
99.8904
11
4.8560881
21
100.1956061
0
LINE
8
DEFAULT_255_1_234
10
4.8560881
20
100.1956061
11
4.3661521
21
100.1956061
0
LINE
8
DEFAULT_255_1_234
10
4.3661521
20
100.1956061
11
4.2561173
21
99.8904
0
LINE
8
DEFAULT_255_1_234
10
4.2561173
20
99.8904
11
4.0970889
21
99.8904
0
LINE
8
DEFAULT_255_1_234
10
4.0970889
20
99.8904
11
4.5436535
21
101.0598211
0
LINE
8
DEFAULT_255_1_234
10
4.5436535
20
101.0598211
11
4.6785867
21
101.0598211
0
LINE
8
DEFAULT_255_1_234
10
4.6785867
20
101.0598211
11
5.1259545
21
99.8904
0
LINE
8
DEFAULT_255_1_234
10
5.1259545
20
99.8904
11
4.9677293
21
99.8904
0
LINE
8
DEFAULT_255_1_234
10
4.6111201
20
100.8694689
11
4.4127362
21
100.3225075
0
LINE
8
DEFAULT_255_1_234
10
4.4127362
20
100.3225075
11
4.8103072
21
100.3225075
0
LINE
8
DEFAULT_255_1_234
10
4.8103072
20
100.3225075
11
4.6111201
21
100.8694689
0
ARC
8
DEFAULT_255_1_234
10
5.6718026
20
100.7520703
40
0.2822356
50
338.8763615
51
0.5166041
0
ARC
8
DEFAULT_255_1_234
10
5.6886681
20
100.7475208
40
0.2648703
50
325.8412414
51
338.4795939
0
ARC
8
DEFAULT_255_1_234
10
5.6496048
20
100.7746042
40
0.3124019
50
296.7586019
51
325.753654
0
ARC
8
DEFAULT_255_1_234
10
5.6208157
20
100.8230789
40
0.368668
50
296.0902311
51
297.3618122
0
ARC
8
DEFAULT_255_1_234
10
5.6465614
20
100.1676041
40
0.3518806
50
47.9009248
51
67.1946869
0
ARC
8
DEFAULT_255_1_234
10
5.6661856
20
100.1922395
40
0.320451
50
35.236241
51
47.551371
0
ARC
8
DEFAULT_255_1_234
10
5.6923474
20
100.2096993
40
0.2890103
50
359.2759738
51
35.4014081
0
ARC
8
DEFAULT_255_1_234
10
5.6178505
20
100.2023826
40
0.3635026
50
343.1294516
51
0.5776525
0
ARC
8
DEFAULT_255_1_234
10
5.690305
20
100.182433
40
0.2883832
50
310.8497458
51
342.744803
0
ARC
8
DEFAULT_255_1_234
10
5.6485164
20
100.2301294
40
0.3517954
50
281.5473923
51
310.9169905
0
ARC
8
DEFAULT_255_1_234
10
5.6128613
20
100.3854084
40
0.5110832
50
269.6192722
51
281.9789957
0
ARC
8
DEFAULT_255_1_234
10
5.6056402
20
100.3854828
40
0.5111606
50
257.4584469
51
270.4287458
0
ARC
8
DEFAULT_255_1_234
10
5.5675545
20
100.2251344
40
0.3463762
50
228.7553743
51
257.8484423
0
ARC
8
DEFAULT_255_1_234
10
5.5365743
20
100.1878442
40
0.297916
50
184.0104442
51
228.5071787
0
ARC
8
DEFAULT_255_1_234
10
5.6528687
20
100.2055512
40
0.4152734
50
179.9315461
51
185.3254504
0
ARC
8
DEFAULT_255_1_234
10
5.5352333
20
100.2092992
40
0.2976554
50
145.6795913
51
180.6259649
0
ARC
8
DEFAULT_255_1_234
10
5.5515682
20
100.1978929
40
0.3175776
50
115.5537925
51
145.6416199
0
ARC
8
DEFAULT_255_1_234
10
5.5856613
20
100.1368028
40
0.3874232
50
113.2437915
51
116.2054627
0
ARC
8
DEFAULT_255_1_234
10
5.5703825
20
100.776658
40
0.3154751
50
222.9548379
51
244.1372485
0
ARC
8
DEFAULT_255_1_234
10
5.5581901
20
100.7629834
40
0.2972382
50
213.3439227
51
222.6271327
0
ARC
8
DEFAULT_255_1_234
10
5.5389835
20
100.7499308
40
0.274019
50
180.4316517
51
213.2713999
0
ARC
8
DEFAULT_255_1_234
10
5.5964836
20
100.754611
40
0.33158
50
179.9992944
51
181.1655061
0
ARC
8
DEFAULT_255_1_234
10
5.6374253
20
100.7580561
40
0.3725376
50
164.6186108
51
180.5292368
0
ARC
8
DEFAULT_255_1_234
10
5.5476116
20
100.7822101
40
0.2795349
50
132.2454369
51
164.5092287
0
ARC
8
DEFAULT_255_1_234
10
5.576322
20
100.7497028
40
0.3229019
50
100.7052766
51
132.1387266
0
ARC
8
DEFAULT_255_1_234
10
5.6068193
20
100.6119086
40
0.4639835
50
89.6732617
51
101.2449487
0
ARC
8
DEFAULT_255_1_234
10
5.6130391
20
100.629399
40
0.4464999
50
76.2876631
51
90.4586123
0
ARC
8
DEFAULT_255_1_234
10
5.6436622
20
100.751622
40
0.3205023
50
47.8240157
51
76.4266918
0
ARC
8
DEFAULT_255_1_234
10
5.6659172
20
100.777659
40
0.2862661
50
6.9168658
51
47.6261438
0
ARC
8
DEFAULT_255_1_234
10
5.5472575
20
100.755737
40
0.4067708
50
359.8419705
51
7.9694496
0
ARC
8
DEFAULT_255_1_234
10
5.5814472
20
100.2116925
40
0.2513121
50
359.4454068
51
16.9256425
0
ARC
8
DEFAULT_255_1_234
10
5.6283283
20
100.2246033
40
0.2027071
50
17.292259
51
45.462717
0
ARC
8
DEFAULT_255_1_234
10
5.6229219
20
100.2199434
40
0.2098212
50
45.3028762
51
83.1921472
0
ARC
8
DEFAULT_255_1_234
10
5.6085903
20
100.1397895
40
0.2911472
50
82.2614531
51
90.143954
0
ARC
8
DEFAULT_255_1_234
10
5.6055023
20
100.163095
40
0.2678513
50
89.4959189
51
104.8579811
0
ARC
8
DEFAULT_255_1_234
10
5.5878282
20
100.230089
40
0.1985654
50
104.8855873
51
135.2448349
0
ARC
8
DEFAULT_255_1_234
10
5.5928055
20
100.2256336
40
0.2052373
50
135.3398955
51
172.104394
0
ARC
8
DEFAULT_255_1_234
10
5.6735113
20
100.2101925
40
0.2873299
50
171.2651929
51
180.1859362
0
ARC
8
DEFAULT_255_1_234
10
5.6565814
20
100.2069733
40
0.2704083
50
179.515471
51
193.6466734
0
ARC
8
DEFAULT_255_1_234
10
5.5749583
20
100.1861777
40
0.1861855
50
193.3540587
51
225.8256931
0
ARC
8
DEFAULT_255_1_234
10
5.5790341
20
100.1932524
40
0.1941102
50
226.418029
51
255.8553723
0
ARC
8
DEFAULT_255_1_234
10
5.6046773
20
100.2868998
40
0.2911917
50
255.4655572
51
268.7985967
0
ARC
8
DEFAULT_255_1_234
10
5.6093965
20
100.3707491
40
0.3751331
50
268.3464808
51
270.0104874
0
ARC
8
DEFAULT_255_1_234
10
5.6117353
20
100.3023138
40
0.3067064
50
269.575914
51
282.0823146
0
ARC
8
DEFAULT_255_1_234
10
5.6342262
20
100.2028803
40
0.2047712
50
281.7522535
51
306.6056425
0
ARC
8
DEFAULT_255_1_234
10
5.6440689
20
100.1867487
40
0.1859604
50
307.1350025
51
314.0277951
0
ARC
8
DEFAULT_255_1_234
10
5.6404773
20
100.1893766
40
0.1903475
50
314.2553419
51
350.169324
0
ARC
8
DEFAULT_255_1_234
10
5.5553241
20
100.2078409
40
0.2774269
50
349.4145679
51
0.2930737
0
ARC
8
DEFAULT_255_1_234
10
5.6073674
20
100.7237353
40
0.2300764
50
89.477591
51
105.729794
0
ARC
8
DEFAULT_255_1_234
10
5.5937588
20
100.7742637
40
0.1777519
50
105.922966
51
135.1662921
0
ARC
8
DEFAULT_255_1_234
10
5.595809
20
100.7728419
40
0.1802087
50
135.3053131
51
168.9882338
0
ARC
8
DEFAULT_255_1_234
10
5.6785663
20
100.7538721
40
0.2650806
50
168.3802067
51
180.3602358
0
ARC
8
DEFAULT_255_1_234
10
5.6557242
20
100.7501041
40
0.2422425
50
179.5029707
51
194.9126783
0
ARC
8
DEFAULT_255_1_234
10
5.5971903
20
100.734711
40
0.1817188
50
194.9722181
51
224.1943972
0
ARC
8
DEFAULT_255_1_234
10
5.594377
20
100.7324169
40
0.1781027
50
224.2961434
51
262.0157375
0
ARC
8
DEFAULT_255_1_234
10
5.6086013
20
100.8055661
40
0.2525492
50
261.1250369
51
270.1959853
0
ARC
8
DEFAULT_255_1_234
10
5.6115768
20
100.7868339
40
0.233825
50
269.4825617
51
285.0988277
0
ARC
8
DEFAULT_255_1_234
10
5.6269927
20
100.728999
40
0.1739712
50
285.1585659
51
315.9484648
0
ARC
8
DEFAULT_255_1_234
10
5.6180939
20
100.7371886
40
0.1860616
50
316.0412958
51
351.9162715
0
ARC
8
DEFAULT_255_1_234
10
5.5447894
20
100.7513245
40
0.2606517
50
351.1056823
51
0.1936567
0
ARC
8
DEFAULT_255_1_234
10
5.5710723
20
100.7543369
40
0.234377
50
359.4789506
51
16.0679113
0
ARC
8
DEFAULT_255_1_234
10
5.6186682
20
100.767181
40
0.1850875
50
16.3251951
51
44.791304
0
ARC
8
DEFAULT_255_1_234
10
5.6168963
20
100.7672339
40
0.186312
50
44.3958661
51
88.2498933
0
ARC
8
DEFAULT_255_1_234
10
5.6095517
20
100.7061154
40
0.2476868
50
86.9833827
51
90.0200148
0
LINE
8
DEFAULT_255_1_234
10
4.9677293
20
107.8279
11
4.8560881
21
108.1331061
0
LINE
8
DEFAULT_255_1_234
10
4.8560881
20
108.1331061
11
4.3661521
21
108.1331061
0
LINE
8
DEFAULT_255_1_234
10
4.3661521
20
108.1331061
11
4.2561173
21
107.8279
0
LINE
8
DEFAULT_255_1_234
10
4.2561173
20
107.8279
11
4.0970889
21
107.8279
0
LINE
8
DEFAULT_255_1_234
10
4.0970889
20
107.8279
11
4.5436535
21
108.9973211
0
LINE
8
DEFAULT_255_1_234
10
4.5436535
20
108.9973211
11
4.6785867
21
108.9973211
0
LINE
8
DEFAULT_255_1_234
10
4.6785867
20
108.9973211
11
5.1259545
21
107.8279
0
LINE
8
DEFAULT_255_1_234
10
5.1259545
20
107.8279
11
4.9677293
21
107.8279
0
LINE
8
DEFAULT_255_1_234
10
4.6111201
20
108.8069689
11
4.4127362
21
108.2600075
0
LINE
8
DEFAULT_255_1_234
10
4.4127362
20
108.2600075
11
4.8103072
21
108.2600075
0
LINE
8
DEFAULT_255_1_234
10
4.8103072
20
108.2600075
11
4.6111201
21
108.8069689
0
LINE
8
DEFAULT_255_1_234
10
5.9998077
20
108.9973211
11
5.9998077
21
108.913791
0
LINE
8
DEFAULT_255_1_234
10
5.9998077
20
108.913791
11
5.5154938
21
107.8279
0
LINE
8
DEFAULT_255_1_234
10
5.5154938
20
107.8279
11
5.3596781
21
107.8279
0
LINE
8
DEFAULT_255_1_234
10
5.3596781
20
107.8279
11
5.8423856
21
108.8752387
0
LINE
8
DEFAULT_255_1_234
10
5.8423856
20
108.8752387
11
5.2094846
21
108.8752387
0
LINE
8
DEFAULT_255_1_234
10
5.2094846
20
108.8752387
11
5.2094846
21
108.9973211
0
LINE
8
DEFAULT_255_1_234
10
5.2094846
20
108.9973211
11
5.9998077
21
108.9973211
0
LINE
8
DEFAULT_255_1_234
10
4.9677293
20
115.7654
11
4.8560881
21
116.0706061
0
LINE
8
DEFAULT_255_1_234
10
4.8560881
20
116.0706061
11
4.3661521
21
116.0706061
0
LINE
8
DEFAULT_255_1_234
10
4.3661521
20
116.0706061
11
4.2561173
21
115.7654
0
LINE
8
DEFAULT_255_1_234
10
4.2561173
20
115.7654
11
4.0970889
21
115.7654
0
LINE
8
DEFAULT_255_1_234
10
4.0970889
20
115.7654
11
4.5436535
21
116.9348211
0
LINE
8
DEFAULT_255_1_234
10
4.5436535
20
116.9348211
11
4.6785867
21
116.9348211
0
LINE
8
DEFAULT_255_1_234
10
4.6785867
20
116.9348211
11
5.1259545
21
115.7654
0
LINE
8
DEFAULT_255_1_234
10
5.1259545
20
115.7654
11
4.9677293
21
115.7654
0
LINE
8
DEFAULT_255_1_234
10
4.6111201
20
116.7444689
11
4.4127362
21
116.1975075
0
LINE
8
DEFAULT_255_1_234
10
4.4127362
20
116.1975075
11
4.8103072
21
116.1975075
0
LINE
8
DEFAULT_255_1_234
10
4.8103072
20
116.1975075
11
4.6111201
21
116.7444689
0
LINE
8
DEFAULT_255_1_234
10
5.8014237
20
116.9356243
11
5.8279285
21
116.9356243
0
LINE
8
DEFAULT_255_1_234
10
5.8279285
20
116.9356243
11
5.8279285
21
116.809526
0
LINE
8
DEFAULT_255_1_234
10
5.8279285
20
116.809526
11
5.8006206
21
116.809526
0
LINE
8
DEFAULT_255_1_234
10
5.2536592
20
116.2103583
11
5.2536592
21
116.2673836
0
LINE
8
DEFAULT_255_1_234
10
5.4030495
20
116.2481075
11
5.4030495
21
116.1934917
0
ARC
8
DEFAULT_255_1_234
10
5.8058553
20
116.3097455
40
0.4998079
50
90.6001036
51
104.514704
0
ARC
8
DEFAULT_255_1_234
10
5.7670069
20
116.4542131
40
0.3502176
50
104.2855254
51
133.862935
0
ARC
8
DEFAULT_255_1_234
10
5.7833826
20
116.443383
40
0.3693984
50
134.5302688
51
161.6210873
0
ARC
8
DEFAULT_255_1_234
10
5.9487015
20
116.3850895
40
0.5446739
50
161.2849839
51
174.2076652
0
ARC
8
DEFAULT_255_1_234
10
6.0893952
20
116.3656787
40
0.6866274
50
173.7810589
51
174.9254635
0
ARC
8
DEFAULT_255_1_234
10
5.6343784
20
116.2273839
40
0.3033419
50
95.8330959
51
138.9954921
0
ARC
8
DEFAULT_255_1_234
10
5.656714
20
116.0995375
40
0.4328947
50
89.8753725
51
97.0544009
0
ARC
8
DEFAULT_255_1_234
10
5.6614606
20
116.1830748
40
0.3493769
50
71.6407809
51
90.6240094
0
ARC
8
DEFAULT_255_1_234
10
5.676518
20
116.2385082
40
0.2920396
50
39.6367836
51
71.019018
0
ARC
8
DEFAULT_255_1_234
10
5.6128653
20
116.1834998
40
0.3761538
50
10.658731
51
39.9043955
0
ARC
8
DEFAULT_255_1_234
10
5.4580735
20
116.1498686
40
0.5345136
50
359.682601
51
11.132623
0
ARC
8
DEFAULT_255_1_234
10
5.4540866
20
116.142801
40
0.5385081
50
347.2486944
51
0.4369317
0
ARC
8
DEFAULT_255_1_234
10
5.6208343
20
116.1026807
40
0.3670249
50
318.1409698
51
347.6118597
0
ARC
8
DEFAULT_255_1_234
10
5.6533336
20
116.0759702
40
0.3250007
50
275.6342139
51
317.8248465
0
ARC
8
DEFAULT_255_1_234
10
5.6312448
20
116.2059219
40
0.4565864
50
269.8874292
51
276.7917694
0
ARC
8
DEFAULT_255_1_234
10
5.6257518
20
116.1033743
40
0.3540676
50
246.9140195
51
270.7437342
0
ARC
8
DEFAULT_255_1_234
10
5.6263909
20
116.0891384
40
0.3412781
50
218.1665114
51
245.878116
0
ARC
8
DEFAULT_255_1_234
10
5.7143369
20
116.1627279
40
0.455911
50
191.4115814
51
218.6077802
0
ARC
8
DEFAULT_255_1_234
10
5.9081459
20
116.2061833
40
0.6545001
50
179.6345085
51
191.7836486
0
ARC
8
DEFAULT_255_1_234
10
6.4663795
20
116.2740697
40
1.2127388
50
171.4525249
51
180.3158839
0
ARC
8
DEFAULT_255_1_234
10
6.0268671
20
116.3424608
40
0.7679464
50
157.9802646
51
171.6246686
0
ARC
8
DEFAULT_255_1_234
10
5.8054692
20
116.4307421
40
0.5296008
50
141.4298019
51
157.854097
0
ARC
8
DEFAULT_255_1_234
10
5.7413013
20
116.4761381
40
0.4511509
50
102.8715806
51
140.8564722
0
ARC
8
DEFAULT_255_1_234
10
5.8060628
20
116.2321552
40
0.7034845
50
90.3778349
51
103.5869322
0
ARC
8
DEFAULT_255_1_234
10
5.6322404
20
116.171673
40
0.2370698
50
89.8751008
51
126.2071704
0
ARC
8
DEFAULT_255_1_234
10
5.6368194
20
116.1562303
40
0.2522934
50
124.9745049
51
144.895901
0
ARC
8
DEFAULT_255_1_234
10
5.6192385
20
116.170556
40
0.2296779
50
145.2974905
51
160.2660252
0
ARC
8
DEFAULT_255_1_234
10
5.9264923
20
116.1903071
40
0.5234525
50
179.6514266
51
190.2855912
0
ARC
8
DEFAULT_255_1_234
10
5.7571061
20
116.1583786
40
0.3510893
50
190.0945431
51
207.5098196
0
ARC
8
DEFAULT_255_1_234
10
5.700533
20
116.1314623
40
0.288489
50
207.9583163
51
216.3251085
0
ARC
8
DEFAULT_255_1_234
10
5.6665438
20
116.1035105
40
0.2445587
50
215.7661442
51
232.5456785
0
ARC
8
DEFAULT_255_1_234
10
5.6282421
20
116.0548482
40
0.1826382
50
232.8005391
51
270.6605633
0
ARC
8
DEFAULT_255_1_234
10
5.6328122
20
116.0912612
40
0.2190529
50
269.35537
51
288.4744281
0
ARC
8
DEFAULT_255_1_234
10
5.6421019
20
116.0563118
40
0.1829749
50
289.1833337
51
322.9683818
0
ARC
8
DEFAULT_255_1_234
10
5.5809542
20
116.1045391
40
0.2608399
50
322.6007884
51
346.5182367
0
ARC
8
DEFAULT_255_1_234
10
5.4652137
20
116.1340616
40
0.3802777
50
346.2582162
51
358.7741648
0
ARC
8
DEFAULT_255_1_234
10
5.3633806
20
116.1395965
40
0.4822176
50
358.3755224
51
0.0098023
0
ARC
8
DEFAULT_255_1_234
10
5.4389994
20
116.1423657
40
0.4066078
50
359.6214041
51
11.2839074
0
ARC
8
DEFAULT_255_1_234
10
5.566714
20
116.1690066
40
0.2761514
50
11.0482309
51
31.8146458
0
ARC
8
DEFAULT_255_1_234
10
5.5976183
20
116.1857584
40
0.2410679
50
32.3035391
51
38.082671
0
ARC
8
DEFAULT_255_1_234
10
5.6396843
20
116.2238662
40
0.1844966
50
36.825067
51
85.7415724
0
ARC
8
DEFAULT_255_1_234
10
5.6329677
20
116.1738301
40
0.2349122
50
85.0140713
51
90.0513278
0
LINE
8
DEFAULT_255_1_234
10
4.9677293
20
123.7029
11
4.8560881
21
124.0081061
0
LINE
8
DEFAULT_255_1_234
10
4.8560881
20
124.0081061
11
4.3661521
21
124.0081061
0
LINE
8
DEFAULT_255_1_234
10
4.3661521
20
124.0081061
11
4.2561173
21
123.7029
0
LINE
8
DEFAULT_255_1_234
10
4.2561173
20
123.7029
11
4.0970889
21
123.7029
0
LINE
8
DEFAULT_255_1_234
10
4.0970889
20
123.7029
11
4.5436535
21
124.8723211
0
LINE
8
DEFAULT_255_1_234
10
4.5436535
20
124.8723211
11
4.6785867
21
124.8723211
0
LINE
8
DEFAULT_255_1_234
10
4.6785867
20
124.8723211
11
5.1259545
21
123.7029
0
LINE
8
DEFAULT_255_1_234
10
5.1259545
20
123.7029
11
4.9677293
21
123.7029
0
LINE
8
DEFAULT_255_1_234
10
4.6111201
20
124.6819689
11
4.4127362
21
124.1350075
0
LINE
8
DEFAULT_255_1_234
10
4.4127362
20
124.1350075
11
4.8103072
21
124.1350075
0
LINE
8
DEFAULT_255_1_234
10
4.8103072
20
124.1350075
11
4.6111201
21
124.6819689
0
LINE
8
DEFAULT_255_1_234
10
5.4319638
20
124.2586963
11
5.313094
21
124.2892169
0
LINE
8
DEFAULT_255_1_234
10
5.313094
20
124.2892169
11
5.3725289
21
124.8723211
0
LINE
8
DEFAULT_255_1_234
10
5.3725289
20
124.8723211
11
5.9716966
21
124.8723211
0
LINE
8
DEFAULT_255_1_234
10
5.9716966
20
124.8723211
11
5.9716966
21
124.7349784
0
LINE
8
DEFAULT_255_1_234
10
5.9716966
20
124.7349784
11
5.4986272
21
124.7349784
0
LINE
8
DEFAULT_255_1_234
10
5.4986272
20
124.7349784
11
5.4632875
21
124.4161184
0
LINE
8
DEFAULT_255_1_234
10
5.271329
20
124.0105156
11
5.4118844
21
124.0105156
0
LINE
8
DEFAULT_255_1_234
10
5.4713193
20
124.2908232
11
5.4319638
21
124.2586963
0
ARC
8
DEFAULT_255_1_234
10
5.6487659
20
124.098123
40
0.3681349
50
93.7182161
51
120.2538958
0
ARC
8
DEFAULT_255_1_234
10
5.6581922
20
124.0173394
40
0.449379
50
89.9660152
51
94.2496022
0
ARC
8
DEFAULT_255_1_234
10
5.6622656
20
124.0762549
40
0.390482
50
73.8043271
51
90.5585896
0
ARC
8
DEFAULT_255_1_234
10
5.6857553
20
124.1620602
40
0.3015334
50
41.3071453
51
73.5430202
0
ARC
8
DEFAULT_255_1_234
10
5.6441381
20
124.1262324
40
0.3564457
50
13.5075983
51
41.2174222
0
ARC
8
DEFAULT_255_1_234
10
5.4799584
20
124.0832486
40
0.5261351
50
1.1331335
51
13.8829381
0
ARC
8
DEFAULT_255_1_234
10
5.3387953
20
124.0756665
40
0.6674378
50
359.9919444
51
1.544251
0
ARC
8
DEFAULT_255_1_234
10
5.466478
20
124.071528
40
0.5397702
50
347.8572367
51
0.4293338
0
ARC
8
DEFAULT_255_1_234
10
5.6415097
20
124.0318736
40
0.3603188
50
323.673004
51
348.1672506
0
ARC
8
DEFAULT_255_1_234
10
5.6709605
20
124.0139168
40
0.3259678
50
316.8171152
51
323.1492751
0
ARC
8
DEFAULT_255_1_234
10
5.6770794
20
124.010246
40
0.3189975
50
281.8396411
51
316.5457803
0
ARC
8
DEFAULT_255_1_234
10
5.6395058
20
124.1657762
40
0.4789527
50
269.5770101
51
282.4214771
0
ARC
8
DEFAULT_255_1_234
10
5.632387
20
124.1444125
40
0.45759
50
256.2427136
51
270.4486331
0
ARC
8
DEFAULT_255_1_234
10
5.6024772
20
124.0244229
40
0.3339303
50
228.9023911
51
256.3314342
0
ARC
8
DEFAULT_255_1_234
10
5.5951005
20
124.0127746
40
0.32031
50
193.753695
51
228.5271154
0
ARC
8
DEFAULT_255_1_234
10
5.7188959
20
124.04908
40
0.4492253
50
184.924711
51
194.497588
0
ARC
8
DEFAULT_255_1_234
10
5.7381525
20
124.0526591
40
0.3289787
50
187.3600538
51
198.6732863
0
ARC
8
DEFAULT_255_1_234
10
5.6331819
20
124.0162674
40
0.217884
50
198.4451669
51
217.794479
0
ARC
8
DEFAULT_255_1_234
10
5.6035995
20
123.9953085
40
0.1816698
50
218.2887171
51
228.5612368
0
ARC
8
DEFAULT_255_1_234
10
5.6133782
20
124.0084963
40
0.1980329
50
228.9654866
51
258.1234728
0
ARC
8
DEFAULT_255_1_234
10
5.6339492
20
124.0965833
40
0.2884748
50
257.7258293
51
270.401361
0
ARC
8
DEFAULT_255_1_234
10
5.6384378
20
124.0520821
40
0.2439788
50
269.4204404
51
286.4209037
0
ARC
8
DEFAULT_255_1_234
10
5.6532865
20
123.9981657
40
0.1880666
50
286.7251356
51
320.600362
0
ARC
8
DEFAULT_255_1_234
10
5.614969
20
124.0292595
40
0.2374121
50
320.6712579
51
344.5441685
0
ARC
8
DEFAULT_255_1_234
10
5.4993017
20
124.0632045
40
0.3579479
50
344.2412205
51
356.7357071
0
ARC
8
DEFAULT_255_1_234
10
5.3744165
20
124.0735444
40
0.4832297
50
356.3548756
51
0.0500261
0
ARC
8
DEFAULT_255_1_234
10
5.5080674
20
124.076665
40
0.3495889
50
359.5576869
51
12.953486
0
ARC
8
DEFAULT_255_1_234
10
5.6135572
20
124.1022434
40
0.2410532
50
12.6490276
51
41.6081334
0
ARC
8
DEFAULT_255_1_234
10
5.6365943
20
124.1218321
40
0.2108218
50
41.7850273
51
85.9892764
0
ARC
8
DEFAULT_255_1_234
10
5.6242679
20
124.0405462
40
0.2928454
50
84.6957577
51
90.0676183
0
ARC
8
DEFAULT_255_1_234
10
5.6219163
20
123.9736716
40
0.3597255
50
89.6804936
51
99.1614436
0
ARC
8
DEFAULT_255_1_234
10
5.6013795
20
124.0964131
40
0.235281
50
98.9830931
51
113.8908934
0
ARC
8
DEFAULT_255_1_234
10
5.5784205
20
124.1505587
40
0.176479
50
114.1950727
51
127.3641004
0
LINE
8
DEFAULT_255_1_234
10
5.0735293
20
131.6404
11
4.9618881
21
131.9456061
0
LINE
8
DEFAULT_255_1_234
10
4.9618881
20
131.9456061
11
4.4719521
21
131.9456061
0
LINE
8
DEFAULT_255_1_234
10
4.4719521
20
131.9456061
11
4.3619173
21
131.6404
0
LINE
8
DEFAULT_255_1_234
10
4.3619173
20
131.6404
11
4.2028889
21
131.6404
0
LINE
8
DEFAULT_255_1_234
10
4.2028889
20
131.6404
11
4.6494535
21
132.8098211
0
LINE
8
DEFAULT_255_1_234
10
4.6494535
20
132.8098211
11
4.7843867
21
132.8098211
0
LINE
8
DEFAULT_255_1_234
10
4.7843867
20
132.8098211
11
5.2317545
21
131.6404
0
LINE
8
DEFAULT_255_1_234
10
5.2317545
20
131.6404
11
5.0735293
21
131.6404
0
LINE
8
DEFAULT_255_1_234
10
4.7169201
20
132.6194689
11
4.5185362
21
132.0725075
0
LINE
8
DEFAULT_255_1_234
10
4.5185362
20
132.0725075
11
4.9161072
21
132.0725075
0
LINE
8
DEFAULT_255_1_234
10
4.9161072
20
132.0725075
11
4.7169201
21
132.6194689
0
LINE
8
DEFAULT_255_1_234
10
5.977903
20
132.8098211
11
5.977903
21
132.033152
0
LINE
8
DEFAULT_255_1_234
10
5.977903
20
132.033152
11
6.1401441
21
132.033152
0
LINE
8
DEFAULT_255_1_234
10
6.1401441
20
132.033152
11
6.1401441
21
131.9118728
0
LINE
8
DEFAULT_255_1_234
10
6.1401441
20
131.9118728
11
5.977903
21
131.9118728
0
LINE
8
DEFAULT_255_1_234
10
5.977903
20
131.9118728
11
5.977903
21
131.6404
0
LINE
8
DEFAULT_255_1_234
10
5.977903
20
131.6404
11
5.8285127
21
131.6404
0
LINE
8
DEFAULT_255_1_234
10
5.8285127
20
131.6404
11
5.8285127
21
131.9118728
0
LINE
8
DEFAULT_255_1_234
10
5.8285127
20
131.9118728
11
5.2960084
21
131.9118728
0
LINE
8
DEFAULT_255_1_234
10
5.2960084
20
131.9118728
11
5.2960084
21
131.9994187
0
LINE
8
DEFAULT_255_1_234
10
5.2960084
20
131.9994187
11
5.8196778
21
132.8098211
0
LINE
8
DEFAULT_255_1_234
10
5.8196778
20
132.8098211
11
5.977903
21
132.8098211
0
LINE
8
DEFAULT_255_1_234
10
5.8108429
20
132.5744912
11
5.464675
21
132.033152
0
LINE
8
DEFAULT_255_1_234
10
5.464675
20
132.033152
11
5.8285127
21
132.033152
0
LINE
8
DEFAULT_255_1_234
10
5.8285127
20
132.033152
11
5.8285127
21
132.6066181
0
LINE
8
DEFAULT_255_1_234
10
5.8285127
20
132.6066181
11
5.8108429
21
132.5744912
0
LINE
8
DEFAULT_255_1_234
10
4.9677293
20
139.5779
11
4.8560881
21
139.8831061
0
LINE
8
DEFAULT_255_1_234
10
4.8560881
20
139.8831061
11
4.3661521
21
139.8831061
0
LINE
8
DEFAULT_255_1_234
10
4.3661521
20
139.8831061
11
4.2561173
21
139.5779
0
LINE
8
DEFAULT_255_1_234
10
4.2561173
20
139.5779
11
4.0970889
21
139.5779
0
LINE
8
DEFAULT_255_1_234
10
4.0970889
20
139.5779
11
4.5436535
21
140.7473211
0
LINE
8
DEFAULT_255_1_234
10
4.5436535
20
140.7473211
11
4.6785867
21
140.7473211
0
LINE
8
DEFAULT_255_1_234
10
4.6785867
20
140.7473211
11
5.1259545
21
139.5779
0
LINE
8
DEFAULT_255_1_234
10
5.1259545
20
139.5779
11
4.9677293
21
139.5779
0
LINE
8
DEFAULT_255_1_234
10
4.6111201
20
140.5569689
11
4.4127362
21
140.0100075
0
LINE
8
DEFAULT_255_1_234
10
4.4127362
20
140.0100075
11
4.8103072
21
140.0100075
0
LINE
8
DEFAULT_255_1_234
10
4.8103072
20
140.0100075
11
4.6111201
21
140.5569689
0
LINE
8
DEFAULT_255_1_234
10
5.460878
20
140.1136169
11
5.460878
21
140.2348962
0
LINE
8
DEFAULT_255_1_234
10
5.460878
20
140.2348962
11
5.5725192
21
140.2348962
0
LINE
8
DEFAULT_255_1_234
10
5.382167
20
140.4405087
11
5.2335798
21
140.4405087
0
LINE
8
DEFAULT_255_1_234
10
5.2231386
20
139.8863188
11
5.3725289
21
139.8863188
0
LINE
8
DEFAULT_255_1_234
10
5.5725192
20
140.1136169
11
5.460878
21
140.1136169
0
ARC
8
DEFAULT_255_1_234
10
5.5696058
20
140.5741713
40
0.3392876
50
270.4919872
51
281.8951556
0
ARC
8
DEFAULT_255_1_234
10
5.593732
20
140.4639702
40
0.2264817
50
281.6691735
51
301.2943132
0
ARC
8
DEFAULT_255_1_234
10
5.610753
20
140.4328304
40
0.1910381
50
301.7833094
51
311.7545298
0
ARC
8
DEFAULT_255_1_234
10
5.6199106
20
140.4226748
40
0.1773635
50
311.7323931
51
354.2802411
0
ARC
8
DEFAULT_255_1_234
10
5.5472731
20
140.4351722
40
0.2509385
50
353.0937916
51
0.1181479
0
ARC
8
DEFAULT_255_1_234
10
5.5011516
20
140.4399386
40
0.2970898
50
359.1805295
51
15.0453146
0
ARC
8
DEFAULT_255_1_234
10
5.6357353
20
140.4791992
40
0.1569564
50
13.9577229
51
77.6713066
0
ARC
8
DEFAULT_255_1_234
10
5.5970882
20
140.3406949
40
0.3006298
50
76.1116566
51
90.7026153
0
ARC
8
DEFAULT_255_1_234
10
5.5911721
20
140.3680545
40
0.2732568
50
89.5324876
51
103.531937
0
ARC
8
DEFAULT_255_1_234
10
5.5711165
20
140.4479884
40
0.1908508
50
103.2931773
51
133.5619022
0
ARC
8
DEFAULT_255_1_234
10
5.5666653
20
140.4539375
40
0.1834746
50
133.8349307
51
173.5344437
0
ARC
8
DEFAULT_255_1_234
10
5.6389696
20
140.4411213
40
0.2568033
50
172.5096846
51
180.1366907
0
ARC
8
DEFAULT_255_1_234
10
5.543859
20
140.4445622
40
0.3103056
50
155.3484492
51
180.7484736
0
ARC
8
DEFAULT_255_1_234
10
5.5389679
20
140.4416846
40
0.3070957
50
131.5744599
51
154.4798489
0
ARC
8
DEFAULT_255_1_234
10
5.5702827
20
140.410031
40
0.3515643
50
96.9875458
51
131.9690667
0
ARC
8
DEFAULT_255_1_234
10
5.5922306
20
140.2854636
40
0.4779224
50
89.8596053
51
97.7825159
0
ARC
8
DEFAULT_255_1_234
10
5.597037
20
140.2592616
40
0.5041361
50
78.3655447
51
90.4131539
0
ARC
8
DEFAULT_255_1_234
10
5.6328287
20
140.4251887
40
0.3344039
50
56.6229102
51
78.638727
0
ARC
8
DEFAULT_255_1_234
10
5.6543231
20
140.4627805
40
0.2912001
50
47.0253525
51
56.0854072
0
ARC
8
DEFAULT_255_1_234
10
5.6563011
20
140.4667223
40
0.2869704
50
10.9208013
51
46.7778124
0
ARC
8
DEFAULT_255_1_234
10
5.5199078
20
140.4351857
40
0.426899
50
359.6364486
51
11.6087304
0
ARC
8
DEFAULT_255_1_234
10
5.7033922
20
140.4336752
40
0.243409
50
332.3549906
51
359.7179418
0
ARC
8
DEFAULT_255_1_234
10
5.6383523
20
140.4645142
40
0.3153459
50
325.2333722
51
332.8745602
0
ARC
8
DEFAULT_255_1_234
10
5.6536147
20
140.4538828
40
0.2967456
50
292.9802137
51
325.2392345
0
ARC
8
DEFAULT_255_1_234
10
5.6261521
20
140.5072863
40
0.3566604
50
292.5402179
51
293.6924929
0
ARC
8
DEFAULT_255_1_234
10
5.6654117
20
139.8618091
40
0.3307468
50
57.6435486
51
72.8625112
0
ARC
8
DEFAULT_255_1_234
10
5.7008616
20
139.9192549
40
0.2632492
50
36.7248896
51
57.4697979
0
ARC
8
DEFAULT_255_1_234
10
5.6997249
20
139.920522
40
0.2634081
50
8.0545065
51
36.356114
0
ARC
8
DEFAULT_255_1_234
10
5.6134434
20
139.9050174
40
0.3510261
50
359.8320645
51
8.5869982
0
ARC
8
DEFAULT_255_1_234
10
5.5759211
20
139.9002101
40
0.3885653
50
343.9829931
51
0.5571613
0
ARC
8
DEFAULT_255_1_234
10
5.6645408
20
139.8759438
40
0.2966924
50
311.6359546
51
343.7651759
0
ARC
8
DEFAULT_255_1_234
10
5.6266977
20
139.9186102
40
0.3537231
50
279.7829875
51
311.6255694
0
ARC
8
DEFAULT_255_1_234
10
5.5965753
20
140.062328
40
0.5004971
50
269.7286406
51
280.3856417
0
ARC
8
DEFAULT_255_1_234
10
5.5903826
20
140.0581996
40
0.4963778
50
256.6828919
51
270.4412052
0
ARC
8
DEFAULT_255_1_234
10
5.5565122
20
139.9197394
40
0.3538406
50
229.4223008
51
256.8556159
0
ARC
8
DEFAULT_255_1_234
10
5.5150514
20
139.8730736
40
0.2914296
50
181.818294
51
229.6455059
0
ARC
8
DEFAULT_255_1_234
10
5.6190471
20
139.8861496
40
0.3959084
50
179.9755256
51
183.2323064
0
ARC
8
DEFAULT_255_1_234
10
5.6018216
20
139.8841037
40
0.2293034
50
179.4465117
51
196.2869258
0
ARC
8
DEFAULT_255_1_234
10
5.5530624
20
139.8707651
40
0.1787621
50
196.5661473
51
227.705904
0
ARC
8
DEFAULT_255_1_234
10
5.5694719
20
139.8891155
40
0.2033784
50
227.7652068
51
257.8762805
0
ARC
8
DEFAULT_255_1_234
10
5.5919689
20
139.9834156
40
0.3003081
50
257.4584385
51
270.426602
0
ARC
8
DEFAULT_255_1_234
10
5.5965256
20
140.0123996
40
0.329292
50
269.5962073
51
280.8789248
0
ARC
8
DEFAULT_255_1_234
10
5.6194784
20
139.8977685
40
0.2123908
50
280.6346389
51
299.8595945
0
ARC
8
DEFAULT_255_1_234
10
5.6385691
20
139.8615212
40
0.171457
50
300.3576302
51
314.5517981
0
ARC
8
DEFAULT_255_1_234
10
5.6302751
20
139.8675919
40
0.1816095
50
315.0728369
51
345.0431014
0
ARC
8
DEFAULT_255_1_234
10
5.5379566
20
139.8944841
40
0.2777492
50
344.5986631
51
357.9269593
0
ARC
8
DEFAULT_255_1_234
10
5.4483892
20
139.9006276
40
0.3674917
50
357.4748886
51
0.0231117
0
ARC
8
DEFAULT_255_1_234
10
5.5507001
20
139.9030679
40
0.2651907
50
359.5047933
51
13.4239635
0
ARC
8
DEFAULT_255_1_234
10
5.6373645
20
139.9252478
40
0.1757509
50
12.9498199
51
48.7551375
0
ARC
8
DEFAULT_255_1_234
10
5.6191379
20
139.90034
40
0.2065134
50
49.5088623
51
72.1836453
0
ARC
8
DEFAULT_255_1_234
10
5.5833531
20
139.7941291
40
0.3185836
50
71.9010081
51
84.3554254
0
ARC
8
DEFAULT_255_1_234
10
5.5672163
20
139.6580326
40
0.4556151
50
84.0193428
51
89.333121
0
LINE
8
DEFAULT_255_1_234
10
4.9677293
20
147.5154
11
4.8560881
21
147.8206061
0
LINE
8
DEFAULT_255_1_234
10
4.8560881
20
147.8206061
11
4.3661521
21
147.8206061
0
LINE
8
DEFAULT_255_1_234
10
4.3661521
20
147.8206061
11
4.2561173
21
147.5154
0
LINE
8
DEFAULT_255_1_234
10
4.2561173
20
147.5154
11
4.0970889
21
147.5154
0
LINE
8
DEFAULT_255_1_234
10
4.0970889
20
147.5154
11
4.5436535
21
148.6848211
0
LINE
8
DEFAULT_255_1_234
10
4.5436535
20
148.6848211
11
4.6785867
21
148.6848211
0
LINE
8
DEFAULT_255_1_234
10
4.6785867
20
148.6848211
11
5.1259545
21
147.5154
0
LINE
8
DEFAULT_255_1_234
10
5.1259545
20
147.5154
11
4.9677293
21
147.5154
0
LINE
8
DEFAULT_255_1_234
10
4.6111201
20
148.4944689
11
4.4127362
21
147.9475075
0
LINE
8
DEFAULT_255_1_234
10
4.4127362
20
147.9475075
11
4.8103072
21
147.9475075
0
LINE
8
DEFAULT_255_1_234
10
4.8103072
20
147.9475075
11
4.6111201
21
148.4944689
0
LINE
8
DEFAULT_255_1_234
10
6.0110521
20
147.6366792
11
6.0110521
21
147.5154
0
LINE
8
DEFAULT_255_1_234
10
6.0110521
20
147.5154
11
5.2448243
21
147.5154
0
LINE
8
DEFAULT_255_1_234
10
5.2448243
20
147.5154
11
5.2448243
21
147.6222221
0
LINE
8
DEFAULT_255_1_234
10
5.2448243
20
147.6222221
11
5.6496239
21
148.0719995
0
LINE
8
DEFAULT_255_1_234
10
5.3709226
20
148.3402595
11
5.2223354
21
148.3402595
0
LINE
8
DEFAULT_255_1_234
10
5.7371698
20
147.9764218
11
5.423932
21
147.6366792
0
LINE
8
DEFAULT_255_1_234
10
5.423932
20
147.6366792
11
6.0110521
21
147.6366792
0
ARC
8
DEFAULT_255_1_234
10
4.3006072
20
149.2649527
40
1.8008286
50
318.5132453
51
320.7828378
0
ARC
8
DEFAULT_255_1_234
10
4.8293047
20
148.8346426
40
1.1191493
50
320.7372736
51
323.9737074
0
ARC
8
DEFAULT_255_1_234
10
5.2212903
20
148.5506361
40
0.6350923
50
323.8961724
51
328.6421089
0
ARC
8
DEFAULT_255_1_234
10
5.4259498
20
148.4244031
40
0.3946393
50
328.8299013
51
331.789948
0
ARC
8
DEFAULT_255_1_234
10
5.5256677
20
148.3729509
40
0.2824501
50
331.4255242
51
352.9364833
0
ARC
8
DEFAULT_255_1_234
10
5.5393177
20
148.3698976
40
0.2685315
50
353.2248685
51
0.0169286
0
ARC
8
DEFAULT_255_1_234
10
5.5603054
20
148.372195
40
0.2475536
50
359.4866256
51
15.9339782
0
ARC
8
DEFAULT_255_1_234
10
5.611004
20
148.3858286
40
0.1950618
50
16.1714718
51
43.5284424
0
ARC
8
DEFAULT_255_1_234
10
5.6187348
20
148.3935573
40
0.184134
50
43.4415429
51
83.1661404
0
ARC
8
DEFAULT_255_1_234
10
5.6053266
20
148.3198771
40
0.258926
50
82.160215
51
90.1505798
0
ARC
8
DEFAULT_255_1_234
10
5.6021694
20
148.2661865
40
0.3126255
50
89.5460705
51
102.5418777
0
ARC
8
DEFAULT_255_1_234
10
5.577878
20
148.3692665
40
0.2067346
50
102.1739365
51
129.2061916
0
ARC
8
DEFAULT_255_1_234
10
5.5699852
20
148.3817094
40
0.1921118
50
129.7279328
51
135.7542026
0
ARC
8
DEFAULT_255_1_234
10
5.5821379
20
148.3720045
40
0.2075944
50
136.175737
51
166.3674722
0
ARC
8
DEFAULT_255_1_234
10
5.6828298
20
148.3450182
40
0.3118201
50
165.9092917
51
178.8683903
0
ARC
8
DEFAULT_255_1_234
10
5.769316
20
148.3403179
40
0.3983935
50
178.438168
51
180.0083905
0
ARC
8
DEFAULT_255_1_234
10
5.6291762
20
148.3442231
40
0.4068601
50
163.2878735
51
180.5581814
0
ARC
8
DEFAULT_255_1_234
10
5.5490023
20
148.366284
40
0.3237344
50
133.454115
51
162.9470031
0
ARC
8
DEFAULT_255_1_234
10
5.5668565
20
148.3473
40
0.349795
50
100.7869394
51
133.4384016
0
ARC
8
DEFAULT_255_1_234
10
5.6016336
20
148.1924319
40
0.5084616
50
89.6605301
51
101.3704185
0
ARC
8
DEFAULT_255_1_234
10
5.6082675
20
148.1985496
40
0.502348
50
78.2171172
51
90.4130393
0
ARC
8
DEFAULT_255_1_234
10
5.6437753
20
148.3609637
40
0.3361092
50
55.9268222
51
78.4888551
0
ARC
8
DEFAULT_255_1_234
10
5.6634193
20
148.3948324
40
0.2970617
50
47.9292255
51
55.4054003
0
ARC
8
DEFAULT_255_1_234
10
5.6735754
20
148.4051502
40
0.2825983
50
4.3347696
51
48.0560701
0
ARC
8
DEFAULT_255_1_234
10
5.5640148
20
148.3881601
40
0.393225
50
359.925209
51
5.5967654
0
ARC
8
DEFAULT_255_1_234
10
5.6069039
20
148.3937816
40
0.3503892
50
337.8914096
51
358.9967724
0
ARC
8
DEFAULT_255_1_234
10
5.3355451
20
148.4984706
40
0.6412172
50
326.9135351
51
338.3505194
0
ARC
8
DEFAULT_255_1_234
10
4.9369755
20
148.7539284
40
1.1146189
50
319.6472867
51
327.095818
0
ARC
8
DEFAULT_255_1_234
10
4.5536758
20
149.0701
40
1.6114559
50
317.2586784
51
319.9046139
0
LINE
8
DEFAULT_255_1_234
10
4.9589293
20
155.4529
11
4.8472881
21
155.7581061
0
LINE
8
DEFAULT_255_1_234
10
4.8472881
20
155.7581061
11
4.3573521
21
155.7581061
0
LINE
8
DEFAULT_255_1_234
10
4.3573521
20
155.7581061
11
4.2473173
21
155.4529
0
LINE
8
DEFAULT_255_1_234
10
4.2473173
20
155.4529
11
4.0882889
21
155.4529
0
LINE
8
DEFAULT_255_1_234
10
4.0882889
20
155.4529
11
4.5348535
21
156.6223211
0
LINE
8
DEFAULT_255_1_234
10
4.5348535
20
156.6223211
11
4.6697867
21
156.6223211
0
LINE
8
DEFAULT_255_1_234
10
4.6697867
20
156.6223211
11
5.1171545
21
155.4529
0
LINE
8
DEFAULT_255_1_234
10
5.1171545
20
155.4529
11
4.9589293
21
155.4529
0
LINE
8
DEFAULT_255_1_234
10
4.6023201
20
156.4319689
11
4.4039362
21
155.8850075
0
LINE
8
DEFAULT_255_1_234
10
4.4039362
20
155.8850075
11
4.8015072
21
155.8850075
0
LINE
8
DEFAULT_255_1_234
10
4.8015072
20
155.8850075
11
4.6023201
21
156.4319689
0
LINE
8
DEFAULT_255_1_234
10
5.724354
20
156.6279433
11
5.724354
21
155.4529
0
LINE
8
DEFAULT_255_1_234
10
5.724354
20
155.4529
11
5.5749636
21
155.4529
0
LINE
8
DEFAULT_255_1_234
10
5.5749636
20
155.4529
11
5.5749636
21
156.4432133
0
LINE
8
DEFAULT_255_1_234
10
5.5749636
20
156.4432133
11
5.2753798
21
156.3331785
0
LINE
8
DEFAULT_255_1_234
10
5.2753798
20
156.3331785
11
5.2753798
21
156.4681117
0
LINE
8
DEFAULT_255_1_234
10
5.2753798
20
156.4681117
11
5.7010619
21
156.6279433
0
LINE
8
DEFAULT_255_1_234
10
5.7010619
20
156.6279433
11
5.724354
21
156.6279433
0
LINE
8
DEFAULT_255_1_234
10
23.1643817
20
164.0819327
11
23.1643817
21
163.8891709
0
LINE
8
DEFAULT_255_1_234
10
22.426265
20
163.8690916
11
22.426265
21
164.0674755
0
LINE
8
DEFAULT_255_1_234
10
23.0157946
20
163.8490123
11
23.0157946
21
164.0923739
0
LINE
8
DEFAULT_255_1_234
10
22.5748521
20
164.1036184
11
22.5748521
21
163.8658789
0
ARC
8
DEFAULT_255_1_234
10
21.9396707
20
163.8842805
40
1.2247208
50
353.8441951
51
0.2287902
0
ARC
8
DEFAULT_255_1_234
10
22.4036211
20
163.8324806
40
0.7578929
50
344.4934747
51
353.9765454
0
ARC
8
DEFAULT_255_1_234
10
22.7028801
20
163.7473981
40
0.4467846
50
329.2803592
51
344.7472793
0
ARC
8
DEFAULT_255_1_234
10
22.8021626
20
163.6929018
40
0.3336173
50
324.9352394
51
328.6160465
0
ARC
8
DEFAULT_255_1_234
10
22.8398734
20
163.6665427
40
0.2876076
50
280.580143
51
324.9173126
0
ARC
8
DEFAULT_255_1_234
10
22.7997527
20
163.8336099
40
0.4592847
50
269.5977311
51
281.6734359
0
ARC
8
DEFAULT_255_1_234
10
22.7925433
20
163.8216173
40
0.4472986
50
256.6228859
51
270.51044
0
ARC
8
DEFAULT_255_1_234
10
22.752341
20
163.6667877
40
0.2873874
50
215.8618325
51
257.2788573
0
ARC
8
DEFAULT_255_1_234
10
22.8544442
20
163.7352977
40
0.4102928
50
197.9693508
51
215.2623606
0
ARC
8
DEFAULT_255_1_234
10
23.1029558
20
163.8191709
40
0.6725652
50
187.8816417
51
198.2346507
0
ARC
8
DEFAULT_255_1_234
10
23.4987766
20
163.8763079
40
1.0724845
50
180.8976217
51
188.0055519
0
ARC
8
DEFAULT_255_1_234
10
23.7787954
20
163.8866777
40
1.3526448
50
180.7449369
51
181.1510016
0
ARC
8
DEFAULT_255_1_234
10
23.6210683
20
164.0723042
40
1.1948131
50
173.7675579
51
180.231553
0
ARC
8
DEFAULT_255_1_234
10
23.169283
20
164.1233666
40
0.7401564
50
164.3058563
51
173.9002247
0
ARC
8
DEFAULT_255_1_234
10
22.8780899
20
164.2072656
40
0.4371288
50
148.7922025
51
164.568378
0
ARC
8
DEFAULT_255_1_234
10
22.7829351
20
164.2603929
40
0.3282386
50
144.5883898
51
148.1176286
0
ARC
8
DEFAULT_255_1_234
10
22.7486249
20
164.2843315
40
0.2864044
50
101.6440918
51
144.514236
0
ARC
8
DEFAULT_255_1_234
10
22.7911315
20
164.1154069
40
0.4604934
50
89.5284041
51
102.5819763
0
ARC
8
DEFAULT_255_1_234
10
22.7990403
20
164.1115018
40
0.464401
50
77.0437873
51
90.5081339
0
ARC
8
DEFAULT_255_1_234
10
22.8392405
20
164.2757615
40
0.2953195
50
48.2778575
51
77.4994676
0
ARC
8
DEFAULT_255_1_234
10
22.8465036
20
164.2886746
40
0.2808655
50
36.3142134
51
47.6305865
0
ARC
8
DEFAULT_255_1_234
10
22.7596343
20
164.2301515
40
0.3855453
50
18.2931786
51
35.6769206
0
ARC
8
DEFAULT_255_1_234
10
22.5053102
20
164.1428593
40
0.654423
50
8.024666
51
18.5605216
0
ARC
8
DEFAULT_255_1_234
10
22.0890022
20
164.0813792
40
1.0752407
50
1.1274072
51
8.1718305
0
ARC
8
DEFAULT_255_1_234
10
21.7654213
20
164.0686885
40
1.3990231
50
0.5424119
51
1.3863029
0
ARC
8
DEFAULT_255_1_234
10
21.947559
20
164.0959342
40
1.0682415
50
359.8090433
51
4.9407866
0
ARC
8
DEFAULT_255_1_234
10
22.3685604
20
164.1335113
40
0.6455691
50
4.8362157
51
12.2904523
0
ARC
8
DEFAULT_255_1_234
10
22.6440719
20
164.1948965
40
0.3633074
50
12.0805627
51
23.8173984
0
ARC
8
DEFAULT_255_1_234
10
22.7614425
20
164.2445919
40
0.2358723
50
24.2871213
51
31.3935614
0
ARC
8
DEFAULT_255_1_234
10
22.8139122
20
164.2789233
40
0.1732111
50
30.7407893
51
82.4657128
0
ARC
8
DEFAULT_255_1_234
10
22.7959256
20
164.1905691
40
0.263235
50
81.1060089
51
90.2184952
0
ARC
8
DEFAULT_255_1_234
10
22.7923555
20
164.2163924
40
0.2374236
50
89.3806855
51
105.6762551
0
ARC
8
DEFAULT_255_1_234
10
22.7740186
20
164.2830567
40
0.1682847
50
105.7981136
51
149.7388061
0
ARC
8
DEFAULT_255_1_234
10
22.8804264
20
164.219095
40
0.2924306
50
149.4208916
51
163.6286378
0
ARC
8
DEFAULT_255_1_234
10
23.0895152
20
164.155325
40
0.5110213
50
163.3763315
51
172.1410975
0
ARC
8
DEFAULT_255_1_234
10
23.4195871
20
164.1080518
40
0.8444586
50
172.0259487
51
178.0703232
0
ARC
8
DEFAULT_255_1_234
10
23.722596
20
164.0936906
40
1.1477868
50
177.8631668
51
179.5044149
0
ARC
8
DEFAULT_255_1_234
10
23.6153365
20
163.8622389
40
1.0404907
50
179.7995573
51
185.2460446
0
ARC
8
DEFAULT_255_1_234
10
23.2110404
20
163.8239513
40
0.6343885
50
185.1411642
51
193.0079639
0
ARC
8
DEFAULT_255_1_234
10
22.9466877
20
163.7614641
40
0.3627568
50
192.7897626
51
205.2507664
0
ARC
8
DEFAULT_255_1_234
10
22.8420424
20
163.7147415
40
0.2481908
50
205.8005384
51
211.2537509
0
ARC
8
DEFAULT_255_1_234
10
22.7896864
20
163.679658
40
0.1852521
50
210.3789793
51
238.4008143
0
ARC
8
DEFAULT_255_1_234
10
22.7877386
20
163.6843376
40
0.1882621
50
239.6520629
51
265.9793761
0
ARC
8
DEFAULT_255_1_234
10
22.7962586
20
163.7515427
40
0.2559272
50
265.1315437
51
270.060332
0
ARC
8
DEFAULT_255_1_234
10
22.7991365
20
163.7191534
40
0.2235528
50
269.3314664
51
287.2178029
0
ARC
8
DEFAULT_255_1_234
10
22.8129217
20
163.6688279
40
0.1714108
50
287.7958004
51
329.080874
0
ARC
8
DEFAULT_255_1_234
10
22.7171674
20
163.728593
40
0.2842745
50
328.6634704
51
343.3325132
0
ARC
8
DEFAULT_255_1_234
10
22.4998694
20
163.7962863
40
0.5118644
50
343.0499468
51
351.9393422
0
ARC
8
DEFAULT_255_1_234
10
22.1531994
20
163.8473949
40
0.8622784
50
351.8069023
51
357.7959224
0
ARC
8
DEFAULT_255_1_234
10
21.829655
20
163.8641721
40
1.1862365
50
357.5871873
51
359.2677531
0
LINE
8
DEFAULT_255_1_234
10
23.4479021
20
164.5598211
11
23.7804161
21
163.5952093
0
LINE
8
DEFAULT_255_1_234
10
23.7804161
20
163.5952093
11
24.1145364
21
164.5598211
0
LINE
8
DEFAULT_255_1_234
10
24.1145364
20
164.5598211
11
24.2832029
21
164.5598211
0
LINE
8
DEFAULT_255_1_234
10
24.2832029
20
164.5598211
11
23.849489
21
163.3904
0
LINE
8
DEFAULT_255_1_234
10
23.849489
20
163.3904
11
23.7129495
21
163.3904
0
LINE
8
DEFAULT_255_1_234
10
23.7129495
20
163.3904
11
23.2800388
21
164.5598211
0
LINE
8
DEFAULT_255_1_234
10
23.2800388
20
164.5598211
11
23.4479021
21
164.5598211
0
LINE
8
DEFAULT_255_1_234
10
21.9553392
20
4.6404
11
21.5497364
21
4.6404
0
LINE
8
DEFAULT_255_1_234
10
21.5497364
20
4.6404
11
21.5497364
21
5.8098211
0
LINE
8
DEFAULT_255_1_234
10
21.5497364
20
5.8098211
11
21.9320471
21
5.8098211
0
LINE
8
DEFAULT_255_1_234
10
21.9609614
20
5.1873614
11
21.7039458
21
5.1873614
0
LINE
8
DEFAULT_255_1_234
10
21.7039458
20
5.1873614
11
21.7039458
21
4.7664983
0
LINE
8
DEFAULT_255_1_234
10
21.7039458
20
4.7664983
11
21.9585519
21
4.7664983
0
LINE
8
DEFAULT_255_1_234
10
21.7039458
20
5.6829196
11
21.7039458
21
5.3110501
0
LINE
8
DEFAULT_255_1_234
10
21.7039458
20
5.3110501
11
21.9368662
21
5.3110501
0
LINE
8
DEFAULT_255_1_234
10
21.9320471
20
5.6829196
11
21.7039458
21
5.6829196
0
ARC
8
DEFAULT_255_1_234
10
21.935818
20
5.0730901
40
0.7367406
50
82.1257326
51
90.2932599
0
ARC
8
DEFAULT_255_1_234
10
21.9747135
20
5.3449013
40
0.4621653
50
69.9044149
51
82.2857423
0
ARC
8
DEFAULT_255_1_234
10
22.0317813
20
5.4991637
40
0.2976871
50
51.1838526
51
70.0181538
0
ARC
8
DEFAULT_255_1_234
10
22.0572779
20
5.536224
40
0.2528517
50
12.1017251
51
50.4214761
0
ARC
8
DEFAULT_255_1_234
10
21.9188653
20
5.5014676
40
0.3955061
50
359.5251267
51
12.8211707
0
ARC
8
DEFAULT_255_1_234
10
22.0768579
20
5.4945344
40
0.2375281
50
323.4908128
51
0.8817314
0
ARC
8
DEFAULT_255_1_234
10
22.0350266
20
5.526855
40
0.2903817
50
298.6825083
51
323.2756573
0
ARC
8
DEFAULT_255_1_234
10
21.9988629
20
5.5869649
40
0.3604842
50
293.1999386
51
299.1396394
0
ARC
8
DEFAULT_255_1_234
10
22.0661602
20
4.9784126
40
0.2871098
50
54.0011765
51
74.9167975
0
ARC
8
DEFAULT_255_1_234
10
22.0777961
20
4.9981332
40
0.2643248
50
36.3580696
51
53.5291921
0
ARC
8
DEFAULT_255_1_234
10
22.0651203
20
4.9890998
40
0.2798884
50
4.8189881
51
36.3089977
0
ARC
8
DEFAULT_255_1_234
10
21.9872038
20
4.978127
40
0.358478
50
359.9370252
51
5.5204067
0
ARC
8
DEFAULT_255_1_234
10
21.954756
20
4.9740667
40
0.3909429
50
344.7478609
51
0.5373281
0
ARC
8
DEFAULT_255_1_234
10
22.0538531
20
4.9473544
40
0.2883093
50
311.1786488
51
344.6886812
0
ARC
8
DEFAULT_255_1_234
10
22.0246578
20
4.9836987
40
0.3348923
50
286.0418249
51
310.8441291
0
ARC
8
DEFAULT_255_1_234
10
21.973941
20
5.1483807
40
0.5071869
50
274.1042341
51
286.4071509
0
ARC
8
DEFAULT_255_1_234
10
21.9562666
20
5.3367229
40
0.6963234
50
269.9236873
51
274.445647
0
ARC
8
DEFAULT_255_1_234
10
21.9608667
20
5.1027537
40
0.3362634
50
269.6055768
51
281.3740047
0
ARC
8
DEFAULT_255_1_234
10
21.9839305
20
4.9934353
40
0.224546
50
281.1055983
51
302.5132223
0
ARC
8
DEFAULT_255_1_234
10
21.9986204
20
4.9670823
40
0.1944357
50
303.0368945
51
311.8811219
0
ARC
8
DEFAULT_255_1_234
10
22.0057611
20
4.958589
40
0.1833454
50
311.9916004
51
351.7143462
0
ARC
8
DEFAULT_255_1_234
10
21.9240841
20
4.975093
40
0.2665871
50
350.7339597
51
0.2221581
0
ARC
8
DEFAULT_255_1_234
10
21.9133287
20
4.9807467
40
0.2773789
50
359.0456241
51
17.2296242
0
ARC
8
DEFAULT_255_1_234
10
22.0172404
20
5.0116163
40
0.1689915
50
17.6685481
51
78.9940892
0
ARC
8
DEFAULT_255_1_234
10
21.9655568
20
4.8261224
40
0.3612658
50
76.5635957
51
90.6980921
0
LINE
8
DEFAULT_255_1_234
10
21.9611552
20
5.1873613
11
21.9609614
21
5.1873614
0
ARC
8
DEFAULT_255_1_234
10
21.9391228
20
5.6396036
40
0.3285612
50
269.6064736
51
281.4533503
0
ARC
8
DEFAULT_255_1_234
10
21.9614048
20
5.5344688
40
0.2210975
50
281.2041486
51
302.5148063
0
ARC
8
DEFAULT_255_1_234
10
21.9750898
20
5.5098241
40
0.1929674
50
303.021671
51
309.8369575
0
ARC
8
DEFAULT_255_1_234
10
21.9934359
20
5.4892488
40
0.1654181
50
309.5228395
51
356.9509836
0
ARC
8
DEFAULT_255_1_234
10
21.9270942
20
5.4987932
40
0.2322512
50
355.4701227
51
0.0492546
0
ARC
8
DEFAULT_255_1_234
10
21.8992033
20
5.5010094
40
0.2601498
50
359.5558597
51
11.2096359
0
ARC
8
DEFAULT_255_1_234
10
21.9949323
20
5.520823
40
0.1623975
50
10.9182341
51
31.3230275
0
ARC
8
DEFAULT_255_1_234
10
22.0235056
20
5.5367214
40
0.1297302
50
31.8852677
51
52.1412565
0
ARC
8
DEFAULT_255_1_234
10
21.9960789
20
5.497975
40
0.1771663
50
52.8285564
51
71.9850297
0
ARC
8
DEFAULT_255_1_234
10
21.9584965
20
5.3873664
40
0.2939794
50
71.6863486
51
82.8455995
0
ARC
8
DEFAULT_255_1_234
10
21.9345501
20
5.2064149
40
0.476506
50
82.6984714
51
90.1729175
0
ARC
8
DEFAULT_255_1_234
10
21.9323136
20
5.3287623
40
0.3541573
50
89.8708275
51
90.0431131
0
LINE
8
DEFAULT_255_1_234
10
23.3014585
20
4.7616792
11
23.3014585
21
4.6404
0
LINE
8
DEFAULT_255_1_234
10
23.3014585
20
4.6404
11
22.5352307
21
4.6404
0
LINE
8
DEFAULT_255_1_234
10
22.5352307
20
4.6404
11
22.5352307
21
4.7472221
0
LINE
8
DEFAULT_255_1_234
10
22.5352307
20
4.7472221
11
22.9400303
21
5.1969995
0
LINE
8
DEFAULT_255_1_234
10
22.661329
20
5.4652595
11
22.5127418
21
5.4652595
0
LINE
8
DEFAULT_255_1_234
10
23.0275762
20
5.1014218
11
22.7143384
21
4.7616792
0
LINE
8
DEFAULT_255_1_234
10
22.7143384
20
4.7616792
11
23.3014585
21
4.7616792
0
ARC
8
DEFAULT_255_1_234
10
21.5910136
20
6.3899527
40
1.8008286
50
318.5132453
51
320.7828378
0
ARC
8
DEFAULT_255_1_234
10
22.119711
20
5.9596426
40
1.1191493
50
320.7372736
51
323.9737074
0
ARC
8
DEFAULT_255_1_234
10
22.5116967
20
5.6756361
40
0.6350923
50
323.8961724
51
328.6421089
0
ARC
8
DEFAULT_255_1_234
10
22.7163562
20
5.5494031
40
0.3946393
50
328.8299013
51
331.789948
0
ARC
8
DEFAULT_255_1_234
10
22.8160741
20
5.4979509
40
0.2824501
50
331.4255242
51
352.9364833
0
ARC
8
DEFAULT_255_1_234
10
22.8297241
20
5.4948976
40
0.2685315
50
353.2248685
51
0.0169286
0
ARC
8
DEFAULT_255_1_234
10
22.8507118
20
5.497195
40
0.2475536
50
359.4866256
51
15.9339782
0
ARC
8
DEFAULT_255_1_234
10
22.9014104
20
5.5108286
40
0.1950618
50
16.1714718
51
43.5284424
0
ARC
8
DEFAULT_255_1_234
10
22.9091412
20
5.5185573
40
0.184134
50
43.4415429
51
83.1661404
0
ARC
8
DEFAULT_255_1_234
10
22.895733
20
5.4448771
40
0.258926
50
82.160215
51
90.1505798
0
ARC
8
DEFAULT_255_1_234
10
22.8925758
20
5.3911865
40
0.3126255
50
89.5460705
51
102.5418777
0
ARC
8
DEFAULT_255_1_234
10
22.8682844
20
5.4942665
40
0.2067346
50
102.1739365
51
129.2061916
0
ARC
8
DEFAULT_255_1_234
10
22.8603916
20
5.5067094
40
0.1921118
50
129.7279328
51
135.7542026
0
ARC
8
DEFAULT_255_1_234
10
22.8725443
20
5.4970045
40
0.2075944
50
136.175737
51
166.3674722
0
ARC
8
DEFAULT_255_1_234
10
22.9732362
20
5.4700182
40
0.3118201
50
165.9092917
51
178.8683903
0
ARC
8
DEFAULT_255_1_234
10
23.0597224
20
5.4653179
40
0.3983935
50
178.438168
51
180.0083905
0
ARC
8
DEFAULT_255_1_234
10
22.9195826
20
5.4692231
40
0.4068601
50
163.2878735
51
180.5581814
0
ARC
8
DEFAULT_255_1_234
10
22.8394087
20
5.491284
40
0.3237344
50
133.454115
51
162.9470031
0
ARC
8
DEFAULT_255_1_234
10
22.8572629
20
5.4723
40
0.349795
50
100.7869394
51
133.4384016
0
ARC
8
DEFAULT_255_1_234
10
22.89204
20
5.3174319
40
0.5084616
50
89.6605301
51
101.3704185
0
ARC
8
DEFAULT_255_1_234
10
22.8986739
20
5.3235496
40
0.502348
50
78.2171172
51
90.4130393
0
ARC
8
DEFAULT_255_1_234
10
22.9341817
20
5.4859637
40
0.3361092
50
55.9268222
51
78.4888551
0
ARC
8
DEFAULT_255_1_234
10
22.9538257
20
5.5198324
40
0.2970617
50
47.9292255
51
55.4054003
0
ARC
8
DEFAULT_255_1_234
10
22.9639818
20
5.5301502
40
0.2825983
50
4.3347696
51
48.0560701
0
ARC
8
DEFAULT_255_1_234
10
22.8544212
20
5.5131601
40
0.393225
50
359.925209
51
5.5967654
0
ARC
8
DEFAULT_255_1_234
10
22.8973103
20
5.5187816
40
0.3503892
50
337.8914096
51
358.9967724
0
ARC
8
DEFAULT_255_1_234
10
22.6259515
20
5.6234706
40
0.6412172
50
326.9135351
51
338.3505194
0
ARC
8
DEFAULT_255_1_234
10
22.2273819
20
5.8789284
40
1.1146189
50
319.6472867
51
327.095818
0
ARC
8
DEFAULT_255_1_234
10
21.8440822
20
6.1951
40
1.6114559
50
317.2586784
51
319.9046139
0
LINE
8
DEFAULT_255_1_234
10
24.1921783
20
5.3319327
11
24.1921783
21
5.1391709
0
LINE
8
DEFAULT_255_1_234
10
23.4540615
20
5.1190916
11
23.4540615
21
5.3174755
0
LINE
8
DEFAULT_255_1_234
10
24.0435911
20
5.0990123
11
24.0435911
21
5.3423739
0
LINE
8
DEFAULT_255_1_234
10
23.6026487
20
5.3536184
11
23.6026487
21
5.1158789
0
ARC
8
DEFAULT_255_1_234
10
22.9674672
20
5.1342805
40
1.2247208
50
353.8441951
51
0.2287902
0
ARC
8
DEFAULT_255_1_234
10
23.4314176
20
5.0824806
40
0.7578929
50
344.4934747
51
353.9765454
0
ARC
8
DEFAULT_255_1_234
10
23.7306766
20
4.9973981
40
0.4467846
50
329.2803592
51
344.7472793
0
ARC
8
DEFAULT_255_1_234
10
23.8299591
20
4.9429018
40
0.3336173
50
324.9352394
51
328.6160465
0
ARC
8
DEFAULT_255_1_234
10
23.86767
20
4.9165427
40
0.2876076
50
280.580143
51
324.9173126
0
ARC
8
DEFAULT_255_1_234
10
23.8275492
20
5.0836099
40
0.4592847
50
269.5977311
51
281.6734359
0
ARC
8
DEFAULT_255_1_234
10
23.8203398
20
5.0716173
40
0.4472986
50
256.6228859
51
270.51044
0
ARC
8
DEFAULT_255_1_234
10
23.7801376
20
4.9167877
40
0.2873874
50
215.8618325
51
257.2788573
0
ARC
8
DEFAULT_255_1_234
10
23.8822407
20
4.9852977
40
0.4102928
50
197.9693508
51
215.2623606
0
ARC
8
DEFAULT_255_1_234
10
24.1307523
20
5.0691709
40
0.6725652
50
187.8816417
51
198.2346507
0
ARC
8
DEFAULT_255_1_234
10
24.5265731
20
5.1263079
40
1.0724845
50
180.8976217
51
188.0055519
0
ARC
8
DEFAULT_255_1_234
10
24.8065919
20
5.1366777
40
1.3526448
50
180.7449369
51
181.1510016
0
ARC
8
DEFAULT_255_1_234
10
24.6488648
20
5.3223042
40
1.1948131
50
173.7675579
51
180.231553
0
ARC
8
DEFAULT_255_1_234
10
24.1970795
20
5.3733666
40
0.7401564
50
164.3058563
51
173.9002247
0
ARC
8
DEFAULT_255_1_234
10
23.9058864
20
5.4572656
40
0.4371288
50
148.7922025
51
164.568378
0
ARC
8
DEFAULT_255_1_234
10
23.8107316
20
5.5103929
40
0.3282386
50
144.5883898
51
148.1176286
0
ARC
8
DEFAULT_255_1_234
10
23.7764214
20
5.5343315
40
0.2864044
50
101.6440918
51
144.514236
0
ARC
8
DEFAULT_255_1_234
10
23.8189281
20
5.3654069
40
0.4604934
50
89.5284041
51
102.5819763
0
ARC
8
DEFAULT_255_1_234
10
23.8268368
20
5.3615018
40
0.464401
50
77.0437873
51
90.5081339
0
ARC
8
DEFAULT_255_1_234
10
23.867037
20
5.5257615
40
0.2953195
50
48.2778575
51
77.4994676
0
ARC
8
DEFAULT_255_1_234
10
23.8743002
20
5.5386746
40
0.2808655
50
36.3142134
51
47.6305865
0
ARC
8
DEFAULT_255_1_234
10
23.7874309
20
5.4801515
40
0.3855453
50
18.2931786
51
35.6769206
0
ARC
8
DEFAULT_255_1_234
10
23.5331067
20
5.3928593
40
0.654423
50
8.024666
51
18.5605216
0
ARC
8
DEFAULT_255_1_234
10
23.1167987
20
5.3313792
40
1.0752407
50
1.1274072
51
8.1718305
0
ARC
8
DEFAULT_255_1_234
10
22.7932178
20
5.3186885
40
1.3990231
50
0.5424119
51
1.3863029
0
ARC
8
DEFAULT_255_1_234
10
22.9753556
20
5.3459342
40
1.0682415
50
359.8090433
51
4.9407866
0
ARC
8
DEFAULT_255_1_234
10
23.396357
20
5.3835113
40
0.6455691
50
4.8362157
51
12.2904523
0
ARC
8
DEFAULT_255_1_234
10
23.6718685
20
5.4448965
40
0.3633074
50
12.0805627
51
23.8173984
0
ARC
8
DEFAULT_255_1_234
10
23.789239
20
5.4945919
40
0.2358723
50
24.2871213
51
31.3935614
0
ARC
8
DEFAULT_255_1_234
10
23.8417087
20
5.5289233
40
0.1732111
50
30.7407893
51
82.4657128
0
ARC
8
DEFAULT_255_1_234
10
23.8237221
20
5.4405691
40
0.263235
50
81.1060089
51
90.2184952
0
ARC
8
DEFAULT_255_1_234
10
23.820152
20
5.4663924
40
0.2374236
50
89.3806855
51
105.6762551
0
ARC
8
DEFAULT_255_1_234
10
23.8018151
20
5.5330567
40
0.1682847
50
105.7981136
51
149.7388061
0
ARC
8
DEFAULT_255_1_234
10
23.9082229
20
5.469095
40
0.2924306
50
149.4208916
51
163.6286378
0
ARC
8
DEFAULT_255_1_234
10
24.1173117
20
5.405325
40
0.5110213
50
163.3763315
51
172.1410975
0
ARC
8
DEFAULT_255_1_234
10
24.4473836
20
5.3580518
40
0.8444586
50
172.0259487
51
178.0703232
0
ARC
8
DEFAULT_255_1_234
10
24.7503926
20
5.3436906
40
1.1477868
50
177.8631668
51
179.5044149
0
ARC
8
DEFAULT_255_1_234
10
24.643133
20
5.1122389
40
1.0404907
50
179.7995573
51
185.2460446
0
ARC
8
DEFAULT_255_1_234
10
24.238837
20
5.0739513
40
0.6343885
50
185.1411642
51
193.0079639
0
ARC
8
DEFAULT_255_1_234
10
23.9744842
20
5.0114641
40
0.3627568
50
192.7897626
51
205.2507664
0
ARC
8
DEFAULT_255_1_234
10
23.8698389
20
4.9647415
40
0.2481908
50
205.8005384
51
211.2537509
0
ARC
8
DEFAULT_255_1_234
10
23.817483
20
4.929658
40
0.1852521
50
210.3789793
51
238.4008143
0
ARC
8
DEFAULT_255_1_234
10
23.8155351
20
4.9343376
40
0.1882621
50
239.6520629
51
265.9793761
0
ARC
8
DEFAULT_255_1_234
10
23.8240552
20
5.0015427
40
0.2559272
50
265.1315437
51
270.060332
0
ARC
8
DEFAULT_255_1_234
10
23.826933
20
4.9691534
40
0.2235528
50
269.3314664
51
287.2178029
0
ARC
8
DEFAULT_255_1_234
10
23.8407182
20
4.9188279
40
0.1714108
50
287.7958004
51
329.080874
0
ARC
8
DEFAULT_255_1_234
10
23.7449639
20
4.978593
40
0.2842745
50
328.6634704
51
343.3325132
0
ARC
8
DEFAULT_255_1_234
10
23.5276659
20
5.0462863
40
0.5118644
50
343.0499468
51
351.9393422
0
ARC
8
DEFAULT_255_1_234
10
23.1809959
20
5.0973949
40
0.8622784
50
351.8069023
51
357.7959224
0
ARC
8
DEFAULT_255_1_234
10
22.8574515
20
5.1141721
40
1.1862365
50
357.5871873
51
359.2677531
0
LINE
8
DEFAULT_255_1_234
10
21.9553392
20
12.5779
11
21.5497364
21
12.5779
0
LINE
8
DEFAULT_255_1_234
10
21.5497364
20
12.5779
11
21.5497364
21
13.7473211
0
LINE
8
DEFAULT_255_1_234
10
21.5497364
20
13.7473211
11
21.9320471
21
13.7473211
0
LINE
8
DEFAULT_255_1_234
10
21.9609614
20
13.1248614
11
21.7039458
21
13.1248614
0
LINE
8
DEFAULT_255_1_234
10
21.7039458
20
13.1248614
11
21.7039458
21
12.7039983
0
LINE
8
DEFAULT_255_1_234
10
21.7039458
20
12.7039983
11
21.9585519
21
12.7039983
0
LINE
8
DEFAULT_255_1_234
10
21.7039458
20
13.6204196
11
21.7039458
21
13.2485501
0
LINE
8
DEFAULT_255_1_234
10
21.7039458
20
13.2485501
11
21.9368662
21
13.2485501
0
LINE
8
DEFAULT_255_1_234
10
21.9320471
20
13.6204196
11
21.7039458
21
13.6204196
0
ARC
8
DEFAULT_255_1_234
10
21.935818
20
13.0105901
40
0.7367406
50
82.1257326
51
90.2932599
0
ARC
8
DEFAULT_255_1_234
10
21.9747135
20
13.2824013
40
0.4621653
50
69.9044149
51
82.2857423
0
ARC
8
DEFAULT_255_1_234
10
22.0317813
20
13.4366637
40
0.2976871
50
51.1838526
51
70.0181538
0
ARC
8
DEFAULT_255_1_234
10
22.0572779
20
13.473724
40
0.2528517
50
12.1017251
51
50.4214761
0
ARC
8
DEFAULT_255_1_234
10
21.9188653
20
13.4389676
40
0.3955061
50
359.5251267
51
12.8211707
0
ARC
8
DEFAULT_255_1_234
10
22.0768579
20
13.4320344
40
0.2375281
50
323.4908128
51
0.8817314
0
ARC
8
DEFAULT_255_1_234
10
22.0350266
20
13.464355
40
0.2903817
50
298.6825083
51
323.2756573
0
ARC
8
DEFAULT_255_1_234
10
21.9988629
20
13.5244649
40
0.3604842
50
293.1999386
51
299.1396394
0
ARC
8
DEFAULT_255_1_234
10
22.0661602
20
12.9159126
40
0.2871098
50
54.0011765
51
74.9167975
0
ARC
8
DEFAULT_255_1_234
10
22.0777961
20
12.9356332
40
0.2643248
50
36.3580696
51
53.5291921
0
ARC
8
DEFAULT_255_1_234
10
22.0651203
20
12.9265998
40
0.2798884
50
4.8189881
51
36.3089977
0
ARC
8
DEFAULT_255_1_234
10
21.9872038
20
12.915627
40
0.358478
50
359.9370252
51
5.5204067
0
ARC
8
DEFAULT_255_1_234
10
21.954756
20
12.9115667
40
0.3909429
50
344.7478609
51
0.5373281
0
ARC
8
DEFAULT_255_1_234
10
22.0538531
20
12.8848544
40
0.2883093
50
311.1786488
51
344.6886812
0
ARC
8
DEFAULT_255_1_234
10
22.0246578
20
12.9211987
40
0.3348923
50
286.0418249
51
310.8441291
0
ARC
8
DEFAULT_255_1_234
10
21.973941
20
13.0858807
40
0.5071869
50
274.1042341
51
286.4071509
0
ARC
8
DEFAULT_255_1_234
10
21.9562666
20
13.2742229
40
0.6963234
50
269.9236873
51
274.445647
0
ARC
8
DEFAULT_255_1_234
10
21.9608667
20
13.0402537
40
0.3362634
50
269.6055768
51
281.3740047
0
ARC
8
DEFAULT_255_1_234
10
21.9839305
20
12.9309353
40
0.224546
50
281.1055983
51
302.5132223
0
ARC
8
DEFAULT_255_1_234
10
21.9986204
20
12.9045823
40
0.1944357
50
303.0368945
51
311.8811219
0
ARC
8
DEFAULT_255_1_234
10
22.0057611
20
12.896089
40
0.1833454
50
311.9916004
51
351.7143462
0
ARC
8
DEFAULT_255_1_234
10
21.9240841
20
12.912593
40
0.2665871
50
350.7339597
51
0.2221581
0
ARC
8
DEFAULT_255_1_234
10
21.9133287
20
12.9182467
40
0.2773789
50
359.0456241
51
17.2296242
0
ARC
8
DEFAULT_255_1_234
10
22.0172404
20
12.9491163
40
0.1689915
50
17.6685481
51
78.9940892
0
ARC
8
DEFAULT_255_1_234
10
21.9655568
20
12.7636224
40
0.3612658
50
76.5635957
51
90.6980921
0
LINE
8
DEFAULT_255_1_234
10
21.9611552
20
13.1248613
11
21.9609614
21
13.1248614
0
ARC
8
DEFAULT_255_1_234
10
21.9391228
20
13.5771036
40
0.3285612
50
269.6064736
51
281.4533503
0
ARC
8
DEFAULT_255_1_234
10
21.9614048
20
13.4719688
40
0.2210975
50
281.2041486
51
302.5148063
0
ARC
8
DEFAULT_255_1_234
10
21.9750898
20
13.4473241
40
0.1929674
50
303.021671
51
309.8369575
0
ARC
8
DEFAULT_255_1_234
10
21.9934359
20
13.4267488
40
0.1654181
50
309.5228395
51
356.9509836
0
ARC
8
DEFAULT_255_1_234
10
21.9270942
20
13.4362932
40
0.2322512
50
355.4701227
51
0.0492546
0
ARC
8
DEFAULT_255_1_234
10
21.8992033
20
13.4385094
40
0.2601498
50
359.5558597
51
11.2096359
0
ARC
8
DEFAULT_255_1_234
10
21.9949323
20
13.458323
40
0.1623975
50
10.9182341
51
31.3230275
0
ARC
8
DEFAULT_255_1_234
10
22.0235056
20
13.4742214
40
0.1297302
50
31.8852677
51
52.1412565
0
ARC
8
DEFAULT_255_1_234
10
21.9960789
20
13.435475
40
0.1771663
50
52.8285564
51
71.9850297
0
ARC
8
DEFAULT_255_1_234
10
21.9584965
20
13.3248664
40
0.2939794
50
71.6863486
51
82.8455995
0
ARC
8
DEFAULT_255_1_234
10
21.9345501
20
13.1439149
40
0.476506
50
82.6984714
51
90.1729175
0
ARC
8
DEFAULT_255_1_234
10
21.9323136
20
13.2662623
40
0.3541573
50
89.8708275
51
90.0431131
0
LINE
8
DEFAULT_255_1_234
10
23.0235604
20
13.7529433
11
23.0235604
21
12.5779
0
LINE
8
DEFAULT_255_1_234
10
23.0235604
20
12.5779
11
22.87417
21
12.5779
0
LINE
8
DEFAULT_255_1_234
10
22.87417
20
12.5779
11
22.87417
21
13.5682133
0
LINE
8
DEFAULT_255_1_234
10
22.87417
20
13.5682133
11
22.5745862
21
13.4581785
0
LINE
8
DEFAULT_255_1_234
10
22.5745862
20
13.4581785
11
22.5745862
21
13.5931117
0
LINE
8
DEFAULT_255_1_234
10
22.5745862
20
13.5931117
11
23.0002683
21
13.7529433
0
LINE
8
DEFAULT_255_1_234
10
23.0002683
20
13.7529433
11
23.0235604
21
13.7529433
0
LINE
8
DEFAULT_255_1_234
10
24.1777211
20
13.2798739
11
24.1777211
21
13.2365025
0
LINE
8
DEFAULT_255_1_234
10
23.6355788
20
12.5770968
11
23.6066646
21
12.5770968
0
LINE
8
DEFAULT_255_1_234
10
23.6066646
20
12.5770968
11
23.6066646
21
12.7023919
0
LINE
8
DEFAULT_255_1_234
10
23.6066646
20
12.7023919
11
23.6379883
21
12.7023919
0
LINE
8
DEFAULT_255_1_234
10
24.029134
20
13.2509597
11
24.029134
21
13.3103945
0
ARC
8
DEFAULT_255_1_234
10
23.7497609
20
13.3255403
40
0.3635579
50
297.4037347
51
320.016758
0
ARC
8
DEFAULT_255_1_234
10
23.7787558
20
13.269824
40
0.3007486
50
270.2633101
51
297.3851877
0
ARC
8
DEFAULT_255_1_234
10
23.7753514
20
13.3161904
40
0.3471448
50
269.9966443
51
270.7900392
0
ARC
8
DEFAULT_255_1_234
10
23.7727995
20
13.3160143
40
0.3469779
50
254.5999133
51
270.4180344
0
ARC
8
DEFAULT_255_1_234
10
23.7585355
20
13.2595647
40
0.2887697
50
236.4717942
51
254.3541279
0
ARC
8
DEFAULT_255_1_234
10
23.7741572
20
13.2805711
40
0.3149125
50
208.4727207
51
236.2134933
0
ARC
8
DEFAULT_255_1_234
10
23.8380347
20
13.3196455
40
0.3897115
50
204.3447514
51
209.0453999
0
ARC
8
DEFAULT_255_1_234
10
23.9059923
20
13.3484656
40
0.4635101
50
183.9375985
51
204.1276318
0
ARC
8
DEFAULT_255_1_234
10
23.9968175
20
13.3582482
40
0.5548037
50
179.9652252
51
184.3013875
0
ARC
8
DEFAULT_255_1_234
10
23.9728221
20
13.3615507
40
0.5308164
50
166.7585989
51
180.3201225
0
ARC
8
DEFAULT_255_1_234
10
23.8881834
20
13.3799488
40
0.4442163
50
154.6955053
51
166.5679793
0
ARC
8
DEFAULT_255_1_234
10
23.8028704
20
13.422921
40
0.3487299
50
136.3324195
51
155.0871442
0
ARC
8
DEFAULT_255_1_234
10
23.7747777
20
13.4469954
40
0.3117924
50
121.236733
51
135.9680508
0
ARC
8
DEFAULT_255_1_234
10
23.7888275
20
13.4209743
40
0.3413302
50
96.845628
51
120.9881519
0
ARC
8
DEFAULT_255_1_234
10
23.8033857
20
13.3274515
40
0.4359341
50
89.8870174
51
97.2802754
0
ARC
8
DEFAULT_255_1_234
10
23.8086295
20
13.3912095
40
0.3722009
50
70.6505584
51
90.6749113
0
ARC
8
DEFAULT_255_1_234
10
23.8217574
20
13.4425361
40
0.3194571
50
36.7492984
51
69.8219918
0
ARC
8
DEFAULT_255_1_234
10
23.7218739
20
13.3646993
40
0.4460685
50
15.39587
51
37.0840084
0
ARC
8
DEFAULT_255_1_234
10
23.5089173
20
13.3026242
40
0.6678714
50
3.9488873
51
15.6798563
0
ARC
8
DEFAULT_255_1_234
10
23.26878
20
13.2809964
40
0.9089418
50
359.929245
51
4.2665314
0
ARC
8
DEFAULT_255_1_234
10
22.8082237
20
13.2298513
40
1.3695135
50
352.8366322
51
0.2782669
0
ARC
8
DEFAULT_255_1_234
10
23.3369916
20
13.1611629
40
0.8363105
50
341.8359505
51
352.9884176
0
ARC
8
DEFAULT_255_1_234
10
23.6588635
20
13.05267
40
0.4966642
50
322.8578092
51
342.1527901
0
ARC
8
DEFAULT_255_1_234
10
23.7452591
20
12.9937384
40
0.3922466
50
319.334325
51
322.0998941
0
ARC
8
DEFAULT_255_1_234
10
23.7142928
20
13.0248209
40
0.4360033
50
285.9541367
51
318.8878087
0
ARC
8
DEFAULT_255_1_234
10
23.6416189
20
13.25586
40
0.678149
50
272.9281676
51
286.4922826
0
ARC
8
DEFAULT_255_1_234
10
23.6226307
20
13.4809587
40
0.9039547
50
270.8207226
51
273.4012994
0
ARC
8
DEFAULT_255_1_234
10
23.6315158
20
13.2990666
40
0.5967098
50
270.6214993
51
281.4062806
0
ARC
8
DEFAULT_255_1_234
10
23.6745139
20
13.0934833
40
0.3866861
50
281.1852553
51
299.0621114
0
ARC
8
DEFAULT_255_1_234
10
23.7118711
20
13.0213798
40
0.3055236
50
299.5067782
51
313.1200873
0
ARC
8
DEFAULT_255_1_234
10
23.7140677
20
13.0134554
40
0.2982623
50
313.8526205
51
338.5989322
0
ARC
8
DEFAULT_255_1_234
10
23.5516751
20
13.0801781
40
0.4738131
50
338.2523585
51
351.2430902
0
ARC
8
DEFAULT_255_1_234
10
23.3106047
20
13.1211447
40
0.7183203
50
350.9409515
51
357.6691871
0
ARC
8
DEFAULT_255_1_234
10
23.7996477
20
13.3213764
40
0.2294452
50
269.9447023
51
306.8248917
0
ARC
8
DEFAULT_255_1_234
10
23.7759392
20
13.3636898
40
0.2775994
50
305.5072438
51
327.0773448
0
ARC
8
DEFAULT_255_1_234
10
23.7877833
20
13.3542025
40
0.2625056
50
327.4104943
51
336.840169
0
ARC
8
DEFAULT_255_1_234
10
23.4783898
20
13.3136302
40
0.5507537
50
359.6633817
51
10.117533
0
ARC
8
DEFAULT_255_1_234
10
23.6537696
20
13.3460777
40
0.372403
50
9.9430141
51
26.7700076
0
ARC
8
DEFAULT_255_1_234
10
23.7134909
20
13.3736187
40
0.3066865
50
27.2015464
51
34.6829435
0
ARC
8
DEFAULT_255_1_234
10
23.7624389
20
13.4103977
40
0.245519
50
34.1250343
51
50.3070065
0
ARC
8
DEFAULT_255_1_234
10
23.8071068
20
13.4638385
40
0.1758693
50
50.3851167
51
90.6705993
0
ARC
8
DEFAULT_255_1_234
10
23.8024301
20
13.4333799
40
0.2063326
50
89.272901
51
111.9140407
0
ARC
8
DEFAULT_255_1_234
10
23.8004829
20
13.447444
40
0.1925887
50
112.9382311
51
142.5320782
0
ARC
8
DEFAULT_255_1_234
10
23.8551009
20
13.4030969
40
0.2629232
50
142.1021256
51
166.3835592
0
ARC
8
DEFAULT_255_1_234
10
23.9732315
20
13.3725915
40
0.3849193
50
166.1100289
51
178.665427
0
ARC
8
DEFAULT_255_1_234
10
24.0779904
20
13.3667117
40
0.4897989
50
178.2632126
51
180.0111093
0
ARC
8
DEFAULT_255_1_234
10
23.9978024
20
13.3638728
40
0.40962
50
179.6161962
51
191.8787166
0
ARC
8
DEFAULT_255_1_234
10
23.8757863
20
13.3368896
40
0.2846655
50
191.6191692
51
215.2972286
0
ARC
8
DEFAULT_255_1_234
10
23.8561054
20
13.3253918
40
0.2619665
50
215.7320102
51
216.5355409
0
ARC
8
DEFAULT_255_1_234
10
23.8022141
20
13.2821647
40
0.1929497
50
215.7486685
51
239.9727502
0
ARC
8
DEFAULT_255_1_234
10
23.7952056
20
13.2770894
40
0.1850822
50
241.0650169
51
269.2810483
0
ARC
8
DEFAULT_255_1_234
10
23.7993971
20
13.3261371
40
0.2342059
50
268.4062526
51
270.0071348
0
LINE
8
DEFAULT_255_1_234
10
21.9553392
20
20.5154
11
21.5497364
21
20.5154
0
LINE
8
DEFAULT_255_1_234
10
21.5497364
20
20.5154
11
21.5497364
21
21.6848211
0
LINE
8
DEFAULT_255_1_234
10
21.5497364
20
21.6848211
11
21.9320471
21
21.6848211
0
LINE
8
DEFAULT_255_1_234
10
21.9609614
20
21.0623614
11
21.7039458
21
21.0623614
0
LINE
8
DEFAULT_255_1_234
10
21.7039458
20
21.0623614
11
21.7039458
21
20.6414983
0
LINE
8
DEFAULT_255_1_234
10
21.7039458
20
20.6414983
11
21.9585519
21
20.6414983
0
LINE
8
DEFAULT_255_1_234
10
21.7039458
20
21.5579196
11
21.7039458
21
21.1860501
0
LINE
8
DEFAULT_255_1_234
10
21.7039458
20
21.1860501
11
21.9368662
21
21.1860501
0
LINE
8
DEFAULT_255_1_234
10
21.9320471
20
21.5579196
11
21.7039458
21
21.5579196
0
ARC
8
DEFAULT_255_1_234
10
21.935818
20
20.9480901
40
0.7367406
50
82.1257326
51
90.2932599
0
ARC
8
DEFAULT_255_1_234
10
21.9747135
20
21.2199013
40
0.4621653
50
69.9044149
51
82.2857423
0
ARC
8
DEFAULT_255_1_234
10
22.0317813
20
21.3741637
40
0.2976871
50
51.1838526
51
70.0181538
0
ARC
8
DEFAULT_255_1_234
10
22.0572779
20
21.411224
40
0.2528517
50
12.1017251
51
50.4214761
0
ARC
8
DEFAULT_255_1_234
10
21.9188653
20
21.3764676
40
0.3955061
50
359.5251267
51
12.8211707
0
ARC
8
DEFAULT_255_1_234
10
22.0768579
20
21.3695344
40
0.2375281
50
323.4908128
51
0.8817314
0
ARC
8
DEFAULT_255_1_234
10
22.0350266
20
21.401855
40
0.2903817
50
298.6825083
51
323.2756573
0
ARC
8
DEFAULT_255_1_234
10
21.9988629
20
21.4619649
40
0.3604842
50
293.1999386
51
299.1396394
0
ARC
8
DEFAULT_255_1_234
10
22.0661602
20
20.8534126
40
0.2871098
50
54.0011765
51
74.9167975
0
ARC
8
DEFAULT_255_1_234
10
22.0777961
20
20.8731332
40
0.2643248
50
36.3580696
51
53.5291921
0
ARC
8
DEFAULT_255_1_234
10
22.0651203
20
20.8640998
40
0.2798884
50
4.8189881
51
36.3089977
0
ARC
8
DEFAULT_255_1_234
10
21.9872038
20
20.853127
40
0.358478
50
359.9370252
51
5.5204067
0
ARC
8
DEFAULT_255_1_234
10
21.954756
20
20.8490667
40
0.3909429
50
344.7478609
51
0.5373281
0
ARC
8
DEFAULT_255_1_234
10
22.0538531
20
20.8223544
40
0.2883093
50
311.1786488
51
344.6886812
0
ARC
8
DEFAULT_255_1_234
10
22.0246578
20
20.8586987
40
0.3348923
50
286.0418249
51
310.8441291
0
ARC
8
DEFAULT_255_1_234
10
21.973941
20
21.0233807
40
0.5071869
50
274.1042341
51
286.4071509
0
ARC
8
DEFAULT_255_1_234
10
21.9562666
20
21.2117229
40
0.6963234
50
269.9236873
51
274.445647
0
ARC
8
DEFAULT_255_1_234
10
21.9608667
20
20.9777537
40
0.3362634
50
269.6055768
51
281.3740047
0
ARC
8
DEFAULT_255_1_234
10
21.9839305
20
20.8684353
40
0.224546
50
281.1055983
51
302.5132223
0
ARC
8
DEFAULT_255_1_234
10
21.9986204
20
20.8420823
40
0.1944357
50
303.0368945
51
311.8811219
0
ARC
8
DEFAULT_255_1_234
10
22.0057611
20
20.833589
40
0.1833454
50
311.9916004
51
351.7143462
0
ARC
8
DEFAULT_255_1_234
10
21.9240841
20
20.850093
40
0.2665871
50
350.7339597
51
0.2221581
0
ARC
8
DEFAULT_255_1_234
10
21.9133287
20
20.8557467
40
0.2773789
50
359.0456241
51
17.2296242
0
ARC
8
DEFAULT_255_1_234
10
22.0172404
20
20.8866163
40
0.1689915
50
17.6685481
51
78.9940892
0
ARC
8
DEFAULT_255_1_234
10
21.9655568
20
20.7011224
40
0.3612658
50
76.5635957
51
90.6980921
0
LINE
8
DEFAULT_255_1_234
10
21.9611552
20
21.0623613
11
21.9609614
21
21.0623614
0
ARC
8
DEFAULT_255_1_234
10
21.9391228
20
21.5146036
40
0.3285612
50
269.6064736
51
281.4533503
0
ARC
8
DEFAULT_255_1_234
10
21.9614048
20
21.4094688
40
0.2210975
50
281.2041486
51
302.5148063
0
ARC
8
DEFAULT_255_1_234
10
21.9750898
20
21.3848241
40
0.1929674
50
303.021671
51
309.8369575
0
ARC
8
DEFAULT_255_1_234
10
21.9934359
20
21.3642488
40
0.1654181
50
309.5228395
51
356.9509836
0
ARC
8
DEFAULT_255_1_234
10
21.9270942
20
21.3737932
40
0.2322512
50
355.4701227
51
0.0492546
0
ARC
8
DEFAULT_255_1_234
10
21.8992033
20
21.3760094
40
0.2601498
50
359.5558597
51
11.2096359
0
ARC
8
DEFAULT_255_1_234
10
21.9949323
20
21.395823
40
0.1623975
50
10.9182341
51
31.3230275
0
ARC
8
DEFAULT_255_1_234
10
22.0235056
20
21.4117214
40
0.1297302
50
31.8852677
51
52.1412565
0
ARC
8
DEFAULT_255_1_234
10
21.9960789
20
21.372975
40
0.1771663
50
52.8285564
51
71.9850297
0
ARC
8
DEFAULT_255_1_234
10
21.9584965
20
21.2623664
40
0.2939794
50
71.6863486
51
82.8455995
0
ARC
8
DEFAULT_255_1_234
10
21.9345501
20
21.0814149
40
0.476506
50
82.6984714
51
90.1729175
0
ARC
8
DEFAULT_255_1_234
10
21.9323136
20
21.2037623
40
0.3541573
50
89.8708275
51
90.0431131
0
LINE
8
DEFAULT_255_1_234
10
23.0235604
20
21.6904433
11
23.0235604
21
20.5154
0
LINE
8
DEFAULT_255_1_234
10
23.0235604
20
20.5154
11
22.87417
21
20.5154
0
LINE
8
DEFAULT_255_1_234
10
22.87417
20
20.5154
11
22.87417
21
21.5057133
0
LINE
8
DEFAULT_255_1_234
10
22.87417
20
21.5057133
11
22.5745862
21
21.3956785
0
LINE
8
DEFAULT_255_1_234
10
22.5745862
20
21.3956785
11
22.5745862
21
21.5306117
0
LINE
8
DEFAULT_255_1_234
10
22.5745862
20
21.5306117
11
23.0002683
21
21.6904433
0
LINE
8
DEFAULT_255_1_234
10
23.0002683
20
21.6904433
11
23.0235604
21
21.6904433
0
ARC
8
DEFAULT_255_1_234
10
23.8858589
20
21.3770703
40
0.2822356
50
338.8763615
51
0.5166041
0
ARC
8
DEFAULT_255_1_234
10
23.9027244
20
21.3725208
40
0.2648703
50
325.8412414
51
338.4795939
0
ARC
8
DEFAULT_255_1_234
10
23.8636611
20
21.3996042
40
0.3124019
50
296.7586019
51
325.753654
0
ARC
8
DEFAULT_255_1_234
10
23.834872
20
21.4480789
40
0.368668
50
296.0902311
51
297.3618122
0
ARC
8
DEFAULT_255_1_234
10
23.8606177
20
20.7926041
40
0.3518806
50
47.9009248
51
67.1946869
0
ARC
8
DEFAULT_255_1_234
10
23.8802419
20
20.8172395
40
0.320451
50
35.236241
51
47.551371
0
ARC
8
DEFAULT_255_1_234
10
23.9064037
20
20.8346993
40
0.2890103
50
359.2759738
51
35.4014081
0
ARC
8
DEFAULT_255_1_234
10
23.8319068
20
20.8273826
40
0.3635026
50
343.1294516
51
0.5776525
0
ARC
8
DEFAULT_255_1_234
10
23.9043613
20
20.807433
40
0.2883832
50
310.8497458
51
342.744803
0
ARC
8
DEFAULT_255_1_234
10
23.8625727
20
20.8551294
40
0.3517954
50
281.5473923
51
310.9169905
0
ARC
8
DEFAULT_255_1_234
10
23.8269176
20
21.0104084
40
0.5110832
50
269.6192722
51
281.9789957
0
ARC
8
DEFAULT_255_1_234
10
23.8196965
20
21.0104828
40
0.5111606
50
257.4584469
51
270.4287458
0
ARC
8
DEFAULT_255_1_234
10
23.7816108
20
20.8501344
40
0.3463762
50
228.7553743
51
257.8484423
0
ARC
8
DEFAULT_255_1_234
10
23.7506306
20
20.8128442
40
0.297916
50
184.0104442
51
228.5071787
0
ARC
8
DEFAULT_255_1_234
10
23.866925
20
20.8305512
40
0.4152734
50
179.9315461
51
185.3254504
0
ARC
8
DEFAULT_255_1_234
10
23.7492896
20
20.8342992
40
0.2976554
50
145.6795913
51
180.6259649
0
ARC
8
DEFAULT_255_1_234
10
23.7656245
20
20.8228929
40
0.3175776
50
115.5537925
51
145.6416199
0
ARC
8
DEFAULT_255_1_234
10
23.7997176
20
20.7618028
40
0.3874232
50
113.2437915
51
116.2054627
0
ARC
8
DEFAULT_255_1_234
10
23.7844388
20
21.401658
40
0.3154751
50
222.9548379
51
244.1372485
0
ARC
8
DEFAULT_255_1_234
10
23.7722464
20
21.3879834
40
0.2972382
50
213.3439227
51
222.6271327
0
ARC
8
DEFAULT_255_1_234
10
23.7530398
20
21.3749308
40
0.274019
50
180.4316517
51
213.2713999
0
ARC
8
DEFAULT_255_1_234
10
23.8105399
20
21.379611
40
0.33158
50
179.9992944
51
181.1655061
0
ARC
8
DEFAULT_255_1_234
10
23.8514816
20
21.3830561
40
0.3725376
50
164.6186108
51
180.5292368
0
ARC
8
DEFAULT_255_1_234
10
23.7616679
20
21.4072101
40
0.2795349
50
132.2454369
51
164.5092287
0
ARC
8
DEFAULT_255_1_234
10
23.7903783
20
21.3747028
40
0.3229019
50
100.7052766
51
132.1387266
0
ARC
8
DEFAULT_255_1_234
10
23.8208756
20
21.2369086
40
0.4639835
50
89.6732617
51
101.2449487
0
ARC
8
DEFAULT_255_1_234
10
23.8270954
20
21.254399
40
0.4464999
50
76.2876631
51
90.4586123
0
ARC
8
DEFAULT_255_1_234
10
23.8577185
20
21.376622
40
0.3205023
50
47.8240157
51
76.4266918
0
ARC
8
DEFAULT_255_1_234
10
23.8799735
20
21.402659
40
0.2862661
50
6.9168658
51
47.6261438
0
ARC
8
DEFAULT_255_1_234
10
23.7613138
20
21.380737
40
0.4067708
50
359.8419705
51
7.9694496
0
ARC
8
DEFAULT_255_1_234
10
23.7955035
20
20.8366925
40
0.2513121
50
359.4454068
51
16.9256425
0
ARC
8
DEFAULT_255_1_234
10
23.8423846
20
20.8496033
40
0.2027071
50
17.292259
51
45.462717
0
ARC
8
DEFAULT_255_1_234
10
23.8369782
20
20.8449434
40
0.2098212
50
45.3028762
51
83.1921472
0
ARC
8
DEFAULT_255_1_234
10
23.8226466
20
20.7647895
40
0.2911472
50
82.2614531
51
90.143954
0
ARC
8
DEFAULT_255_1_234
10
23.8195586
20
20.788095
40
0.2678513
50
89.4959189
51
104.8579811
0
ARC
8
DEFAULT_255_1_234
10
23.8018845
20
20.855089
40
0.1985654
50
104.8855873
51
135.2448349
0
ARC
8
DEFAULT_255_1_234
10
23.8068618
20
20.8506336
40
0.2052373
50
135.3398955
51
172.104394
0
ARC
8
DEFAULT_255_1_234
10
23.8875676
20
20.8351925
40
0.2873299
50
171.2651929
51
180.1859362
0
ARC
8
DEFAULT_255_1_234
10
23.8706377
20
20.8319733
40
0.2704083
50
179.515471
51
193.6466734
0
ARC
8
DEFAULT_255_1_234
10
23.7890146
20
20.8111777
40
0.1861855
50
193.3540587
51
225.8256931
0
ARC
8
DEFAULT_255_1_234
10
23.7930904
20
20.8182524
40
0.1941102
50
226.418029
51
255.8553723
0
ARC
8
DEFAULT_255_1_234
10
23.8187336
20
20.9118998
40
0.2911917
50
255.4655572
51
268.7985967
0
ARC
8
DEFAULT_255_1_234
10
23.8234528
20
20.9957491
40
0.3751331
50
268.3464808
51
270.0104874
0
ARC
8
DEFAULT_255_1_234
10
23.8257916
20
20.9273138
40
0.3067064
50
269.575914
51
282.0823146
0
ARC
8
DEFAULT_255_1_234
10
23.8482825
20
20.8278803
40
0.2047712
50
281.7522535
51
306.6056425
0
ARC
8
DEFAULT_255_1_234
10
23.8581252
20
20.8117487
40
0.1859604
50
307.1350025
51
314.0277951
0
ARC
8
DEFAULT_255_1_234
10
23.8545336
20
20.8143766
40
0.1903475
50
314.2553419
51
350.169324
0
ARC
8
DEFAULT_255_1_234
10
23.7693804
20
20.8328409
40
0.2774269
50
349.4145679
51
0.2930737
0
ARC
8
DEFAULT_255_1_234
10
23.8214237
20
21.3487353
40
0.2300764
50
89.477591
51
105.729794
0
ARC
8
DEFAULT_255_1_234
10
23.8078151
20
21.3992637
40
0.1777519
50
105.922966
51
135.1662921
0
ARC
8
DEFAULT_255_1_234
10
23.8098653
20
21.3978419
40
0.1802087
50
135.3053131
51
168.9882338
0
ARC
8
DEFAULT_255_1_234
10
23.8926226
20
21.3788721
40
0.2650806
50
168.3802067
51
180.3602358
0
ARC
8
DEFAULT_255_1_234
10
23.8697805
20
21.3751041
40
0.2422425
50
179.5029707
51
194.9126783
0
ARC
8
DEFAULT_255_1_234
10
23.8112466
20
21.359711
40
0.1817188
50
194.9722181
51
224.1943972
0
ARC
8
DEFAULT_255_1_234
10
23.8084333
20
21.3574169
40
0.1781027
50
224.2961434
51
262.0157375
0
ARC
8
DEFAULT_255_1_234
10
23.8226576
20
21.4305661
40
0.2525492
50
261.1250369
51
270.1959853
0
ARC
8
DEFAULT_255_1_234
10
23.8256331
20
21.4118339
40
0.233825
50
269.4825617
51
285.0988277
0
ARC
8
DEFAULT_255_1_234
10
23.841049
20
21.353999
40
0.1739712
50
285.1585659
51
315.9484648
0
ARC
8
DEFAULT_255_1_234
10
23.8321502
20
21.3621886
40
0.1860616
50
316.0412958
51
351.9162715
0
ARC
8
DEFAULT_255_1_234
10
23.7588457
20
21.3763245
40
0.2606517
50
351.1056823
51
0.1936567
0
ARC
8
DEFAULT_255_1_234
10
23.7851286
20
21.3793369
40
0.234377
50
359.4789506
51
16.0679113
0
ARC
8
DEFAULT_255_1_234
10
23.8327245
20
21.392181
40
0.1850875
50
16.3251951
51
44.791304
0
ARC
8
DEFAULT_255_1_234
10
23.8309526
20
21.3922339
40
0.186312
50
44.3958661
51
88.2498933
0
ARC
8
DEFAULT_255_1_234
10
23.823608
20
21.3311154
40
0.2476868
50
86.9833827
51
90.0200148
0
LINE
8
DEFAULT_255_1_234
10
21.9553392
20
28.4529
11
21.5497364
21
28.4529
0
LINE
8
DEFAULT_255_1_234
10
21.5497364
20
28.4529
11
21.5497364
21
29.6223211
0
LINE
8
DEFAULT_255_1_234
10
21.5497364
20
29.6223211
11
21.9320471
21
29.6223211
0
LINE
8
DEFAULT_255_1_234
10
21.9609614
20
28.9998614
11
21.7039458
21
28.9998614
0
LINE
8
DEFAULT_255_1_234
10
21.7039458
20
28.9998614
11
21.7039458
21
28.5789983
0
LINE
8
DEFAULT_255_1_234
10
21.7039458
20
28.5789983
11
21.9585519
21
28.5789983
0
LINE
8
DEFAULT_255_1_234
10
21.7039458
20
29.4954196
11
21.7039458
21
29.1235501
0
LINE
8
DEFAULT_255_1_234
10
21.7039458
20
29.1235501
11
21.9368662
21
29.1235501
0
LINE
8
DEFAULT_255_1_234
10
21.9320471
20
29.4954196
11
21.7039458
21
29.4954196
0
ARC
8
DEFAULT_255_1_234
10
21.935818
20
28.8855901
40
0.7367406
50
82.1257326
51
90.2932599
0
ARC
8
DEFAULT_255_1_234
10
21.9747135
20
29.1574013
40
0.4621653
50
69.9044149
51
82.2857423
0
ARC
8
DEFAULT_255_1_234
10
22.0317813
20
29.3116637
40
0.2976871
50
51.1838526
51
70.0181538
0
ARC
8
DEFAULT_255_1_234
10
22.0572779
20
29.348724
40
0.2528517
50
12.1017251
51
50.4214761
0
ARC
8
DEFAULT_255_1_234
10
21.9188653
20
29.3139676
40
0.3955061
50
359.5251267
51
12.8211707
0
ARC
8
DEFAULT_255_1_234
10
22.0768579
20
29.3070344
40
0.2375281
50
323.4908128
51
0.8817314
0
ARC
8
DEFAULT_255_1_234
10
22.0350266
20
29.339355
40
0.2903817
50
298.6825083
51
323.2756573
0
ARC
8
DEFAULT_255_1_234
10
21.9988629
20
29.3994649
40
0.3604842
50
293.1999386
51
299.1396394
0
ARC
8
DEFAULT_255_1_234
10
22.0661602
20
28.7909126
40
0.2871098
50
54.0011765
51
74.9167975
0
ARC
8
DEFAULT_255_1_234
10
22.0777961
20
28.8106332
40
0.2643248
50
36.3580696
51
53.5291921
0
ARC
8
DEFAULT_255_1_234
10
22.0651203
20
28.8015998
40
0.2798884
50
4.8189881
51
36.3089977
0
ARC
8
DEFAULT_255_1_234
10
21.9872038
20
28.790627
40
0.358478
50
359.9370252
51
5.5204067
0
ARC
8
DEFAULT_255_1_234
10
21.954756
20
28.7865667
40
0.3909429
50
344.7478609
51
0.5373281
0
ARC
8
DEFAULT_255_1_234
10
22.0538531
20
28.7598544
40
0.2883093
50
311.1786488
51
344.6886812
0
ARC
8
DEFAULT_255_1_234
10
22.0246578
20
28.7961987
40
0.3348923
50
286.0418249
51
310.8441291
0
ARC
8
DEFAULT_255_1_234
10
21.973941
20
28.9608807
40
0.5071869
50
274.1042341
51
286.4071509
0
ARC
8
DEFAULT_255_1_234
10
21.9562666
20
29.1492229
40
0.6963234
50
269.9236873
51
274.445647
0
ARC
8
DEFAULT_255_1_234
10
21.9608667
20
28.9152537
40
0.3362634
50
269.6055768
51
281.3740047
0
ARC
8
DEFAULT_255_1_234
10
21.9839305
20
28.8059353
40
0.224546
50
281.1055983
51
302.5132223
0
ARC
8
DEFAULT_255_1_234
10
21.9986204
20
28.7795823
40
0.1944357
50
303.0368945
51
311.8811219
0
ARC
8
DEFAULT_255_1_234
10
22.0057611
20
28.771089
40
0.1833454
50
311.9916004
51
351.7143462
0
ARC
8
DEFAULT_255_1_234
10
21.9240841
20
28.787593
40
0.2665871
50
350.7339597
51
0.2221581
0
ARC
8
DEFAULT_255_1_234
10
21.9133287
20
28.7932467
40
0.2773789
50
359.0456241
51
17.2296242
0
ARC
8
DEFAULT_255_1_234
10
22.0172404
20
28.8241163
40
0.1689915
50
17.6685481
51
78.9940892
0
ARC
8
DEFAULT_255_1_234
10
21.9655568
20
28.6386224
40
0.3612658
50
76.5635957
51
90.6980921
0
LINE
8
DEFAULT_255_1_234
10
21.9611552
20
28.9998613
11
21.9609614
21
28.9998614
0
ARC
8
DEFAULT_255_1_234
10
21.9391228
20
29.4521036
40
0.3285612
50
269.6064736
51
281.4533503
0
ARC
8
DEFAULT_255_1_234
10
21.9614048
20
29.3469688
40
0.2210975
50
281.2041486
51
302.5148063
0
ARC
8
DEFAULT_255_1_234
10
21.9750898
20
29.3223241
40
0.1929674
50
303.021671
51
309.8369575
0
ARC
8
DEFAULT_255_1_234
10
21.9934359
20
29.3017488
40
0.1654181
50
309.5228395
51
356.9509836
0
ARC
8
DEFAULT_255_1_234
10
21.9270942
20
29.3112932
40
0.2322512
50
355.4701227
51
0.0492546
0
ARC
8
DEFAULT_255_1_234
10
21.8992033
20
29.3135094
40
0.2601498
50
359.5558597
51
11.2096359
0
ARC
8
DEFAULT_255_1_234
10
21.9949323
20
29.333323
40
0.1623975
50
10.9182341
51
31.3230275
0
ARC
8
DEFAULT_255_1_234
10
22.0235056
20
29.3492214
40
0.1297302
50
31.8852677
51
52.1412565
0
ARC
8
DEFAULT_255_1_234
10
21.9960789
20
29.310475
40
0.1771663
50
52.8285564
51
71.9850297
0
ARC
8
DEFAULT_255_1_234
10
21.9584965
20
29.1998664
40
0.2939794
50
71.6863486
51
82.8455995
0
ARC
8
DEFAULT_255_1_234
10
21.9345501
20
29.0189149
40
0.476506
50
82.6984714
51
90.1729175
0
ARC
8
DEFAULT_255_1_234
10
21.9323136
20
29.1412623
40
0.3541573
50
89.8708275
51
90.0431131
0
LINE
8
DEFAULT_255_1_234
10
23.0235604
20
29.6279433
11
23.0235604
21
28.4529
0
LINE
8
DEFAULT_255_1_234
10
23.0235604
20
28.4529
11
22.87417
21
28.4529
0
LINE
8
DEFAULT_255_1_234
10
22.87417
20
28.4529
11
22.87417
21
29.4432133
0
LINE
8
DEFAULT_255_1_234
10
22.87417
20
29.4432133
11
22.5745862
21
29.3331785
0
LINE
8
DEFAULT_255_1_234
10
22.5745862
20
29.3331785
11
22.5745862
21
29.4681117
0
LINE
8
DEFAULT_255_1_234
10
22.5745862
20
29.4681117
11
23.0002683
21
29.6279433
0
LINE
8
DEFAULT_255_1_234
10
23.0002683
20
29.6279433
11
23.0235604
21
29.6279433
0
LINE
8
DEFAULT_255_1_234
10
24.213864
20
29.6223211
11
24.213864
21
29.538791
0
LINE
8
DEFAULT_255_1_234
10
24.213864
20
29.538791
11
23.7295501
21
28.4529
0
LINE
8
DEFAULT_255_1_234
10
23.7295501
20
28.4529
11
23.5737344
21
28.4529
0
LINE
8
DEFAULT_255_1_234
10
23.5737344
20
28.4529
11
24.0564419
21
29.5002387
0
LINE
8
DEFAULT_255_1_234
10
24.0564419
20
29.5002387
11
23.4235409
21
29.5002387
0
LINE
8
DEFAULT_255_1_234
10
23.4235409
20
29.5002387
11
23.4235409
21
29.6223211
0
LINE
8
DEFAULT_255_1_234
10
23.4235409
20
29.6223211
11
24.213864
21
29.6223211
0
LINE
8
DEFAULT_255_1_234
10
21.9553392
20
36.3904
11
21.5497364
21
36.3904
0
LINE
8
DEFAULT_255_1_234
10
21.5497364
20
36.3904
11
21.5497364
21
37.5598211
0
LINE
8
DEFAULT_255_1_234
10
21.5497364
20
37.5598211
11
21.9320471
21
37.5598211
0
LINE
8
DEFAULT_255_1_234
10
21.9609614
20
36.9373614
11
21.7039458
21
36.9373614
0
LINE
8
DEFAULT_255_1_234
10
21.7039458
20
36.9373614
11
21.7039458
21
36.5164983
0
LINE
8
DEFAULT_255_1_234
10
21.7039458
20
36.5164983
11
21.9585519
21
36.5164983
0
LINE
8
DEFAULT_255_1_234
10
21.7039458
20
37.4329196
11
21.7039458
21
37.0610501
0
LINE
8
DEFAULT_255_1_234
10
21.7039458
20
37.0610501
11
21.9368662
21
37.0610501
0
LINE
8
DEFAULT_255_1_234
10
21.9320471
20
37.4329196
11
21.7039458
21
37.4329196
0
ARC
8
DEFAULT_255_1_234
10
21.935818
20
36.8230901
40
0.7367406
50
82.1257326
51
90.2932599
0
ARC
8
DEFAULT_255_1_234
10
21.9747135
20
37.0949013
40
0.4621653
50
69.9044149
51
82.2857423
0
ARC
8
DEFAULT_255_1_234
10
22.0317813
20
37.2491637
40
0.2976871
50
51.1838526
51
70.0181538
0
ARC
8
DEFAULT_255_1_234
10
22.0572779
20
37.286224
40
0.2528517
50
12.1017251
51
50.4214761
0
ARC
8
DEFAULT_255_1_234
10
21.9188653
20
37.2514676
40
0.3955061
50
359.5251267
51
12.8211707
0
ARC
8
DEFAULT_255_1_234
10
22.0768579
20
37.2445344
40
0.2375281
50
323.4908128
51
0.8817314
0
ARC
8
DEFAULT_255_1_234
10
22.0350266
20
37.276855
40
0.2903817
50
298.6825083
51
323.2756573
0
ARC
8
DEFAULT_255_1_234
10
21.9988629
20
37.3369649
40
0.3604842
50
293.1999386
51
299.1396394
0
ARC
8
DEFAULT_255_1_234
10
22.0661602
20
36.7284126
40
0.2871098
50
54.0011765
51
74.9167975
0
ARC
8
DEFAULT_255_1_234
10
22.0777961
20
36.7481332
40
0.2643248
50
36.3580696
51
53.5291921
0
ARC
8
DEFAULT_255_1_234
10
22.0651203
20
36.7390998
40
0.2798884
50
4.8189881
51
36.3089977
0
ARC
8
DEFAULT_255_1_234
10
21.9872038
20
36.728127
40
0.358478
50
359.9370252
51
5.5204067
0
ARC
8
DEFAULT_255_1_234
10
21.954756
20
36.7240667
40
0.3909429
50
344.7478609
51
0.5373281
0
ARC
8
DEFAULT_255_1_234
10
22.0538531
20
36.6973544
40
0.2883093
50
311.1786488
51
344.6886812
0
ARC
8
DEFAULT_255_1_234
10
22.0246578
20
36.7336987
40
0.3348923
50
286.0418249
51
310.8441291
0
ARC
8
DEFAULT_255_1_234
10
21.973941
20
36.8983807
40
0.5071869
50
274.1042341
51
286.4071509
0
ARC
8
DEFAULT_255_1_234
10
21.9562666
20
37.0867229
40
0.6963234
50
269.9236873
51
274.445647
0
ARC
8
DEFAULT_255_1_234
10
21.9608667
20
36.8527537
40
0.3362634
50
269.6055768
51
281.3740047
0
ARC
8
DEFAULT_255_1_234
10
21.9839305
20
36.7434353
40
0.224546
50
281.1055983
51
302.5132223
0
ARC
8
DEFAULT_255_1_234
10
21.9986204
20
36.7170823
40
0.1944357
50
303.0368945
51
311.8811219
0
ARC
8
DEFAULT_255_1_234
10
22.0057611
20
36.708589
40
0.1833454
50
311.9916004
51
351.7143462
0
ARC
8
DEFAULT_255_1_234
10
21.9240841
20
36.725093
40
0.2665871
50
350.7339597
51
0.2221581
0
ARC
8
DEFAULT_255_1_234
10
21.9133287
20
36.7307467
40
0.2773789
50
359.0456241
51
17.2296242
0
ARC
8
DEFAULT_255_1_234
10
22.0172404
20
36.7616163
40
0.1689915
50
17.6685481
51
78.9940892
0
ARC
8
DEFAULT_255_1_234
10
21.9655568
20
36.5761224
40
0.3612658
50
76.5635957
51
90.6980921
0
LINE
8
DEFAULT_255_1_234
10
21.9611552
20
36.9373613
11
21.9609614
21
36.9373614
0
ARC
8
DEFAULT_255_1_234
10
21.9391228
20
37.3896036
40
0.3285612
50
269.6064736
51
281.4533503
0
ARC
8
DEFAULT_255_1_234
10
21.9614048
20
37.2844688
40
0.2210975
50
281.2041486
51
302.5148063
0
ARC
8
DEFAULT_255_1_234
10
21.9750898
20
37.2598241
40
0.1929674
50
303.021671
51
309.8369575
0
ARC
8
DEFAULT_255_1_234
10
21.9934359
20
37.2392488
40
0.1654181
50
309.5228395
51
356.9509836
0
ARC
8
DEFAULT_255_1_234
10
21.9270942
20
37.2487932
40
0.2322512
50
355.4701227
51
0.0492546
0
ARC
8
DEFAULT_255_1_234
10
21.8992033
20
37.2510094
40
0.2601498
50
359.5558597
51
11.2096359
0
ARC
8
DEFAULT_255_1_234
10
21.9949323
20
37.270823
40
0.1623975
50
10.9182341
51
31.3230275
0
ARC
8
DEFAULT_255_1_234
10
22.0235056
20
37.2867214
40
0.1297302
50
31.8852677
51
52.1412565
0
ARC
8
DEFAULT_255_1_234
10
21.9960789
20
37.247975
40
0.1771663
50
52.8285564
51
71.9850297
0
ARC
8
DEFAULT_255_1_234
10
21.9584965
20
37.1373664
40
0.2939794
50
71.6863486
51
82.8455995
0
ARC
8
DEFAULT_255_1_234
10
21.9345501
20
36.9564149
40
0.476506
50
82.6984714
51
90.1729175
0
ARC
8
DEFAULT_255_1_234
10
21.9323136
20
37.0787623
40
0.3541573
50
89.8708275
51
90.0431131
0
LINE
8
DEFAULT_255_1_234
10
23.0235604
20
37.5654433
11
23.0235604
21
36.3904
0
LINE
8
DEFAULT_255_1_234
10
23.0235604
20
36.3904
11
22.87417
21
36.3904
0
LINE
8
DEFAULT_255_1_234
10
22.87417
20
36.3904
11
22.87417
21
37.3807133
0
LINE
8
DEFAULT_255_1_234
10
22.87417
20
37.3807133
11
22.5745862
21
37.2706785
0
LINE
8
DEFAULT_255_1_234
10
22.5745862
20
37.2706785
11
22.5745862
21
37.4056117
0
LINE
8
DEFAULT_255_1_234
10
22.5745862
20
37.4056117
11
23.0002683
21
37.5654433
0
LINE
8
DEFAULT_255_1_234
10
23.0002683
20
37.5654433
11
23.0235604
21
37.5654433
0
LINE
8
DEFAULT_255_1_234
10
24.01548
20
37.5606243
11
24.0419848
21
37.5606243
0
LINE
8
DEFAULT_255_1_234
10
24.0419848
20
37.5606243
11
24.0419848
21
37.434526
0
LINE
8
DEFAULT_255_1_234
10
24.0419848
20
37.434526
11
24.0146769
21
37.434526
0
LINE
8
DEFAULT_255_1_234
10
23.4677155
20
36.8353583
11
23.4677155
21
36.8923836
0
LINE
8
DEFAULT_255_1_234
10
23.6171058
20
36.8731075
11
23.6171058
21
36.8184917
0
ARC
8
DEFAULT_255_1_234
10
24.0199116
20
36.9347455
40
0.4998079
50
90.6001036
51
104.514704
0
ARC
8
DEFAULT_255_1_234
10
23.9810632
20
37.0792131
40
0.3502176
50
104.2855254
51
133.862935
0
ARC
8
DEFAULT_255_1_234
10
23.9974389
20
37.068383
40
0.3693984
50
134.5302688
51
161.6210873
0
ARC
8
DEFAULT_255_1_234
10
24.1627578
20
37.0100895
40
0.5446739
50
161.2849839
51
174.2076652
0
ARC
8
DEFAULT_255_1_234
10
24.3034515
20
36.9906787
40
0.6866274
50
173.7810589
51
174.9254635
0
ARC
8
DEFAULT_255_1_234
10
23.8484347
20
36.8523839
40
0.3033419
50
95.8330959
51
138.9954921
0
ARC
8
DEFAULT_255_1_234
10
23.8707703
20
36.7245375
40
0.4328947
50
89.8753725
51
97.0544009
0
ARC
8
DEFAULT_255_1_234
10
23.8755169
20
36.8080748
40
0.3493769
50
71.6407809
51
90.6240094
0
ARC
8
DEFAULT_255_1_234
10
23.8905743
20
36.8635082
40
0.2920396
50
39.6367836
51
71.019018
0
ARC
8
DEFAULT_255_1_234
10
23.8269216
20
36.8084998
40
0.3761538
50
10.658731
51
39.9043955
0
ARC
8
DEFAULT_255_1_234
10
23.6721298
20
36.7748686
40
0.5345136
50
359.682601
51
11.132623
0
ARC
8
DEFAULT_255_1_234
10
23.6681429
20
36.767801
40
0.5385081
50
347.2486944
51
0.4369317
0
ARC
8
DEFAULT_255_1_234
10
23.8348906
20
36.7276807
40
0.3670249
50
318.1409698
51
347.6118597
0
ARC
8
DEFAULT_255_1_234
10
23.8673899
20
36.7009702
40
0.3250007
50
275.6342139
51
317.8248465
0
ARC
8
DEFAULT_255_1_234
10
23.8453011
20
36.8309219
40
0.4565864
50
269.8874292
51
276.7917694
0
ARC
8
DEFAULT_255_1_234
10
23.8398081
20
36.7283743
40
0.3540676
50
246.9140195
51
270.7437342
0
ARC
8
DEFAULT_255_1_234
10
23.8404472
20
36.7141384
40
0.3412781
50
218.1665114
51
245.878116
0
ARC
8
DEFAULT_255_1_234
10
23.9283932
20
36.7877279
40
0.455911
50
191.4115814
51
218.6077802
0
ARC
8
DEFAULT_255_1_234
10
24.1222022
20
36.8311833
40
0.6545001
50
179.6345085
51
191.7836486
0
ARC
8
DEFAULT_255_1_234
10
24.6804358
20
36.8990697
40
1.2127388
50
171.4525249
51
180.3158839
0
ARC
8
DEFAULT_255_1_234
10
24.2409234
20
36.9674608
40
0.7679464
50
157.9802646
51
171.6246686
0
ARC
8
DEFAULT_255_1_234
10
24.0195255
20
37.0557421
40
0.5296008
50
141.4298019
51
157.854097
0
ARC
8
DEFAULT_255_1_234
10
23.9553576
20
37.1011381
40
0.4511509
50
102.8715806
51
140.8564722
0
ARC
8
DEFAULT_255_1_234
10
24.0201191
20
36.8571552
40
0.7034845
50
90.3778349
51
103.5869322
0
ARC
8
DEFAULT_255_1_234
10
23.8462967
20
36.796673
40
0.2370698
50
89.8751008
51
126.2071704
0
ARC
8
DEFAULT_255_1_234
10
23.8508757
20
36.7812303
40
0.2522934
50
124.9745049
51
144.895901
0
ARC
8
DEFAULT_255_1_234
10
23.8332948
20
36.795556
40
0.2296779
50
145.2974905
51
160.2660252
0
ARC
8
DEFAULT_255_1_234
10
24.1405486
20
36.8153071
40
0.5234525
50
179.6514266
51
190.2855912
0
ARC
8
DEFAULT_255_1_234
10
23.9711624
20
36.7833786
40
0.3510893
50
190.0945431
51
207.5098196
0
ARC
8
DEFAULT_255_1_234
10
23.9145893
20
36.7564623
40
0.288489
50
207.9583163
51
216.3251085
0
ARC
8
DEFAULT_255_1_234
10
23.8806001
20
36.7285105
40
0.2445587
50
215.7661442
51
232.5456785
0
ARC
8
DEFAULT_255_1_234
10
23.8422984
20
36.6798482
40
0.1826382
50
232.8005391
51
270.6605633
0
ARC
8
DEFAULT_255_1_234
10
23.8468685
20
36.7162612
40
0.2190529
50
269.35537
51
288.4744281
0
ARC
8
DEFAULT_255_1_234
10
23.8561582
20
36.6813118
40
0.1829749
50
289.1833337
51
322.9683818
0
ARC
8
DEFAULT_255_1_234
10
23.7950105
20
36.7295391
40
0.2608399
50
322.6007884
51
346.5182367
0
ARC
8
DEFAULT_255_1_234
10
23.67927
20
36.7590616
40
0.3802777
50
346.2582162
51
358.7741648
0
ARC
8
DEFAULT_255_1_234
10
23.5774369
20
36.7645965
40
0.4822176
50
358.3755224
51
0.0098023
0
ARC
8
DEFAULT_255_1_234
10
23.6530557
20
36.7673657
40
0.4066078
50
359.6214041
51
11.2839074
0
ARC
8
DEFAULT_255_1_234
10
23.7807703
20
36.7940066
40
0.2761514
50
11.0482309
51
31.8146458
0
ARC
8
DEFAULT_255_1_234
10
23.8116746
20
36.8107584
40
0.2410679
50
32.3035391
51
38.082671
0
ARC
8
DEFAULT_255_1_234
10
23.8537406
20
36.8488662
40
0.1844966
50
36.825067
51
85.7415724
0
ARC
8
DEFAULT_255_1_234
10
23.847024
20
36.7988301
40
0.2349122
50
85.0140713
51
90.0513278
0
LINE
8
DEFAULT_255_1_234
10
21.9553392
20
44.3279
11
21.5497364
21
44.3279
0
LINE
8
DEFAULT_255_1_234
10
21.5497364
20
44.3279
11
21.5497364
21
45.4973211
0
LINE
8
DEFAULT_255_1_234
10
21.5497364
20
45.4973211
11
21.9320471
21
45.4973211
0
LINE
8
DEFAULT_255_1_234
10
21.9609614
20
44.8748614
11
21.7039458
21
44.8748614
0
LINE
8
DEFAULT_255_1_234
10
21.7039458
20
44.8748614
11
21.7039458
21
44.4539983
0
LINE
8
DEFAULT_255_1_234
10
21.7039458
20
44.4539983
11
21.9585519
21
44.4539983
0
LINE
8
DEFAULT_255_1_234
10
21.7039458
20
45.3704196
11
21.7039458
21
44.9985501
0
LINE
8
DEFAULT_255_1_234
10
21.7039458
20
44.9985501
11
21.9368662
21
44.9985501
0
LINE
8
DEFAULT_255_1_234
10
21.9320471
20
45.3704196
11
21.7039458
21
45.3704196
0
ARC
8
DEFAULT_255_1_234
10
21.935818
20
44.7605901
40
0.7367406
50
82.1257326
51
90.2932599
0
ARC
8
DEFAULT_255_1_234
10
21.9747135
20
45.0324013
40
0.4621653
50
69.9044149
51
82.2857423
0
ARC
8
DEFAULT_255_1_234
10
22.0317813
20
45.1866637
40
0.2976871
50
51.1838526
51
70.0181538
0
ARC
8
DEFAULT_255_1_234
10
22.0572779
20
45.223724
40
0.2528517
50
12.1017251
51
50.4214761
0
ARC
8
DEFAULT_255_1_234
10
21.9188653
20
45.1889676
40
0.3955061
50
359.5251267
51
12.8211707
0
ARC
8
DEFAULT_255_1_234
10
22.0768579
20
45.1820344
40
0.2375281
50
323.4908128
51
0.8817314
0
ARC
8
DEFAULT_255_1_234
10
22.0350266
20
45.214355
40
0.2903817
50
298.6825083
51
323.2756573
0
ARC
8
DEFAULT_255_1_234
10
21.9988629
20
45.2744649
40
0.3604842
50
293.1999386
51
299.1396394
0
ARC
8
DEFAULT_255_1_234
10
22.0661602
20
44.6659126
40
0.2871098
50
54.0011765
51
74.9167975
0
ARC
8
DEFAULT_255_1_234
10
22.0777961
20
44.6856332
40
0.2643248
50
36.3580696
51
53.5291921
0
ARC
8
DEFAULT_255_1_234
10
22.0651203
20
44.6765998
40
0.2798884
50
4.8189881
51
36.3089977
0
ARC
8
DEFAULT_255_1_234
10
21.9872038
20
44.665627
40
0.358478
50
359.9370252
51
5.5204067
0
ARC
8
DEFAULT_255_1_234
10
21.954756
20
44.6615667
40
0.3909429
50
344.7478609
51
0.5373281
0
ARC
8
DEFAULT_255_1_234
10
22.0538531
20
44.6348544
40
0.2883093
50
311.1786488
51
344.6886812
0
ARC
8
DEFAULT_255_1_234
10
22.0246578
20
44.6711987
40
0.3348923
50
286.0418249
51
310.8441291
0
ARC
8
DEFAULT_255_1_234
10
21.973941
20
44.8358807
40
0.5071869
50
274.1042341
51
286.4071509
0
ARC
8
DEFAULT_255_1_234
10
21.9562666
20
45.0242229
40
0.6963234
50
269.9236873
51
274.445647
0
ARC
8
DEFAULT_255_1_234
10
21.9608667
20
44.7902537
40
0.3362634
50
269.6055768
51
281.3740047
0
ARC
8
DEFAULT_255_1_234
10
21.9839305
20
44.6809353
40
0.224546
50
281.1055983
51
302.5132223
0
ARC
8
DEFAULT_255_1_234
10
21.9986204
20
44.6545823
40
0.1944357
50
303.0368945
51
311.8811219
0
ARC
8
DEFAULT_255_1_234
10
22.0057611
20
44.646089
40
0.1833454
50
311.9916004
51
351.7143462
0
ARC
8
DEFAULT_255_1_234
10
21.9240841
20
44.662593
40
0.2665871
50
350.7339597
51
0.2221581
0
ARC
8
DEFAULT_255_1_234
10
21.9133287
20
44.6682467
40
0.2773789
50
359.0456241
51
17.2296242
0
ARC
8
DEFAULT_255_1_234
10
22.0172404
20
44.6991163
40
0.1689915
50
17.6685481
51
78.9940892
0
ARC
8
DEFAULT_255_1_234
10
21.9655568
20
44.5136224
40
0.3612658
50
76.5635957
51
90.6980921
0
LINE
8
DEFAULT_255_1_234
10
21.9611552
20
44.8748613
11
21.9609614
21
44.8748614
0
ARC
8
DEFAULT_255_1_234
10
21.9391228
20
45.3271036
40
0.3285612
50
269.6064736
51
281.4533503
0
ARC
8
DEFAULT_255_1_234
10
21.9614048
20
45.2219688
40
0.2210975
50
281.2041486
51
302.5148063
0
ARC
8
DEFAULT_255_1_234
10
21.9750898
20
45.1973241
40
0.1929674
50
303.021671
51
309.8369575
0
ARC
8
DEFAULT_255_1_234
10
21.9934359
20
45.1767488
40
0.1654181
50
309.5228395
51
356.9509836
0
ARC
8
DEFAULT_255_1_234
10
21.9270942
20
45.1862932
40
0.2322512
50
355.4701227
51
0.0492546
0
ARC
8
DEFAULT_255_1_234
10
21.8992033
20
45.1885094
40
0.2601498
50
359.5558597
51
11.2096359
0
ARC
8
DEFAULT_255_1_234
10
21.9949323
20
45.208323
40
0.1623975
50
10.9182341
51
31.3230275
0
ARC
8
DEFAULT_255_1_234
10
22.0235056
20
45.2242214
40
0.1297302
50
31.8852677
51
52.1412565
0
ARC
8
DEFAULT_255_1_234
10
21.9960789
20
45.185475
40
0.1771663
50
52.8285564
51
71.9850297
0
ARC
8
DEFAULT_255_1_234
10
21.9584965
20
45.0748664
40
0.2939794
50
71.6863486
51
82.8455995
0
ARC
8
DEFAULT_255_1_234
10
21.9345501
20
44.8939149
40
0.476506
50
82.6984714
51
90.1729175
0
ARC
8
DEFAULT_255_1_234
10
21.9323136
20
45.0162623
40
0.3541573
50
89.8708275
51
90.0431131
0
LINE
8
DEFAULT_255_1_234
10
23.0235604
20
45.5029433
11
23.0235604
21
44.3279
0
LINE
8
DEFAULT_255_1_234
10
23.0235604
20
44.3279
11
22.87417
21
44.3279
0
LINE
8
DEFAULT_255_1_234
10
22.87417
20
44.3279
11
22.87417
21
45.3182133
0
LINE
8
DEFAULT_255_1_234
10
22.87417
20
45.3182133
11
22.5745862
21
45.2081785
0
LINE
8
DEFAULT_255_1_234
10
22.5745862
20
45.2081785
11
22.5745862
21
45.3431117
0
LINE
8
DEFAULT_255_1_234
10
22.5745862
20
45.3431117
11
23.0002683
21
45.5029433
0
LINE
8
DEFAULT_255_1_234
10
23.0002683
20
45.5029433
11
23.0235604
21
45.5029433
0
LINE
8
DEFAULT_255_1_234
10
23.6460201
20
44.8836963
11
23.5271503
21
44.9142169
0
LINE
8
DEFAULT_255_1_234
10
23.5271503
20
44.9142169
11
23.5865852
21
45.4973211
0
LINE
8
DEFAULT_255_1_234
10
23.5865852
20
45.4973211
11
24.1857529
21
45.4973211
0
LINE
8
DEFAULT_255_1_234
10
24.1857529
20
45.4973211
11
24.1857529
21
45.3599784
0
LINE
8
DEFAULT_255_1_234
10
24.1857529
20
45.3599784
11
23.7126835
21
45.3599784
0
LINE
8
DEFAULT_255_1_234
10
23.7126835
20
45.3599784
11
23.6773438
21
45.0411184
0
LINE
8
DEFAULT_255_1_234
10
23.4853853
20
44.6355156
11
23.6259407
21
44.6355156
0
LINE
8
DEFAULT_255_1_234
10
23.6853756
20
44.9158232
11
23.6460201
21
44.8836963
0
ARC
8
DEFAULT_255_1_234
10
23.8628222
20
44.723123
40
0.3681349
50
93.7182161
51
120.2538958
0
ARC
8
DEFAULT_255_1_234
10
23.8722485
20
44.6423394
40
0.449379
50
89.9660152
51
94.2496022
0
ARC
8
DEFAULT_255_1_234
10
23.8763219
20
44.7012549
40
0.390482
50
73.8043271
51
90.5585896
0
ARC
8
DEFAULT_255_1_234
10
23.8998116
20
44.7870602
40
0.3015334
50
41.3071453
51
73.5430202
0
ARC
8
DEFAULT_255_1_234
10
23.8581944
20
44.7512324
40
0.3564457
50
13.5075983
51
41.2174222
0
ARC
8
DEFAULT_255_1_234
10
23.6940147
20
44.7082486
40
0.5261351
50
1.1331335
51
13.8829381
0
ARC
8
DEFAULT_255_1_234
10
23.5528516
20
44.7006665
40
0.6674378
50
359.9919444
51
1.544251
0
ARC
8
DEFAULT_255_1_234
10
23.6805343
20
44.696528
40
0.5397702
50
347.8572367
51
0.4293338
0
ARC
8
DEFAULT_255_1_234
10
23.855566
20
44.6568736
40
0.3603188
50
323.673004
51
348.1672506
0
ARC
8
DEFAULT_255_1_234
10
23.8850168
20
44.6389168
40
0.3259678
50
316.8171152
51
323.1492751
0
ARC
8
DEFAULT_255_1_234
10
23.8911357
20
44.635246
40
0.3189975
50
281.8396411
51
316.5457803
0
ARC
8
DEFAULT_255_1_234
10
23.8535621
20
44.7907762
40
0.4789527
50
269.5770101
51
282.4214771
0
ARC
8
DEFAULT_255_1_234
10
23.8464433
20
44.7694125
40
0.45759
50
256.2427136
51
270.4486331
0
ARC
8
DEFAULT_255_1_234
10
23.8165335
20
44.6494229
40
0.3339303
50
228.9023911
51
256.3314342
0
ARC
8
DEFAULT_255_1_234
10
23.8091568
20
44.6377746
40
0.32031
50
193.753695
51
228.5271154
0
ARC
8
DEFAULT_255_1_234
10
23.9329522
20
44.67408
40
0.4492253
50
184.924711
51
194.497588
0
ARC
8
DEFAULT_255_1_234
10
23.9522088
20
44.6776591
40
0.3289787
50
187.3600538
51
198.6732863
0
ARC
8
DEFAULT_255_1_234
10
23.8472382
20
44.6412674
40
0.217884
50
198.4451669
51
217.794479
0
ARC
8
DEFAULT_255_1_234
10
23.8176558
20
44.6203085
40
0.1816698
50
218.2887171
51
228.5612368
0
ARC
8
DEFAULT_255_1_234
10
23.8274345
20
44.6334963
40
0.1980329
50
228.9654866
51
258.1234728
0
ARC
8
DEFAULT_255_1_234
10
23.8480055
20
44.7215833
40
0.2884748
50
257.7258293
51
270.401361
0
ARC
8
DEFAULT_255_1_234
10
23.8524941
20
44.6770821
40
0.2439788
50
269.4204404
51
286.4209037
0
ARC
8
DEFAULT_255_1_234
10
23.8673428
20
44.6231657
40
0.1880666
50
286.7251356
51
320.600362
0
ARC
8
DEFAULT_255_1_234
10
23.8290253
20
44.6542595
40
0.2374121
50
320.6712579
51
344.5441685
0
ARC
8
DEFAULT_255_1_234
10
23.713358
20
44.6882045
40
0.3579479
50
344.2412205
51
356.7357071
0
ARC
8
DEFAULT_255_1_234
10
23.5884728
20
44.6985444
40
0.4832297
50
356.3548756
51
0.0500261
0
ARC
8
DEFAULT_255_1_234
10
23.7221237
20
44.701665
40
0.3495889
50
359.5576869
51
12.953486
0
ARC
8
DEFAULT_255_1_234
10
23.8276135
20
44.7272434
40
0.2410532
50
12.6490276
51
41.6081334
0
ARC
8
DEFAULT_255_1_234
10
23.8506506
20
44.7468321
40
0.2108218
50
41.7850273
51
85.9892764
0
ARC
8
DEFAULT_255_1_234
10
23.8383242
20
44.6655462
40
0.2928454
50
84.6957577
51
90.0676183
0
ARC
8
DEFAULT_255_1_234
10
23.8359726
20
44.5986716
40
0.3597255
50
89.6804936
51
99.1614436
0
ARC
8
DEFAULT_255_1_234
10
23.8154358
20
44.7214131
40
0.235281
50
98.9830931
51
113.8908934
0
ARC
8
DEFAULT_255_1_234
10
23.7924768
20
44.7755587
40
0.176479
50
114.1950727
51
127.3641004
0
LINE
8
DEFAULT_255_1_234
10
21.8494392
20
52.2654
11
21.4438364
21
52.2654
0
LINE
8
DEFAULT_255_1_234
10
21.4438364
20
52.2654
11
21.4438364
21
53.4348211
0
LINE
8
DEFAULT_255_1_234
10
21.4438364
20
53.4348211
11
21.8261471
21
53.4348211
0
LINE
8
DEFAULT_255_1_234
10
21.8550614
20
52.8123614
11
21.5980458
21
52.8123614
0
LINE
8
DEFAULT_255_1_234
10
21.5980458
20
52.8123614
11
21.5980458
21
52.3914983
0
LINE
8
DEFAULT_255_1_234
10
21.5980458
20
52.3914983
11
21.8526519
21
52.3914983
0
LINE
8
DEFAULT_255_1_234
10
21.5980458
20
53.3079196
11
21.5980458
21
52.9360501
0
LINE
8
DEFAULT_255_1_234
10
21.5980458
20
52.9360501
11
21.8309662
21
52.9360501
0
LINE
8
DEFAULT_255_1_234
10
21.8261471
20
53.3079196
11
21.5980458
21
53.3079196
0
ARC
8
DEFAULT_255_1_234
10
21.829918
20
52.6980901
40
0.7367406
50
82.1257326
51
90.2932599
0
ARC
8
DEFAULT_255_1_234
10
21.8688135
20
52.9699013
40
0.4621653
50
69.9044149
51
82.2857423
0
ARC
8
DEFAULT_255_1_234
10
21.9258813
20
53.1241637
40
0.2976871
50
51.1838526
51
70.0181538
0
ARC
8
DEFAULT_255_1_234
10
21.9513779
20
53.161224
40
0.2528517
50
12.1017251
51
50.4214761
0
ARC
8
DEFAULT_255_1_234
10
21.8129653
20
53.1264676
40
0.3955061
50
359.5251267
51
12.8211707
0
ARC
8
DEFAULT_255_1_234
10
21.9709579
20
53.1195344
40
0.2375281
50
323.4908128
51
0.8817314
0
ARC
8
DEFAULT_255_1_234
10
21.9291266
20
53.151855
40
0.2903817
50
298.6825083
51
323.2756573
0
ARC
8
DEFAULT_255_1_234
10
21.8929629
20
53.2119649
40
0.3604842
50
293.1999386
51
299.1396394
0
ARC
8
DEFAULT_255_1_234
10
21.9602602
20
52.6034126
40
0.2871098
50
54.0011765
51
74.9167975
0
ARC
8
DEFAULT_255_1_234
10
21.9718961
20
52.6231332
40
0.2643248
50
36.3580696
51
53.5291921
0
ARC
8
DEFAULT_255_1_234
10
21.9592203
20
52.6140998
40
0.2798884
50
4.8189881
51
36.3089977
0
ARC
8
DEFAULT_255_1_234
10
21.8813038
20
52.603127
40
0.358478
50
359.9370252
51
5.5204067
0
ARC
8
DEFAULT_255_1_234
10
21.848856
20
52.5990667
40
0.3909429
50
344.7478609
51
0.5373281
0
ARC
8
DEFAULT_255_1_234
10
21.9479531
20
52.5723544
40
0.2883093
50
311.1786488
51
344.6886812
0
ARC
8
DEFAULT_255_1_234
10
21.9187578
20
52.6086987
40
0.3348923
50
286.0418249
51
310.8441291
0
ARC
8
DEFAULT_255_1_234
10
21.868041
20
52.7733807
40
0.5071869
50
274.1042341
51
286.4071509
0
ARC
8
DEFAULT_255_1_234
10
21.8503666
20
52.9617229
40
0.6963234
50
269.9236873
51
274.445647
0
ARC
8
DEFAULT_255_1_234
10
21.8549667
20
52.7277537
40
0.3362634
50
269.6055768
51
281.3740047
0
ARC
8
DEFAULT_255_1_234
10
21.8780305
20
52.6184353
40
0.224546
50
281.1055983
51
302.5132223
0
ARC
8
DEFAULT_255_1_234
10
21.8927204
20
52.5920823
40
0.1944357
50
303.0368945
51
311.8811219
0
ARC
8
DEFAULT_255_1_234
10
21.8998611
20
52.583589
40
0.1833454
50
311.9916004
51
351.7143462
0
ARC
8
DEFAULT_255_1_234
10
21.8181841
20
52.600093
40
0.2665871
50
350.7339597
51
0.2221581
0
ARC
8
DEFAULT_255_1_234
10
21.8074287
20
52.6057467
40
0.2773789
50
359.0456241
51
17.2296242
0
ARC
8
DEFAULT_255_1_234
10
21.9113404
20
52.6366163
40
0.1689915
50
17.6685481
51
78.9940892
0
ARC
8
DEFAULT_255_1_234
10
21.8596568
20
52.4511224
40
0.3612658
50
76.5635957
51
90.6980921
0
LINE
8
DEFAULT_255_1_234
10
21.8552552
20
52.8123613
11
21.8550614
21
52.8123614
0
ARC
8
DEFAULT_255_1_234
10
21.8332228
20
53.2646036
40
0.3285612
50
269.6064736
51
281.4533503
0
ARC
8
DEFAULT_255_1_234
10
21.8555048
20
53.1594688
40
0.2210975
50
281.2041486
51
302.5148063
0
ARC
8
DEFAULT_255_1_234
10
21.8691898
20
53.1348241
40
0.1929674
50
303.021671
51
309.8369575
0
ARC
8
DEFAULT_255_1_234
10
21.8875359
20
53.1142488
40
0.1654181
50
309.5228395
51
356.9509836
0
ARC
8
DEFAULT_255_1_234
10
21.8211942
20
53.1237932
40
0.2322512
50
355.4701227
51
0.0492546
0
ARC
8
DEFAULT_255_1_234
10
21.7933033
20
53.1260094
40
0.2601498
50
359.5558597
51
11.2096359
0
ARC
8
DEFAULT_255_1_234
10
21.8890323
20
53.145823
40
0.1623975
50
10.9182341
51
31.3230275
0
ARC
8
DEFAULT_255_1_234
10
21.9176056
20
53.1617214
40
0.1297302
50
31.8852677
51
52.1412565
0
ARC
8
DEFAULT_255_1_234
10
21.8901789
20
53.122975
40
0.1771663
50
52.8285564
51
71.9850297
0
ARC
8
DEFAULT_255_1_234
10
21.8525965
20
53.0123664
40
0.2939794
50
71.6863486
51
82.8455995
0
ARC
8
DEFAULT_255_1_234
10
21.8286501
20
52.8314149
40
0.476506
50
82.6984714
51
90.1729175
0
ARC
8
DEFAULT_255_1_234
10
21.8264136
20
52.9537623
40
0.3541573
50
89.8708275
51
90.0431131
0
LINE
8
DEFAULT_255_1_234
10
22.9176604
20
53.4404433
11
22.9176604
21
52.2654
0
LINE
8
DEFAULT_255_1_234
10
22.9176604
20
52.2654
11
22.76827
21
52.2654
0
LINE
8
DEFAULT_255_1_234
10
22.76827
20
52.2654
11
22.76827
21
53.2557133
0
LINE
8
DEFAULT_255_1_234
10
22.76827
20
53.2557133
11
22.4686862
21
53.1456785
0
LINE
8
DEFAULT_255_1_234
10
22.4686862
20
53.1456785
11
22.4686862
21
53.2806117
0
LINE
8
DEFAULT_255_1_234
10
22.4686862
20
53.2806117
11
22.8943683
21
53.4404433
0
LINE
8
DEFAULT_255_1_234
10
22.8943683
20
53.4404433
11
22.9176604
21
53.4404433
0
LINE
8
DEFAULT_255_1_234
10
23.9802593
20
53.4348211
11
23.9802593
21
52.658152
0
LINE
8
DEFAULT_255_1_234
10
23.9802593
20
52.658152
11
24.1425004
21
52.658152
0
LINE
8
DEFAULT_255_1_234
10
24.1425004
20
52.658152
11
24.1425004
21
52.5368728
0
LINE
8
DEFAULT_255_1_234
10
24.1425004
20
52.5368728
11
23.9802593
21
52.5368728
0
LINE
8
DEFAULT_255_1_234
10
23.9802593
20
52.5368728
11
23.9802593
21
52.2654
0
LINE
8
DEFAULT_255_1_234
10
23.9802593
20
52.2654
11
23.830869
21
52.2654
0
LINE
8
DEFAULT_255_1_234
10
23.830869
20
52.2654
11
23.830869
21
52.5368728
0
LINE
8
DEFAULT_255_1_234
10
23.830869
20
52.5368728
11
23.2983647
21
52.5368728
0
LINE
8
DEFAULT_255_1_234
10
23.2983647
20
52.5368728
11
23.2983647
21
52.6244187
0
LINE
8
DEFAULT_255_1_234
10
23.2983647
20
52.6244187
11
23.8220341
21
53.4348211
0
LINE
8
DEFAULT_255_1_234
10
23.8220341
20
53.4348211
11
23.9802593
21
53.4348211
0
LINE
8
DEFAULT_255_1_234
10
23.8131992
20
53.1994912
11
23.4670312
21
52.658152
0
LINE
8
DEFAULT_255_1_234
10
23.4670312
20
52.658152
11
23.830869
21
52.658152
0
LINE
8
DEFAULT_255_1_234
10
23.830869
20
52.658152
11
23.830869
21
53.2316181
0
LINE
8
DEFAULT_255_1_234
10
23.830869
20
53.2316181
11
23.8131992
21
53.1994912
0
LINE
8
DEFAULT_255_1_234
10
21.9553392
20
60.2029
11
21.5497364
21
60.2029
0
LINE
8
DEFAULT_255_1_234
10
21.5497364
20
60.2029
11
21.5497364
21
61.3723211
0
LINE
8
DEFAULT_255_1_234
10
21.5497364
20
61.3723211
11
21.9320471
21
61.3723211
0
LINE
8
DEFAULT_255_1_234
10
21.9609614
20
60.7498614
11
21.7039458
21
60.7498614
0
LINE
8
DEFAULT_255_1_234
10
21.7039458
20
60.7498614
11
21.7039458
21
60.3289983
0
LINE
8
DEFAULT_255_1_234
10
21.7039458
20
60.3289983
11
21.9585519
21
60.3289983
0
LINE
8
DEFAULT_255_1_234
10
21.7039458
20
61.2454196
11
21.7039458
21
60.8735501
0
LINE
8
DEFAULT_255_1_234
10
21.7039458
20
60.8735501
11
21.9368662
21
60.8735501
0
LINE
8
DEFAULT_255_1_234
10
21.9320471
20
61.2454196
11
21.7039458
21
61.2454196
0
ARC
8
DEFAULT_255_1_234
10
21.935818
20
60.6355901
40
0.7367406
50
82.1257326
51
90.2932599
0
ARC
8
DEFAULT_255_1_234
10
21.9747135
20
60.9074013
40
0.4621653
50
69.9044149
51
82.2857423
0
ARC
8
DEFAULT_255_1_234
10
22.0317813
20
61.0616637
40
0.2976871
50
51.1838526
51
70.0181538
0
ARC
8
DEFAULT_255_1_234
10
22.0572779
20
61.098724
40
0.2528517
50
12.1017251
51
50.4214761
0
ARC
8
DEFAULT_255_1_234
10
21.9188653
20
61.0639676
40
0.3955061
50
359.5251267
51
12.8211707
0
ARC
8
DEFAULT_255_1_234
10
22.0768579
20
61.0570344
40
0.2375281
50
323.4908128
51
0.8817314
0
ARC
8
DEFAULT_255_1_234
10
22.0350266
20
61.089355
40
0.2903817
50
298.6825083
51
323.2756573
0
ARC
8
DEFAULT_255_1_234
10
21.9988629
20
61.1494649
40
0.3604842
50
293.1999386
51
299.1396394
0
ARC
8
DEFAULT_255_1_234
10
22.0661602
20
60.5409126
40
0.2871098
50
54.0011765
51
74.9167975
0
ARC
8
DEFAULT_255_1_234
10
22.0777961
20
60.5606332
40
0.2643248
50
36.3580696
51
53.5291921
0
ARC
8
DEFAULT_255_1_234
10
22.0651203
20
60.5515998
40
0.2798884
50
4.8189881
51
36.3089977
0
ARC
8
DEFAULT_255_1_234
10
21.9872038
20
60.540627
40
0.358478
50
359.9370252
51
5.5204067
0
ARC
8
DEFAULT_255_1_234
10
21.954756
20
60.5365667
40
0.3909429
50
344.7478609
51
0.5373281
0
ARC
8
DEFAULT_255_1_234
10
22.0538531
20
60.5098544
40
0.2883093
50
311.1786488
51
344.6886812
0
ARC
8
DEFAULT_255_1_234
10
22.0246578
20
60.5461987
40
0.3348923
50
286.0418249
51
310.8441291
0
ARC
8
DEFAULT_255_1_234
10
21.973941
20
60.7108807
40
0.5071869
50
274.1042341
51
286.4071509
0
ARC
8
DEFAULT_255_1_234
10
21.9562666
20
60.8992229
40
0.6963234
50
269.9236873
51
274.445647
0
ARC
8
DEFAULT_255_1_234
10
21.9608667
20
60.6652537
40
0.3362634
50
269.6055768
51
281.3740047
0
ARC
8
DEFAULT_255_1_234
10
21.9839305
20
60.5559353
40
0.224546
50
281.1055983
51
302.5132223
0
ARC
8
DEFAULT_255_1_234
10
21.9986204
20
60.5295823
40
0.1944357
50
303.0368945
51
311.8811219
0
ARC
8
DEFAULT_255_1_234
10
22.0057611
20
60.521089
40
0.1833454
50
311.9916004
51
351.7143462
0
ARC
8
DEFAULT_255_1_234
10
21.9240841
20
60.537593
40
0.2665871
50
350.7339597
51
0.2221581
0
ARC
8
DEFAULT_255_1_234
10
21.9133287
20
60.5432467
40
0.2773789
50
359.0456241
51
17.2296242
0
ARC
8
DEFAULT_255_1_234
10
22.0172404
20
60.5741163
40
0.1689915
50
17.6685481
51
78.9940892
0
ARC
8
DEFAULT_255_1_234
10
21.9655568
20
60.3886224
40
0.3612658
50
76.5635957
51
90.6980921
0
LINE
8
DEFAULT_255_1_234
10
21.9611552
20
60.7498613
11
21.9609614
21
60.7498614
0
ARC
8
DEFAULT_255_1_234
10
21.9391228
20
61.2021036
40
0.3285612
50
269.6064736
51
281.4533503
0
ARC
8
DEFAULT_255_1_234
10
21.9614048
20
61.0969688
40
0.2210975
50
281.2041486
51
302.5148063
0
ARC
8
DEFAULT_255_1_234
10
21.9750898
20
61.0723241
40
0.1929674
50
303.021671
51
309.8369575
0
ARC
8
DEFAULT_255_1_234
10
21.9934359
20
61.0517488
40
0.1654181
50
309.5228395
51
356.9509836
0
ARC
8
DEFAULT_255_1_234
10
21.9270942
20
61.0612932
40
0.2322512
50
355.4701227
51
0.0492546
0
ARC
8
DEFAULT_255_1_234
10
21.8992033
20
61.0635094
40
0.2601498
50
359.5558597
51
11.2096359
0
ARC
8
DEFAULT_255_1_234
10
21.9949323
20
61.083323
40
0.1623975
50
10.9182341
51
31.3230275
0
ARC
8
DEFAULT_255_1_234
10
22.0235056
20
61.0992214
40
0.1297302
50
31.8852677
51
52.1412565
0
ARC
8
DEFAULT_255_1_234
10
21.9960789
20
61.060475
40
0.1771663
50
52.8285564
51
71.9850297
0
ARC
8
DEFAULT_255_1_234
10
21.9584965
20
60.9498664
40
0.2939794
50
71.6863486
51
82.8455995
0
ARC
8
DEFAULT_255_1_234
10
21.9345501
20
60.7689149
40
0.476506
50
82.6984714
51
90.1729175
0
ARC
8
DEFAULT_255_1_234
10
21.9323136
20
60.8912623
40
0.3541573
50
89.8708275
51
90.0431131
0
LINE
8
DEFAULT_255_1_234
10
23.0235604
20
61.3779433
11
23.0235604
21
60.2029
0
LINE
8
DEFAULT_255_1_234
10
23.0235604
20
60.2029
11
22.87417
21
60.2029
0
LINE
8
DEFAULT_255_1_234
10
22.87417
20
60.2029
11
22.87417
21
61.1932133
0
LINE
8
DEFAULT_255_1_234
10
22.87417
20
61.1932133
11
22.5745862
21
61.0831785
0
LINE
8
DEFAULT_255_1_234
10
22.5745862
20
61.0831785
11
22.5745862
21
61.2181117
0
LINE
8
DEFAULT_255_1_234
10
22.5745862
20
61.2181117
11
23.0002683
21
61.3779433
0
LINE
8
DEFAULT_255_1_234
10
23.0002683
20
61.3779433
11
23.0235604
21
61.3779433
0
LINE
8
DEFAULT_255_1_234
10
23.6749343
20
60.7386169
11
23.6749343
21
60.8598962
0
LINE
8
DEFAULT_255_1_234
10
23.6749343
20
60.8598962
11
23.7865755
21
60.8598962
0
LINE
8
DEFAULT_255_1_234
10
23.5962233
20
61.0655087
11
23.4476361
21
61.0655087
0
LINE
8
DEFAULT_255_1_234
10
23.4371949
20
60.5113188
11
23.5865852
21
60.5113188
0
LINE
8
DEFAULT_255_1_234
10
23.7865755
20
60.7386169
11
23.6749343
21
60.7386169
0
ARC
8
DEFAULT_255_1_234
10
23.7836621
20
61.1991713
40
0.3392876
50
270.4919872
51
281.8951556
0
ARC
8
DEFAULT_255_1_234
10
23.8077883
20
61.0889702
40
0.2264817
50
281.6691735
51
301.2943132
0
ARC
8
DEFAULT_255_1_234
10
23.8248093
20
61.0578304
40
0.1910381
50
301.7833094
51
311.7545298
0
ARC
8
DEFAULT_255_1_234
10
23.8339669
20
61.0476748
40
0.1773635
50
311.7323931
51
354.2802411
0
ARC
8
DEFAULT_255_1_234
10
23.7613294
20
61.0601722
40
0.2509385
50
353.0937916
51
0.1181479
0
ARC
8
DEFAULT_255_1_234
10
23.7152079
20
61.0649386
40
0.2970898
50
359.1805295
51
15.0453146
0
ARC
8
DEFAULT_255_1_234
10
23.8497916
20
61.1041992
40
0.1569564
50
13.9577229
51
77.6713066
0
ARC
8
DEFAULT_255_1_234
10
23.8111445
20
60.9656949
40
0.3006298
50
76.1116566
51
90.7026153
0
ARC
8
DEFAULT_255_1_234
10
23.8052284
20
60.9930545
40
0.2732568
50
89.5324876
51
103.531937
0
ARC
8
DEFAULT_255_1_234
10
23.7851728
20
61.0729884
40
0.1908508
50
103.2931773
51
133.5619022
0
ARC
8
DEFAULT_255_1_234
10
23.7807216
20
61.0789375
40
0.1834746
50
133.8349307
51
173.5344437
0
ARC
8
DEFAULT_255_1_234
10
23.8530259
20
61.0661213
40
0.2568033
50
172.5096846
51
180.1366907
0
ARC
8
DEFAULT_255_1_234
10
23.7579153
20
61.0695622
40
0.3103056
50
155.3484492
51
180.7484736
0
ARC
8
DEFAULT_255_1_234
10
23.7530242
20
61.0666846
40
0.3070957
50
131.5744599
51
154.4798489
0
ARC
8
DEFAULT_255_1_234
10
23.784339
20
61.035031
40
0.3515643
50
96.9875458
51
131.9690667
0
ARC
8
DEFAULT_255_1_234
10
23.8062869
20
60.9104636
40
0.4779224
50
89.8596053
51
97.7825159
0
ARC
8
DEFAULT_255_1_234
10
23.8110932
20
60.8842616
40
0.5041361
50
78.3655447
51
90.4131539
0
ARC
8
DEFAULT_255_1_234
10
23.846885
20
61.0501887
40
0.3344039
50
56.6229102
51
78.638727
0
ARC
8
DEFAULT_255_1_234
10
23.8683794
20
61.0877805
40
0.2912001
50
47.0253525
51
56.0854072
0
ARC
8
DEFAULT_255_1_234
10
23.8703574
20
61.0917223
40
0.2869704
50
10.9208013
51
46.7778124
0
ARC
8
DEFAULT_255_1_234
10
23.7339641
20
61.0601857
40
0.426899
50
359.6364486
51
11.6087304
0
ARC
8
DEFAULT_255_1_234
10
23.9174485
20
61.0586752
40
0.243409
50
332.3549906
51
359.7179418
0
ARC
8
DEFAULT_255_1_234
10
23.8524086
20
61.0895142
40
0.3153459
50
325.2333722
51
332.8745602
0
ARC
8
DEFAULT_255_1_234
10
23.867671
20
61.0788828
40
0.2967456
50
292.9802137
51
325.2392345
0
ARC
8
DEFAULT_255_1_234
10
23.8402084
20
61.1322863
40
0.3566604
50
292.5402179
51
293.6924929
0
ARC
8
DEFAULT_255_1_234
10
23.879468
20
60.4868091
40
0.3307468
50
57.6435486
51
72.8625112
0
ARC
8
DEFAULT_255_1_234
10
23.9149179
20
60.5442549
40
0.2632492
50
36.7248896
51
57.4697979
0
ARC
8
DEFAULT_255_1_234
10
23.9137812
20
60.545522
40
0.2634081
50
8.0545065
51
36.356114
0
ARC
8
DEFAULT_255_1_234
10
23.8274997
20
60.5300174
40
0.3510261
50
359.8320645
51
8.5869982
0
ARC
8
DEFAULT_255_1_234
10
23.7899774
20
60.5252101
40
0.3885653
50
343.9829931
51
0.5571613
0
ARC
8
DEFAULT_255_1_234
10
23.8785971
20
60.5009438
40
0.2966924
50
311.6359546
51
343.7651759
0
ARC
8
DEFAULT_255_1_234
10
23.840754
20
60.5436102
40
0.3537231
50
279.7829875
51
311.6255694
0
ARC
8
DEFAULT_255_1_234
10
23.8106316
20
60.687328
40
0.5004971
50
269.7286406
51
280.3856417
0
ARC
8
DEFAULT_255_1_234
10
23.8044389
20
60.6831996
40
0.4963778
50
256.6828919
51
270.4412052
0
ARC
8
DEFAULT_255_1_234
10
23.7705685
20
60.5447394
40
0.3538406
50
229.4223008
51
256.8556159
0
ARC
8
DEFAULT_255_1_234
10
23.7291077
20
60.4980736
40
0.2914296
50
181.818294
51
229.6455059
0
ARC
8
DEFAULT_255_1_234
10
23.8331034
20
60.5111496
40
0.3959084
50
179.9755256
51
183.2323064
0
ARC
8
DEFAULT_255_1_234
10
23.8158779
20
60.5091037
40
0.2293034
50
179.4465117
51
196.2869258
0
ARC
8
DEFAULT_255_1_234
10
23.7671187
20
60.4957651
40
0.1787621
50
196.5661473
51
227.705904
0
ARC
8
DEFAULT_255_1_234
10
23.7835282
20
60.5141155
40
0.2033784
50
227.7652068
51
257.8762805
0
ARC
8
DEFAULT_255_1_234
10
23.8060252
20
60.6084156
40
0.3003081
50
257.4584385
51
270.426602
0
ARC
8
DEFAULT_255_1_234
10
23.8105819
20
60.6373996
40
0.329292
50
269.5962073
51
280.8789248
0
ARC
8
DEFAULT_255_1_234
10
23.8335347
20
60.5227685
40
0.2123908
50
280.6346389
51
299.8595945
0
ARC
8
DEFAULT_255_1_234
10
23.8526254
20
60.4865212
40
0.171457
50
300.3576302
51
314.5517981
0
ARC
8
DEFAULT_255_1_234
10
23.8443314
20
60.4925919
40
0.1816095
50
315.0728369
51
345.0431014
0
ARC
8
DEFAULT_255_1_234
10
23.7520129
20
60.5194841
40
0.2777492
50
344.5986631
51
357.9269593
0
ARC
8
DEFAULT_255_1_234
10
23.6624455
20
60.5256276
40
0.3674917
50
357.4748886
51
0.0231117
0
ARC
8
DEFAULT_255_1_234
10
23.7647564
20
60.5280679
40
0.2651907
50
359.5047933
51
13.4239635
0
ARC
8
DEFAULT_255_1_234
10
23.8514208
20
60.5502478
40
0.1757509
50
12.9498199
51
48.7551375
0
ARC
8
DEFAULT_255_1_234
10
23.8331942
20
60.52534
40
0.2065134
50
49.5088623
51
72.1836453
0
ARC
8
DEFAULT_255_1_234
10
23.7974094
20
60.4191291
40
0.3185836
50
71.9010081
51
84.3554254
0
ARC
8
DEFAULT_255_1_234
10
23.7812726
20
60.2830326
40
0.4556151
50
84.0193428
51
89.333121
0
LINE
8
DEFAULT_255_1_234
10
21.9553392
20
68.1404
11
21.5497364
21
68.1404
0
LINE
8
DEFAULT_255_1_234
10
21.5497364
20
68.1404
11
21.5497364
21
69.3098211
0
LINE
8
DEFAULT_255_1_234
10
21.5497364
20
69.3098211
11
21.9320471
21
69.3098211
0
LINE
8
DEFAULT_255_1_234
10
21.9609614
20
68.6873614
11
21.7039458
21
68.6873614
0
LINE
8
DEFAULT_255_1_234
10
21.7039458
20
68.6873614
11
21.7039458
21
68.2664983
0
LINE
8
DEFAULT_255_1_234
10
21.7039458
20
68.2664983
11
21.9585519
21
68.2664983
0
LINE
8
DEFAULT_255_1_234
10
21.7039458
20
69.1829196
11
21.7039458
21
68.8110501
0
LINE
8
DEFAULT_255_1_234
10
21.7039458
20
68.8110501
11
21.9368662
21
68.8110501
0
LINE
8
DEFAULT_255_1_234
10
21.9320471
20
69.1829196
11
21.7039458
21
69.1829196
0
ARC
8
DEFAULT_255_1_234
10
21.935818
20
68.5730901
40
0.7367406
50
82.1257326
51
90.2932599
0
ARC
8
DEFAULT_255_1_234
10
21.9747135
20
68.8449013
40
0.4621653
50
69.9044149
51
82.2857423
0
ARC
8
DEFAULT_255_1_234
10
22.0317813
20
68.9991637
40
0.2976871
50
51.1838526
51
70.0181538
0
ARC
8
DEFAULT_255_1_234
10
22.0572779
20
69.036224
40
0.2528517
50
12.1017251
51
50.4214761
0
ARC
8
DEFAULT_255_1_234
10
21.9188653
20
69.0014676
40
0.3955061
50
359.5251267
51
12.8211707
0
ARC
8
DEFAULT_255_1_234
10
22.0768579
20
68.9945344
40
0.2375281
50
323.4908128
51
0.8817314
0
ARC
8
DEFAULT_255_1_234
10
22.0350266
20
69.026855
40
0.2903817
50
298.6825083
51
323.2756573
0
ARC
8
DEFAULT_255_1_234
10
21.9988629
20
69.0869649
40
0.3604842
50
293.1999386
51
299.1396394
0
ARC
8
DEFAULT_255_1_234
10
22.0661602
20
68.4784126
40
0.2871098
50
54.0011765
51
74.9167975
0
ARC
8
DEFAULT_255_1_234
10
22.0777961
20
68.4981332
40
0.2643248
50
36.3580696
51
53.5291921
0
ARC
8
DEFAULT_255_1_234
10
22.0651203
20
68.4890998
40
0.2798884
50
4.8189881
51
36.3089977
0
ARC
8
DEFAULT_255_1_234
10
21.9872038
20
68.478127
40
0.358478
50
359.9370252
51
5.5204067
0
ARC
8
DEFAULT_255_1_234
10
21.954756
20
68.4740667
40
0.3909429
50
344.7478609
51
0.5373281
0
ARC
8
DEFAULT_255_1_234
10
22.0538531
20
68.4473544
40
0.2883093
50
311.1786488
51
344.6886812
0
ARC
8
DEFAULT_255_1_234
10
22.0246578
20
68.4836987
40
0.3348923
50
286.0418249
51
310.8441291
0
ARC
8
DEFAULT_255_1_234
10
21.973941
20
68.6483807
40
0.5071869
50
274.1042341
51
286.4071509
0
ARC
8
DEFAULT_255_1_234
10
21.9562666
20
68.8367229
40
0.6963234
50
269.9236873
51
274.445647
0
ARC
8
DEFAULT_255_1_234
10
21.9608667
20
68.6027537
40
0.3362634
50
269.6055768
51
281.3740047
0
ARC
8
DEFAULT_255_1_234
10
21.9839305
20
68.4934353
40
0.224546
50
281.1055983
51
302.5132223
0
ARC
8
DEFAULT_255_1_234
10
21.9986204
20
68.4670823
40
0.1944357
50
303.0368945
51
311.8811219
0
ARC
8
DEFAULT_255_1_234
10
22.0057611
20
68.458589
40
0.1833454
50
311.9916004
51
351.7143462
0
ARC
8
DEFAULT_255_1_234
10
21.9240841
20
68.475093
40
0.2665871
50
350.7339597
51
0.2221581
0
ARC
8
DEFAULT_255_1_234
10
21.9133287
20
68.4807467
40
0.2773789
50
359.0456241
51
17.2296242
0
ARC
8
DEFAULT_255_1_234
10
22.0172404
20
68.5116163
40
0.1689915
50
17.6685481
51
78.9940892
0
ARC
8
DEFAULT_255_1_234
10
21.9655568
20
68.3261224
40
0.3612658
50
76.5635957
51
90.6980921
0
LINE
8
DEFAULT_255_1_234
10
21.9611552
20
68.6873613
11
21.9609614
21
68.6873614
0
ARC
8
DEFAULT_255_1_234
10
21.9391228
20
69.1396036
40
0.3285612
50
269.6064736
51
281.4533503
0
ARC
8
DEFAULT_255_1_234
10
21.9614048
20
69.0344688
40
0.2210975
50
281.2041486
51
302.5148063
0
ARC
8
DEFAULT_255_1_234
10
21.9750898
20
69.0098241
40
0.1929674
50
303.021671
51
309.8369575
0
ARC
8
DEFAULT_255_1_234
10
21.9934359
20
68.9892488
40
0.1654181
50
309.5228395
51
356.9509836
0
ARC
8
DEFAULT_255_1_234
10
21.9270942
20
68.9987932
40
0.2322512
50
355.4701227
51
0.0492546
0
ARC
8
DEFAULT_255_1_234
10
21.8992033
20
69.0010094
40
0.2601498
50
359.5558597
51
11.2096359
0
ARC
8
DEFAULT_255_1_234
10
21.9949323
20
69.020823
40
0.1623975
50
10.9182341
51
31.3230275
0
ARC
8
DEFAULT_255_1_234
10
22.0235056
20
69.0367214
40
0.1297302
50
31.8852677
51
52.1412565
0
ARC
8
DEFAULT_255_1_234
10
21.9960789
20
68.997975
40
0.1771663
50
52.8285564
51
71.9850297
0
ARC
8
DEFAULT_255_1_234
10
21.9584965
20
68.8873664
40
0.2939794
50
71.6863486
51
82.8455995
0
ARC
8
DEFAULT_255_1_234
10
21.9345501
20
68.7064149
40
0.476506
50
82.6984714
51
90.1729175
0
ARC
8
DEFAULT_255_1_234
10
21.9323136
20
68.8287623
40
0.3541573
50
89.8708275
51
90.0431131
0
LINE
8
DEFAULT_255_1_234
10
23.0235604
20
69.3154433
11
23.0235604
21
68.1404
0
LINE
8
DEFAULT_255_1_234
10
23.0235604
20
68.1404
11
22.87417
21
68.1404
0
LINE
8
DEFAULT_255_1_234
10
22.87417
20
68.1404
11
22.87417
21
69.1307133
0
LINE
8
DEFAULT_255_1_234
10
22.87417
20
69.1307133
11
22.5745862
21
69.0206785
0
LINE
8
DEFAULT_255_1_234
10
22.5745862
20
69.0206785
11
22.5745862
21
69.1556117
0
LINE
8
DEFAULT_255_1_234
10
22.5745862
20
69.1556117
11
23.0002683
21
69.3154433
0
LINE
8
DEFAULT_255_1_234
10
23.0002683
20
69.3154433
11
23.0235604
21
69.3154433
0
LINE
8
DEFAULT_255_1_234
10
24.2251084
20
68.2616792
11
24.2251084
21
68.1404
0
LINE
8
DEFAULT_255_1_234
10
24.2251084
20
68.1404
11
23.4588806
21
68.1404
0
LINE
8
DEFAULT_255_1_234
10
23.4588806
20
68.1404
11
23.4588806
21
68.2472221
0
LINE
8
DEFAULT_255_1_234
10
23.4588806
20
68.2472221
11
23.8636802
21
68.6969995
0
LINE
8
DEFAULT_255_1_234
10
23.5849789
20
68.9652595
11
23.4363917
21
68.9652595
0
LINE
8
DEFAULT_255_1_234
10
23.9512261
20
68.6014218
11
23.6379883
21
68.2616792
0
LINE
8
DEFAULT_255_1_234
10
23.6379883
20
68.2616792
11
24.2251084
21
68.2616792
0
ARC
8
DEFAULT_255_1_234
10
22.5146635
20
69.8899527
40
1.8008286
50
318.5132453
51
320.7828378
0
ARC
8
DEFAULT_255_1_234
10
23.0433609
20
69.4596426
40
1.1191493
50
320.7372736
51
323.9737074
0
ARC
8
DEFAULT_255_1_234
10
23.4353466
20
69.1756361
40
0.6350923
50
323.8961724
51
328.6421089
0
ARC
8
DEFAULT_255_1_234
10
23.6400061
20
69.0494031
40
0.3946393
50
328.8299013
51
331.789948
0
ARC
8
DEFAULT_255_1_234
10
23.739724
20
68.9979509
40
0.2824501
50
331.4255242
51
352.9364833
0
ARC
8
DEFAULT_255_1_234
10
23.753374
20
68.9948976
40
0.2685315
50
353.2248685
51
0.0169286
0
ARC
8
DEFAULT_255_1_234
10
23.7743617
20
68.997195
40
0.2475536
50
359.4866256
51
15.9339782
0
ARC
8
DEFAULT_255_1_234
10
23.8250603
20
69.0108286
40
0.1950618
50
16.1714718
51
43.5284424
0
ARC
8
DEFAULT_255_1_234
10
23.8327911
20
69.0185573
40
0.184134
50
43.4415429
51
83.1661404
0
ARC
8
DEFAULT_255_1_234
10
23.8193829
20
68.9448771
40
0.258926
50
82.160215
51
90.1505798
0
ARC
8
DEFAULT_255_1_234
10
23.8162257
20
68.8911865
40
0.3126255
50
89.5460705
51
102.5418777
0
ARC
8
DEFAULT_255_1_234
10
23.7919343
20
68.9942665
40
0.2067346
50
102.1739365
51
129.2061916
0
ARC
8
DEFAULT_255_1_234
10
23.7840415
20
69.0067094
40
0.1921118
50
129.7279328
51
135.7542026
0
ARC
8
DEFAULT_255_1_234
10
23.7961942
20
68.9970045
40
0.2075944
50
136.175737
51
166.3674722
0
ARC
8
DEFAULT_255_1_234
10
23.8968861
20
68.9700182
40
0.3118201
50
165.9092917
51
178.8683903
0
ARC
8
DEFAULT_255_1_234
10
23.9833723
20
68.9653179
40
0.3983935
50
178.438168
51
180.0083905
0
ARC
8
DEFAULT_255_1_234
10
23.8432325
20
68.9692231
40
0.4068601
50
163.2878735
51
180.5581814
0
ARC
8
DEFAULT_255_1_234
10
23.7630586
20
68.991284
40
0.3237344
50
133.454115
51
162.9470031
0
ARC
8
DEFAULT_255_1_234
10
23.7809128
20
68.9723
40
0.349795
50
100.7869394
51
133.4384016
0
ARC
8
DEFAULT_255_1_234
10
23.8156899
20
68.8174319
40
0.5084616
50
89.6605301
51
101.3704185
0
ARC
8
DEFAULT_255_1_234
10
23.8223238
20
68.8235496
40
0.502348
50
78.2171172
51
90.4130393
0
ARC
8
DEFAULT_255_1_234
10
23.8578316
20
68.9859637
40
0.3361092
50
55.9268222
51
78.4888551
0
ARC
8
DEFAULT_255_1_234
10
23.8774756
20
69.0198324
40
0.2970617
50
47.9292255
51
55.4054003
0
ARC
8
DEFAULT_255_1_234
10
23.8876317
20
69.0301502
40
0.2825983
50
4.3347696
51
48.0560701
0
ARC
8
DEFAULT_255_1_234
10
23.7780711
20
69.0131601
40
0.393225
50
359.925209
51
5.5967654
0
ARC
8
DEFAULT_255_1_234
10
23.8209602
20
69.0187816
40
0.3503892
50
337.8914096
51
358.9967724
0
ARC
8
DEFAULT_255_1_234
10
23.5496014
20
69.1234706
40
0.6412172
50
326.9135351
51
338.3505194
0
ARC
8
DEFAULT_255_1_234
10
23.1510318
20
69.3789284
40
1.1146189
50
319.6472867
51
327.095818
0
ARC
8
DEFAULT_255_1_234
10
22.7677321
20
69.6951
40
1.6114559
50
317.2586784
51
319.9046139
0
LINE
8
DEFAULT_255_1_234
10
21.9637392
20
76.0779
11
21.5581364
21
76.0779
0
LINE
8
DEFAULT_255_1_234
10
21.5581364
20
76.0779
11
21.5581364
21
77.2473211
0
LINE
8
DEFAULT_255_1_234
10
21.5581364
20
77.2473211
11
21.9404471
21
77.2473211
0
LINE
8
DEFAULT_255_1_234
10
21.9693614
20
76.6248614
11
21.7123458
21
76.6248614
0
LINE
8
DEFAULT_255_1_234
10
21.7123458
20
76.6248614
11
21.7123458
21
76.2039983
0
LINE
8
DEFAULT_255_1_234
10
21.7123458
20
76.2039983
11
21.9669519
21
76.2039983
0
LINE
8
DEFAULT_255_1_234
10
21.7123458
20
77.1204196
11
21.7123458
21
76.7485501
0
LINE
8
DEFAULT_255_1_234
10
21.7123458
20
76.7485501
11
21.9452662
21
76.7485501
0
LINE
8
DEFAULT_255_1_234
10
21.9404471
20
77.1204196
11
21.7123458
21
77.1204196
0
ARC
8
DEFAULT_255_1_234
10
21.944218
20
76.5105901
40
0.7367406
50
82.1257326
51
90.2932599
0
ARC
8
DEFAULT_255_1_234
10
21.9831135
20
76.7824013
40
0.4621653
50
69.9044149
51
82.2857423
0
ARC
8
DEFAULT_255_1_234
10
22.0401813
20
76.9366637
40
0.2976871
50
51.1838526
51
70.0181538
0
ARC
8
DEFAULT_255_1_234
10
22.0656779
20
76.973724
40
0.2528517
50
12.1017251
51
50.4214761
0
ARC
8
DEFAULT_255_1_234
10
21.9272653
20
76.9389676
40
0.3955061
50
359.5251267
51
12.8211707
0
ARC
8
DEFAULT_255_1_234
10
22.0852579
20
76.9320344
40
0.2375281
50
323.4908128
51
0.8817314
0
ARC
8
DEFAULT_255_1_234
10
22.0434266
20
76.964355
40
0.2903817
50
298.6825083
51
323.2756573
0
ARC
8
DEFAULT_255_1_234
10
22.0072629
20
77.0244649
40
0.3604842
50
293.1999386
51
299.1396394
0
ARC
8
DEFAULT_255_1_234
10
22.0745602
20
76.4159126
40
0.2871098
50
54.0011765
51
74.9167975
0
ARC
8
DEFAULT_255_1_234
10
22.0861961
20
76.4356332
40
0.2643248
50
36.3580696
51
53.5291921
0
ARC
8
DEFAULT_255_1_234
10
22.0735203
20
76.4265998
40
0.2798884
50
4.8189881
51
36.3089977
0
ARC
8
DEFAULT_255_1_234
10
21.9956038
20
76.415627
40
0.358478
50
359.9370252
51
5.5204067
0
ARC
8
DEFAULT_255_1_234
10
21.963156
20
76.4115667
40
0.3909429
50
344.7478609
51
0.5373281
0
ARC
8
DEFAULT_255_1_234
10
22.0622531
20
76.3848544
40
0.2883093
50
311.1786488
51
344.6886812
0
ARC
8
DEFAULT_255_1_234
10
22.0330578
20
76.4211987
40
0.3348923
50
286.0418249
51
310.8441291
0
ARC
8
DEFAULT_255_1_234
10
21.982341
20
76.5858807
40
0.5071869
50
274.1042341
51
286.4071509
0
ARC
8
DEFAULT_255_1_234
10
21.9646666
20
76.7742229
40
0.6963234
50
269.9236873
51
274.445647
0
ARC
8
DEFAULT_255_1_234
10
21.9692667
20
76.5402537
40
0.3362634
50
269.6055768
51
281.3740047
0
ARC
8
DEFAULT_255_1_234
10
21.9923305
20
76.4309353
40
0.224546
50
281.1055983
51
302.5132223
0
ARC
8
DEFAULT_255_1_234
10
22.0070204
20
76.4045823
40
0.1944357
50
303.0368945
51
311.8811219
0
ARC
8
DEFAULT_255_1_234
10
22.0141611
20
76.396089
40
0.1833454
50
311.9916004
51
351.7143462
0
ARC
8
DEFAULT_255_1_234
10
21.9324841
20
76.412593
40
0.2665871
50
350.7339597
51
0.2221581
0
ARC
8
DEFAULT_255_1_234
10
21.9217287
20
76.4182467
40
0.2773789
50
359.0456241
51
17.2296242
0
ARC
8
DEFAULT_255_1_234
10
22.0256404
20
76.4491163
40
0.1689915
50
17.6685481
51
78.9940892
0
ARC
8
DEFAULT_255_1_234
10
21.9739568
20
76.2636224
40
0.3612658
50
76.5635957
51
90.6980921
0
LINE
8
DEFAULT_255_1_234
10
21.9695552
20
76.6248613
11
21.9693614
21
76.6248614
0
ARC
8
DEFAULT_255_1_234
10
21.9475228
20
77.0771036
40
0.3285612
50
269.6064736
51
281.4533503
0
ARC
8
DEFAULT_255_1_234
10
21.9698048
20
76.9719688
40
0.2210975
50
281.2041486
51
302.5148063
0
ARC
8
DEFAULT_255_1_234
10
21.9834898
20
76.9473241
40
0.1929674
50
303.021671
51
309.8369575
0
ARC
8
DEFAULT_255_1_234
10
22.0018359
20
76.9267488
40
0.1654181
50
309.5228395
51
356.9509836
0
ARC
8
DEFAULT_255_1_234
10
21.9354942
20
76.9362932
40
0.2322512
50
355.4701227
51
0.0492546
0
ARC
8
DEFAULT_255_1_234
10
21.9076033
20
76.9385094
40
0.2601498
50
359.5558597
51
11.2096359
0
ARC
8
DEFAULT_255_1_234
10
22.0033323
20
76.958323
40
0.1623975
50
10.9182341
51
31.3230275
0
ARC
8
DEFAULT_255_1_234
10
22.0319056
20
76.9742214
40
0.1297302
50
31.8852677
51
52.1412565
0
ARC
8
DEFAULT_255_1_234
10
22.0044789
20
76.935475
40
0.1771663
50
52.8285564
51
71.9850297
0
ARC
8
DEFAULT_255_1_234
10
21.9668965
20
76.8248664
40
0.2939794
50
71.6863486
51
82.8455995
0
ARC
8
DEFAULT_255_1_234
10
21.9429501
20
76.6439149
40
0.476506
50
82.6984714
51
90.1729175
0
ARC
8
DEFAULT_255_1_234
10
21.9407136
20
76.7662623
40
0.3541573
50
89.8708275
51
90.0431131
0
LINE
8
DEFAULT_255_1_234
10
23.0319604
20
77.2529433
11
23.0319604
21
76.0779
0
LINE
8
DEFAULT_255_1_234
10
23.0319604
20
76.0779
11
22.88257
21
76.0779
0
LINE
8
DEFAULT_255_1_234
10
22.88257
20
76.0779
11
22.88257
21
77.0682133
0
LINE
8
DEFAULT_255_1_234
10
22.88257
20
77.0682133
11
22.5829862
21
76.9581785
0
LINE
8
DEFAULT_255_1_234
10
22.5829862
20
76.9581785
11
22.5829862
21
77.0931117
0
LINE
8
DEFAULT_255_1_234
10
22.5829862
20
77.0931117
11
23.0086683
21
77.2529433
0
LINE
8
DEFAULT_255_1_234
10
23.0086683
20
77.2529433
11
23.0319604
21
77.2529433
0
LINE
8
DEFAULT_255_1_234
10
23.9556103
20
77.2529433
11
23.9556103
21
76.0779
0
LINE
8
DEFAULT_255_1_234
10
23.9556103
20
76.0779
11
23.8062199
21
76.0779
0
LINE
8
DEFAULT_255_1_234
10
23.8062199
20
76.0779
11
23.8062199
21
77.0682133
0
LINE
8
DEFAULT_255_1_234
10
23.8062199
20
77.0682133
11
23.5066361
21
76.9581785
0
LINE
8
DEFAULT_255_1_234
10
23.5066361
20
76.9581785
11
23.5066361
21
77.0931117
0
LINE
8
DEFAULT_255_1_234
10
23.5066361
20
77.0931117
11
23.9323182
21
77.2529433
0
LINE
8
DEFAULT_255_1_234
10
23.9323182
20
77.2529433
11
23.9556103
21
77.2529433
0
LINE
8
DEFAULT_255_1_234
10
23.0886137
20
85.1904433
11
23.0886137
21
84.0154
0
LINE
8
DEFAULT_255_1_234
10
23.0886137
20
84.0154
11
22.9392234
21
84.0154
0
LINE
8
DEFAULT_255_1_234
10
22.9392234
20
84.0154
11
22.9392234
21
85.0057133
0
LINE
8
DEFAULT_255_1_234
10
22.9392234
20
85.0057133
11
22.6396396
21
84.8956785
0
LINE
8
DEFAULT_255_1_234
10
22.6396396
20
84.8956785
11
22.6396396
21
85.0306117
0
LINE
8
DEFAULT_255_1_234
10
22.6396396
20
85.0306117
11
23.0653217
21
85.1904433
0
LINE
8
DEFAULT_255_1_234
10
23.0653217
20
85.1904433
11
23.0886137
21
85.1904433
0
LINE
8
DEFAULT_255_1_234
10
24.2572316
20
84.7069327
11
24.2572316
21
84.5141709
0
LINE
8
DEFAULT_255_1_234
10
23.5191149
20
84.4940916
11
23.5191149
21
84.6924755
0
LINE
8
DEFAULT_255_1_234
10
24.1086445
20
84.4740123
11
24.1086445
21
84.7173739
0
LINE
8
DEFAULT_255_1_234
10
23.6677021
20
84.7286184
11
23.6677021
21
84.4908789
0
ARC
8
DEFAULT_255_1_234
10
23.0325206
20
84.5092805
40
1.2247208
50
353.8441951
51
0.2287902
0
ARC
8
DEFAULT_255_1_234
10
23.496471
20
84.4574806
40
0.7578929
50
344.4934747
51
353.9765454
0
ARC
8
DEFAULT_255_1_234
10
23.79573
20
84.3723981
40
0.4467846
50
329.2803592
51
344.7472793
0
ARC
8
DEFAULT_255_1_234
10
23.8950125
20
84.3179018
40
0.3336173
50
324.9352394
51
328.6160465
0
ARC
8
DEFAULT_255_1_234
10
23.9327233
20
84.2915427
40
0.2876076
50
280.580143
51
324.9173126
0
ARC
8
DEFAULT_255_1_234
10
23.8926026
20
84.4586099
40
0.4592847
50
269.5977311
51
281.6734359
0
ARC
8
DEFAULT_255_1_234
10
23.8853932
20
84.4466173
40
0.4472986
50
256.6228859
51
270.51044
0
ARC
8
DEFAULT_255_1_234
10
23.8451909
20
84.2917877
40
0.2873874
50
215.8618325
51
257.2788573
0
ARC
8
DEFAULT_255_1_234
10
23.9472941
20
84.3602977
40
0.4102928
50
197.9693508
51
215.2623606
0
ARC
8
DEFAULT_255_1_234
10
24.1958057
20
84.4441709
40
0.6725652
50
187.8816417
51
198.2346507
0
ARC
8
DEFAULT_255_1_234
10
24.5916265
20
84.5013079
40
1.0724845
50
180.8976217
51
188.0055519
0
ARC
8
DEFAULT_255_1_234
10
24.8716453
20
84.5116777
40
1.3526448
50
180.7449369
51
181.1510016
0
ARC
8
DEFAULT_255_1_234
10
24.7139182
20
84.6973042
40
1.1948131
50
173.7675579
51
180.231553
0
ARC
8
DEFAULT_255_1_234
10
24.2621329
20
84.7483666
40
0.7401564
50
164.3058563
51
173.9002247
0
ARC
8
DEFAULT_255_1_234
10
23.9709398
20
84.8322656
40
0.4371288
50
148.7922025
51
164.568378
0
ARC
8
DEFAULT_255_1_234
10
23.875785
20
84.8853929
40
0.3282386
50
144.5883898
51
148.1176286
0
ARC
8
DEFAULT_255_1_234
10
23.8414748
20
84.9093315
40
0.2864044
50
101.6440918
51
144.514236
0
ARC
8
DEFAULT_255_1_234
10
23.8839814
20
84.7404069
40
0.4604934
50
89.5284041
51
102.5819763
0
ARC
8
DEFAULT_255_1_234
10
23.8918902
20
84.7365018
40
0.464401
50
77.0437873
51
90.5081339
0
ARC
8
DEFAULT_255_1_234
10
23.9320904
20
84.9007615
40
0.2953195
50
48.2778575
51
77.4994676
0
ARC
8
DEFAULT_255_1_234
10
23.9393535
20
84.9136746
40
0.2808655
50
36.3142134
51
47.6305865
0
ARC
8
DEFAULT_255_1_234
10
23.8524842
20
84.8551515
40
0.3855453
50
18.2931786
51
35.6769206
0
ARC
8
DEFAULT_255_1_234
10
23.5981601
20
84.7678593
40
0.654423
50
8.024666
51
18.5605216
0
ARC
8
DEFAULT_255_1_234
10
23.1818521
20
84.7063792
40
1.0752407
50
1.1274072
51
8.1718305
0
ARC
8
DEFAULT_255_1_234
10
22.8582712
20
84.6936885
40
1.3990231
50
0.5424119
51
1.3863029
0
ARC
8
DEFAULT_255_1_234
10
23.0404089
20
84.7209342
40
1.0682415
50
359.8090433
51
4.9407866
0
ARC
8
DEFAULT_255_1_234
10
23.4614103
20
84.7585113
40
0.6455691
50
4.8362157
51
12.2904523
0
ARC
8
DEFAULT_255_1_234
10
23.7369218
20
84.8198965
40
0.3633074
50
12.0805627
51
23.8173984
0
ARC
8
DEFAULT_255_1_234
10
23.8542924
20
84.8695919
40
0.2358723
50
24.2871213
51
31.3935614
0
ARC
8
DEFAULT_255_1_234
10
23.9067621
20
84.9039233
40
0.1732111
50
30.7407893
51
82.4657128
0
ARC
8
DEFAULT_255_1_234
10
23.8887755
20
84.8155691
40
0.263235
50
81.1060089
51
90.2184952
0
ARC
8
DEFAULT_255_1_234
10
23.8852054
20
84.8413924
40
0.2374236
50
89.3806855
51
105.6762551
0
ARC
8
DEFAULT_255_1_234
10
23.8668685
20
84.9080567
40
0.1682847
50
105.7981136
51
149.7388061
0
ARC
8
DEFAULT_255_1_234
10
23.9732763
20
84.844095
40
0.2924306
50
149.4208916
51
163.6286378
0
ARC
8
DEFAULT_255_1_234
10
24.1823651
20
84.780325
40
0.5110213
50
163.3763315
51
172.1410975
0
ARC
8
DEFAULT_255_1_234
10
24.512437
20
84.7330518
40
0.8444586
50
172.0259487
51
178.0703232
0
ARC
8
DEFAULT_255_1_234
10
24.815446
20
84.7186906
40
1.1477868
50
177.8631668
51
179.5044149
0
ARC
8
DEFAULT_255_1_234
10
24.7081864
20
84.4872389
40
1.0404907
50
179.7995573
51
185.2460446
0
ARC
8
DEFAULT_255_1_234
10
24.3038903
20
84.4489513
40
0.6343885
50
185.1411642
51
193.0079639
0
ARC
8
DEFAULT_255_1_234
10
24.0395376
20
84.3864641
40
0.3627568
50
192.7897626
51
205.2507664
0
ARC
8
DEFAULT_255_1_234
10
23.9348923
20
84.3397415
40
0.2481908
50
205.8005384
51
211.2537509
0
ARC
8
DEFAULT_255_1_234
10
23.8825363
20
84.304658
40
0.1852521
50
210.3789793
51
238.4008143
0
ARC
8
DEFAULT_255_1_234
10
23.8805885
20
84.3093376
40
0.1882621
50
239.6520629
51
265.9793761
0
ARC
8
DEFAULT_255_1_234
10
23.8891085
20
84.3765427
40
0.2559272
50
265.1315437
51
270.060332
0
ARC
8
DEFAULT_255_1_234
10
23.8919864
20
84.3441534
40
0.2235528
50
269.3314664
51
287.2178029
0
ARC
8
DEFAULT_255_1_234
10
23.9057716
20
84.2938279
40
0.1714108
50
287.7958004
51
329.080874
0
ARC
8
DEFAULT_255_1_234
10
23.8100173
20
84.353593
40
0.2842745
50
328.6634704
51
343.3325132
0
ARC
8
DEFAULT_255_1_234
10
23.5927193
20
84.4212863
40
0.5118644
50
343.0499468
51
351.9393422
0
ARC
8
DEFAULT_255_1_234
10
23.2460493
20
84.4723949
40
0.8622784
50
351.8069023
51
357.7959224
0
ARC
8
DEFAULT_255_1_234
10
22.9225049
20
84.4891721
40
1.1862365
50
357.5871873
51
359.2677531
0
LINE
8
DEFAULT_255_1_234
10
21.7998392
20
91.9529
11
21.3942364
21
91.9529
0
LINE
8
DEFAULT_255_1_234
10
21.3942364
20
91.9529
11
21.3942364
21
93.1223211
0
LINE
8
DEFAULT_255_1_234
10
21.3942364
20
93.1223211
11
21.7765471
21
93.1223211
0
LINE
8
DEFAULT_255_1_234
10
21.8054614
20
92.4998614
11
21.5484458
21
92.4998614
0
LINE
8
DEFAULT_255_1_234
10
21.5484458
20
92.4998614
11
21.5484458
21
92.0789983
0
LINE
8
DEFAULT_255_1_234
10
21.5484458
20
92.0789983
11
21.8030519
21
92.0789983
0
LINE
8
DEFAULT_255_1_234
10
21.5484458
20
92.9954196
11
21.5484458
21
92.6235501
0
LINE
8
DEFAULT_255_1_234
10
21.5484458
20
92.6235501
11
21.7813662
21
92.6235501
0
LINE
8
DEFAULT_255_1_234
10
21.7765471
20
92.9954196
11
21.5484458
21
92.9954196
0
ARC
8
DEFAULT_255_1_234
10
21.780318
20
92.3855901
40
0.7367406
50
82.1257326
51
90.2932599
0
ARC
8
DEFAULT_255_1_234
10
21.8192135
20
92.6574013
40
0.4621653
50
69.9044149
51
82.2857423
0
ARC
8
DEFAULT_255_1_234
10
21.8762813
20
92.8116637
40
0.2976871
50
51.1838526
51
70.0181538
0
ARC
8
DEFAULT_255_1_234
10
21.9017779
20
92.848724
40
0.2528517
50
12.1017251
51
50.4214761
0
ARC
8
DEFAULT_255_1_234
10
21.7633653
20
92.8139676
40
0.3955061
50
359.5251267
51
12.8211707
0
ARC
8
DEFAULT_255_1_234
10
21.9213579
20
92.8070344
40
0.2375281
50
323.4908128
51
0.8817314
0
ARC
8
DEFAULT_255_1_234
10
21.8795266
20
92.839355
40
0.2903817
50
298.6825083
51
323.2756573
0
ARC
8
DEFAULT_255_1_234
10
21.8433629
20
92.8994649
40
0.3604842
50
293.1999386
51
299.1396394
0
ARC
8
DEFAULT_255_1_234
10
21.9106602
20
92.2909126
40
0.2871098
50
54.0011765
51
74.9167975
0
ARC
8
DEFAULT_255_1_234
10
21.9222961
20
92.3106332
40
0.2643248
50
36.3580696
51
53.5291921
0
ARC
8
DEFAULT_255_1_234
10
21.9096203
20
92.3015998
40
0.2798884
50
4.8189881
51
36.3089977
0
ARC
8
DEFAULT_255_1_234
10
21.8317038
20
92.290627
40
0.358478
50
359.9370252
51
5.5204067
0
ARC
8
DEFAULT_255_1_234
10
21.799256
20
92.2865667
40
0.3909429
50
344.7478609
51
0.5373281
0
ARC
8
DEFAULT_255_1_234
10
21.8983531
20
92.2598544
40
0.2883093
50
311.1786488
51
344.6886812
0
ARC
8
DEFAULT_255_1_234
10
21.8691578
20
92.2961987
40
0.3348923
50
286.0418249
51
310.8441291
0
ARC
8
DEFAULT_255_1_234
10
21.818441
20
92.4608807
40
0.5071869
50
274.1042341
51
286.4071509
0
ARC
8
DEFAULT_255_1_234
10
21.8007666
20
92.6492229
40
0.6963234
50
269.9236873
51
274.445647
0
ARC
8
DEFAULT_255_1_234
10
21.8053667
20
92.4152537
40
0.3362634
50
269.6055768
51
281.3740047
0
ARC
8
DEFAULT_255_1_234
10
21.8284305
20
92.3059353
40
0.224546
50
281.1055983
51
302.5132223
0
ARC
8
DEFAULT_255_1_234
10
21.8431204
20
92.2795823
40
0.1944357
50
303.0368945
51
311.8811219
0
ARC
8
DEFAULT_255_1_234
10
21.8502611
20
92.271089
40
0.1833454
50
311.9916004
51
351.7143462
0
ARC
8
DEFAULT_255_1_234
10
21.7685841
20
92.287593
40
0.2665871
50
350.7339597
51
0.2221581
0
ARC
8
DEFAULT_255_1_234
10
21.7578287
20
92.2932467
40
0.2773789
50
359.0456241
51
17.2296242
0
ARC
8
DEFAULT_255_1_234
10
21.8617404
20
92.3241163
40
0.1689915
50
17.6685481
51
78.9940892
0
ARC
8
DEFAULT_255_1_234
10
21.8100568
20
92.1386224
40
0.3612658
50
76.5635957
51
90.6980921
0
LINE
8
DEFAULT_255_1_234
10
21.8056552
20
92.4998613
11
21.8054614
21
92.4998614
0
ARC
8
DEFAULT_255_1_234
10
21.7836228
20
92.9521036
40
0.3285612
50
269.6064736
51
281.4533503
0
ARC
8
DEFAULT_255_1_234
10
21.8059048
20
92.8469688
40
0.2210975
50
281.2041486
51
302.5148063
0
ARC
8
DEFAULT_255_1_234
10
21.8195898
20
92.8223241
40
0.1929674
50
303.021671
51
309.8369575
0
ARC
8
DEFAULT_255_1_234
10
21.8379359
20
92.8017488
40
0.1654181
50
309.5228395
51
356.9509836
0
ARC
8
DEFAULT_255_1_234
10
21.7715942
20
92.8112932
40
0.2322512
50
355.4701227
51
0.0492546
0
ARC
8
DEFAULT_255_1_234
10
21.7437033
20
92.8135094
40
0.2601498
50
359.5558597
51
11.2096359
0
ARC
8
DEFAULT_255_1_234
10
21.8394323
20
92.833323
40
0.1623975
50
10.9182341
51
31.3230275
0
ARC
8
DEFAULT_255_1_234
10
21.8680056
20
92.8492214
40
0.1297302
50
31.8852677
51
52.1412565
0
ARC
8
DEFAULT_255_1_234
10
21.8405789
20
92.810475
40
0.1771663
50
52.8285564
51
71.9850297
0
ARC
8
DEFAULT_255_1_234
10
21.8029965
20
92.6998664
40
0.2939794
50
71.6863486
51
82.8455995
0
ARC
8
DEFAULT_255_1_234
10
21.7790501
20
92.5189149
40
0.476506
50
82.6984714
51
90.1729175
0
ARC
8
DEFAULT_255_1_234
10
21.7768136
20
92.6412623
40
0.3541573
50
89.8708275
51
90.0431131
0
LINE
8
DEFAULT_255_1_234
10
23.0985712
20
92.6548739
11
23.0985712
21
92.6115025
0
LINE
8
DEFAULT_255_1_234
10
22.5564289
20
91.9520968
11
22.5275146
21
91.9520968
0
LINE
8
DEFAULT_255_1_234
10
22.5275146
20
91.9520968
11
22.5275146
21
92.0773919
0
LINE
8
DEFAULT_255_1_234
10
22.5275146
20
92.0773919
11
22.5588384
21
92.0773919
0
LINE
8
DEFAULT_255_1_234
10
22.9499841
20
92.6259597
11
22.9499841
21
92.6853945
0
ARC
8
DEFAULT_255_1_234
10
22.670611
20
92.7005403
40
0.3635579
50
297.4037347
51
320.016758
0
ARC
8
DEFAULT_255_1_234
10
22.6996059
20
92.644824
40
0.3007486
50
270.2633101
51
297.3851877
0
ARC
8
DEFAULT_255_1_234
10
22.6962015
20
92.6911904
40
0.3471448
50
269.9966443
51
270.7900392
0
ARC
8
DEFAULT_255_1_234
10
22.6936496
20
92.6910143
40
0.3469779
50
254.5999133
51
270.4180344
0
ARC
8
DEFAULT_255_1_234
10
22.6793856
20
92.6345647
40
0.2887697
50
236.4717942
51
254.3541279
0
ARC
8
DEFAULT_255_1_234
10
22.6950073
20
92.6555711
40
0.3149125
50
208.4727207
51
236.2134933
0
ARC
8
DEFAULT_255_1_234
10
22.7588848
20
92.6946455
40
0.3897115
50
204.3447514
51
209.0453999
0
ARC
8
DEFAULT_255_1_234
10
22.8268424
20
92.7234656
40
0.4635101
50
183.9375985
51
204.1276318
0
ARC
8
DEFAULT_255_1_234
10
22.9176676
20
92.7332482
40
0.5548037
50
179.9652252
51
184.3013875
0
ARC
8
DEFAULT_255_1_234
10
22.8936722
20
92.7365507
40
0.5308164
50
166.7585989
51
180.3201225
0
ARC
8
DEFAULT_255_1_234
10
22.8090335
20
92.7549488
40
0.4442163
50
154.6955053
51
166.5679793
0
ARC
8
DEFAULT_255_1_234
10
22.7237205
20
92.797921
40
0.3487299
50
136.3324195
51
155.0871442
0
ARC
8
DEFAULT_255_1_234
10
22.6956278
20
92.8219954
40
0.3117924
50
121.236733
51
135.9680508
0
ARC
8
DEFAULT_255_1_234
10
22.7096776
20
92.7959743
40
0.3413302
50
96.845628
51
120.9881519
0
ARC
8
DEFAULT_255_1_234
10
22.7242358
20
92.7024515
40
0.4359341
50
89.8870174
51
97.2802754
0
ARC
8
DEFAULT_255_1_234
10
22.7294796
20
92.7662095
40
0.3722009
50
70.6505584
51
90.6749113
0
ARC
8
DEFAULT_255_1_234
10
22.7426075
20
92.8175361
40
0.3194571
50
36.7492984
51
69.8219918
0
ARC
8
DEFAULT_255_1_234
10
22.642724
20
92.7396993
40
0.4460685
50
15.39587
51
37.0840084
0
ARC
8
DEFAULT_255_1_234
10
22.4297674
20
92.6776242
40
0.6678714
50
3.9488873
51
15.6798563
0
ARC
8
DEFAULT_255_1_234
10
22.1896301
20
92.6559964
40
0.9089418
50
359.929245
51
4.2665314
0
ARC
8
DEFAULT_255_1_234
10
21.7290738
20
92.6048513
40
1.3695135
50
352.8366322
51
0.2782669
0
ARC
8
DEFAULT_255_1_234
10
22.2578417
20
92.5361629
40
0.8363105
50
341.8359505
51
352.9884176
0
ARC
8
DEFAULT_255_1_234
10
22.5797136
20
92.42767
40
0.4966642
50
322.8578092
51
342.1527901
0
ARC
8
DEFAULT_255_1_234
10
22.6661092
20
92.3687384
40
0.3922466
50
319.334325
51
322.0998941
0
ARC
8
DEFAULT_255_1_234
10
22.6351429
20
92.3998209
40
0.4360033
50
285.9541367
51
318.8878087
0
ARC
8
DEFAULT_255_1_234
10
22.562469
20
92.63086
40
0.678149
50
272.9281676
51
286.4922826
0
ARC
8
DEFAULT_255_1_234
10
22.5434808
20
92.8559587
40
0.9039547
50
270.8207226
51
273.4012994
0
ARC
8
DEFAULT_255_1_234
10
22.5523659
20
92.6740666
40
0.5967098
50
270.6214993
51
281.4062806
0
ARC
8
DEFAULT_255_1_234
10
22.595364
20
92.4684833
40
0.3866861
50
281.1852553
51
299.0621114
0
ARC
8
DEFAULT_255_1_234
10
22.6327212
20
92.3963798
40
0.3055236
50
299.5067782
51
313.1200873
0
ARC
8
DEFAULT_255_1_234
10
22.6349178
20
92.3884554
40
0.2982623
50
313.8526205
51
338.5989322
0
ARC
8
DEFAULT_255_1_234
10
22.4725252
20
92.4551781
40
0.4738131
50
338.2523585
51
351.2430902
0
ARC
8
DEFAULT_255_1_234
10
22.2314548
20
92.4961447
40
0.7183203
50
350.9409515
51
357.6691871
0
ARC
8
DEFAULT_255_1_234
10
22.7204978
20
92.6963764
40
0.2294452
50
269.9447023
51
306.8248917
0
ARC
8
DEFAULT_255_1_234
10
22.6967893
20
92.7386898
40
0.2775994
50
305.5072438
51
327.0773448
0
ARC
8
DEFAULT_255_1_234
10
22.7086334
20
92.7292025
40
0.2625056
50
327.4104943
51
336.840169
0
ARC
8
DEFAULT_255_1_234
10
22.3992399
20
92.6886302
40
0.5507537
50
359.6633817
51
10.117533
0
ARC
8
DEFAULT_255_1_234
10
22.5746197
20
92.7210777
40
0.372403
50
9.9430141
51
26.7700076
0
ARC
8
DEFAULT_255_1_234
10
22.634341
20
92.7486187
40
0.3066865
50
27.2015464
51
34.6829435
0
ARC
8
DEFAULT_255_1_234
10
22.683289
20
92.7853977
40
0.245519
50
34.1250343
51
50.3070065
0
ARC
8
DEFAULT_255_1_234
10
22.7279569
20
92.8388385
40
0.1758693
50
50.3851167
51
90.6705993
0
ARC
8
DEFAULT_255_1_234
10
22.7232802
20
92.8083799
40
0.2063326
50
89.272901
51
111.9140407
0
ARC
8
DEFAULT_255_1_234
10
22.721333
20
92.822444
40
0.1925887
50
112.9382311
51
142.5320782
0
ARC
8
DEFAULT_255_1_234
10
22.775951
20
92.7780969
40
0.2629232
50
142.1021256
51
166.3835592
0
ARC
8
DEFAULT_255_1_234
10
22.8940816
20
92.7475915
40
0.3849193
50
166.1100289
51
178.665427
0
ARC
8
DEFAULT_255_1_234
10
22.9988405
20
92.7417117
40
0.4897989
50
178.2632126
51
180.0111093
0
ARC
8
DEFAULT_255_1_234
10
22.9186525
20
92.7388728
40
0.40962
50
179.6161962
51
191.8787166
0
ARC
8
DEFAULT_255_1_234
10
22.7966364
20
92.7118896
40
0.2846655
50
191.6191692
51
215.2972286
0
ARC
8
DEFAULT_255_1_234
10
22.7769555
20
92.7003918
40
0.2619665
50
215.7320102
51
216.5355409
0
ARC
8
DEFAULT_255_1_234
10
22.7230642
20
92.6571647
40
0.1929497
50
215.7486685
51
239.9727502
0
ARC
8
DEFAULT_255_1_234
10
22.7160557
20
92.6520894
40
0.1850822
50
241.0650169
51
269.2810483
0
ARC
8
DEFAULT_255_1_234
10
22.7202472
20
92.7011371
40
0.2342059
50
268.4062526
51
270.0071348
0
LINE
8
DEFAULT_255_1_234
10
23.7475357
20
91.9529
11
23.3419329
21
91.9529
0
LINE
8
DEFAULT_255_1_234
10
23.3419329
20
91.9529
11
23.3419329
21
93.1223211
0
LINE
8
DEFAULT_255_1_234
10
23.3419329
20
93.1223211
11
23.7242437
21
93.1223211
0
LINE
8
DEFAULT_255_1_234
10
23.7531579
20
92.4998614
11
23.4961423
21
92.4998614
0
LINE
8
DEFAULT_255_1_234
10
23.4961423
20
92.4998614
11
23.4961423
21
92.0789983
0
LINE
8
DEFAULT_255_1_234
10
23.4961423
20
92.0789983
11
23.7507484
21
92.0789983
0
LINE
8
DEFAULT_255_1_234
10
23.4961423
20
92.9954196
11
23.4961423
21
92.6235501
0
LINE
8
DEFAULT_255_1_234
10
23.4961423
20
92.6235501
11
23.7290627
21
92.6235501
0
LINE
8
DEFAULT_255_1_234
10
23.7242437
20
92.9954196
11
23.4961423
21
92.9954196
0
ARC
8
DEFAULT_255_1_234
10
23.7280145
20
92.3855901
40
0.7367406
50
82.1257326
51
90.2932599
0
ARC
8
DEFAULT_255_1_234
10
23.76691
20
92.6574013
40
0.4621653
50
69.9044149
51
82.2857423
0
ARC
8
DEFAULT_255_1_234
10
23.8239778
20
92.8116637
40
0.2976871
50
51.1838526
51
70.0181538
0
ARC
8
DEFAULT_255_1_234
10
23.8494744
20
92.848724
40
0.2528517
50
12.1017251
51
50.4214761
0
ARC
8
DEFAULT_255_1_234
10
23.7110618
20
92.8139676
40
0.3955061
50
359.5251267
51
12.8211707
0
ARC
8
DEFAULT_255_1_234
10
23.8690545
20
92.8070344
40
0.2375281
50
323.4908128
51
0.8817314
0
ARC
8
DEFAULT_255_1_234
10
23.8272231
20
92.839355
40
0.2903817
50
298.6825083
51
323.2756573
0
ARC
8
DEFAULT_255_1_234
10
23.7910594
20
92.8994649
40
0.3604842
50
293.1999386
51
299.1396394
0
ARC
8
DEFAULT_255_1_234
10
23.8583567
20
92.2909126
40
0.2871098
50
54.0011765
51
74.9167975
0
ARC
8
DEFAULT_255_1_234
10
23.8699926
20
92.3106332
40
0.2643248
50
36.3580696
51
53.5291921
0
ARC
8
DEFAULT_255_1_234
10
23.8573168
20
92.3015998
40
0.2798884
50
4.8189881
51
36.3089977
0
ARC
8
DEFAULT_255_1_234
10
23.7794004
20
92.290627
40
0.358478
50
359.9370252
51
5.5204067
0
ARC
8
DEFAULT_255_1_234
10
23.7469525
20
92.2865667
40
0.3909429
50
344.7478609
51
0.5373281
0
ARC
8
DEFAULT_255_1_234
10
23.8460496
20
92.2598544
40
0.2883093
50
311.1786488
51
344.6886812
0
ARC
8
DEFAULT_255_1_234
10
23.8168544
20
92.2961987
40
0.3348923
50
286.0418249
51
310.8441291
0
ARC
8
DEFAULT_255_1_234
10
23.7661375
20
92.4608807
40
0.5071869
50
274.1042341
51
286.4071509
0
ARC
8
DEFAULT_255_1_234
10
23.7484631
20
92.6492229
40
0.6963234
50
269.9236873
51
274.445647
0
ARC
8
DEFAULT_255_1_234
10
23.7530632
20
92.4152537
40
0.3362634
50
269.6055768
51
281.3740047
0
ARC
8
DEFAULT_255_1_234
10
23.776127
20
92.3059353
40
0.224546
50
281.1055983
51
302.5132223
0
ARC
8
DEFAULT_255_1_234
10
23.790817
20
92.2795823
40
0.1944357
50
303.0368945
51
311.8811219
0
ARC
8
DEFAULT_255_1_234
10
23.7979576
20
92.271089
40
0.1833454
50
311.9916004
51
351.7143462
0
ARC
8
DEFAULT_255_1_234
10
23.7162806
20
92.287593
40
0.2665871
50
350.7339597
51
0.2221581
0
ARC
8
DEFAULT_255_1_234
10
23.7055252
20
92.2932467
40
0.2773789
50
359.0456241
51
17.2296242
0
ARC
8
DEFAULT_255_1_234
10
23.8094369
20
92.3241163
40
0.1689915
50
17.6685481
51
78.9940892
0
ARC
8
DEFAULT_255_1_234
10
23.7577533
20
92.1386224
40
0.3612658
50
76.5635957
51
90.6980921
0
LINE
8
DEFAULT_255_1_234
10
23.7533517
20
92.4998613
11
23.7531579
21
92.4998614
0
ARC
8
DEFAULT_255_1_234
10
23.7313193
20
92.9521036
40
0.3285612
50
269.6064736
51
281.4533503
0
ARC
8
DEFAULT_255_1_234
10
23.7536013
20
92.8469688
40
0.2210975
50
281.2041486
51
302.5148063
0
ARC
8
DEFAULT_255_1_234
10
23.7672863
20
92.8223241
40
0.1929674
50
303.021671
51
309.8369575
0
ARC
8
DEFAULT_255_1_234
10
23.7856325
20
92.8017488
40
0.1654181
50
309.5228395
51
356.9509836
0
ARC
8
DEFAULT_255_1_234
10
23.7192907
20
92.8112932
40
0.2322512
50
355.4701227
51
0.0492546
0
ARC
8
DEFAULT_255_1_234
10
23.6913998
20
92.8135094
40
0.2601498
50
359.5558597
51
11.2096359
0
ARC
8
DEFAULT_255_1_234
10
23.7871288
20
92.833323
40
0.1623975
50
10.9182341
51
31.3230275
0
ARC
8
DEFAULT_255_1_234
10
23.8157022
20
92.8492214
40
0.1297302
50
31.8852677
51
52.1412565
0
ARC
8
DEFAULT_255_1_234
10
23.7882754
20
92.810475
40
0.1771663
50
52.8285564
51
71.9850297
0
ARC
8
DEFAULT_255_1_234
10
23.7506931
20
92.6998664
40
0.2939794
50
71.6863486
51
82.8455995
0
ARC
8
DEFAULT_255_1_234
10
23.7267467
20
92.5189149
40
0.476506
50
82.6984714
51
90.1729175
0
ARC
8
DEFAULT_255_1_234
10
23.7245101
20
92.6412623
40
0.3541573
50
89.8708275
51
90.0431131
0
LINE
8
DEFAULT_255_1_234
10
22.9355392
20
99.8904
11
22.5299364
21
99.8904
0
LINE
8
DEFAULT_255_1_234
10
22.5299364
20
99.8904
11
22.5299364
21
101.0598211
0
LINE
8
DEFAULT_255_1_234
10
22.5299364
20
101.0598211
11
22.9122471
21
101.0598211
0
LINE
8
DEFAULT_255_1_234
10
22.9411614
20
100.4373614
11
22.6841458
21
100.4373614
0
LINE
8
DEFAULT_255_1_234
10
22.6841458
20
100.4373614
11
22.6841458
21
100.0164983
0
LINE
8
DEFAULT_255_1_234
10
22.6841458
20
100.0164983
11
22.9387519
21
100.0164983
0
LINE
8
DEFAULT_255_1_234
10
22.6841458
20
100.9329196
11
22.6841458
21
100.5610501
0
LINE
8
DEFAULT_255_1_234
10
22.6841458
20
100.5610501
11
22.9170662
21
100.5610501
0
LINE
8
DEFAULT_255_1_234
10
22.9122471
20
100.9329196
11
22.6841458
21
100.9329196
0
ARC
8
DEFAULT_255_1_234
10
22.916018
20
100.3230901
40
0.7367406
50
82.1257326
51
90.2932599
0
ARC
8
DEFAULT_255_1_234
10
22.9549135
20
100.5949013
40
0.4621653
50
69.9044149
51
82.2857423
0
ARC
8
DEFAULT_255_1_234
10
23.0119813
20
100.7491637
40
0.2976871
50
51.1838526
51
70.0181538
0
ARC
8
DEFAULT_255_1_234
10
23.0374779
20
100.786224
40
0.2528517
50
12.1017251
51
50.4214761
0
ARC
8
DEFAULT_255_1_234
10
22.8990653
20
100.7514676
40
0.3955061
50
359.5251267
51
12.8211707
0
ARC
8
DEFAULT_255_1_234
10
23.0570579
20
100.7445344
40
0.2375281
50
323.4908128
51
0.8817314
0
ARC
8
DEFAULT_255_1_234
10
23.0152266
20
100.776855
40
0.2903817
50
298.6825083
51
323.2756573
0
ARC
8
DEFAULT_255_1_234
10
22.9790629
20
100.8369649
40
0.3604842
50
293.1999386
51
299.1396394
0
ARC
8
DEFAULT_255_1_234
10
23.0463602
20
100.2284126
40
0.2871098
50
54.0011765
51
74.9167975
0
ARC
8
DEFAULT_255_1_234
10
23.0579961
20
100.2481332
40
0.2643248
50
36.3580696
51
53.5291921
0
ARC
8
DEFAULT_255_1_234
10
23.0453203
20
100.2390998
40
0.2798884
50
4.8189881
51
36.3089977
0
ARC
8
DEFAULT_255_1_234
10
22.9674038
20
100.228127
40
0.358478
50
359.9370252
51
5.5204067
0
ARC
8
DEFAULT_255_1_234
10
22.934956
20
100.2240667
40
0.3909429
50
344.7478609
51
0.5373281
0
ARC
8
DEFAULT_255_1_234
10
23.0340531
20
100.1973544
40
0.2883093
50
311.1786488
51
344.6886812
0
ARC
8
DEFAULT_255_1_234
10
23.0048578
20
100.2336987
40
0.3348923
50
286.0418249
51
310.8441291
0
ARC
8
DEFAULT_255_1_234
10
22.954141
20
100.3983807
40
0.5071869
50
274.1042341
51
286.4071509
0
ARC
8
DEFAULT_255_1_234
10
22.9364666
20
100.5867229
40
0.6963234
50
269.9236873
51
274.445647
0
ARC
8
DEFAULT_255_1_234
10
22.9410667
20
100.3527537
40
0.3362634
50
269.6055768
51
281.3740047
0
ARC
8
DEFAULT_255_1_234
10
22.9641305
20
100.2434353
40
0.224546
50
281.1055983
51
302.5132223
0
ARC
8
DEFAULT_255_1_234
10
22.9788204
20
100.2170823
40
0.1944357
50
303.0368945
51
311.8811219
0
ARC
8
DEFAULT_255_1_234
10
22.9859611
20
100.208589
40
0.1833454
50
311.9916004
51
351.7143462
0
ARC
8
DEFAULT_255_1_234
10
22.9042841
20
100.225093
40
0.2665871
50
350.7339597
51
0.2221581
0
ARC
8
DEFAULT_255_1_234
10
22.8935287
20
100.2307467
40
0.2773789
50
359.0456241
51
17.2296242
0
ARC
8
DEFAULT_255_1_234
10
22.9974404
20
100.2616163
40
0.1689915
50
17.6685481
51
78.9940892
0
ARC
8
DEFAULT_255_1_234
10
22.9457568
20
100.0761224
40
0.3612658
50
76.5635957
51
90.6980921
0
LINE
8
DEFAULT_255_1_234
10
22.9413552
20
100.4373613
11
22.9411614
21
100.4373614
0
ARC
8
DEFAULT_255_1_234
10
22.9193228
20
100.8896036
40
0.3285612
50
269.6064736
51
281.4533503
0
ARC
8
DEFAULT_255_1_234
10
22.9416048
20
100.7844688
40
0.2210975
50
281.2041486
51
302.5148063
0
ARC
8
DEFAULT_255_1_234
10
22.9552898
20
100.7598241
40
0.1929674
50
303.021671
51
309.8369575
0
ARC
8
DEFAULT_255_1_234
10
22.9736359
20
100.7392488
40
0.1654181
50
309.5228395
51
356.9509836
0
ARC
8
DEFAULT_255_1_234
10
22.9072942
20
100.7487932
40
0.2322512
50
355.4701227
51
0.0492546
0
ARC
8
DEFAULT_255_1_234
10
22.8794033
20
100.7510094
40
0.2601498
50
359.5558597
51
11.2096359
0
ARC
8
DEFAULT_255_1_234
10
22.9751323
20
100.770823
40
0.1623975
50
10.9182341
51
31.3230275
0
ARC
8
DEFAULT_255_1_234
10
23.0037056
20
100.7867214
40
0.1297302
50
31.8852677
51
52.1412565
0
ARC
8
DEFAULT_255_1_234
10
22.9762789
20
100.747975
40
0.1771663
50
52.8285564
51
71.9850297
0
ARC
8
DEFAULT_255_1_234
10
22.9386965
20
100.6373664
40
0.2939794
50
71.6863486
51
82.8455995
0
ARC
8
DEFAULT_255_1_234
10
22.9147501
20
100.4564149
40
0.476506
50
82.6984714
51
90.1729175
0
ARC
8
DEFAULT_255_1_234
10
22.9125136
20
100.5787623
40
0.3541573
50
89.8708275
51
90.0431131
0
ARC
8
DEFAULT_255_1_234
10
23.942409
20
100.7520703
40
0.2822356
50
338.8763615
51
0.5166041
0
ARC
8
DEFAULT_255_1_234
10
23.9592745
20
100.7475208
40
0.2648703
50
325.8412414
51
338.4795939
0
ARC
8
DEFAULT_255_1_234
10
23.9202112
20
100.7746042
40
0.3124019
50
296.7586019
51
325.753654
0
ARC
8
DEFAULT_255_1_234
10
23.8914221
20
100.8230789
40
0.368668
50
296.0902311
51
297.3618122
0
ARC
8
DEFAULT_255_1_234
10
23.9171678
20
100.1676041
40
0.3518806
50
47.9009248
51
67.1946869
0
ARC
8
DEFAULT_255_1_234
10
23.936792
20
100.1922395
40
0.320451
50
35.236241
51
47.551371
0
ARC
8
DEFAULT_255_1_234
10
23.9629538
20
100.2096993
40
0.2890103
50
359.2759738
51
35.4014081
0
ARC
8
DEFAULT_255_1_234
10
23.8884569
20
100.2023826
40
0.3635026
50
343.1294516
51
0.5776525
0
ARC
8
DEFAULT_255_1_234
10
23.9609114
20
100.182433
40
0.2883832
50
310.8497458
51
342.744803
0
ARC
8
DEFAULT_255_1_234
10
23.9191228
20
100.2301294
40
0.3517954
50
281.5473923
51
310.9169905
0
ARC
8
DEFAULT_255_1_234
10
23.8834677
20
100.3854084
40
0.5110832
50
269.6192722
51
281.9789957
0
ARC
8
DEFAULT_255_1_234
10
23.8762466
20
100.3854828
40
0.5111606
50
257.4584469
51
270.4287458
0
ARC
8
DEFAULT_255_1_234
10
23.8381609
20
100.2251344
40
0.3463762
50
228.7553743
51
257.8484423
0
ARC
8
DEFAULT_255_1_234
10
23.8071807
20
100.1878442
40
0.297916
50
184.0104442
51
228.5071787
0
ARC
8
DEFAULT_255_1_234
10
23.9234751
20
100.2055512
40
0.4152734
50
179.9315461
51
185.3254504
0
ARC
8
DEFAULT_255_1_234
10
23.8058397
20
100.2092992
40
0.2976554
50
145.6795913
51
180.6259649
0
ARC
8
DEFAULT_255_1_234
10
23.8221746
20
100.1978929
40
0.3175776
50
115.5537925
51
145.6416199
0
ARC
8
DEFAULT_255_1_234
10
23.8562677
20
100.1368028
40
0.3874232
50
113.2437915
51
116.2054627
0
ARC
8
DEFAULT_255_1_234
10
23.8409889
20
100.776658
40
0.3154751
50
222.9548379
51
244.1372485
0
ARC
8
DEFAULT_255_1_234
10
23.8287964
20
100.7629834
40
0.2972382
50
213.3439227
51
222.6271327
0
ARC
8
DEFAULT_255_1_234
10
23.8095899
20
100.7499308
40
0.274019
50
180.4316517
51
213.2713999
0
ARC
8
DEFAULT_255_1_234
10
23.86709
20
100.754611
40
0.33158
50
179.9992944
51
181.1655061
0
ARC
8
DEFAULT_255_1_234
10
23.9080317
20
100.7580561
40
0.3725376
50
164.6186108
51
180.5292368
0
ARC
8
DEFAULT_255_1_234
10
23.818218
20
100.7822101
40
0.2795349
50
132.2454369
51
164.5092287
0
ARC
8
DEFAULT_255_1_234
10
23.8469284
20
100.7497028
40
0.3229019
50
100.7052766
51
132.1387266
0
ARC
8
DEFAULT_255_1_234
10
23.8774257
20
100.6119086
40
0.4639835
50
89.6732617
51
101.2449487
0
ARC
8
DEFAULT_255_1_234
10
23.8836455
20
100.629399
40
0.4464999
50
76.2876631
51
90.4586123
0
ARC
8
DEFAULT_255_1_234
10
23.9142686
20
100.751622
40
0.3205023
50
47.8240157
51
76.4266918
0
ARC
8
DEFAULT_255_1_234
10
23.9365236
20
100.777659
40
0.2862661
50
6.9168658
51
47.6261438
0
ARC
8
DEFAULT_255_1_234
10
23.8178639
20
100.755737
40
0.4067708
50
359.8419705
51
7.9694496
0
ARC
8
DEFAULT_255_1_234
10
23.8520536
20
100.2116925
40
0.2513121
50
359.4454068
51
16.9256425
0
ARC
8
DEFAULT_255_1_234
10
23.8989347
20
100.2246033
40
0.2027071
50
17.292259
51
45.462717
0
ARC
8
DEFAULT_255_1_234
10
23.8935283
20
100.2199434
40
0.2098212
50
45.3028762
51
83.1921472
0
ARC
8
DEFAULT_255_1_234
10
23.8791967
20
100.1397895
40
0.2911472
50
82.2614531
51
90.143954
0
ARC
8
DEFAULT_255_1_234
10
23.8761087
20
100.163095
40
0.2678513
50
89.4959189
51
104.8579811
0
ARC
8
DEFAULT_255_1_234
10
23.8584346
20
100.230089
40
0.1985654
50
104.8855873
51
135.2448349
0
ARC
8
DEFAULT_255_1_234
10
23.8634119
20
100.2256336
40
0.2052373
50
135.3398955
51
172.104394
0
ARC
8
DEFAULT_255_1_234
10
23.9441177
20
100.2101925
40
0.2873299
50
171.2651929
51
180.1859362
0
ARC
8
DEFAULT_255_1_234
10
23.9271878
20
100.2069733
40
0.2704083
50
179.515471
51
193.6466734
0
ARC
8
DEFAULT_255_1_234
10
23.8455647
20
100.1861777
40
0.1861855
50
193.3540587
51
225.8256931
0
ARC
8
DEFAULT_255_1_234
10
23.8496405
20
100.1932524
40
0.1941102
50
226.418029
51
255.8553723
0
ARC
8
DEFAULT_255_1_234
10
23.8752837
20
100.2868998
40
0.2911917
50
255.4655572
51
268.7985967
0
ARC
8
DEFAULT_255_1_234
10
23.8800029
20
100.3707491
40
0.3751331
50
268.3464808
51
270.0104874
0
ARC
8
DEFAULT_255_1_234
10
23.8823417
20
100.3023138
40
0.3067064
50
269.575914
51
282.0823146
0
ARC
8
DEFAULT_255_1_234
10
23.9048326
20
100.2028803
40
0.2047712
50
281.7522535
51
306.6056425
0
ARC
8
DEFAULT_255_1_234
10
23.9146753
20
100.1867487
40
0.1859604
50
307.1350025
51
314.0277951
0
ARC
8
DEFAULT_255_1_234
10
23.9110837
20
100.1893766
40
0.1903475
50
314.2553419
51
350.169324
0
ARC
8
DEFAULT_255_1_234
10
23.8259305
20
100.2078409
40
0.2774269
50
349.4145679
51
0.2930737
0
ARC
8
DEFAULT_255_1_234
10
23.8779738
20
100.7237353
40
0.2300764
50
89.477591
51
105.729794
0
ARC
8
DEFAULT_255_1_234
10
23.8643652
20
100.7742637
40
0.1777519
50
105.922966
51
135.1662921
0
ARC
8
DEFAULT_255_1_234
10
23.8664154
20
100.7728419
40
0.1802087
50
135.3053131
51
168.9882338
0
ARC
8
DEFAULT_255_1_234
10
23.9491727
20
100.7538721
40
0.2650806
50
168.3802067
51
180.3602358
0
ARC
8
DEFAULT_255_1_234
10
23.9263306
20
100.7501041
40
0.2422425
50
179.5029707
51
194.9126783
0
ARC
8
DEFAULT_255_1_234
10
23.8677967
20
100.734711
40
0.1817188
50
194.9722181
51
224.1943972
0
ARC
8
DEFAULT_255_1_234
10
23.8649834
20
100.7324169
40
0.1781027
50
224.2961434
51
262.0157375
0
ARC
8
DEFAULT_255_1_234
10
23.8792077
20
100.8055661
40
0.2525492
50
261.1250369
51
270.1959853
0
ARC
8
DEFAULT_255_1_234
10
23.8821832
20
100.7868339
40
0.233825
50
269.4825617
51
285.0988277
0
ARC
8
DEFAULT_255_1_234
10
23.8975991
20
100.728999
40
0.1739712
50
285.1585659
51
315.9484648
0
ARC
8
DEFAULT_255_1_234
10
23.8887003
20
100.7371886
40
0.1860616
50
316.0412958
51
351.9162715
0
ARC
8
DEFAULT_255_1_234
10
23.8153958
20
100.7513245
40
0.2606517
50
351.1056823
51
0.1936567
0
ARC
8
DEFAULT_255_1_234
10
23.8416787
20
100.7543369
40
0.234377
50
359.4789506
51
16.0679113
0
ARC
8
DEFAULT_255_1_234
10
23.8892746
20
100.767181
40
0.1850875
50
16.3251951
51
44.791304
0
ARC
8
DEFAULT_255_1_234
10
23.8875027
20
100.7672339
40
0.186312
50
44.3958661
51
88.2498933
0
ARC
8
DEFAULT_255_1_234
10
23.8801581
20
100.7061154
40
0.2476868
50
86.9833827
51
90.0200148
0
LINE
8
DEFAULT_255_1_234
10
22.9355392
20
107.8279
11
22.5299364
21
107.8279
0
LINE
8
DEFAULT_255_1_234
10
22.5299364
20
107.8279
11
22.5299364
21
108.9973211
0
LINE
8
DEFAULT_255_1_234
10
22.5299364
20
108.9973211
11
22.9122471
21
108.9973211
0
LINE
8
DEFAULT_255_1_234
10
22.9411614
20
108.3748614
11
22.6841458
21
108.3748614
0
LINE
8
DEFAULT_255_1_234
10
22.6841458
20
108.3748614
11
22.6841458
21
107.9539983
0
LINE
8
DEFAULT_255_1_234
10
22.6841458
20
107.9539983
11
22.9387519
21
107.9539983
0
LINE
8
DEFAULT_255_1_234
10
22.6841458
20
108.8704196
11
22.6841458
21
108.4985501
0
LINE
8
DEFAULT_255_1_234
10
22.6841458
20
108.4985501
11
22.9170662
21
108.4985501
0
LINE
8
DEFAULT_255_1_234
10
22.9122471
20
108.8704196
11
22.6841458
21
108.8704196
0
ARC
8
DEFAULT_255_1_234
10
22.916018
20
108.2605901
40
0.7367406
50
82.1257326
51
90.2932599
0
ARC
8
DEFAULT_255_1_234
10
22.9549135
20
108.5324013
40
0.4621653
50
69.9044149
51
82.2857423
0
ARC
8
DEFAULT_255_1_234
10
23.0119813
20
108.6866637
40
0.2976871
50
51.1838526
51
70.0181538
0
ARC
8
DEFAULT_255_1_234
10
23.0374779
20
108.723724
40
0.2528517
50
12.1017251
51
50.4214761
0
ARC
8
DEFAULT_255_1_234
10
22.8990653
20
108.6889676
40
0.3955061
50
359.5251267
51
12.8211707
0
ARC
8
DEFAULT_255_1_234
10
23.0570579
20
108.6820344
40
0.2375281
50
323.4908128
51
0.8817314
0
ARC
8
DEFAULT_255_1_234
10
23.0152266
20
108.714355
40
0.2903817
50
298.6825083
51
323.2756573
0
ARC
8
DEFAULT_255_1_234
10
22.9790629
20
108.7744649
40
0.3604842
50
293.1999386
51
299.1396394
0
ARC
8
DEFAULT_255_1_234
10
23.0463602
20
108.1659126
40
0.2871098
50
54.0011765
51
74.9167975
0
ARC
8
DEFAULT_255_1_234
10
23.0579961
20
108.1856332
40
0.2643248
50
36.3580696
51
53.5291921
0
ARC
8
DEFAULT_255_1_234
10
23.0453203
20
108.1765998
40
0.2798884
50
4.8189881
51
36.3089977
0
ARC
8
DEFAULT_255_1_234
10
22.9674038
20
108.165627
40
0.358478
50
359.9370252
51
5.5204067
0
ARC
8
DEFAULT_255_1_234
10
22.934956
20
108.1615667
40
0.3909429
50
344.7478609
51
0.5373281
0
ARC
8
DEFAULT_255_1_234
10
23.0340531
20
108.1348544
40
0.2883093
50
311.1786488
51
344.6886812
0
ARC
8
DEFAULT_255_1_234
10
23.0048578
20
108.1711987
40
0.3348923
50
286.0418249
51
310.8441291
0
ARC
8
DEFAULT_255_1_234
10
22.954141
20
108.3358807
40
0.5071869
50
274.1042341
51
286.4071509
0
ARC
8
DEFAULT_255_1_234
10
22.9364666
20
108.5242229
40
0.6963234
50
269.9236873
51
274.445647
0
ARC
8
DEFAULT_255_1_234
10
22.9410667
20
108.2902537
40
0.3362634
50
269.6055768
51
281.3740047
0
ARC
8
DEFAULT_255_1_234
10
22.9641305
20
108.1809353
40
0.224546
50
281.1055983
51
302.5132223
0
ARC
8
DEFAULT_255_1_234
10
22.9788204
20
108.1545823
40
0.1944357
50
303.0368945
51
311.8811219
0
ARC
8
DEFAULT_255_1_234
10
22.9859611
20
108.146089
40
0.1833454
50
311.9916004
51
351.7143462
0
ARC
8
DEFAULT_255_1_234
10
22.9042841
20
108.162593
40
0.2665871
50
350.7339597
51
0.2221581
0
ARC
8
DEFAULT_255_1_234
10
22.8935287
20
108.1682467
40
0.2773789
50
359.0456241
51
17.2296242
0
ARC
8
DEFAULT_255_1_234
10
22.9974404
20
108.1991163
40
0.1689915
50
17.6685481
51
78.9940892
0
ARC
8
DEFAULT_255_1_234
10
22.9457568
20
108.0136224
40
0.3612658
50
76.5635957
51
90.6980921
0
LINE
8
DEFAULT_255_1_234
10
22.9413552
20
108.3748613
11
22.9411614
21
108.3748614
0
ARC
8
DEFAULT_255_1_234
10
22.9193228
20
108.8271036
40
0.3285612
50
269.6064736
51
281.4533503
0
ARC
8
DEFAULT_255_1_234
10
22.9416048
20
108.7219688
40
0.2210975
50
281.2041486
51
302.5148063
0
ARC
8
DEFAULT_255_1_234
10
22.9552898
20
108.6973241
40
0.1929674
50
303.021671
51
309.8369575
0
ARC
8
DEFAULT_255_1_234
10
22.9736359
20
108.6767488
40
0.1654181
50
309.5228395
51
356.9509836
0
ARC
8
DEFAULT_255_1_234
10
22.9072942
20
108.6862932
40
0.2322512
50
355.4701227
51
0.0492546
0
ARC
8
DEFAULT_255_1_234
10
22.8794033
20
108.6885094
40
0.2601498
50
359.5558597
51
11.2096359
0
ARC
8
DEFAULT_255_1_234
10
22.9751323
20
108.708323
40
0.1623975
50
10.9182341
51
31.3230275
0
ARC
8
DEFAULT_255_1_234
10
23.0037056
20
108.7242214
40
0.1297302
50
31.8852677
51
52.1412565
0
ARC
8
DEFAULT_255_1_234
10
22.9762789
20
108.685475
40
0.1771663
50
52.8285564
51
71.9850297
0
ARC
8
DEFAULT_255_1_234
10
22.9386965
20
108.5748664
40
0.2939794
50
71.6863486
51
82.8455995
0
ARC
8
DEFAULT_255_1_234
10
22.9147501
20
108.3939149
40
0.476506
50
82.6984714
51
90.1729175
0
ARC
8
DEFAULT_255_1_234
10
22.9125136
20
108.5162623
40
0.3541573
50
89.8708275
51
90.0431131
0
LINE
8
DEFAULT_255_1_234
10
24.2704141
20
108.9973211
11
24.2704141
21
108.913791
0
LINE
8
DEFAULT_255_1_234
10
24.2704141
20
108.913791
11
23.7861002
21
107.8279
0
LINE
8
DEFAULT_255_1_234
10
23.7861002
20
107.8279
11
23.6302845
21
107.8279
0
LINE
8
DEFAULT_255_1_234
10
23.6302845
20
107.8279
11
24.112992
21
108.8752387
0
LINE
8
DEFAULT_255_1_234
10
24.112992
20
108.8752387
11
23.480091
21
108.8752387
0
LINE
8
DEFAULT_255_1_234
10
23.480091
20
108.8752387
11
23.480091
21
108.9973211
0
LINE
8
DEFAULT_255_1_234
10
23.480091
20
108.9973211
11
24.2704141
21
108.9973211
0
LINE
8
DEFAULT_255_1_234
10
22.9355392
20
115.7654
11
22.5299364
21
115.7654
0
LINE
8
DEFAULT_255_1_234
10
22.5299364
20
115.7654
11
22.5299364
21
116.9348211
0
LINE
8
DEFAULT_255_1_234
10
22.5299364
20
116.9348211
11
22.9122471
21
116.9348211
0
LINE
8
DEFAULT_255_1_234
10
22.9411614
20
116.3123614
11
22.6841458
21
116.3123614
0
LINE
8
DEFAULT_255_1_234
10
22.6841458
20
116.3123614
11
22.6841458
21
115.8914983
0
LINE
8
DEFAULT_255_1_234
10
22.6841458
20
115.8914983
11
22.9387519
21
115.8914983
0
LINE
8
DEFAULT_255_1_234
10
22.6841458
20
116.8079196
11
22.6841458
21
116.4360501
0
LINE
8
DEFAULT_255_1_234
10
22.6841458
20
116.4360501
11
22.9170662
21
116.4360501
0
LINE
8
DEFAULT_255_1_234
10
22.9122471
20
116.8079196
11
22.6841458
21
116.8079196
0
ARC
8
DEFAULT_255_1_234
10
22.916018
20
116.1980901
40
0.7367406
50
82.1257326
51
90.2932599
0
ARC
8
DEFAULT_255_1_234
10
22.9549135
20
116.4699013
40
0.4621653
50
69.9044149
51
82.2857423
0
ARC
8
DEFAULT_255_1_234
10
23.0119813
20
116.6241637
40
0.2976871
50
51.1838526
51
70.0181538
0
ARC
8
DEFAULT_255_1_234
10
23.0374779
20
116.661224
40
0.2528517
50
12.1017251
51
50.4214761
0
ARC
8
DEFAULT_255_1_234
10
22.8990653
20
116.6264676
40
0.3955061
50
359.5251267
51
12.8211707
0
ARC
8
DEFAULT_255_1_234
10
23.0570579
20
116.6195344
40
0.2375281
50
323.4908128
51
0.8817314
0
ARC
8
DEFAULT_255_1_234
10
23.0152266
20
116.651855
40
0.2903817
50
298.6825083
51
323.2756573
0
ARC
8
DEFAULT_255_1_234
10
22.9790629
20
116.7119649
40
0.3604842
50
293.1999386
51
299.1396394
0
ARC
8
DEFAULT_255_1_234
10
23.0463602
20
116.1034126
40
0.2871098
50
54.0011765
51
74.9167975
0
ARC
8
DEFAULT_255_1_234
10
23.0579961
20
116.1231332
40
0.2643248
50
36.3580696
51
53.5291921
0
ARC
8
DEFAULT_255_1_234
10
23.0453203
20
116.1140998
40
0.2798884
50
4.8189881
51
36.3089977
0
ARC
8
DEFAULT_255_1_234
10
22.9674038
20
116.103127
40
0.358478
50
359.9370252
51
5.5204067
0
ARC
8
DEFAULT_255_1_234
10
22.934956
20
116.0990667
40
0.3909429
50
344.7478609
51
0.5373281
0
ARC
8
DEFAULT_255_1_234
10
23.0340531
20
116.0723544
40
0.2883093
50
311.1786488
51
344.6886812
0
ARC
8
DEFAULT_255_1_234
10
23.0048578
20
116.1086987
40
0.3348923
50
286.0418249
51
310.8441291
0
ARC
8
DEFAULT_255_1_234
10
22.954141
20
116.2733807
40
0.5071869
50
274.1042341
51
286.4071509
0
ARC
8
DEFAULT_255_1_234
10
22.9364666
20
116.4617229
40
0.6963234
50
269.9236873
51
274.445647
0
ARC
8
DEFAULT_255_1_234
10
22.9410667
20
116.2277537
40
0.3362634
50
269.6055768
51
281.3740047
0
ARC
8
DEFAULT_255_1_234
10
22.9641305
20
116.1184353
40
0.224546
50
281.1055983
51
302.5132223
0
ARC
8
DEFAULT_255_1_234
10
22.9788204
20
116.0920823
40
0.1944357
50
303.0368945
51
311.8811219
0
ARC
8
DEFAULT_255_1_234
10
22.9859611
20
116.083589
40
0.1833454
50
311.9916004
51
351.7143462
0
ARC
8
DEFAULT_255_1_234
10
22.9042841
20
116.100093
40
0.2665871
50
350.7339597
51
0.2221581
0
ARC
8
DEFAULT_255_1_234
10
22.8935287
20
116.1057467
40
0.2773789
50
359.0456241
51
17.2296242
0
ARC
8
DEFAULT_255_1_234
10
22.9974404
20
116.1366163
40
0.1689915
50
17.6685481
51
78.9940892
0
ARC
8
DEFAULT_255_1_234
10
22.9457568
20
115.9511224
40
0.3612658
50
76.5635957
51
90.6980921
0
LINE
8
DEFAULT_255_1_234
10
22.9413552
20
116.3123613
11
22.9411614
21
116.3123614
0
ARC
8
DEFAULT_255_1_234
10
22.9193228
20
116.7646036
40
0.3285612
50
269.6064736
51
281.4533503
0
ARC
8
DEFAULT_255_1_234
10
22.9416048
20
116.6594688
40
0.2210975
50
281.2041486
51
302.5148063
0
ARC
8
DEFAULT_255_1_234
10
22.9552898
20
116.6348241
40
0.1929674
50
303.021671
51
309.8369575
0
ARC
8
DEFAULT_255_1_234
10
22.9736359
20
116.6142488
40
0.1654181
50
309.5228395
51
356.9509836
0
ARC
8
DEFAULT_255_1_234
10
22.9072942
20
116.6237932
40
0.2322512
50
355.4701227
51
0.0492546
0
ARC
8
DEFAULT_255_1_234
10
22.8794033
20
116.6260094
40
0.2601498
50
359.5558597
51
11.2096359
0
ARC
8
DEFAULT_255_1_234
10
22.9751323
20
116.645823
40
0.1623975
50
10.9182341
51
31.3230275
0
ARC
8
DEFAULT_255_1_234
10
23.0037056
20
116.6617214
40
0.1297302
50
31.8852677
51
52.1412565
0
ARC
8
DEFAULT_255_1_234
10
22.9762789
20
116.622975
40
0.1771663
50
52.8285564
51
71.9850297
0
ARC
8
DEFAULT_255_1_234
10
22.9386965
20
116.5123664
40
0.2939794
50
71.6863486
51
82.8455995
0
ARC
8
DEFAULT_255_1_234
10
22.9147501
20
116.3314149
40
0.476506
50
82.6984714
51
90.1729175
0
ARC
8
DEFAULT_255_1_234
10
22.9125136
20
116.4537623
40
0.3541573
50
89.8708275
51
90.0431131
0
LINE
8
DEFAULT_255_1_234
10
24.0720301
20
116.9356243
11
24.0985349
21
116.9356243
0
LINE
8
DEFAULT_255_1_234
10
24.0985349
20
116.9356243
11
24.0985349
21
116.809526
0
LINE
8
DEFAULT_255_1_234
10
24.0985349
20
116.809526
11
24.071227
21
116.809526
0
LINE
8
DEFAULT_255_1_234
10
23.5242656
20
116.2103583
11
23.5242656
21
116.2673836
0
LINE
8
DEFAULT_255_1_234
10
23.6736559
20
116.2481075
11
23.6736559
21
116.1934917
0
ARC
8
DEFAULT_255_1_234
10
24.0764617
20
116.3097455
40
0.4998079
50
90.6001036
51
104.514704
0
ARC
8
DEFAULT_255_1_234
10
24.0376133
20
116.4542131
40
0.3502176
50
104.2855254
51
133.862935
0
ARC
8
DEFAULT_255_1_234
10
24.053989
20
116.443383
40
0.3693984
50
134.5302688
51
161.6210873
0
ARC
8
DEFAULT_255_1_234
10
24.2193079
20
116.3850895
40
0.5446739
50
161.2849839
51
174.2076652
0
ARC
8
DEFAULT_255_1_234
10
24.3600016
20
116.3656787
40
0.6866274
50
173.7810589
51
174.9254635
0
ARC
8
DEFAULT_255_1_234
10
23.9049848
20
116.2273839
40
0.3033419
50
95.8330959
51
138.9954921
0
ARC
8
DEFAULT_255_1_234
10
23.9273204
20
116.0995375
40
0.4328947
50
89.8753725
51
97.0544009
0
ARC
8
DEFAULT_255_1_234
10
23.932067
20
116.1830748
40
0.3493769
50
71.6407809
51
90.6240094
0
ARC
8
DEFAULT_255_1_234
10
23.9471244
20
116.2385082
40
0.2920396
50
39.6367836
51
71.019018
0
ARC
8
DEFAULT_255_1_234
10
23.8834717
20
116.1834998
40
0.3761538
50
10.658731
51
39.9043955
0
ARC
8
DEFAULT_255_1_234
10
23.7286799
20
116.1498686
40
0.5345136
50
359.682601
51
11.132623
0
ARC
8
DEFAULT_255_1_234
10
23.724693
20
116.142801
40
0.5385081
50
347.2486944
51
0.4369317
0
ARC
8
DEFAULT_255_1_234
10
23.8914407
20
116.1026807
40
0.3670249
50
318.1409698
51
347.6118597
0
ARC
8
DEFAULT_255_1_234
10
23.92394
20
116.0759702
40
0.3250007
50
275.6342139
51
317.8248465
0
ARC
8
DEFAULT_255_1_234
10
23.9018512
20
116.2059219
40
0.4565864
50
269.8874292
51
276.7917694
0
ARC
8
DEFAULT_255_1_234
10
23.8963582
20
116.1033743
40
0.3540676
50
246.9140195
51
270.7437342
0
ARC
8
DEFAULT_255_1_234
10
23.8969973
20
116.0891384
40
0.3412781
50
218.1665114
51
245.878116
0
ARC
8
DEFAULT_255_1_234
10
23.9849433
20
116.1627279
40
0.455911
50
191.4115814
51
218.6077802
0
ARC
8
DEFAULT_255_1_234
10
24.1787523
20
116.2061833
40
0.6545001
50
179.6345085
51
191.7836486
0
ARC
8
DEFAULT_255_1_234
10
24.7369859
20
116.2740697
40
1.2127388
50
171.4525249
51
180.3158839
0
ARC
8
DEFAULT_255_1_234
10
24.2974735
20
116.3424608
40
0.7679464
50
157.9802646
51
171.6246686
0
ARC
8
DEFAULT_255_1_234
10
24.0760756
20
116.4307421
40
0.5296008
50
141.4298019
51
157.854097
0
ARC
8
DEFAULT_255_1_234
10
24.0119077
20
116.4761381
40
0.4511509
50
102.8715806
51
140.8564722
0
ARC
8
DEFAULT_255_1_234
10
24.0766692
20
116.2321552
40
0.7034845
50
90.3778349
51
103.5869322
0
ARC
8
DEFAULT_255_1_234
10
23.9028468
20
116.171673
40
0.2370698
50
89.8751008
51
126.2071704
0
ARC
8
DEFAULT_255_1_234
10
23.9074258
20
116.1562303
40
0.2522934
50
124.9745049
51
144.895901
0
ARC
8
DEFAULT_255_1_234
10
23.8898449
20
116.170556
40
0.2296779
50
145.2974905
51
160.2660252
0
ARC
8
DEFAULT_255_1_234
10
24.1970987
20
116.1903071
40
0.5234525
50
179.6514266
51
190.2855912
0
ARC
8
DEFAULT_255_1_234
10
24.0277125
20
116.1583786
40
0.3510893
50
190.0945431
51
207.5098196
0
ARC
8
DEFAULT_255_1_234
10
23.9711394
20
116.1314623
40
0.288489
50
207.9583163
51
216.3251085
0
ARC
8
DEFAULT_255_1_234
10
23.9371502
20
116.1035105
40
0.2445587
50
215.7661442
51
232.5456785
0
ARC
8
DEFAULT_255_1_234
10
23.8988485
20
116.0548482
40
0.1826382
50
232.8005391
51
270.6605633
0
ARC
8
DEFAULT_255_1_234
10
23.9034186
20
116.0912612
40
0.2190529
50
269.35537
51
288.4744281
0
ARC
8
DEFAULT_255_1_234
10
23.9127083
20
116.0563118
40
0.1829749
50
289.1833337
51
322.9683818
0
ARC
8
DEFAULT_255_1_234
10
23.8515606
20
116.1045391
40
0.2608399
50
322.6007884
51
346.5182367
0
ARC
8
DEFAULT_255_1_234
10
23.7358201
20
116.1340616
40
0.3802777
50
346.2582162
51
358.7741648
0
ARC
8
DEFAULT_255_1_234
10
23.633987
20
116.1395965
40
0.4822176
50
358.3755224
51
0.0098023
0
ARC
8
DEFAULT_255_1_234
10
23.7096058
20
116.1423657
40
0.4066078
50
359.6214041
51
11.2839074
0
ARC
8
DEFAULT_255_1_234
10
23.8373204
20
116.1690066
40
0.2761514
50
11.0482309
51
31.8146458
0
ARC
8
DEFAULT_255_1_234
10
23.8682247
20
116.1857584
40
0.2410679
50
32.3035391
51
38.082671
0
ARC
8
DEFAULT_255_1_234
10
23.9102907
20
116.2238662
40
0.1844966
50
36.825067
51
85.7415724
0
ARC
8
DEFAULT_255_1_234
10
23.9035741
20
116.1738301
40
0.2349122
50
85.0140713
51
90.0513278
0
LINE
8
DEFAULT_255_1_234
10
22.9355392
20
123.7029
11
22.5299364
21
123.7029
0
LINE
8
DEFAULT_255_1_234
10
22.5299364
20
123.7029
11
22.5299364
21
124.8723211
0
LINE
8
DEFAULT_255_1_234
10
22.5299364
20
124.8723211
11
22.9122471
21
124.8723211
0
LINE
8
DEFAULT_255_1_234
10
22.9411614
20
124.2498614
11
22.6841458
21
124.2498614
0
LINE
8
DEFAULT_255_1_234
10
22.6841458
20
124.2498614
11
22.6841458
21
123.8289983
0
LINE
8
DEFAULT_255_1_234
10
22.6841458
20
123.8289983
11
22.9387519
21
123.8289983
0
LINE
8
DEFAULT_255_1_234
10
22.6841458
20
124.7454196
11
22.6841458
21
124.3735501
0
LINE
8
DEFAULT_255_1_234
10
22.6841458
20
124.3735501
11
22.9170662
21
124.3735501
0
LINE
8
DEFAULT_255_1_234
10
22.9122471
20
124.7454196
11
22.6841458
21
124.7454196
0
ARC
8
DEFAULT_255_1_234
10
22.916018
20
124.1355901
40
0.7367406
50
82.1257326
51
90.2932599
0
ARC
8
DEFAULT_255_1_234
10
22.9549135
20
124.4074013
40
0.4621653
50
69.9044149
51
82.2857423
0
ARC
8
DEFAULT_255_1_234
10
23.0119813
20
124.5616637
40
0.2976871
50
51.1838526
51
70.0181538
0
ARC
8
DEFAULT_255_1_234
10
23.0374779
20
124.598724
40
0.2528517
50
12.1017251
51
50.4214761
0
ARC
8
DEFAULT_255_1_234
10
22.8990653
20
124.5639676
40
0.3955061
50
359.5251267
51
12.8211707
0
ARC
8
DEFAULT_255_1_234
10
23.0570579
20
124.5570344
40
0.2375281
50
323.4908128
51
0.8817314
0
ARC
8
DEFAULT_255_1_234
10
23.0152266
20
124.589355
40
0.2903817
50
298.6825083
51
323.2756573
0
ARC
8
DEFAULT_255_1_234
10
22.9790629
20
124.6494649
40
0.3604842
50
293.1999386
51
299.1396394
0
ARC
8
DEFAULT_255_1_234
10
23.0463602
20
124.0409126
40
0.2871098
50
54.0011765
51
74.9167975
0
ARC
8
DEFAULT_255_1_234
10
23.0579961
20
124.0606332
40
0.2643248
50
36.3580696
51
53.5291921
0
ARC
8
DEFAULT_255_1_234
10
23.0453203
20
124.0515998
40
0.2798884
50
4.8189881
51
36.3089977
0
ARC
8
DEFAULT_255_1_234
10
22.9674038
20
124.040627
40
0.358478
50
359.9370252
51
5.5204067
0
ARC
8
DEFAULT_255_1_234
10
22.934956
20
124.0365667
40
0.3909429
50
344.7478609
51
0.5373281
0
ARC
8
DEFAULT_255_1_234
10
23.0340531
20
124.0098544
40
0.2883093
50
311.1786488
51
344.6886812
0
ARC
8
DEFAULT_255_1_234
10
23.0048578
20
124.0461987
40
0.3348923
50
286.0418249
51
310.8441291
0
ARC
8
DEFAULT_255_1_234
10
22.954141
20
124.2108807
40
0.5071869
50
274.1042341
51
286.4071509
0
ARC
8
DEFAULT_255_1_234
10
22.9364666
20
124.3992229
40
0.6963234
50
269.9236873
51
274.445647
0
ARC
8
DEFAULT_255_1_234
10
22.9410667
20
124.1652537
40
0.3362634
50
269.6055768
51
281.3740047
0
ARC
8
DEFAULT_255_1_234
10
22.9641305
20
124.0559353
40
0.224546
50
281.1055983
51
302.5132223
0
ARC
8
DEFAULT_255_1_234
10
22.9788204
20
124.0295823
40
0.1944357
50
303.0368945
51
311.8811219
0
ARC
8
DEFAULT_255_1_234
10
22.9859611
20
124.021089
40
0.1833454
50
311.9916004
51
351.7143462
0
ARC
8
DEFAULT_255_1_234
10
22.9042841
20
124.037593
40
0.2665871
50
350.7339597
51
0.2221581
0
ARC
8
DEFAULT_255_1_234
10
22.8935287
20
124.0432467
40
0.2773789
50
359.0456241
51
17.2296242
0
ARC
8
DEFAULT_255_1_234
10
22.9974404
20
124.0741163
40
0.1689915
50
17.6685481
51
78.9940892
0
ARC
8
DEFAULT_255_1_234
10
22.9457568
20
123.8886224
40
0.3612658
50
76.5635957
51
90.6980921
0
LINE
8
DEFAULT_255_1_234
10
22.9413552
20
124.2498613
11
22.9411614
21
124.2498614
0
ARC
8
DEFAULT_255_1_234
10
22.9193228
20
124.7021036
40
0.3285612
50
269.6064736
51
281.4533503
0
ARC
8
DEFAULT_255_1_234
10
22.9416048
20
124.5969688
40
0.2210975
50
281.2041486
51
302.5148063
0
ARC
8
DEFAULT_255_1_234
10
22.9552898
20
124.5723241
40
0.1929674
50
303.021671
51
309.8369575
0
ARC
8
DEFAULT_255_1_234
10
22.9736359
20
124.5517488
40
0.1654181
50
309.5228395
51
356.9509836
0
ARC
8
DEFAULT_255_1_234
10
22.9072942
20
124.5612932
40
0.2322512
50
355.4701227
51
0.0492546
0
ARC
8
DEFAULT_255_1_234
10
22.8794033
20
124.5635094
40
0.2601498
50
359.5558597
51
11.2096359
0
ARC
8
DEFAULT_255_1_234
10
22.9751323
20
124.583323
40
0.1623975
50
10.9182341
51
31.3230275
0
ARC
8
DEFAULT_255_1_234
10
23.0037056
20
124.5992214
40
0.1297302
50
31.8852677
51
52.1412565
0
ARC
8
DEFAULT_255_1_234
10
22.9762789
20
124.560475
40
0.1771663
50
52.8285564
51
71.9850297
0
ARC
8
DEFAULT_255_1_234
10
22.9386965
20
124.4498664
40
0.2939794
50
71.6863486
51
82.8455995
0
ARC
8
DEFAULT_255_1_234
10
22.9147501
20
124.2689149
40
0.476506
50
82.6984714
51
90.1729175
0
ARC
8
DEFAULT_255_1_234
10
22.9125136
20
124.3912623
40
0.3541573
50
89.8708275
51
90.0431131
0
LINE
8
DEFAULT_255_1_234
10
23.7025702
20
124.2586963
11
23.5837004
21
124.2892169
0
LINE
8
DEFAULT_255_1_234
10
23.5837004
20
124.2892169
11
23.6431353
21
124.8723211
0
LINE
8
DEFAULT_255_1_234
10
23.6431353
20
124.8723211
11
24.242303
21
124.8723211
0
LINE
8
DEFAULT_255_1_234
10
24.242303
20
124.8723211
11
24.242303
21
124.7349784
0
LINE
8
DEFAULT_255_1_234
10
24.242303
20
124.7349784
11
23.7692336
21
124.7349784
0
LINE
8
DEFAULT_255_1_234
10
23.7692336
20
124.7349784
11
23.7338939
21
124.4161184
0
LINE
8
DEFAULT_255_1_234
10
23.5419354
20
124.0105156
11
23.6824908
21
124.0105156
0
LINE
8
DEFAULT_255_1_234
10
23.7419257
20
124.2908232
11
23.7025702
21
124.2586963
0
ARC
8
DEFAULT_255_1_234
10
23.9193723
20
124.098123
40
0.3681349
50
93.7182161
51
120.2538958
0
ARC
8
DEFAULT_255_1_234
10
23.9287986
20
124.0173394
40
0.449379
50
89.9660152
51
94.2496022
0
ARC
8
DEFAULT_255_1_234
10
23.932872
20
124.0762549
40
0.390482
50
73.8043271
51
90.5585896
0
ARC
8
DEFAULT_255_1_234
10
23.9563617
20
124.1620602
40
0.3015334
50
41.3071453
51
73.5430202
0
ARC
8
DEFAULT_255_1_234
10
23.9147445
20
124.1262324
40
0.3564457
50
13.5075983
51
41.2174222
0
ARC
8
DEFAULT_255_1_234
10
23.7505648
20
124.0832486
40
0.5261351
50
1.1331335
51
13.8829381
0
ARC
8
DEFAULT_255_1_234
10
23.6094017
20
124.0756665
40
0.6674378
50
359.9919444
51
1.544251
0
ARC
8
DEFAULT_255_1_234
10
23.7370844
20
124.071528
40
0.5397702
50
347.8572367
51
0.4293338
0
ARC
8
DEFAULT_255_1_234
10
23.9121161
20
124.0318736
40
0.3603188
50
323.673004
51
348.1672506
0
ARC
8
DEFAULT_255_1_234
10
23.9415669
20
124.0139168
40
0.3259678
50
316.8171152
51
323.1492751
0
ARC
8
DEFAULT_255_1_234
10
23.9476858
20
124.010246
40
0.3189975
50
281.8396411
51
316.5457803
0
ARC
8
DEFAULT_255_1_234
10
23.9101122
20
124.1657762
40
0.4789527
50
269.5770101
51
282.4214771
0
ARC
8
DEFAULT_255_1_234
10
23.9029934
20
124.1444125
40
0.45759
50
256.2427136
51
270.4486331
0
ARC
8
DEFAULT_255_1_234
10
23.8730836
20
124.0244229
40
0.3339303
50
228.9023911
51
256.3314342
0
ARC
8
DEFAULT_255_1_234
10
23.8657069
20
124.0127746
40
0.32031
50
193.753695
51
228.5271154
0
ARC
8
DEFAULT_255_1_234
10
23.9895022
20
124.04908
40
0.4492253
50
184.924711
51
194.497588
0
ARC
8
DEFAULT_255_1_234
10
24.0087589
20
124.0526591
40
0.3289787
50
187.3600538
51
198.6732863
0
ARC
8
DEFAULT_255_1_234
10
23.9037883
20
124.0162674
40
0.217884
50
198.4451669
51
217.794479
0
ARC
8
DEFAULT_255_1_234
10
23.8742059
20
123.9953085
40
0.1816698
50
218.2887171
51
228.5612368
0
ARC
8
DEFAULT_255_1_234
10
23.8839846
20
124.0084963
40
0.1980329
50
228.9654866
51
258.1234728
0
ARC
8
DEFAULT_255_1_234
10
23.9045555
20
124.0965833
40
0.2884748
50
257.7258293
51
270.401361
0
ARC
8
DEFAULT_255_1_234
10
23.9090442
20
124.0520821
40
0.2439788
50
269.4204404
51
286.4209037
0
ARC
8
DEFAULT_255_1_234
10
23.9238929
20
123.9981657
40
0.1880666
50
286.7251356
51
320.600362
0
ARC
8
DEFAULT_255_1_234
10
23.8855754
20
124.0292595
40
0.2374121
50
320.6712579
51
344.5441685
0
ARC
8
DEFAULT_255_1_234
10
23.769908
20
124.0632045
40
0.3579479
50
344.2412205
51
356.7357071
0
ARC
8
DEFAULT_255_1_234
10
23.6450229
20
124.0735444
40
0.4832297
50
356.3548756
51
0.0500261
0
ARC
8
DEFAULT_255_1_234
10
23.7786738
20
124.076665
40
0.3495889
50
359.5576869
51
12.953486
0
ARC
8
DEFAULT_255_1_234
10
23.8841636
20
124.1022434
40
0.2410532
50
12.6490276
51
41.6081334
0
ARC
8
DEFAULT_255_1_234
10
23.9072007
20
124.1218321
40
0.2108218
50
41.7850273
51
85.9892764
0
ARC
8
DEFAULT_255_1_234
10
23.8948743
20
124.0405462
40
0.2928454
50
84.6957577
51
90.0676183
0
ARC
8
DEFAULT_255_1_234
10
23.8925227
20
123.9736716
40
0.3597255
50
89.6804936
51
99.1614436
0
ARC
8
DEFAULT_255_1_234
10
23.8719859
20
124.0964131
40
0.235281
50
98.9830931
51
113.8908934
0
ARC
8
DEFAULT_255_1_234
10
23.8490269
20
124.1505587
40
0.176479
50
114.1950727
51
127.3641004
0
LINE
8
DEFAULT_255_1_234
10
22.8297392
20
131.6404
11
22.4241364
21
131.6404
0
LINE
8
DEFAULT_255_1_234
10
22.4241364
20
131.6404
11
22.4241364
21
132.8098211
0
LINE
8
DEFAULT_255_1_234
10
22.4241364
20
132.8098211
11
22.8064471
21
132.8098211
0
LINE
8
DEFAULT_255_1_234
10
22.8353614
20
132.1873614
11
22.5783458
21
132.1873614
0
LINE
8
DEFAULT_255_1_234
10
22.5783458
20
132.1873614
11
22.5783458
21
131.7664983
0
LINE
8
DEFAULT_255_1_234
10
22.5783458
20
131.7664983
11
22.8329519
21
131.7664983
0
LINE
8
DEFAULT_255_1_234
10
22.5783458
20
132.6829196
11
22.5783458
21
132.3110501
0
LINE
8
DEFAULT_255_1_234
10
22.5783458
20
132.3110501
11
22.8112662
21
132.3110501
0
LINE
8
DEFAULT_255_1_234
10
22.8064471
20
132.6829196
11
22.5783458
21
132.6829196
0
ARC
8
DEFAULT_255_1_234
10
22.810218
20
132.0730901
40
0.7367406
50
82.1257326
51
90.2932599
0
ARC
8
DEFAULT_255_1_234
10
22.8491135
20
132.3449013
40
0.4621653
50
69.9044149
51
82.2857423
0
ARC
8
DEFAULT_255_1_234
10
22.9061813
20
132.4991637
40
0.2976871
50
51.1838526
51
70.0181538
0
ARC
8
DEFAULT_255_1_234
10
22.9316779
20
132.536224
40
0.2528517
50
12.1017251
51
50.4214761
0
ARC
8
DEFAULT_255_1_234
10
22.7932653
20
132.5014676
40
0.3955061
50
359.5251267
51
12.8211707
0
ARC
8
DEFAULT_255_1_234
10
22.9512579
20
132.4945344
40
0.2375281
50
323.4908128
51
0.8817314
0
ARC
8
DEFAULT_255_1_234
10
22.9094266
20
132.526855
40
0.2903817
50
298.6825083
51
323.2756573
0
ARC
8
DEFAULT_255_1_234
10
22.8732629
20
132.5869649
40
0.3604842
50
293.1999386
51
299.1396394
0
ARC
8
DEFAULT_255_1_234
10
22.9405602
20
131.9784126
40
0.2871098
50
54.0011765
51
74.9167975
0
ARC
8
DEFAULT_255_1_234
10
22.9521961
20
131.9981332
40
0.2643248
50
36.3580696
51
53.5291921
0
ARC
8
DEFAULT_255_1_234
10
22.9395203
20
131.9890998
40
0.2798884
50
4.8189881
51
36.3089977
0
ARC
8
DEFAULT_255_1_234
10
22.8616038
20
131.978127
40
0.358478
50
359.9370252
51
5.5204067
0
ARC
8
DEFAULT_255_1_234
10
22.829156
20
131.9740667
40
0.3909429
50
344.7478609
51
0.5373281
0
ARC
8
DEFAULT_255_1_234
10
22.9282531
20
131.9473544
40
0.2883093
50
311.1786488
51
344.6886812
0
ARC
8
DEFAULT_255_1_234
10
22.8990578
20
131.9836987
40
0.3348923
50
286.0418249
51
310.8441291
0
ARC
8
DEFAULT_255_1_234
10
22.848341
20
132.1483807
40
0.5071869
50
274.1042341
51
286.4071509
0
ARC
8
DEFAULT_255_1_234
10
22.8306666
20
132.3367229
40
0.6963234
50
269.9236873
51
274.445647
0
ARC
8
DEFAULT_255_1_234
10
22.8352667
20
132.1027537
40
0.3362634
50
269.6055768
51
281.3740047
0
ARC
8
DEFAULT_255_1_234
10
22.8583305
20
131.9934353
40
0.224546
50
281.1055983
51
302.5132223
0
ARC
8
DEFAULT_255_1_234
10
22.8730204
20
131.9670823
40
0.1944357
50
303.0368945
51
311.8811219
0
ARC
8
DEFAULT_255_1_234
10
22.8801611
20
131.958589
40
0.1833454
50
311.9916004
51
351.7143462
0
ARC
8
DEFAULT_255_1_234
10
22.7984841
20
131.975093
40
0.2665871
50
350.7339597
51
0.2221581
0
ARC
8
DEFAULT_255_1_234
10
22.7877287
20
131.9807467
40
0.2773789
50
359.0456241
51
17.2296242
0
ARC
8
DEFAULT_255_1_234
10
22.8916404
20
132.0116163
40
0.1689915
50
17.6685481
51
78.9940892
0
ARC
8
DEFAULT_255_1_234
10
22.8399568
20
131.8261224
40
0.3612658
50
76.5635957
51
90.6980921
0
LINE
8
DEFAULT_255_1_234
10
22.8355552
20
132.1873613
11
22.8353614
21
132.1873614
0
ARC
8
DEFAULT_255_1_234
10
22.8135228
20
132.6396036
40
0.3285612
50
269.6064736
51
281.4533503
0
ARC
8
DEFAULT_255_1_234
10
22.8358048
20
132.5344688
40
0.2210975
50
281.2041486
51
302.5148063
0
ARC
8
DEFAULT_255_1_234
10
22.8494898
20
132.5098241
40
0.1929674
50
303.021671
51
309.8369575
0
ARC
8
DEFAULT_255_1_234
10
22.8678359
20
132.4892488
40
0.1654181
50
309.5228395
51
356.9509836
0
ARC
8
DEFAULT_255_1_234
10
22.8014942
20
132.4987932
40
0.2322512
50
355.4701227
51
0.0492546
0
ARC
8
DEFAULT_255_1_234
10
22.7736033
20
132.5010094
40
0.2601498
50
359.5558597
51
11.2096359
0
ARC
8
DEFAULT_255_1_234
10
22.8693323
20
132.520823
40
0.1623975
50
10.9182341
51
31.3230275
0
ARC
8
DEFAULT_255_1_234
10
22.8979056
20
132.5367214
40
0.1297302
50
31.8852677
51
52.1412565
0
ARC
8
DEFAULT_255_1_234
10
22.8704789
20
132.497975
40
0.1771663
50
52.8285564
51
71.9850297
0
ARC
8
DEFAULT_255_1_234
10
22.8328965
20
132.3873664
40
0.2939794
50
71.6863486
51
82.8455995
0
ARC
8
DEFAULT_255_1_234
10
22.8089501
20
132.2064149
40
0.476506
50
82.6984714
51
90.1729175
0
ARC
8
DEFAULT_255_1_234
10
22.8067136
20
132.3287623
40
0.3541573
50
89.8708275
51
90.0431131
0
LINE
8
DEFAULT_255_1_234
10
24.0369094
20
132.8098211
11
24.0369094
21
132.033152
0
LINE
8
DEFAULT_255_1_234
10
24.0369094
20
132.033152
11
24.1991505
21
132.033152
0
LINE
8
DEFAULT_255_1_234
10
24.1991505
20
132.033152
11
24.1991505
21
131.9118728
0
LINE
8
DEFAULT_255_1_234
10
24.1991505
20
131.9118728
11
24.0369094
21
131.9118728
0
LINE
8
DEFAULT_255_1_234
10
24.0369094
20
131.9118728
11
24.0369094
21
131.6404
0
LINE
8
DEFAULT_255_1_234
10
24.0369094
20
131.6404
11
23.8875191
21
131.6404
0
LINE
8
DEFAULT_255_1_234
10
23.8875191
20
131.6404
11
23.8875191
21
131.9118728
0
LINE
8
DEFAULT_255_1_234
10
23.8875191
20
131.9118728
11
23.3550148
21
131.9118728
0
LINE
8
DEFAULT_255_1_234
10
23.3550148
20
131.9118728
11
23.3550148
21
131.9994187
0
LINE
8
DEFAULT_255_1_234
10
23.3550148
20
131.9994187
11
23.8786842
21
132.8098211
0
LINE
8
DEFAULT_255_1_234
10
23.8786842
20
132.8098211
11
24.0369094
21
132.8098211
0
LINE
8
DEFAULT_255_1_234
10
23.8698493
20
132.5744912
11
23.5236813
21
132.033152
0
LINE
8
DEFAULT_255_1_234
10
23.5236813
20
132.033152
11
23.8875191
21
132.033152
0
LINE
8
DEFAULT_255_1_234
10
23.8875191
20
132.033152
11
23.8875191
21
132.6066181
0
LINE
8
DEFAULT_255_1_234
10
23.8875191
20
132.6066181
11
23.8698493
21
132.5744912
0
LINE
8
DEFAULT_255_1_234
10
22.9355392
20
139.5779
11
22.5299364
21
139.5779
0
LINE
8
DEFAULT_255_1_234
10
22.5299364
20
139.5779
11
22.5299364
21
140.7473211
0
LINE
8
DEFAULT_255_1_234
10
22.5299364
20
140.7473211
11
22.9122471
21
140.7473211
0
LINE
8
DEFAULT_255_1_234
10
22.9411614
20
140.1248614
11
22.6841458
21
140.1248614
0
LINE
8
DEFAULT_255_1_234
10
22.6841458
20
140.1248614
11
22.6841458
21
139.7039983
0
LINE
8
DEFAULT_255_1_234
10
22.6841458
20
139.7039983
11
22.9387519
21
139.7039983
0
LINE
8
DEFAULT_255_1_234
10
22.6841458
20
140.6204196
11
22.6841458
21
140.2485501
0
LINE
8
DEFAULT_255_1_234
10
22.6841458
20
140.2485501
11
22.9170662
21
140.2485501
0
LINE
8
DEFAULT_255_1_234
10
22.9122471
20
140.6204196
11
22.6841458
21
140.6204196
0
ARC
8
DEFAULT_255_1_234
10
22.916018
20
140.0105901
40
0.7367406
50
82.1257326
51
90.2932599
0
ARC
8
DEFAULT_255_1_234
10
22.9549135
20
140.2824013
40
0.4621653
50
69.9044149
51
82.2857423
0
ARC
8
DEFAULT_255_1_234
10
23.0119813
20
140.4366637
40
0.2976871
50
51.1838526
51
70.0181538
0
ARC
8
DEFAULT_255_1_234
10
23.0374779
20
140.473724
40
0.2528517
50
12.1017251
51
50.4214761
0
ARC
8
DEFAULT_255_1_234
10
22.8990653
20
140.4389676
40
0.3955061
50
359.5251267
51
12.8211707
0
ARC
8
DEFAULT_255_1_234
10
23.0570579
20
140.4320344
40
0.2375281
50
323.4908128
51
0.8817314
0
ARC
8
DEFAULT_255_1_234
10
23.0152266
20
140.464355
40
0.2903817
50
298.6825083
51
323.2756573
0
ARC
8
DEFAULT_255_1_234
10
22.9790629
20
140.5244649
40
0.3604842
50
293.1999386
51
299.1396394
0
ARC
8
DEFAULT_255_1_234
10
23.0463602
20
139.9159126
40
0.2871098
50
54.0011765
51
74.9167975
0
ARC
8
DEFAULT_255_1_234
10
23.0579961
20
139.9356332
40
0.2643248
50
36.3580696
51
53.5291921
0
ARC
8
DEFAULT_255_1_234
10
23.0453203
20
139.9265998
40
0.2798884
50
4.8189881
51
36.3089977
0
ARC
8
DEFAULT_255_1_234
10
22.9674038
20
139.915627
40
0.358478
50
359.9370252
51
5.5204067
0
ARC
8
DEFAULT_255_1_234
10
22.934956
20
139.9115667
40
0.3909429
50
344.7478609
51
0.5373281
0
ARC
8
DEFAULT_255_1_234
10
23.0340531
20
139.8848544
40
0.2883093
50
311.1786488
51
344.6886812
0
ARC
8
DEFAULT_255_1_234
10
23.0048578
20
139.9211987
40
0.3348923
50
286.0418249
51
310.8441291
0
ARC
8
DEFAULT_255_1_234
10
22.954141
20
140.0858807
40
0.5071869
50
274.1042341
51
286.4071509
0
ARC
8
DEFAULT_255_1_234
10
22.9364666
20
140.2742229
40
0.6963234
50
269.9236873
51
274.445647
0
ARC
8
DEFAULT_255_1_234
10
22.9410667
20
140.0402537
40
0.3362634
50
269.6055768
51
281.3740047
0
ARC
8
DEFAULT_255_1_234
10
22.9641305
20
139.9309353
40
0.224546
50
281.1055983
51
302.5132223
0
ARC
8
DEFAULT_255_1_234
10
22.9788204
20
139.9045823
40
0.1944357
50
303.0368945
51
311.8811219
0
ARC
8
DEFAULT_255_1_234
10
22.9859611
20
139.896089
40
0.1833454
50
311.9916004
51
351.7143462
0
ARC
8
DEFAULT_255_1_234
10
22.9042841
20
139.912593
40
0.2665871
50
350.7339597
51
0.2221581
0
ARC
8
DEFAULT_255_1_234
10
22.8935287
20
139.9182467
40
0.2773789
50
359.0456241
51
17.2296242
0
ARC
8
DEFAULT_255_1_234
10
22.9974404
20
139.9491163
40
0.1689915
50
17.6685481
51
78.9940892
0
ARC
8
DEFAULT_255_1_234
10
22.9457568
20
139.7636224
40
0.3612658
50
76.5635957
51
90.6980921
0
LINE
8
DEFAULT_255_1_234
10
22.9413552
20
140.1248613
11
22.9411614
21
140.1248614
0
ARC
8
DEFAULT_255_1_234
10
22.9193228
20
140.5771036
40
0.3285612
50
269.6064736
51
281.4533503
0
ARC
8
DEFAULT_255_1_234
10
22.9416048
20
140.4719688
40
0.2210975
50
281.2041486
51
302.5148063
0
ARC
8
DEFAULT_255_1_234
10
22.9552898
20
140.4473241
40
0.1929674
50
303.021671
51
309.8369575
0
ARC
8
DEFAULT_255_1_234
10
22.9736359
20
140.4267488
40
0.1654181
50
309.5228395
51
356.9509836
0
ARC
8
DEFAULT_255_1_234
10
22.9072942
20
140.4362932
40
0.2322512
50
355.4701227
51
0.0492546
0
ARC
8
DEFAULT_255_1_234
10
22.8794033
20
140.4385094
40
0.2601498
50
359.5558597
51
11.2096359
0
ARC
8
DEFAULT_255_1_234
10
22.9751323
20
140.458323
40
0.1623975
50
10.9182341
51
31.3230275
0
ARC
8
DEFAULT_255_1_234
10
23.0037056
20
140.4742214
40
0.1297302
50
31.8852677
51
52.1412565
0
ARC
8
DEFAULT_255_1_234
10
22.9762789
20
140.435475
40
0.1771663
50
52.8285564
51
71.9850297
0
ARC
8
DEFAULT_255_1_234
10
22.9386965
20
140.3248664
40
0.2939794
50
71.6863486
51
82.8455995
0
ARC
8
DEFAULT_255_1_234
10
22.9147501
20
140.1439149
40
0.476506
50
82.6984714
51
90.1729175
0
ARC
8
DEFAULT_255_1_234
10
22.9125136
20
140.2662623
40
0.3541573
50
89.8708275
51
90.0431131
0
LINE
8
DEFAULT_255_1_234
10
23.7314844
20
140.1136169
11
23.7314844
21
140.2348962
0
LINE
8
DEFAULT_255_1_234
10
23.7314844
20
140.2348962
11
23.8431256
21
140.2348962
0
LINE
8
DEFAULT_255_1_234
10
23.6527734
20
140.4405087
11
23.5041862
21
140.4405087
0
LINE
8
DEFAULT_255_1_234
10
23.493745
20
139.8863188
11
23.6431353
21
139.8863188
0
LINE
8
DEFAULT_255_1_234
10
23.8431256
20
140.1136169
11
23.7314844
21
140.1136169
0
ARC
8
DEFAULT_255_1_234
10
23.8402122
20
140.5741713
40
0.3392876
50
270.4919872
51
281.8951556
0
ARC
8
DEFAULT_255_1_234
10
23.8643384
20
140.4639702
40
0.2264817
50
281.6691735
51
301.2943132
0
ARC
8
DEFAULT_255_1_234
10
23.8813594
20
140.4328304
40
0.1910381
50
301.7833094
51
311.7545298
0
ARC
8
DEFAULT_255_1_234
10
23.890517
20
140.4226748
40
0.1773635
50
311.7323931
51
354.2802411
0
ARC
8
DEFAULT_255_1_234
10
23.8178795
20
140.4351722
40
0.2509385
50
353.0937916
51
0.1181479
0
ARC
8
DEFAULT_255_1_234
10
23.771758
20
140.4399386
40
0.2970898
50
359.1805295
51
15.0453146
0
ARC
8
DEFAULT_255_1_234
10
23.9063417
20
140.4791992
40
0.1569564
50
13.9577229
51
77.6713066
0
ARC
8
DEFAULT_255_1_234
10
23.8676946
20
140.3406949
40
0.3006298
50
76.1116566
51
90.7026153
0
ARC
8
DEFAULT_255_1_234
10
23.8617785
20
140.3680545
40
0.2732568
50
89.5324876
51
103.531937
0
ARC
8
DEFAULT_255_1_234
10
23.8417229
20
140.4479884
40
0.1908508
50
103.2931773
51
133.5619022
0
ARC
8
DEFAULT_255_1_234
10
23.8372717
20
140.4539375
40
0.1834746
50
133.8349307
51
173.5344437
0
ARC
8
DEFAULT_255_1_234
10
23.909576
20
140.4411213
40
0.2568033
50
172.5096846
51
180.1366907
0
ARC
8
DEFAULT_255_1_234
10
23.8144654
20
140.4445622
40
0.3103056
50
155.3484492
51
180.7484736
0
ARC
8
DEFAULT_255_1_234
10
23.8095743
20
140.4416846
40
0.3070957
50
131.5744599
51
154.4798489
0
ARC
8
DEFAULT_255_1_234
10
23.840889
20
140.410031
40
0.3515643
50
96.9875458
51
131.9690667
0
ARC
8
DEFAULT_255_1_234
10
23.862837
20
140.2854636
40
0.4779224
50
89.8596053
51
97.7825159
0
ARC
8
DEFAULT_255_1_234
10
23.8676433
20
140.2592616
40
0.5041361
50
78.3655447
51
90.4131539
0
ARC
8
DEFAULT_255_1_234
10
23.9034351
20
140.4251887
40
0.3344039
50
56.6229102
51
78.638727
0
ARC
8
DEFAULT_255_1_234
10
23.9249295
20
140.4627805
40
0.2912001
50
47.0253525
51
56.0854072
0
ARC
8
DEFAULT_255_1_234
10
23.9269075
20
140.4667223
40
0.2869704
50
10.9208013
51
46.7778124
0
ARC
8
DEFAULT_255_1_234
10
23.7905142
20
140.4351857
40
0.426899
50
359.6364486
51
11.6087304
0
ARC
8
DEFAULT_255_1_234
10
23.9739986
20
140.4336752
40
0.243409
50
332.3549906
51
359.7179418
0
ARC
8
DEFAULT_255_1_234
10
23.9089587
20
140.4645142
40
0.3153459
50
325.2333722
51
332.8745602
0
ARC
8
DEFAULT_255_1_234
10
23.9242211
20
140.4538828
40
0.2967456
50
292.9802137
51
325.2392345
0
ARC
8
DEFAULT_255_1_234
10
23.8967585
20
140.5072863
40
0.3566604
50
292.5402179
51
293.6924929
0
ARC
8
DEFAULT_255_1_234
10
23.9360181
20
139.8618091
40
0.3307468
50
57.6435486
51
72.8625112
0
ARC
8
DEFAULT_255_1_234
10
23.971468
20
139.9192549
40
0.2632492
50
36.7248896
51
57.4697979
0
ARC
8
DEFAULT_255_1_234
10
23.9703313
20
139.920522
40
0.2634081
50
8.0545065
51
36.356114
0
ARC
8
DEFAULT_255_1_234
10
23.8840498
20
139.9050174
40
0.3510261
50
359.8320645
51
8.5869982
0
ARC
8
DEFAULT_255_1_234
10
23.8465274
20
139.9002101
40
0.3885653
50
343.9829931
51
0.5571613
0
ARC
8
DEFAULT_255_1_234
10
23.9351472
20
139.8759438
40
0.2966924
50
311.6359546
51
343.7651759
0
ARC
8
DEFAULT_255_1_234
10
23.8973041
20
139.9186102
40
0.3537231
50
279.7829875
51
311.6255694
0
ARC
8
DEFAULT_255_1_234
10
23.8671817
20
140.062328
40
0.5004971
50
269.7286406
51
280.3856417
0
ARC
8
DEFAULT_255_1_234
10
23.860989
20
140.0581996
40
0.4963778
50
256.6828919
51
270.4412052
0
ARC
8
DEFAULT_255_1_234
10
23.8271185
20
139.9197394
40
0.3538406
50
229.4223008
51
256.8556159
0
ARC
8
DEFAULT_255_1_234
10
23.7856578
20
139.8730736
40
0.2914296
50
181.818294
51
229.6455059
0
ARC
8
DEFAULT_255_1_234
10
23.8896535
20
139.8861496
40
0.3959084
50
179.9755256
51
183.2323064
0
ARC
8
DEFAULT_255_1_234
10
23.872428
20
139.8841037
40
0.2293034
50
179.4465117
51
196.2869258
0
ARC
8
DEFAULT_255_1_234
10
23.8236688
20
139.8707651
40
0.1787621
50
196.5661473
51
227.705904
0
ARC
8
DEFAULT_255_1_234
10
23.8400783
20
139.8891155
40
0.2033784
50
227.7652068
51
257.8762805
0
ARC
8
DEFAULT_255_1_234
10
23.8625753
20
139.9834156
40
0.3003081
50
257.4584385
51
270.426602
0
ARC
8
DEFAULT_255_1_234
10
23.8671319
20
140.0123996
40
0.329292
50
269.5962073
51
280.8789248
0
ARC
8
DEFAULT_255_1_234
10
23.8900848
20
139.8977685
40
0.2123908
50
280.6346389
51
299.8595945
0
ARC
8
DEFAULT_255_1_234
10
23.9091755
20
139.8615212
40
0.171457
50
300.3576302
51
314.5517981
0
ARC
8
DEFAULT_255_1_234
10
23.9008815
20
139.8675919
40
0.1816095
50
315.0728369
51
345.0431014
0
ARC
8
DEFAULT_255_1_234
10
23.8085629
20
139.8944841
40
0.2777492
50
344.5986631
51
357.9269593
0
ARC
8
DEFAULT_255_1_234
10
23.7189956
20
139.9006276
40
0.3674917
50
357.4748886
51
0.0231117
0
ARC
8
DEFAULT_255_1_234
10
23.8213065
20
139.9030679
40
0.2651907
50
359.5047933
51
13.4239635
0
ARC
8
DEFAULT_255_1_234
10
23.9079709
20
139.9252478
40
0.1757509
50
12.9498199
51
48.7551375
0
ARC
8
DEFAULT_255_1_234
10
23.8897443
20
139.90034
40
0.2065134
50
49.5088623
51
72.1836453
0
ARC
8
DEFAULT_255_1_234
10
23.8539595
20
139.7941291
40
0.3185836
50
71.9010081
51
84.3554254
0
ARC
8
DEFAULT_255_1_234
10
23.8378227
20
139.6580326
40
0.4556151
50
84.0193428
51
89.333121
0
LINE
8
DEFAULT_255_1_234
10
22.9355392
20
147.5154
11
22.5299364
21
147.5154
0
LINE
8
DEFAULT_255_1_234
10
22.5299364
20
147.5154
11
22.5299364
21
148.6848211
0
LINE
8
DEFAULT_255_1_234
10
22.5299364
20
148.6848211
11
22.9122471
21
148.6848211
0
LINE
8
DEFAULT_255_1_234
10
22.9411614
20
148.0623614
11
22.6841458
21
148.0623614
0
LINE
8
DEFAULT_255_1_234
10
22.6841458
20
148.0623614
11
22.6841458
21
147.6414983
0
LINE
8
DEFAULT_255_1_234
10
22.6841458
20
147.6414983
11
22.9387519
21
147.6414983
0
LINE
8
DEFAULT_255_1_234
10
22.6841458
20
148.5579196
11
22.6841458
21
148.1860501
0
LINE
8
DEFAULT_255_1_234
10
22.6841458
20
148.1860501
11
22.9170662
21
148.1860501
0
LINE
8
DEFAULT_255_1_234
10
22.9122471
20
148.5579196
11
22.6841458
21
148.5579196
0
ARC
8
DEFAULT_255_1_234
10
22.916018
20
147.9480901
40
0.7367406
50
82.1257326
51
90.2932599
0
ARC
8
DEFAULT_255_1_234
10
22.9549135
20
148.2199013
40
0.4621653
50
69.9044149
51
82.2857423
0
ARC
8
DEFAULT_255_1_234
10
23.0119813
20
148.3741637
40
0.2976871
50
51.1838526
51
70.0181538
0
ARC
8
DEFAULT_255_1_234
10
23.0374779
20
148.411224
40
0.2528517
50
12.1017251
51
50.4214761
0
ARC
8
DEFAULT_255_1_234
10
22.8990653
20
148.3764676
40
0.3955061
50
359.5251267
51
12.8211707
0
ARC
8
DEFAULT_255_1_234
10
23.0570579
20
148.3695344
40
0.2375281
50
323.4908128
51
0.8817314
0
ARC
8
DEFAULT_255_1_234
10
23.0152266
20
148.401855
40
0.2903817
50
298.6825083
51
323.2756573
0
ARC
8
DEFAULT_255_1_234
10
22.9790629
20
148.4619649
40
0.3604842
50
293.1999386
51
299.1396394
0
ARC
8
DEFAULT_255_1_234
10
23.0463602
20
147.8534126
40
0.2871098
50
54.0011765
51
74.9167975
0
ARC
8
DEFAULT_255_1_234
10
23.0579961
20
147.8731332
40
0.2643248
50
36.3580696
51
53.5291921
0
ARC
8
DEFAULT_255_1_234
10
23.0453203
20
147.8640998
40
0.2798884
50
4.8189881
51
36.3089977
0
ARC
8
DEFAULT_255_1_234
10
22.9674038
20
147.853127
40
0.358478
50
359.9370252
51
5.5204067
0
ARC
8
DEFAULT_255_1_234
10
22.934956
20
147.8490667
40
0.3909429
50
344.7478609
51
0.5373281
0
ARC
8
DEFAULT_255_1_234
10
23.0340531
20
147.8223544
40
0.2883093
50
311.1786488
51
344.6886812
0
ARC
8
DEFAULT_255_1_234
10
23.0048578
20
147.8586987
40
0.3348923
50
286.0418249
51
310.8441291
0
ARC
8
DEFAULT_255_1_234
10
22.954141
20
148.0233807
40
0.5071869
50
274.1042341
51
286.4071509
0
ARC
8
DEFAULT_255_1_234
10
22.9364666
20
148.2117229
40
0.6963234
50
269.9236873
51
274.445647
0
ARC
8
DEFAULT_255_1_234
10
22.9410667
20
147.9777537
40
0.3362634
50
269.6055768
51
281.3740047
0
ARC
8
DEFAULT_255_1_234
10
22.9641305
20
147.8684353
40
0.224546
50
281.1055983
51
302.5132223
0
ARC
8
DEFAULT_255_1_234
10
22.9788204
20
147.8420823
40
0.1944357
50
303.0368945
51
311.8811219
0
ARC
8
DEFAULT_255_1_234
10
22.9859611
20
147.833589
40
0.1833454
50
311.9916004
51
351.7143462
0
ARC
8
DEFAULT_255_1_234
10
22.9042841
20
147.850093
40
0.2665871
50
350.7339597
51
0.2221581
0
ARC
8
DEFAULT_255_1_234
10
22.8935287
20
147.8557467
40
0.2773789
50
359.0456241
51
17.2296242
0
ARC
8
DEFAULT_255_1_234
10
22.9974404
20
147.8866163
40
0.1689915
50
17.6685481
51
78.9940892
0
ARC
8
DEFAULT_255_1_234
10
22.9457568
20
147.7011224
40
0.3612658
50
76.5635957
51
90.6980921
0
LINE
8
DEFAULT_255_1_234
10
22.9413552
20
148.0623613
11
22.9411614
21
148.0623614
0
ARC
8
DEFAULT_255_1_234
10
22.9193228
20
148.5146036
40
0.3285612
50
269.6064736
51
281.4533503
0
ARC
8
DEFAULT_255_1_234
10
22.9416048
20
148.4094688
40
0.2210975
50
281.2041486
51
302.5148063
0
ARC
8
DEFAULT_255_1_234
10
22.9552898
20
148.3848241
40
0.1929674
50
303.021671
51
309.8369575
0
ARC
8
DEFAULT_255_1_234
10
22.9736359
20
148.3642488
40
0.1654181
50
309.5228395
51
356.9509836
0
ARC
8
DEFAULT_255_1_234
10
22.9072942
20
148.3737932
40
0.2322512
50
355.4701227
51
0.0492546
0
ARC
8
DEFAULT_255_1_234
10
22.8794033
20
148.3760094
40
0.2601498
50
359.5558597
51
11.2096359
0
ARC
8
DEFAULT_255_1_234
10
22.9751323
20
148.395823
40
0.1623975
50
10.9182341
51
31.3230275
0
ARC
8
DEFAULT_255_1_234
10
23.0037056
20
148.4117214
40
0.1297302
50
31.8852677
51
52.1412565
0
ARC
8
DEFAULT_255_1_234
10
22.9762789
20
148.372975
40
0.1771663
50
52.8285564
51
71.9850297
0
ARC
8
DEFAULT_255_1_234
10
22.9386965
20
148.2623664
40
0.2939794
50
71.6863486
51
82.8455995
0
ARC
8
DEFAULT_255_1_234
10
22.9147501
20
148.0814149
40
0.476506
50
82.6984714
51
90.1729175
0
ARC
8
DEFAULT_255_1_234
10
22.9125136
20
148.2037623
40
0.3541573
50
89.8708275
51
90.0431131
0
LINE
8
DEFAULT_255_1_234
10
24.2816585
20
147.6366792
11
24.2816585
21
147.5154
0
LINE
8
DEFAULT_255_1_234
10
24.2816585
20
147.5154
11
23.5154307
21
147.5154
0
LINE
8
DEFAULT_255_1_234
10
23.5154307
20
147.5154
11
23.5154307
21
147.6222221
0
LINE
8
DEFAULT_255_1_234
10
23.5154307
20
147.6222221
11
23.9202303
21
148.0719995
0
LINE
8
DEFAULT_255_1_234
10
23.641529
20
148.3402595
11
23.4929418
21
148.3402595
0
LINE
8
DEFAULT_255_1_234
10
24.0077762
20
147.9764218
11
23.6945384
21
147.6366792
0
LINE
8
DEFAULT_255_1_234
10
23.6945384
20
147.6366792
11
24.2816585
21
147.6366792
0
ARC
8
DEFAULT_255_1_234
10
22.5712136
20
149.2649527
40
1.8008286
50
318.5132453
51
320.7828378
0
ARC
8
DEFAULT_255_1_234
10
23.099911
20
148.8346426
40
1.1191493
50
320.7372736
51
323.9737074
0
ARC
8
DEFAULT_255_1_234
10
23.4918967
20
148.5506361
40
0.6350923
50
323.8961724
51
328.6421089
0
ARC
8
DEFAULT_255_1_234
10
23.6965562
20
148.4244031
40
0.3946393
50
328.8299013
51
331.789948
0
ARC
8
DEFAULT_255_1_234
10
23.7962741
20
148.3729509
40
0.2824501
50
331.4255242
51
352.9364833
0
ARC
8
DEFAULT_255_1_234
10
23.8099241
20
148.3698976
40
0.2685315
50
353.2248685
51
0.0169286
0
ARC
8
DEFAULT_255_1_234
10
23.8309118
20
148.372195
40
0.2475536
50
359.4866256
51
15.9339782
0
ARC
8
DEFAULT_255_1_234
10
23.8816104
20
148.3858286
40
0.1950618
50
16.1714718
51
43.5284424
0
ARC
8
DEFAULT_255_1_234
10
23.8893412
20
148.3935573
40
0.184134
50
43.4415429
51
83.1661404
0
ARC
8
DEFAULT_255_1_234
10
23.875933
20
148.3198771
40
0.258926
50
82.160215
51
90.1505798
0
ARC
8
DEFAULT_255_1_234
10
23.8727758
20
148.2661865
40
0.3126255
50
89.5460705
51
102.5418777
0
ARC
8
DEFAULT_255_1_234
10
23.8484844
20
148.3692665
40
0.2067346
50
102.1739365
51
129.2061916
0
ARC
8
DEFAULT_255_1_234
10
23.8405916
20
148.3817094
40
0.1921118
50
129.7279328
51
135.7542026
0
ARC
8
DEFAULT_255_1_234
10
23.8527443
20
148.3720045
40
0.2075944
50
136.175737
51
166.3674722
0
ARC
8
DEFAULT_255_1_234
10
23.9534362
20
148.3450182
40
0.3118201
50
165.9092917
51
178.8683903
0
ARC
8
DEFAULT_255_1_234
10
24.0399224
20
148.3403179
40
0.3983935
50
178.438168
51
180.0083905
0
ARC
8
DEFAULT_255_1_234
10
23.8997826
20
148.3442231
40
0.4068601
50
163.2878735
51
180.5581814
0
ARC
8
DEFAULT_255_1_234
10
23.8196087
20
148.366284
40
0.3237344
50
133.454115
51
162.9470031
0
ARC
8
DEFAULT_255_1_234
10
23.8374629
20
148.3473
40
0.349795
50
100.7869394
51
133.4384016
0
ARC
8
DEFAULT_255_1_234
10
23.87224
20
148.1924319
40
0.5084616
50
89.6605301
51
101.3704185
0
ARC
8
DEFAULT_255_1_234
10
23.8788739
20
148.1985496
40
0.502348
50
78.2171172
51
90.4130393
0
ARC
8
DEFAULT_255_1_234
10
23.9143817
20
148.3609637
40
0.3361092
50
55.9268222
51
78.4888551
0
ARC
8
DEFAULT_255_1_234
10
23.9340257
20
148.3948324
40
0.2970617
50
47.9292255
51
55.4054003
0
ARC
8
DEFAULT_255_1_234
10
23.9441818
20
148.4051502
40
0.2825983
50
4.3347696
51
48.0560701
0
ARC
8
DEFAULT_255_1_234
10
23.8346212
20
148.3881601
40
0.393225
50
359.925209
51
5.5967654
0
ARC
8
DEFAULT_255_1_234
10
23.8775103
20
148.3937816
40
0.3503892
50
337.8914096
51
358.9967724
0
ARC
8
DEFAULT_255_1_234
10
23.6061515
20
148.4984706
40
0.6412172
50
326.9135351
51
338.3505194
0
ARC
8
DEFAULT_255_1_234
10
23.2075819
20
148.7539284
40
1.1146189
50
319.6472867
51
327.095818
0
ARC
8
DEFAULT_255_1_234
10
22.8242822
20
149.0701
40
1.6114559
50
317.2586784
51
319.9046139
0
LINE
8
DEFAULT_255_1_234
10
22.9432392
20
155.4529
11
22.5376364
21
155.4529
0
LINE
8
DEFAULT_255_1_234
10
22.5376364
20
155.4529
11
22.5376364
21
156.6223211
0
LINE
8
DEFAULT_255_1_234
10
22.5376364
20
156.6223211
11
22.9199471
21
156.6223211
0
LINE
8
DEFAULT_255_1_234
10
22.9488614
20
155.9998614
11
22.6918458
21
155.9998614
0
LINE
8
DEFAULT_255_1_234
10
22.6918458
20
155.9998614
11
22.6918458
21
155.5789983
0
LINE
8
DEFAULT_255_1_234
10
22.6918458
20
155.5789983
11
22.9464519
21
155.5789983
0
LINE
8
DEFAULT_255_1_234
10
22.6918458
20
156.4954196
11
22.6918458
21
156.1235501
0
LINE
8
DEFAULT_255_1_234
10
22.6918458
20
156.1235501
11
22.9247662
21
156.1235501
0
LINE
8
DEFAULT_255_1_234
10
22.9199471
20
156.4954196
11
22.6918458
21
156.4954196
0
ARC
8
DEFAULT_255_1_234
10
22.923718
20
155.8855901
40
0.7367406
50
82.1257326
51
90.2932599
0
ARC
8
DEFAULT_255_1_234
10
22.9626135
20
156.1574013
40
0.4621653
50
69.9044149
51
82.2857423
0
ARC
8
DEFAULT_255_1_234
10
23.0196813
20
156.3116637
40
0.2976871
50
51.1838526
51
70.0181538
0
ARC
8
DEFAULT_255_1_234
10
23.0451779
20
156.348724
40
0.2528517
50
12.1017251
51
50.4214761
0
ARC
8
DEFAULT_255_1_234
10
22.9067653
20
156.3139676
40
0.3955061
50
359.5251267
51
12.8211707
0
ARC
8
DEFAULT_255_1_234
10
23.0647579
20
156.3070344
40
0.2375281
50
323.4908128
51
0.8817314
0
ARC
8
DEFAULT_255_1_234
10
23.0229266
20
156.339355
40
0.2903817
50
298.6825083
51
323.2756573
0
ARC
8
DEFAULT_255_1_234
10
22.9867629
20
156.3994649
40
0.3604842
50
293.1999386
51
299.1396394
0
ARC
8
DEFAULT_255_1_234
10
23.0540602
20
155.7909126
40
0.2871098
50
54.0011765
51
74.9167975
0
ARC
8
DEFAULT_255_1_234
10
23.0656961
20
155.8106332
40
0.2643248
50
36.3580696
51
53.5291921
0
ARC
8
DEFAULT_255_1_234
10
23.0530203
20
155.8015998
40
0.2798884
50
4.8189881
51
36.3089977
0
ARC
8
DEFAULT_255_1_234
10
22.9751038
20
155.790627
40
0.358478
50
359.9370252
51
5.5204067
0
ARC
8
DEFAULT_255_1_234
10
22.942656
20
155.7865667
40
0.3909429
50
344.7478609
51
0.5373281
0
ARC
8
DEFAULT_255_1_234
10
23.0417531
20
155.7598544
40
0.2883093
50
311.1786488
51
344.6886812
0
ARC
8
DEFAULT_255_1_234
10
23.0125578
20
155.7961987
40
0.3348923
50
286.0418249
51
310.8441291
0
ARC
8
DEFAULT_255_1_234
10
22.961841
20
155.9608807
40
0.5071869
50
274.1042341
51
286.4071509
0
ARC
8
DEFAULT_255_1_234
10
22.9441666
20
156.1492229
40
0.6963234
50
269.9236873
51
274.445647
0
ARC
8
DEFAULT_255_1_234
10
22.9487667
20
155.9152537
40
0.3362634
50
269.6055768
51
281.3740047
0
ARC
8
DEFAULT_255_1_234
10
22.9718305
20
155.8059353
40
0.224546
50
281.1055983
51
302.5132223
0
ARC
8
DEFAULT_255_1_234
10
22.9865204
20
155.7795823
40
0.1944357
50
303.0368945
51
311.8811219
0
ARC
8
DEFAULT_255_1_234
10
22.9936611
20
155.771089
40
0.1833454
50
311.9916004
51
351.7143462
0
ARC
8
DEFAULT_255_1_234
10
22.9119841
20
155.787593
40
0.2665871
50
350.7339597
51
0.2221581
0
ARC
8
DEFAULT_255_1_234
10
22.9012287
20
155.7932467
40
0.2773789
50
359.0456241
51
17.2296242
0
ARC
8
DEFAULT_255_1_234
10
23.0051404
20
155.8241163
40
0.1689915
50
17.6685481
51
78.9940892
0
ARC
8
DEFAULT_255_1_234
10
22.9534568
20
155.6386224
40
0.3612658
50
76.5635957
51
90.6980921
0
LINE
8
DEFAULT_255_1_234
10
22.9490552
20
155.9998613
11
22.9488614
21
155.9998614
0
ARC
8
DEFAULT_255_1_234
10
22.9270228
20
156.4521036
40
0.3285612
50
269.6064736
51
281.4533503
0
ARC
8
DEFAULT_255_1_234
10
22.9493048
20
156.3469688
40
0.2210975
50
281.2041486
51
302.5148063
0
ARC
8
DEFAULT_255_1_234
10
22.9629898
20
156.3223241
40
0.1929674
50
303.021671
51
309.8369575
0
ARC
8
DEFAULT_255_1_234
10
22.9813359
20
156.3017488
40
0.1654181
50
309.5228395
51
356.9509836
0
ARC
8
DEFAULT_255_1_234
10
22.9149942
20
156.3112932
40
0.2322512
50
355.4701227
51
0.0492546
0
ARC
8
DEFAULT_255_1_234
10
22.8871033
20
156.3135094
40
0.2601498
50
359.5558597
51
11.2096359
0
ARC
8
DEFAULT_255_1_234
10
22.9828323
20
156.333323
40
0.1623975
50
10.9182341
51
31.3230275
0
ARC
8
DEFAULT_255_1_234
10
23.0114056
20
156.3492214
40
0.1297302
50
31.8852677
51
52.1412565
0
ARC
8
DEFAULT_255_1_234
10
22.9839789
20
156.310475
40
0.1771663
50
52.8285564
51
71.9850297
0
ARC
8
DEFAULT_255_1_234
10
22.9463965
20
156.1998664
40
0.2939794
50
71.6863486
51
82.8455995
0
ARC
8
DEFAULT_255_1_234
10
22.9224501
20
156.0189149
40
0.476506
50
82.6984714
51
90.1729175
0
ARC
8
DEFAULT_255_1_234
10
22.9202136
20
156.1412623
40
0.3541573
50
89.8708275
51
90.0431131
0
LINE
8
DEFAULT_255_1_234
10
24.0114604
20
156.6279433
11
24.0114604
21
155.4529
0
LINE
8
DEFAULT_255_1_234
10
24.0114604
20
155.4529
11
23.86207
21
155.4529
0
LINE
8
DEFAULT_255_1_234
10
23.86207
20
155.4529
11
23.86207
21
156.4432133
0
LINE
8
DEFAULT_255_1_234
10
23.86207
20
156.4432133
11
23.5624862
21
156.3331785
0
LINE
8
DEFAULT_255_1_234
10
23.5624862
20
156.3331785
11
23.5624862
21
156.4681117
0
LINE
8
DEFAULT_255_1_234
10
23.5624862
20
156.4681117
11
23.9881683
21
156.6279433
0
LINE
8
DEFAULT_255_1_234
10
23.9881683
20
156.6279433
11
24.0114604
21
156.6279433
0
ENDSEC
0
EOF