0
SECTION
2
HEADER
9
$MEASUREMENT
70
1
0
ENDSEC
0
SECTION
2
TABLES
0
TABLE
2
LTYPE
0
LTYPE
72
65
70
64
2
CONTINUOUS
3
______
73
0
40
0
0
ENDTAB
0
TABLE
2
LAYER
0
LAYER
2
DEFAULT_255_2_778
70
0
62
255
6
CONTINUOUS
0
ENDTAB
0
ENDSEC
0
SECTION
2
ENTITIES
0
ARC
8
DEFAULT_255_2_778
10
0.9778599
20
88.9647716
40
0.7914215
50
129.1312896
51
180.1450914
0
ARC
8
DEFAULT_255_2_778
10
0.9781251
20
88.9652587
40
0.7912112
50
89.854026
51
129.1684493
0
ARC
8
DEFAULT_255_2_778
10
19.394845
20
88.9650485
40
0.7914215
50
39.1312896
51
90.1450914
0
ARC
8
DEFAULT_255_2_778
10
19.3953321
20
88.9647833
40
0.7912112
50
359.854026
51
39.1684493
0
ARC
8
DEFAULT_255_2_778
10
19.3951219
20
0.5480634
40
0.7914215
50
309.1312896
51
0.1450914
0
ARC
8
DEFAULT_255_2_778
10
19.3948567
20
0.5475763
40
0.7912112
50
269.854026
51
309.1684493
0
ARC
8
DEFAULT_255_2_778
10
0.9781368
20
0.5477865
40
0.7914215
50
219.1312896
51
270.1450914
0
ARC
8
DEFAULT_255_2_778
10
0.9776497
20
0.5480517
40
0.7912112
50
179.854026
51
219.1684493
0
LINE
8
DEFAULT_255_2_778
10
0.9801409
20
89.7564675
11
19.3928409
21
89.7564675
0
LINE
8
DEFAULT_255_2_778
10
20.1865409
20
88.9627675
11
20.1865409
21
0.5500675
0
LINE
8
DEFAULT_255_2_778
10
19.3928409
20
-0.2436325
11
0.9801409
21
-0.2436325
0
LINE
8
DEFAULT_255_2_778
10
0.1864409
20
0.5500675
11
0.1864409
21
88.9627675
0
LINE
8
DEFAULT_255_2_778
10
0.2617763
20
76.5273
11
20.1861763
21
76.5273
0
LINE
8
DEFAULT_255_2_778
10
9.9259615
20
42.2936146
11
11.3178615
21
42.2936146
0
LINE
8
DEFAULT_255_2_778
10
11.3178615
20
42.2936146
11
11.3178615
21
41.6099146
0
LINE
8
DEFAULT_255_2_778
10
11.3178615
20
41.6099146
11
9.9259615
21
41.6099146
0
LINE
8
DEFAULT_255_2_778
10
9.9259615
20
41.6099146
11
9.9259615
21
42.2936146
0
LINE
8
DEFAULT_255_2_778
10
12.0912615
20
40.7895146
11
12.0912615
21
41.3364146
0
LINE
8
DEFAULT_255_2_778
10
12.0912615
20
41.3364146
11
13.0194615
21
41.3364146
0
LINE
8
DEFAULT_255_2_778
10
13.0194615
20
41.3364146
11
13.0194615
21
40.7895146
0
LINE
8
DEFAULT_255_2_778
10
13.0194615
20
40.7895146
11
13.6380615
21
40.7895146
0
LINE
8
DEFAULT_255_2_778
10
13.6380615
20
40.7895146
11
13.6380615
21
43.1141146
0
LINE
8
DEFAULT_255_2_778
10
13.6380615
20
43.1141146
11
13.0194615
21
43.1141146
0
LINE
8
DEFAULT_255_2_778
10
13.0194615
20
43.1141146
11
13.0194615
21
42.5672146
0
LINE
8
DEFAULT_255_2_778
10
13.0194615
20
42.5672146
11
12.0912615
21
42.5672146
0
LINE
8
DEFAULT_255_2_778
10
12.0912615
20
42.5672146
11
12.0912615
21
43.1141146
0
LINE
8
DEFAULT_255_2_778
10
12.0912615
20
43.1141146
11
8.5339615
21
43.1141146
0
LINE
8
DEFAULT_255_2_778
10
8.5339615
20
43.1141146
11
8.5339615
21
40.7895146
0
LINE
8
DEFAULT_255_2_778
10
8.5339615
20
40.7895146
11
12.0912615
21
40.7895146
0
LINE
8
DEFAULT_255_2_778
10
9.9259615
20
39.1942146
11
11.3178615
21
39.1942146
0
LINE
8
DEFAULT_255_2_778
10
11.3178615
20
39.1942146
11
11.3178615
21
38.5105146
0
LINE
8
DEFAULT_255_2_778
10
11.3178615
20
38.5105146
11
9.9259615
21
38.5105146
0
LINE
8
DEFAULT_255_2_778
10
9.9259615
20
38.5105146
11
9.9259615
21
39.1942146
0
LINE
8
DEFAULT_255_2_778
10
12.0912615
20
37.6901146
11
12.0912615
21
38.2370146
0
LINE
8
DEFAULT_255_2_778
10
12.0912615
20
38.2370146
11
13.0194615
21
38.2370146
0
LINE
8
DEFAULT_255_2_778
10
13.0194615
20
38.2370146
11
13.0194615
21
37.6901146
0
LINE
8
DEFAULT_255_2_778
10
13.0194615
20
37.6901146
11
13.6380615
21
37.6901146
0
LINE
8
DEFAULT_255_2_778
10
13.6380615
20
37.6901146
11
13.6380615
21
40.0147146
0
LINE
8
DEFAULT_255_2_778
10
13.6380615
20
40.0147146
11
13.0194615
21
40.0147146
0
LINE
8
DEFAULT_255_2_778
10
13.0194615
20
40.0147146
11
13.0194615
21
39.4678146
0
LINE
8
DEFAULT_255_2_778
10
13.0194615
20
39.4678146
11
12.0912615
21
39.4678146
0
LINE
8
DEFAULT_255_2_778
10
12.0912615
20
39.4678146
11
12.0912615
21
40.0147146
0
LINE
8
DEFAULT_255_2_778
10
12.0912615
20
40.0147146
11
8.5339615
21
40.0147146
0
LINE
8
DEFAULT_255_2_778
10
8.5339615
20
40.0147146
11
8.5339615
21
37.6901146
0
LINE
8
DEFAULT_255_2_778
10
8.5339615
20
37.6901146
11
12.0912615
21
37.6901146
0
LINE
8
DEFAULT_255_2_778
10
9.9259615
20
36.0949146
11
11.3178615
21
36.0949146
0
LINE
8
DEFAULT_255_2_778
10
11.3178615
20
36.0949146
11
11.3178615
21
35.4112146
0
LINE
8
DEFAULT_255_2_778
10
11.3178615
20
35.4112146
11
9.9259615
21
35.4112146
0
LINE
8
DEFAULT_255_2_778
10
9.9259615
20
35.4112146
11
9.9259615
21
36.0949146
0
LINE
8
DEFAULT_255_2_778
10
12.0912615
20
34.5908146
11
12.0912615
21
35.1377146
0
LINE
8
DEFAULT_255_2_778
10
12.0912615
20
35.1377146
11
13.0194615
21
35.1377146
0
LINE
8
DEFAULT_255_2_778
10
13.0194615
20
35.1377146
11
13.0194615
21
34.5908146
0
LINE
8
DEFAULT_255_2_778
10
13.0194615
20
34.5908146
11
13.6380615
21
34.5908146
0
LINE
8
DEFAULT_255_2_778
10
13.6380615
20
34.5908146
11
13.6380615
21
36.9154146
0
LINE
8
DEFAULT_255_2_778
10
13.6380615
20
36.9154146
11
13.0194615
21
36.9154146
0
LINE
8
DEFAULT_255_2_778
10
13.0194615
20
36.9154146
11
13.0194615
21
36.3685146
0
LINE
8
DEFAULT_255_2_778
10
13.0194615
20
36.3685146
11
12.0912615
21
36.3685146
0
LINE
8
DEFAULT_255_2_778
10
12.0912615
20
36.3685146
11
12.0912615
21
36.9154146
0
LINE
8
DEFAULT_255_2_778
10
12.0912615
20
36.9154146
11
8.5339615
21
36.9154146
0
LINE
8
DEFAULT_255_2_778
10
8.5339615
20
36.9154146
11
8.5339615
21
34.5908146
0
LINE
8
DEFAULT_255_2_778
10
8.5339615
20
34.5908146
11
12.0912615
21
34.5908146
0
ARC
8
DEFAULT_255_2_778
10
7.8841059
20
44.9106936
40
0.5280127
50
89.8710178
51
180.1289822
0
ARC
8
DEFAULT_255_2_778
10
14.3670832
20
44.9106936
40
0.5280127
50
359.8710178
51
90.1289822
0
ARC
8
DEFAULT_255_2_778
10
14.3670832
20
4.8997163
40
0.5280127
50
269.8710178
51
0.1289822
0
ARC
8
DEFAULT_255_2_778
10
7.8841059
20
4.8997163
40
0.5280127
50
179.8710178
51
270.1289822
0
LINE
8
DEFAULT_255_2_778
10
7.8852946
20
45.4387049
11
14.3658946
21
45.4387049
0
LINE
8
DEFAULT_255_2_778
10
14.8950946
20
44.9095049
11
14.8950946
21
4.9009049
0
LINE
8
DEFAULT_255_2_778
10
14.3658946
20
4.3717049
11
7.8852946
21
4.3717049
0
LINE
8
DEFAULT_255_2_778
10
7.3560946
20
4.9009049
11
7.3560946
21
44.9095049
0
LINE
8
DEFAULT_255_2_778
10
9.9259615
20
32.9956146
11
11.3178615
21
32.9956146
0
LINE
8
DEFAULT_255_2_778
10
11.3178615
20
32.9956146
11
11.3178615
21
32.3119146
0
LINE
8
DEFAULT_255_2_778
10
11.3178615
20
32.3119146
11
9.9259615
21
32.3119146
0
LINE
8
DEFAULT_255_2_778
10
9.9259615
20
32.3119146
11
9.9259615
21
32.9956146
0
LINE
8
DEFAULT_255_2_778
10
12.0912615
20
31.4915146
11
12.0912615
21
32.0384146
0
LINE
8
DEFAULT_255_2_778
10
12.0912615
20
32.0384146
11
13.0194615
21
32.0384146
0
LINE
8
DEFAULT_255_2_778
10
13.0194615
20
32.0384146
11
13.0194615
21
31.4915146
0
LINE
8
DEFAULT_255_2_778
10
13.0194615
20
31.4915146
11
13.6380615
21
31.4915146
0
LINE
8
DEFAULT_255_2_778
10
13.6380615
20
31.4915146
11
13.6380615
21
33.8161146
0
LINE
8
DEFAULT_255_2_778
10
13.6380615
20
33.8161146
11
13.0194615
21
33.8161146
0
LINE
8
DEFAULT_255_2_778
10
13.0194615
20
33.8161146
11
13.0194615
21
33.2692146
0
LINE
8
DEFAULT_255_2_778
10
13.0194615
20
33.2692146
11
12.0912615
21
33.2692146
0
LINE
8
DEFAULT_255_2_778
10
12.0912615
20
33.2692146
11
12.0912615
21
33.8161146
0
LINE
8
DEFAULT_255_2_778
10
12.0912615
20
33.8161146
11
8.5339615
21
33.8161146
0
LINE
8
DEFAULT_255_2_778
10
8.5339615
20
33.8161146
11
8.5339615
21
31.4915146
0
LINE
8
DEFAULT_255_2_778
10
8.5339615
20
31.4915146
11
12.0912615
21
31.4915146
0
LINE
8
DEFAULT_255_2_778
10
9.9259615
20
29.8960146
11
11.3178615
21
29.8960146
0
LINE
8
DEFAULT_255_2_778
10
11.3178615
20
29.8960146
11
11.3178615
21
29.2123146
0
LINE
8
DEFAULT_255_2_778
10
11.3178615
20
29.2123146
11
9.9259615
21
29.2123146
0
LINE
8
DEFAULT_255_2_778
10
9.9259615
20
29.2123146
11
9.9259615
21
29.8960146
0
LINE
8
DEFAULT_255_2_778
10
12.0912615
20
28.3919146
11
12.0912615
21
28.9388146
0
LINE
8
DEFAULT_255_2_778
10
12.0912615
20
28.9388146
11
13.0194615
21
28.9388146
0
LINE
8
DEFAULT_255_2_778
10
13.0194615
20
28.9388146
11
13.0194615
21
28.3919146
0
LINE
8
DEFAULT_255_2_778
10
13.0194615
20
28.3919146
11
13.6380615
21
28.3919146
0
LINE
8
DEFAULT_255_2_778
10
13.6380615
20
28.3919146
11
13.6380615
21
30.7165146
0
LINE
8
DEFAULT_255_2_778
10
13.6380615
20
30.7165146
11
13.0194615
21
30.7165146
0
LINE
8
DEFAULT_255_2_778
10
13.0194615
20
30.7165146
11
13.0194615
21
30.1696146
0
LINE
8
DEFAULT_255_2_778
10
13.0194615
20
30.1696146
11
12.0912615
21
30.1696146
0
LINE
8
DEFAULT_255_2_778
10
12.0912615
20
30.1696146
11
12.0912615
21
30.7165146
0
LINE
8
DEFAULT_255_2_778
10
12.0912615
20
30.7165146
11
8.5339615
21
30.7165146
0
LINE
8
DEFAULT_255_2_778
10
8.5339615
20
30.7165146
11
8.5339615
21
28.3919146
0
LINE
8
DEFAULT_255_2_778
10
8.5339615
20
28.3919146
11
12.0912615
21
28.3919146
0
LINE
8
DEFAULT_255_2_778
10
9.9259615
20
26.7967146
11
11.3178615
21
26.7967146
0
LINE
8
DEFAULT_255_2_778
10
11.3178615
20
26.7967146
11
11.3178615
21
26.1130146
0
LINE
8
DEFAULT_255_2_778
10
11.3178615
20
26.1130146
11
9.9259615
21
26.1130146
0
LINE
8
DEFAULT_255_2_778
10
9.9259615
20
26.1130146
11
9.9259615
21
26.7967146
0
LINE
8
DEFAULT_255_2_778
10
12.0912615
20
25.2926146
11
12.0912615
21
25.8395146
0
LINE
8
DEFAULT_255_2_778
10
12.0912615
20
25.8395146
11
13.0194615
21
25.8395146
0
LINE
8
DEFAULT_255_2_778
10
13.0194615
20
25.8395146
11
13.0194615
21
25.2926146
0
LINE
8
DEFAULT_255_2_778
10
13.0194615
20
25.2926146
11
13.6380615
21
25.2926146
0
LINE
8
DEFAULT_255_2_778
10
13.6380615
20
25.2926146
11
13.6380615
21
27.6172146
0
LINE
8
DEFAULT_255_2_778
10
13.6380615
20
27.6172146
11
13.0194615
21
27.6172146
0
LINE
8
DEFAULT_255_2_778
10
13.0194615
20
27.6172146
11
13.0194615
21
27.0703146
0
LINE
8
DEFAULT_255_2_778
10
13.0194615
20
27.0703146
11
12.0912615
21
27.0703146
0
LINE
8
DEFAULT_255_2_778
10
12.0912615
20
27.0703146
11
12.0912615
21
27.6172146
0
LINE
8
DEFAULT_255_2_778
10
12.0912615
20
27.6172146
11
8.5339615
21
27.6172146
0
LINE
8
DEFAULT_255_2_778
10
8.5339615
20
27.6172146
11
8.5339615
21
25.2926146
0
LINE
8
DEFAULT_255_2_778
10
8.5339615
20
25.2926146
11
12.0912615
21
25.2926146
0
LINE
8
DEFAULT_255_2_778
10
9.9259615
20
23.6973146
11
11.3178615
21
23.6973146
0
LINE
8
DEFAULT_255_2_778
10
11.3178615
20
23.6973146
11
11.3178615
21
23.0136146
0
LINE
8
DEFAULT_255_2_778
10
11.3178615
20
23.0136146
11
9.9259615
21
23.0136146
0
LINE
8
DEFAULT_255_2_778
10
9.9259615
20
23.0136146
11
9.9259615
21
23.6973146
0
LINE
8
DEFAULT_255_2_778
10
12.0912615
20
22.1932146
11
12.0912615
21
22.7401146
0
LINE
8
DEFAULT_255_2_778
10
12.0912615
20
22.7401146
11
13.0194615
21
22.7401146
0
LINE
8
DEFAULT_255_2_778
10
13.0194615
20
22.7401146
11
13.0194615
21
22.1932146
0
LINE
8
DEFAULT_255_2_778
10
13.0194615
20
22.1932146
11
13.6380615
21
22.1932146
0
LINE
8
DEFAULT_255_2_778
10
13.6380615
20
22.1932146
11
13.6380615
21
24.5178146
0
LINE
8
DEFAULT_255_2_778
10
13.6380615
20
24.5178146
11
13.0194615
21
24.5178146
0
LINE
8
DEFAULT_255_2_778
10
13.0194615
20
24.5178146
11
13.0194615
21
23.9709146
0
LINE
8
DEFAULT_255_2_778
10
13.0194615
20
23.9709146
11
12.0912615
21
23.9709146
0
LINE
8
DEFAULT_255_2_778
10
12.0912615
20
23.9709146
11
12.0912615
21
24.5178146
0
LINE
8
DEFAULT_255_2_778
10
12.0912615
20
24.5178146
11
8.5339615
21
24.5178146
0
LINE
8
DEFAULT_255_2_778
10
8.5339615
20
24.5178146
11
8.5339615
21
22.1932146
0
LINE
8
DEFAULT_255_2_778
10
8.5339615
20
22.1932146
11
12.0912615
21
22.1932146
0
LINE
8
DEFAULT_255_2_778
10
9.9259615
20
20.5980146
11
11.3178615
21
20.5980146
0
LINE
8
DEFAULT_255_2_778
10
11.3178615
20
20.5980146
11
11.3178615
21
19.9143146
0
LINE
8
DEFAULT_255_2_778
10
11.3178615
20
19.9143146
11
9.9259615
21
19.9143146
0
LINE
8
DEFAULT_255_2_778
10
9.9259615
20
19.9143146
11
9.9259615
21
20.5980146
0
LINE
8
DEFAULT_255_2_778
10
12.0912615
20
19.0939146
11
12.0912615
21
19.6408146
0
LINE
8
DEFAULT_255_2_778
10
12.0912615
20
19.6408146
11
13.0194615
21
19.6408146
0
LINE
8
DEFAULT_255_2_778
10
13.0194615
20
19.6408146
11
13.0194615
21
19.0939146
0
LINE
8
DEFAULT_255_2_778
10
13.0194615
20
19.0939146
11
13.6380615
21
19.0939146
0
LINE
8
DEFAULT_255_2_778
10
13.6380615
20
19.0939146
11
13.6380615
21
21.4185146
0
LINE
8
DEFAULT_255_2_778
10
13.6380615
20
21.4185146
11
13.0194615
21
21.4185146
0
LINE
8
DEFAULT_255_2_778
10
13.0194615
20
21.4185146
11
13.0194615
21
20.8716146
0
LINE
8
DEFAULT_255_2_778
10
13.0194615
20
20.8716146
11
12.0912615
21
20.8716146
0
LINE
8
DEFAULT_255_2_778
10
12.0912615
20
20.8716146
11
12.0912615
21
21.4185146
0
LINE
8
DEFAULT_255_2_778
10
12.0912615
20
21.4185146
11
8.5339615
21
21.4185146
0
LINE
8
DEFAULT_255_2_778
10
8.5339615
20
21.4185146
11
8.5339615
21
19.0939146
0
LINE
8
DEFAULT_255_2_778
10
8.5339615
20
19.0939146
11
12.0912615
21
19.0939146
0
LINE
8
DEFAULT_255_2_778
10
9.9259615
20
17.4987146
11
11.3178615
21
17.4987146
0
LINE
8
DEFAULT_255_2_778
10
11.3178615
20
17.4987146
11
11.3178615
21
16.8150146
0
LINE
8
DEFAULT_255_2_778
10
11.3178615
20
16.8150146
11
9.9259615
21
16.8150146
0
LINE
8
DEFAULT_255_2_778
10
9.9259615
20
16.8150146
11
9.9259615
21
17.4987146
0
LINE
8
DEFAULT_255_2_778
10
12.0912615
20
15.9946146
11
12.0912615
21
16.5415146
0
LINE
8
DEFAULT_255_2_778
10
12.0912615
20
16.5415146
11
13.0194615
21
16.5415146
0
LINE
8
DEFAULT_255_2_778
10
13.0194615
20
16.5415146
11
13.0194615
21
15.9946146
0
LINE
8
DEFAULT_255_2_778
10
13.0194615
20
15.9946146
11
13.6380615
21
15.9946146
0
LINE
8
DEFAULT_255_2_778
10
13.6380615
20
15.9946146
11
13.6380615
21
18.3192146
0
LINE
8
DEFAULT_255_2_778
10
13.6380615
20
18.3192146
11
13.0194615
21
18.3192146
0
LINE
8
DEFAULT_255_2_778
10
13.0194615
20
18.3192146
11
13.0194615
21
17.7723146
0
LINE
8
DEFAULT_255_2_778
10
13.0194615
20
17.7723146
11
12.0912615
21
17.7723146
0
LINE
8
DEFAULT_255_2_778
10
12.0912615
20
17.7723146
11
12.0912615
21
18.3192146
0
LINE
8
DEFAULT_255_2_778
10
12.0912615
20
18.3192146
11
8.5339615
21
18.3192146
0
LINE
8
DEFAULT_255_2_778
10
8.5339615
20
18.3192146
11
8.5339615
21
15.9946146
0
LINE
8
DEFAULT_255_2_778
10
8.5339615
20
15.9946146
11
12.0912615
21
15.9946146
0
LINE
8
DEFAULT_255_2_778
10
9.9259615
20
14.3991146
11
11.3178615
21
14.3991146
0
LINE
8
DEFAULT_255_2_778
10
11.3178615
20
14.3991146
11
11.3178615
21
13.7154146
0
LINE
8
DEFAULT_255_2_778
10
11.3178615
20
13.7154146
11
9.9259615
21
13.7154146
0
LINE
8
DEFAULT_255_2_778
10
9.9259615
20
13.7154146
11
9.9259615
21
14.3991146
0
LINE
8
DEFAULT_255_2_778
10
12.0912615
20
12.8950146
11
12.0912615
21
13.4419146
0
LINE
8
DEFAULT_255_2_778
10
12.0912615
20
13.4419146
11
13.0194615
21
13.4419146
0
LINE
8
DEFAULT_255_2_778
10
13.0194615
20
13.4419146
11
13.0194615
21
12.8950146
0
LINE
8
DEFAULT_255_2_778
10
13.0194615
20
12.8950146
11
13.6380615
21
12.8950146
0
LINE
8
DEFAULT_255_2_778
10
13.6380615
20
12.8950146
11
13.6380615
21
15.2196146
0
LINE
8
DEFAULT_255_2_778
10
13.6380615
20
15.2196146
11
13.0194615
21
15.2196146
0
LINE
8
DEFAULT_255_2_778
10
13.0194615
20
15.2196146
11
13.0194615
21
14.6727146
0
LINE
8
DEFAULT_255_2_778
10
13.0194615
20
14.6727146
11
12.0912615
21
14.6727146
0
LINE
8
DEFAULT_255_2_778
10
12.0912615
20
14.6727146
11
12.0912615
21
15.2196146
0
LINE
8
DEFAULT_255_2_778
10
12.0912615
20
15.2196146
11
8.5339615
21
15.2196146
0
LINE
8
DEFAULT_255_2_778
10
8.5339615
20
15.2196146
11
8.5339615
21
12.8950146
0
LINE
8
DEFAULT_255_2_778
10
8.5339615
20
12.8950146
11
12.0912615
21
12.8950146
0
LINE
8
DEFAULT_255_2_778
10
9.9259615
20
11.2997146
11
11.3178615
21
11.2997146
0
LINE
8
DEFAULT_255_2_778
10
11.3178615
20
11.2997146
11
11.3178615
21
10.6160146
0
LINE
8
DEFAULT_255_2_778
10
11.3178615
20
10.6160146
11
9.9259615
21
10.6160146
0
LINE
8
DEFAULT_255_2_778
10
9.9259615
20
10.6160146
11
9.9259615
21
11.2997146
0
LINE
8
DEFAULT_255_2_778
10
12.0912615
20
9.7956146
11
12.0912615
21
10.3425146
0
LINE
8
DEFAULT_255_2_778
10
12.0912615
20
10.3425146
11
13.0194615
21
10.3425146
0
LINE
8
DEFAULT_255_2_778
10
13.0194615
20
10.3425146
11
13.0194615
21
9.7956146
0
LINE
8
DEFAULT_255_2_778
10
13.0194615
20
9.7956146
11
13.6380615
21
9.7956146
0
LINE
8
DEFAULT_255_2_778
10
13.6380615
20
9.7956146
11
13.6380615
21
12.1202146
0
LINE
8
DEFAULT_255_2_778
10
13.6380615
20
12.1202146
11
13.0194615
21
12.1202146
0
LINE
8
DEFAULT_255_2_778
10
13.0194615
20
12.1202146
11
13.0194615
21
11.5733146
0
LINE
8
DEFAULT_255_2_778
10
13.0194615
20
11.5733146
11
12.0912615
21
11.5733146
0
LINE
8
DEFAULT_255_2_778
10
12.0912615
20
11.5733146
11
12.0912615
21
12.1202146
0
LINE
8
DEFAULT_255_2_778
10
12.0912615
20
12.1202146
11
8.5339615
21
12.1202146
0
LINE
8
DEFAULT_255_2_778
10
8.5339615
20
12.1202146
11
8.5339615
21
9.7956146
0
LINE
8
DEFAULT_255_2_778
10
8.5339615
20
9.7956146
11
12.0912615
21
9.7956146
0
LINE
8
DEFAULT_255_2_778
10
9.9259615
20
8.2004146
11
11.3178615
21
8.2004146
0
LINE
8
DEFAULT_255_2_778
10
11.3178615
20
8.2004146
11
11.3178615
21
7.5167146
0
LINE
8
DEFAULT_255_2_778
10
11.3178615
20
7.5167146
11
9.9259615
21
7.5167146
0
LINE
8
DEFAULT_255_2_778
10
9.9259615
20
7.5167146
11
9.9259615
21
8.2004146
0
LINE
8
DEFAULT_255_2_778
10
12.0912615
20
6.6963146
11
12.0912615
21
7.2432146
0
LINE
8
DEFAULT_255_2_778
10
12.0912615
20
7.2432146
11
13.0194615
21
7.2432146
0
LINE
8
DEFAULT_255_2_778
10
13.0194615
20
7.2432146
11
13.0194615
21
6.6963146
0
LINE
8
DEFAULT_255_2_778
10
13.0194615
20
6.6963146
11
13.6380615
21
6.6963146
0
LINE
8
DEFAULT_255_2_778
10
13.6380615
20
6.6963146
11
13.6380615
21
9.0209146
0
LINE
8
DEFAULT_255_2_778
10
13.6380615
20
9.0209146
11
13.0194615
21
9.0209146
0
LINE
8
DEFAULT_255_2_778
10
13.0194615
20
9.0209146
11
13.0194615
21
8.4740146
0
LINE
8
DEFAULT_255_2_778
10
13.0194615
20
8.4740146
11
12.0912615
21
8.4740146
0
LINE
8
DEFAULT_255_2_778
10
12.0912615
20
8.4740146
11
12.0912615
21
9.0209146
0
LINE
8
DEFAULT_255_2_778
10
12.0912615
20
9.0209146
11
8.5339615
21
9.0209146
0
LINE
8
DEFAULT_255_2_778
10
8.5339615
20
9.0209146
11
8.5339615
21
6.6963146
0
LINE
8
DEFAULT_255_2_778
10
8.5339615
20
6.6963146
11
12.0912615
21
6.6963146
0
ARC
8
DEFAULT_255_2_778
10
5.756568
20
86.8634692
40
0.566778
50
59.6235084
51
91.1112328
0
ARC
8
DEFAULT_255_2_778
10
5.7757025
20
86.9103079
40
0.5167432
50
25.2752826
51
58.8276338
0
ARC
8
DEFAULT_255_2_778
10
5.5668597
20
86.8124497
40
0.7473754
50
359.2367991
51
25.2232152
0
ARC
8
DEFAULT_255_2_778
10
5.4362237
20
86.7972994
40
0.8779605
50
0.2441544
51
0.3390463
0
ARC
8
DEFAULT_255_2_778
10
5.5372061
20
86.7013643
40
0.7770852
50
338.5113342
51
0.9863035
0
ARC
8
DEFAULT_255_2_778
10
5.6880203
20
86.6521938
40
0.6188149
50
333.90905
51
337.6323376
0
ARC
8
DEFAULT_255_2_778
10
5.7839669
20
86.597243
40
0.5085287
50
300.5799847
51
334.7151179
0
ARC
8
DEFAULT_255_2_778
10
5.7447507
20
86.6822147
40
0.6017079
50
269.3929952
51
299.6785287
0
ARC
8
DEFAULT_255_2_778
10
5.7451391
20
86.632783
40
0.4070066
50
267.9353943
51
304.2706935
0
ARC
8
DEFAULT_255_2_778
10
5.7673431
20
86.5833563
40
0.3537851
50
305.8067025
51
319.5530861
0
ARC
8
DEFAULT_255_2_778
10
5.6804531
20
86.6434518
40
0.4590189
50
320.8808376
51
352.1791847
0
ARC
8
DEFAULT_255_2_778
10
5.3190468
20
86.7135023
40
0.826843
50
350.7778858
51
0.3283439
0
ARC
8
DEFAULT_255_2_778
10
5.4298408
20
86.8095344
40
0.7161443
50
359.0003738
51
16.9125134
0
ARC
8
DEFAULT_255_2_778
10
5.7128523
20
86.8923057
40
0.4213056
50
17.339512
51
38.4767144
0
ARC
8
DEFAULT_255_2_778
10
5.7672408
20
86.9262505
40
0.3576805
50
39.6407459
51
91.8051124
0
ARC
8
DEFAULT_255_2_778
10
5.7447775
20
86.7246899
40
0.5591759
50
88.8526867
51
89.4570617
0
ARC
8
DEFAULT_255_2_778
10
7.1539979
20
86.6438133
40
1.317835
50
350.6335875
51
0.5316173
0
ARC
8
DEFAULT_255_2_778
10
7.8381986
20
86.5252978
40
0.623493
50
332.9631297
51
351.1466765
0
ARC
8
DEFAULT_255_2_778
10
8.0436815
20
86.4295132
40
0.3970087
50
326.1446889
51
331.7957537
0
ARC
8
DEFAULT_255_2_778
10
8.0966611
20
86.3976373
40
0.3352677
50
269.4164061
51
325.6245439
0
ARC
8
DEFAULT_255_2_778
10
8.0662111
20
86.6273848
40
0.5656442
50
269.9762005
51
272.7395124
0
ARC
8
DEFAULT_255_2_778
10
8.0521354
20
86.4537522
40
0.3922558
50
238.9561056
51
272.0221019
0
ARC
8
DEFAULT_255_2_778
10
8.0215333
20
86.3832165
40
0.3162046
50
214.3189455
51
237.1155748
0
ARC
8
DEFAULT_255_2_778
10
8.210153
20
86.500519
40
0.5382061
50
191.1875835
51
213.3115873
0
ARC
8
DEFAULT_255_2_778
10
8.7941182
20
86.6297887
40
1.1362356
50
180.6896781
51
191.868919
0
ARC
8
DEFAULT_255_2_778
10
9.2861261
20
86.6526866
40
1.6285719
50
180.7017505
51
181.286862
0
ARC
8
DEFAULT_255_2_778
10
8.9429392
20
86.873699
40
1.2853196
50
170.5156275
51
180.5375341
0
ARC
8
DEFAULT_255_2_778
10
8.2717066
20
86.9920423
40
0.6037929
50
152.0595037
51
171.0964705
0
ARC
8
DEFAULT_255_2_778
10
8.0767937
20
87.0857671
40
0.3877785
50
145.7982803
51
150.7994231
0
ARC
8
DEFAULT_255_2_778
10
8.0313469
20
87.1119997
40
0.3354676
50
90.1096616
51
145.1407118
0
ARC
8
DEFAULT_255_2_778
10
8.064018
20
86.878088
40
0.5703526
50
89.9640239
51
93.3484456
0
ARC
8
DEFAULT_255_2_778
10
8.0778218
20
87.0387849
40
0.4098763
50
61.589597
51
91.8798711
0
ARC
8
DEFAULT_255_2_778
10
8.1186023
20
87.1336618
40
0.3071635
50
34.8173733
51
59.8598335
0
ARC
8
DEFAULT_255_2_778
10
7.947082
20
87.0266538
40
0.5091748
50
11.5144802
51
33.6829529
0
ARC
8
DEFAULT_255_2_778
10
7.3573038
20
86.8922623
40
1.1139975
50
1.1064623
51
12.2323908
0
ARC
8
DEFAULT_255_2_778
10
6.8109824
20
86.863988
40
1.6608576
50
0.5020396
51
1.7177548
0
ARC
8
DEFAULT_255_2_778
10
7.2401042
20
86.9025749
40
1.0680409
50
359.3490348
51
9.21855
0
ARC
8
DEFAULT_255_2_778
10
7.8927249
20
87.014339
40
0.4059857
50
8.4041683
51
28.4810378
0
ARC
8
DEFAULT_255_2_778
10
8.0768828
20
87.1090114
40
0.1990225
50
29.8066893
51
93.6028691
0
ARC
8
DEFAULT_255_2_778
10
8.0519523
20
87.1114757
40
0.196558
50
86.3760823
51
150.4413164
0
ARC
8
DEFAULT_255_2_778
10
8.2574461
20
87.0060435
40
0.4274274
50
151.7367083
51
172.3272044
0
ARC
8
DEFAULT_255_2_778
10
8.8647749
20
86.9048917
40
1.0429998
50
171.2747128
51
180.079713
0
ARC
8
DEFAULT_255_2_778
10
8.8747012
20
86.6168855
40
1.0529952
50
179.3385982
51
189.5934878
0
ARC
8
DEFAULT_255_2_778
10
8.2534055
20
86.507032
40
0.4221074
50
188.9454557
51
208.4504555
0
ARC
8
DEFAULT_255_2_778
10
8.0573154
20
86.4004828
40
0.1989396
50
208.3743588
51
272.5527934
0
ARC
8
DEFAULT_255_2_778
10
8.0766388
20
86.3970767
40
0.1956161
50
266.9340571
51
330.1932562
0
ARC
8
DEFAULT_255_2_778
10
7.8891752
20
86.4986751
40
0.4088126
50
330.8976789
51
351.19909
0
ARC
8
DEFAULT_255_2_778
10
7.2645024
20
86.6118705
40
1.0435765
50
350.3048549
51
359.8665881
0
LINE
8
DEFAULT_255_2_778
10
1.3185762
20
87.4301406
11
1.5381762
21
87.4301406
0
LINE
8
DEFAULT_255_2_778
10
1.5381762
20
87.4301406
11
1.9595762
21
86.3289406
0
LINE
8
DEFAULT_255_2_778
10
1.9595762
20
86.3289406
11
2.3810762
21
87.4301406
0
LINE
8
DEFAULT_255_2_778
10
2.3810762
20
87.4301406
11
2.6017762
21
87.4301406
0
LINE
8
DEFAULT_255_2_778
10
2.6017762
20
87.4301406
11
2.6017762
21
86.0805406
0
LINE
8
DEFAULT_255_2_778
10
2.6017762
20
86.0805406
11
2.4316762
21
86.0805406
0
LINE
8
DEFAULT_255_2_778
10
2.4316762
20
86.0805406
11
2.4316762
21
86.6060406
0
LINE
8
DEFAULT_255_2_778
10
2.4316762
20
86.6060406
11
2.4474762
21
87.1732406
0
LINE
8
DEFAULT_255_2_778
10
2.4474762
20
87.1732406
11
2.0241762
21
86.0805406
0
LINE
8
DEFAULT_255_2_778
10
2.0241762
20
86.0805406
11
1.8939762
21
86.0805406
0
LINE
8
DEFAULT_255_2_778
10
1.8939762
20
86.0805406
11
1.4714762
21
87.1706406
0
LINE
8
DEFAULT_255_2_778
10
1.4714762
20
87.1706406
11
1.4883762
21
86.6060406
0
LINE
8
DEFAULT_255_2_778
10
1.4883762
20
86.6060406
11
1.4883762
21
86.0805406
0
LINE
8
DEFAULT_255_2_778
10
1.4883762
20
86.0805406
11
1.3182762
21
86.0805406
0
LINE
8
DEFAULT_255_2_778
10
1.3182762
20
86.0805406
11
1.3182762
21
87.4301406
0
LINE
8
DEFAULT_255_2_778
10
1.3182762
20
87.4301406
11
1.3185762
21
87.4301406
0
LINE
8
DEFAULT_255_2_778
10
3.0732762
20
87.4301406
11
3.0732762
21
86.2260406
0
LINE
8
DEFAULT_255_2_778
10
3.0732762
20
86.2260406
11
3.6844762
21
86.2260406
0
LINE
8
DEFAULT_255_2_778
10
3.6844762
20
86.2260406
11
3.6844762
21
86.0805406
0
LINE
8
DEFAULT_255_2_778
10
3.6844762
20
86.0805406
11
2.9023762
21
86.0805406
0
LINE
8
DEFAULT_255_2_778
10
2.9023762
20
86.0805406
11
2.9023762
21
87.4301406
0
LINE
8
DEFAULT_255_2_778
10
2.9023762
20
87.4301406
11
3.0732762
21
87.4301406
0
LINE
8
DEFAULT_255_2_778
10
3.0732762
20
87.4301406
11
3.0732762
21
87.4301406
0
LINE
8
DEFAULT_255_2_778
10
4.5895762
20
86.8221406
11
4.5895762
21
86.6766406
0
LINE
8
DEFAULT_255_2_778
10
4.5895762
20
86.6766406
11
4.0484762
21
86.6766406
0
LINE
8
DEFAULT_255_2_778
10
4.0484762
20
86.6766406
11
4.0484762
21
86.0805406
0
LINE
8
DEFAULT_255_2_778
10
4.0484762
20
86.0805406
11
3.8783762
21
86.0805406
0
LINE
8
DEFAULT_255_2_778
10
3.8783762
20
86.0805406
11
3.8783762
21
87.4301406
0
LINE
8
DEFAULT_255_2_778
10
3.8783762
20
87.4301406
11
4.6773762
21
87.4301406
0
LINE
8
DEFAULT_255_2_778
10
4.6773762
20
87.4301406
11
4.6773762
21
87.2836406
0
LINE
8
DEFAULT_255_2_778
10
4.6773762
20
87.2836406
11
4.0484762
21
87.2836406
0
LINE
8
DEFAULT_255_2_778
10
4.0484762
20
87.2836406
11
4.0484762
21
86.8219406
0
LINE
8
DEFAULT_255_2_778
10
4.0484762
20
86.8219406
11
4.5895762
21
86.8219406
0
LINE
8
DEFAULT_255_2_778
10
4.5895762
20
86.8219406
11
4.5895762
21
86.8221406
0
LINE
8
DEFAULT_255_2_778
10
5.1962762
20
86.7237406
11
5.1962762
21
86.5837406
0
LINE
8
DEFAULT_255_2_778
10
5.1962762
20
86.5837406
11
4.7639762
21
86.5837406
0
LINE
8
DEFAULT_255_2_778
10
4.7639762
20
86.5837406
11
4.7639762
21
86.7237406
0
LINE
8
DEFAULT_255_2_778
10
4.7639762
20
86.7237406
11
5.1962762
21
86.7237406
0
LINE
8
DEFAULT_255_2_778
10
5.1962762
20
86.7237406
11
5.1962762
21
86.7237406
0
LINE
8
DEFAULT_255_2_778
10
5.7383762
20
86.0805406
11
5.3814762
21
86.0805406
0
LINE
8
DEFAULT_255_2_778
10
5.3814762
20
86.0805406
11
5.3814762
21
87.4301406
0
LINE
8
DEFAULT_255_2_778
10
5.3814762
20
87.4301406
11
5.7455762
21
87.4301406
0
LINE
8
DEFAULT_255_2_778
10
6.3141762
20
86.8010406
11
6.3141762
21
86.7147406
0
LINE
8
DEFAULT_255_2_778
10
5.7383762
20
86.0805406
11
5.7383762
21
86.0805406
0
LINE
8
DEFAULT_255_2_778
10
5.7500762
20
87.2836406
11
5.5515762
21
87.2836406
0
LINE
8
DEFAULT_255_2_778
10
5.5515762
20
87.2836406
11
5.5515762
21
86.2260406
0
LINE
8
DEFAULT_255_2_778
10
5.5515762
20
86.2260406
11
5.7304762
21
86.2260406
0
LINE
8
DEFAULT_255_2_778
10
6.1458762
20
86.7182406
11
6.1458762
21
86.7970406
0
LINE
8
DEFAULT_255_2_778
10
5.7500762
20
87.2838406
11
5.7500762
21
87.2836406
0
LINE
8
DEFAULT_255_2_778
10
6.6117762
20
87.4301406
11
6.9784762
21
86.3170406
0
LINE
8
DEFAULT_255_2_778
10
6.9784762
20
86.3170406
11
7.3470762
21
87.4301406
0
LINE
8
DEFAULT_255_2_778
10
7.3470762
20
87.4301406
11
7.5330762
21
87.4301406
0
LINE
8
DEFAULT_255_2_778
10
7.5330762
20
87.4301406
11
7.0546762
21
86.0805406
0
LINE
8
DEFAULT_255_2_778
10
7.0546762
20
86.0805406
11
6.9041762
21
86.0805406
0
LINE
8
DEFAULT_255_2_778
10
6.9041762
20
86.0805406
11
6.4268762
21
87.4301406
0
LINE
8
DEFAULT_255_2_778
10
6.4268762
20
87.4301406
11
6.6120762
21
87.4301406
0
LINE
8
DEFAULT_255_2_778
10
6.6120762
20
87.4301406
11
6.6117762
21
87.4301406
0
LINE
8
DEFAULT_255_2_778
10
8.4717762
20
86.8785406
11
8.4717762
21
86.6560406
0
LINE
8
DEFAULT_255_2_778
10
7.6576762
20
86.6327406
11
7.6576762
21
86.8616406
0
LINE
8
DEFAULT_255_2_778
10
8.4717762
20
86.8785406
11
8.4717762
21
86.8785406
0
LINE
8
DEFAULT_255_2_778
10
8.3080762
20
86.6097406
11
8.3080762
21
86.8904406
0
LINE
8
DEFAULT_255_2_778
10
7.8217762
20
86.9034406
11
7.8217762
21
86.6290406
0
LINE
8
DEFAULT_255_2_778
10
8.3080762
20
86.6094406
11
8.3080762
21
86.6097406
0
LINE
8
DEFAULT_255_2_778
10
9.3732762
20
87.4301406
11
9.3732762
21
86.5337406
0
LINE
8
DEFAULT_255_2_778
10
9.3732762
20
86.5337406
11
9.5520762
21
86.5337406
0
LINE
8
DEFAULT_255_2_778
10
9.5520762
20
86.5337406
11
9.5520762
21
86.3938406
0
LINE
8
DEFAULT_255_2_778
10
9.5520762
20
86.3938406
11
9.3732762
21
86.3938406
0
LINE
8
DEFAULT_255_2_778
10
9.3732762
20
86.3938406
11
9.3732762
21
86.0805406
0
LINE
8
DEFAULT_255_2_778
10
9.3732762
20
86.0805406
11
9.2083762
21
86.0805406
0
LINE
8
DEFAULT_255_2_778
10
9.2083762
20
86.0805406
11
9.2083762
21
86.3938406
0
LINE
8
DEFAULT_255_2_778
10
9.2083762
20
86.3938406
11
8.6212762
21
86.3938406
0
LINE
8
DEFAULT_255_2_778
10
8.6212762
20
86.3938406
11
8.6212762
21
86.4948406
0
LINE
8
DEFAULT_255_2_778
10
8.6212762
20
86.4948406
11
9.1988762
21
87.4301406
0
LINE
8
DEFAULT_255_2_778
10
9.1988762
20
87.4301406
11
9.3732762
21
87.4301406
0
LINE
8
DEFAULT_255_2_778
10
9.3732762
20
87.4301406
11
9.3732762
21
87.4301406
0
LINE
8
DEFAULT_255_2_778
10
9.1890762
20
87.1587406
11
8.8072762
21
86.5340406
0
LINE
8
DEFAULT_255_2_778
10
8.8072762
20
86.5340406
11
9.2083762
21
86.5340406
0
LINE
8
DEFAULT_255_2_778
10
9.2083762
20
86.5340406
11
9.2083762
21
87.1957406
0
LINE
8
DEFAULT_255_2_778
10
9.2083762
20
87.1957406
11
9.1888762
21
87.1587406
0
LINE
8
DEFAULT_255_2_778
10
9.1888762
20
87.1587406
11
9.1890762
21
87.1587406
0
LINE
8
DEFAULT_255_2_778
10
10.5781762
20
86.0805406
11
10.4551762
21
86.4327406
0
LINE
8
DEFAULT_255_2_778
10
10.4551762
20
86.4327406
11
9.9148762
21
86.4327406
0
LINE
8
DEFAULT_255_2_778
10
9.9148762
20
86.4327406
11
9.7933762
21
86.0805406
0
LINE
8
DEFAULT_255_2_778
10
9.7933762
20
86.0805406
11
9.6179762
21
86.0805406
0
LINE
8
DEFAULT_255_2_778
10
9.6179762
20
86.0805406
11
10.1103762
21
87.4301406
0
LINE
8
DEFAULT_255_2_778
10
10.1103762
20
87.4301406
11
10.2590762
21
87.4301406
0
LINE
8
DEFAULT_255_2_778
10
10.2590762
20
87.4301406
11
10.7524762
21
86.0805406
0
LINE
8
DEFAULT_255_2_778
10
10.7524762
20
86.0805406
11
10.5781762
21
86.0805406
0
LINE
8
DEFAULT_255_2_778
10
10.5781762
20
86.0805406
11
10.5781762
21
86.0805406
0
LINE
8
DEFAULT_255_2_778
10
10.1849762
20
87.2105406
11
9.9661762
21
86.5792406
0
LINE
8
DEFAULT_255_2_778
10
9.9661762
20
86.5792406
11
10.4045762
21
86.5792406
0
LINE
8
DEFAULT_255_2_778
10
10.4045762
20
86.5792406
11
10.1849762
21
87.2105406
0
LINE
8
DEFAULT_255_2_778
10
10.1849762
20
87.2105406
11
10.1849762
21
87.2105406
0
ENDSEC
0
EOF