0
SECTION
2
HEADER
9
$MEASUREMENT
70
1
0
ENDSEC
0
SECTION
2
TABLES
0
TABLE
2
LTYPE
0
LTYPE
72
65
70
64
2
CONTINUOUS
3
______
73
0
40
0
0
ENDTAB
0
TABLE
2
LAYER
0
LAYER
2
DEFAULT_255_2_778
70
0
62
255
6
CONTINUOUS
0
LAYER
2
DEFAULT_255_1_234
70
0
62
255
6
CONTINUOUS
0
LAYER
2
DEFAULT_255_2_778_1
70
0
62
255
6
CONTINUOUS
0
ENDTAB
0
ENDSEC
0
SECTION
2
ENTITIES
0
ARC
8
DEFAULT_255_2_778
10
3.5700693
20
107.5552026
40
0.7914215
50
129.1312896
51
180.1450914
0
ARC
8
DEFAULT_255_2_778
10
3.5703345
20
107.5556897
40
0.7912112
50
89.854026
51
129.1684493
0
ARC
8
DEFAULT_255_2_778
10
25.7993937
20
107.5553762
40
0.7915249
50
39.4792447
51
90.147911
0
ARC
8
DEFAULT_255_2_778
10
25.7999935
20
107.5552229
40
0.7911595
50
359.8533901
51
39.5154338
0
ARC
8
DEFAULT_255_2_778
10
25.7996693
20
-1.9863497
40
0.7914836
50
309.4761667
51
0.1482649
0
ARC
8
DEFAULT_255_2_778
10
25.799398
20
-1.9867808
40
0.7913235
50
269.8517415
51
309.511178
0
ARC
8
DEFAULT_255_2_778
10
3.570342
20
-1.9867226
40
0.7913815
50
219.1282118
51
270.1454017
0
ARC
8
DEFAULT_255_2_778
10
3.5700247
20
-1.9863401
40
0.7913769
50
179.8524075
51
219.1641908
0
LINE
8
DEFAULT_255_2_778
10
3.5723503
20
108.3468985
11
25.7973503
21
108.3468985
0
LINE
8
DEFAULT_255_2_778
10
26.5911503
20
107.5531985
11
26.5911503
21
-1.9843015
0
LINE
8
DEFAULT_255_2_778
10
25.7973503
20
-2.7781015
11
3.5723503
21
-2.7781015
0
LINE
8
DEFAULT_255_2_778
10
2.7786503
20
-1.9843015
11
2.7786503
21
107.5531985
0
LINE
8
DEFAULT_255_1_234
10
9.9403364
20
0.5181211
11
10.1395235
21
0.5181211
0
LINE
8
DEFAULT_255_1_234
10
10.1395235
20
0.5181211
11
10.5218342
21
-0.4360494
0
LINE
8
DEFAULT_255_1_234
10
10.5218342
20
-0.4360494
11
10.904145
21
0.5181211
0
LINE
8
DEFAULT_255_1_234
10
10.904145
20
0.5181211
11
11.1041353
21
0.5181211
0
LINE
8
DEFAULT_255_1_234
10
11.1041353
20
0.5181211
11
11.1041353
21
-0.6513
0
LINE
8
DEFAULT_255_1_234
10
11.1041353
20
-0.6513
11
10.9499259
21
-0.6513
0
LINE
8
DEFAULT_255_1_234
10
10.9499259
20
-0.6513
11
10.9499259
21
-0.1959004
0
LINE
8
DEFAULT_255_1_234
10
10.9499259
20
-0.1959004
11
10.964383
21
0.2956419
0
LINE
8
DEFAULT_255_1_234
10
10.964383
20
0.2956419
11
10.5804659
21
-0.6513
0
LINE
8
DEFAULT_255_1_234
10
10.5804659
20
-0.6513
11
10.4623994
21
-0.6513
0
LINE
8
DEFAULT_255_1_234
10
10.4623994
20
-0.6513
11
10.0792854
21
0.2932324
0
LINE
8
DEFAULT_255_1_234
10
10.0792854
20
0.2932324
11
10.0945458
21
-0.1959004
0
LINE
8
DEFAULT_255_1_234
10
10.0945458
20
-0.1959004
11
10.0945458
21
-0.6513
0
LINE
8
DEFAULT_255_1_234
10
10.0945458
20
-0.6513
11
9.9403364
21
-0.6513
0
LINE
8
DEFAULT_255_1_234
10
9.9403364
20
-0.6513
11
9.9403364
21
0.5181211
0
LINE
8
DEFAULT_255_1_234
10
11.5314237
20
0.5181211
11
11.5314237
21
-0.5252017
0
LINE
8
DEFAULT_255_1_234
10
11.5314237
20
-0.5252017
11
12.0856137
21
-0.5252017
0
LINE
8
DEFAULT_255_1_234
10
12.0856137
20
-0.5252017
11
12.0856137
21
-0.6513
0
LINE
8
DEFAULT_255_1_234
10
12.0856137
20
-0.6513
11
11.3764112
21
-0.6513
0
LINE
8
DEFAULT_255_1_234
10
11.3764112
20
-0.6513
11
11.3764112
21
0.5181211
0
LINE
8
DEFAULT_255_1_234
10
11.3764112
20
0.5181211
11
11.5314237
21
0.5181211
0
LINE
8
DEFAULT_255_1_234
10
12.9064573
20
-0.0087609
11
12.9064573
21
-0.1348592
0
LINE
8
DEFAULT_255_1_234
10
12.9064573
20
-0.1348592
11
12.4157181
21
-0.1348592
0
LINE
8
DEFAULT_255_1_234
10
12.4157181
20
-0.1348592
11
12.4157181
21
-0.6513
0
LINE
8
DEFAULT_255_1_234
10
12.4157181
20
-0.6513
11
12.2615087
21
-0.6513
0
LINE
8
DEFAULT_255_1_234
10
12.2615087
20
-0.6513
11
12.2615087
21
0.5181211
0
LINE
8
DEFAULT_255_1_234
10
12.2615087
20
0.5181211
11
12.9859715
21
0.5181211
0
LINE
8
DEFAULT_255_1_234
10
12.9859715
20
0.5181211
11
12.9859715
21
0.3912196
0
LINE
8
DEFAULT_255_1_234
10
12.9859715
20
0.3912196
11
12.4157181
21
0.3912196
0
LINE
8
DEFAULT_255_1_234
10
12.4157181
20
0.3912196
11
12.4157181
21
-0.0087609
0
LINE
8
DEFAULT_255_1_234
10
12.4157181
20
-0.0087609
11
12.9064573
21
-0.0087609
0
LINE
8
DEFAULT_255_1_234
10
13.4566314
20
-0.0938974
11
13.4566314
21
-0.2151766
0
LINE
8
DEFAULT_255_1_234
10
13.4566314
20
-0.2151766
11
13.0646826
21
-0.2151766
0
LINE
8
DEFAULT_255_1_234
10
13.0646826
20
-0.2151766
11
13.0646826
21
-0.0938974
0
LINE
8
DEFAULT_255_1_234
10
13.0646826
20
-0.0938974
11
13.4566314
21
-0.0938974
0
LINE
8
DEFAULT_255_1_234
10
13.9481738
20
-0.6513
11
13.6244947
21
-0.6513
0
LINE
8
DEFAULT_255_1_234
10
13.6244947
20
-0.6513
11
13.6244947
21
0.5181211
0
LINE
8
DEFAULT_255_1_234
10
13.6244947
20
0.5181211
11
13.9545992
21
0.5181211
0
LINE
8
DEFAULT_255_1_234
10
14.4702368
20
-0.0272339
11
14.4702368
21
-0.1019291
0
LINE
8
DEFAULT_255_1_234
10
13.958615
20
0.3912196
11
13.7787041
21
0.3912196
0
LINE
8
DEFAULT_255_1_234
10
13.7787041
20
0.3912196
11
13.7787041
21
-0.5252017
0
LINE
8
DEFAULT_255_1_234
10
13.7787041
20
-0.5252017
11
13.9409452
21
-0.5252017
0
LINE
8
DEFAULT_255_1_234
10
14.3176337
20
-0.0987164
11
14.3176337
21
-0.0304466
0
ARC
8
DEFAULT_255_1_234
10
13.9584934
20
-0.0684106
40
0.5865446
50
75.4101064
51
90.3804066
0
ARC
8
DEFAULT_255_1_234
10
13.9814448
20
0.0272492
40
0.4881916
50
60.145586
51
75.1888407
0
ARC
8
DEFAULT_255_1_234
10
13.9973223
20
0.0549199
40
0.4562893
50
26.5253612
51
60.1450928
0
ARC
8
DEFAULT_255_1_234
10
13.8852972
20
-0.0044842
40
0.5830602
50
7.4030428
51
26.8320788
0
ARC
8
DEFAULT_255_1_234
10
13.7258729
20
-0.0293196
40
0.7443669
50
0.1605367
51
7.7176192
0
ARC
8
DEFAULT_255_1_234
10
13.7422634
20
-0.1057566
40
0.7279835
50
348.7289388
51
0.3012466
0
ARC
8
DEFAULT_255_1_234
10
13.9079064
20
-0.1386614
40
0.559104
50
333.0706509
51
348.7181832
0
ARC
8
DEFAULT_255_1_234
10
14.0045822
20
-0.1911681
40
0.4491417
50
299.2531685
51
333.4571258
0
ARC
8
DEFAULT_255_1_234
10
13.9684961
20
-0.1226172
40
0.5265881
50
278.107187
51
299.0339503
0
ARC
8
DEFAULT_255_1_234
10
13.942904
20
0.0281216
40
0.679442
50
270.4443897
51
278.4511052
0
ARC
8
DEFAULT_255_1_234
10
13.944987
20
-0.0647787
40
0.4604407
50
269.4970433
51
284.0205042
0
ARC
8
DEFAULT_255_1_234
10
13.9805171
20
-0.2013022
40
0.3193797
50
283.7700273
51
318.1555492
0
ARC
8
DEFAULT_255_1_234
10
13.9467929
20
-0.1760633
40
0.3613588
50
318.7415601
51
343.6873628
0
ARC
8
DEFAULT_255_1_234
10
13.7663953
20
-0.1197168
40
0.5503313
50
343.3325091
51
355.8548958
0
ARC
8
DEFAULT_255_1_234
10
13.5565637
20
-0.0997681
40
0.7610708
50
355.4988528
51
0.0791727
0
ARC
8
DEFAULT_255_1_234
10
13.634826
20
-0.026222
40
0.6828208
50
359.6455037
51
9.8607896
0
ARC
8
DEFAULT_255_1_234
10
13.8708958
20
0.0164099
40
0.4429406
50
9.6571907
51
26.1932807
0
ARC
8
DEFAULT_255_1_234
10
13.9636946
20
0.0595118
40
0.3406537
50
26.5777228
51
40.1532208
0
ARC
8
DEFAULT_255_1_234
10
13.9892673
20
0.0794619
40
0.308246
50
40.3840491
51
80.1431104
0
ARC
8
DEFAULT_255_1_234
10
13.956579
20
-0.0654667
40
0.4566909
50
79.2152159
51
89.7445637
0
LINE
8
DEFAULT_255_1_234
10
14.7401032
20
0.5181211
11
15.0726171
21
-0.4464907
0
LINE
8
DEFAULT_255_1_234
10
15.0726171
20
-0.4464907
11
15.4067375
21
0.5181211
0
LINE
8
DEFAULT_255_1_234
10
15.4067375
20
0.5181211
11
15.575404
21
0.5181211
0
LINE
8
DEFAULT_255_1_234
10
15.575404
20
0.5181211
11
15.1416901
21
-0.6513
0
LINE
8
DEFAULT_255_1_234
10
15.1416901
20
-0.6513
11
15.0051505
21
-0.6513
0
LINE
8
DEFAULT_255_1_234
10
15.0051505
20
-0.6513
11
14.5722398
21
0.5181211
0
LINE
8
DEFAULT_255_1_234
10
14.5722398
20
0.5181211
11
14.7401032
21
0.5181211
0
LINE
8
DEFAULT_255_1_234
10
16.4267682
20
0.0402327
11
16.4267682
21
-0.1525291
0
LINE
8
DEFAULT_255_1_234
10
15.6886515
20
-0.1726084
11
15.6886515
21
0.0257755
0
LINE
8
DEFAULT_255_1_234
10
16.2781811
20
-0.1926877
11
16.2781811
21
0.0506739
0
LINE
8
DEFAULT_255_1_234
10
15.8372386
20
0.0619184
11
15.8372386
21
-0.1758211
0
ARC
8
DEFAULT_255_1_234
10
15.2020572
20
-0.1574195
40
1.2247208
50
353.8441951
51
0.2287902
0
ARC
8
DEFAULT_255_1_234
10
15.6660075
20
-0.2092194
40
0.7578929
50
344.4934747
51
353.9765454
0
ARC
8
DEFAULT_255_1_234
10
15.9652666
20
-0.2943019
40
0.4467846
50
329.2803592
51
344.7472793
0
ARC
8
DEFAULT_255_1_234
10
16.064549
20
-0.3487982
40
0.3336173
50
324.9352394
51
328.6160465
0
ARC
8
DEFAULT_255_1_234
10
16.1022599
20
-0.3751573
40
0.2876076
50
280.580143
51
324.9173126
0
ARC
8
DEFAULT_255_1_234
10
16.0621392
20
-0.2080901
40
0.4592847
50
269.5977311
51
281.6734359
0
ARC
8
DEFAULT_255_1_234
10
16.0549297
20
-0.2200827
40
0.4472986
50
256.6228859
51
270.51044
0
ARC
8
DEFAULT_255_1_234
10
16.0147275
20
-0.3749123
40
0.2873874
50
215.8618325
51
257.2788573
0
ARC
8
DEFAULT_255_1_234
10
16.1168307
20
-0.3064023
40
0.4102928
50
197.9693508
51
215.2623606
0
ARC
8
DEFAULT_255_1_234
10
16.3653422
20
-0.2225291
40
0.6725652
50
187.8816417
51
198.2346507
0
ARC
8
DEFAULT_255_1_234
10
16.7611631
20
-0.1653921
40
1.0724845
50
180.8976217
51
188.0055519
0
ARC
8
DEFAULT_255_1_234
10
17.0411819
20
-0.1550223
40
1.3526448
50
180.7449369
51
181.1510016
0
ARC
8
DEFAULT_255_1_234
10
16.8834548
20
0.0306042
40
1.1948131
50
173.7675579
51
180.231553
0
ARC
8
DEFAULT_255_1_234
10
16.4316694
20
0.0816666
40
0.7401564
50
164.3058563
51
173.9002247
0
ARC
8
DEFAULT_255_1_234
10
16.1404763
20
0.1655656
40
0.4371288
50
148.7922025
51
164.568378
0
ARC
8
DEFAULT_255_1_234
10
16.0453215
20
0.2186929
40
0.3282386
50
144.5883898
51
148.1176286
0
ARC
8
DEFAULT_255_1_234
10
16.0110113
20
0.2426315
40
0.2864044
50
101.6440918
51
144.514236
0
ARC
8
DEFAULT_255_1_234
10
16.053518
20
0.0737069
40
0.4604934
50
89.5284041
51
102.5819763
0
ARC
8
DEFAULT_255_1_234
10
16.0614268
20
0.0698018
40
0.464401
50
77.0437873
51
90.5081339
0
ARC
8
DEFAULT_255_1_234
10
16.101627
20
0.2340615
40
0.2953195
50
48.2778575
51
77.4994676
0
ARC
8
DEFAULT_255_1_234
10
16.1088901
20
0.2469746
40
0.2808655
50
36.3142134
51
47.6305865
0
ARC
8
DEFAULT_255_1_234
10
16.0220208
20
0.1884515
40
0.3855453
50
18.2931786
51
35.6769206
0
ARC
8
DEFAULT_255_1_234
10
15.7676967
20
0.1011593
40
0.654423
50
8.024666
51
18.5605216
0
ARC
8
DEFAULT_255_1_234
10
15.3513887
20
0.0396792
40
1.0752407
50
1.1274072
51
8.1718305
0
ARC
8
DEFAULT_255_1_234
10
15.0278077
20
0.0269885
40
1.3990231
50
0.5424119
51
1.3863029
0
ARC
8
DEFAULT_255_1_234
10
15.2099455
20
0.0542342
40
1.0682415
50
359.8090433
51
4.9407866
0
ARC
8
DEFAULT_255_1_234
10
15.6309469
20
0.0918113
40
0.6455691
50
4.8362157
51
12.2904523
0
ARC
8
DEFAULT_255_1_234
10
15.9064584
20
0.1531965
40
0.3633074
50
12.0805627
51
23.8173984
0
ARC
8
DEFAULT_255_1_234
10
16.0238289
20
0.2028919
40
0.2358723
50
24.2871213
51
31.3935614
0
ARC
8
DEFAULT_255_1_234
10
16.0762986
20
0.2372233
40
0.1732111
50
30.7407893
51
82.4657128
0
ARC
8
DEFAULT_255_1_234
10
16.0583121
20
0.1488691
40
0.263235
50
81.1060089
51
90.2184952
0
ARC
8
DEFAULT_255_1_234
10
16.054742
20
0.1746924
40
0.2374236
50
89.3806855
51
105.6762551
0
ARC
8
DEFAULT_255_1_234
10
16.036405
20
0.2413567
40
0.1682847
50
105.7981136
51
149.7388061
0
ARC
8
DEFAULT_255_1_234
10
16.1428129
20
0.177395
40
0.2924306
50
149.4208916
51
163.6286378
0
ARC
8
DEFAULT_255_1_234
10
16.3519017
20
0.113625
40
0.5110213
50
163.3763315
51
172.1410975
0
ARC
8
DEFAULT_255_1_234
10
16.6819736
20
0.0663518
40
0.8444586
50
172.0259487
51
178.0703232
0
ARC
8
DEFAULT_255_1_234
10
16.9849825
20
0.0519906
40
1.1477868
50
177.8631668
51
179.5044149
0
ARC
8
DEFAULT_255_1_234
10
16.877723
20
-0.1794611
40
1.0404907
50
179.7995573
51
185.2460446
0
ARC
8
DEFAULT_255_1_234
10
16.4734269
20
-0.2177487
40
0.6343885
50
185.1411642
51
193.0079639
0
ARC
8
DEFAULT_255_1_234
10
16.2090741
20
-0.2802359
40
0.3627568
50
192.7897626
51
205.2507664
0
ARC
8
DEFAULT_255_1_234
10
16.1044288
20
-0.3269585
40
0.2481908
50
205.8005384
51
211.2537509
0
ARC
8
DEFAULT_255_1_234
10
16.0520729
20
-0.362042
40
0.1852521
50
210.3789793
51
238.4008143
0
ARC
8
DEFAULT_255_1_234
10
16.0501251
20
-0.3573624
40
0.1882621
50
239.6520629
51
265.9793761
0
ARC
8
DEFAULT_255_1_234
10
16.0586451
20
-0.2901573
40
0.2559272
50
265.1315437
51
270.060332
0
ARC
8
DEFAULT_255_1_234
10
16.061523
20
-0.3225466
40
0.2235528
50
269.3314664
51
287.2178029
0
ARC
8
DEFAULT_255_1_234
10
16.0753082
20
-0.3728721
40
0.1714108
50
287.7958004
51
329.080874
0
ARC
8
DEFAULT_255_1_234
10
15.9795539
20
-0.313107
40
0.2842745
50
328.6634704
51
343.3325132
0
ARC
8
DEFAULT_255_1_234
10
15.7622559
20
-0.2454137
40
0.5118644
50
343.0499468
51
351.9393422
0
ARC
8
DEFAULT_255_1_234
10
15.4155859
20
-0.1943051
40
0.8622784
50
351.8069023
51
357.7959224
0
ARC
8
DEFAULT_255_1_234
10
15.0920415
20
-0.1775279
40
1.1862365
50
357.5871873
51
359.2677531
0
LINE
8
DEFAULT_255_1_234
10
17.2443992
20
0.5181211
11
17.2443992
21
-0.258548
0
LINE
8
DEFAULT_255_1_234
10
17.2443992
20
-0.258548
11
17.4066403
21
-0.258548
0
LINE
8
DEFAULT_255_1_234
10
17.4066403
20
-0.258548
11
17.4066403
21
-0.3798272
0
LINE
8
DEFAULT_255_1_234
10
17.4066403
20
-0.3798272
11
17.2443992
21
-0.3798272
0
LINE
8
DEFAULT_255_1_234
10
17.2443992
20
-0.3798272
11
17.2443992
21
-0.6513
0
LINE
8
DEFAULT_255_1_234
10
17.2443992
20
-0.6513
11
17.0950088
21
-0.6513
0
LINE
8
DEFAULT_255_1_234
10
17.0950088
20
-0.6513
11
17.0950088
21
-0.3798272
0
LINE
8
DEFAULT_255_1_234
10
17.0950088
20
-0.3798272
11
16.5625046
21
-0.3798272
0
LINE
8
DEFAULT_255_1_234
10
16.5625046
20
-0.3798272
11
16.5625046
21
-0.2922813
0
LINE
8
DEFAULT_255_1_234
10
16.5625046
20
-0.2922813
11
17.0861739
21
0.5181211
0
LINE
8
DEFAULT_255_1_234
10
17.0861739
20
0.5181211
11
17.2443992
21
0.5181211
0
LINE
8
DEFAULT_255_1_234
10
17.077339
20
0.2827912
11
16.7311711
21
-0.258548
0
LINE
8
DEFAULT_255_1_234
10
16.7311711
20
-0.258548
11
17.0950088
21
-0.258548
0
LINE
8
DEFAULT_255_1_234
10
17.0950088
20
-0.258548
11
17.0950088
21
0.3149181
0
LINE
8
DEFAULT_255_1_234
10
17.0950088
20
0.3149181
11
17.077339
21
0.2827912
0
LINE
8
DEFAULT_255_1_234
10
18.3367156
20
-0.6513
11
18.2250744
21
-0.3460939
0
LINE
8
DEFAULT_255_1_234
10
18.2250744
20
-0.3460939
11
17.7351384
21
-0.3460939
0
LINE
8
DEFAULT_255_1_234
10
17.7351384
20
-0.3460939
11
17.6251036
21
-0.6513
0
LINE
8
DEFAULT_255_1_234
10
17.6251036
20
-0.6513
11
17.4660751
21
-0.6513
0
LINE
8
DEFAULT_255_1_234
10
17.4660751
20
-0.6513
11
17.9126398
21
0.5181211
0
LINE
8
DEFAULT_255_1_234
10
17.9126398
20
0.5181211
11
18.047573
21
0.5181211
0
LINE
8
DEFAULT_255_1_234
10
18.047573
20
0.5181211
11
18.4949408
21
-0.6513
0
LINE
8
DEFAULT_255_1_234
10
18.4949408
20
-0.6513
11
18.3367156
21
-0.6513
0
LINE
8
DEFAULT_255_1_234
10
17.9801064
20
0.3277689
11
17.7817225
21
-0.2191925
0
LINE
8
DEFAULT_255_1_234
10
17.7817225
20
-0.2191925
11
18.1792935
21
-0.2191925
0
LINE
8
DEFAULT_255_1_234
10
18.1792935
20
-0.2191925
11
17.9801064
21
0.3277689
0
ARC
8
DEFAULT_255_2_778
10
12.6050348
20
105.8538041
40
0.3813723
50
156.9728279
51
180.9672924
0
ARC
8
DEFAULT_255_2_778
10
12.4650905
20
105.9164556
40
0.2280903
50
120.6143155
51
157.7057572
0
ARC
8
DEFAULT_255_2_778
10
12.423185
20
105.9783889
40
0.1535155
50
105.6024085
51
118.9253865
0
ARC
8
DEFAULT_255_2_778
10
12.4163051
20
106.003158
40
0.1278087
50
90.2188612
51
105.6183161
0
ARC
8
DEFAULT_255_2_778
10
12.4186564
20
105.8360412
40
0.2949385
50
82.1187511
51
90.5516271
0
ARC
8
DEFAULT_255_2_778
10
12.4470429
20
106.0007036
40
0.128059
50
23.164146
51
84.5981403
0
ARC
8
DEFAULT_255_2_778
10
12.3195078
20
105.9489267
40
0.2656921
50
1.2065942
51
22.6109196
0
ARC
8
DEFAULT_255_2_778
10
12.1068205
20
105.9310377
40
0.4788966
50
359.9555286
51
2.8107684
0
ARC
8
DEFAULT_255_2_778
10
12.4802764
20
105.9196207
40
0.6523641
50
359.5121336
51
18.1513483
0
ARC
8
DEFAULT_255_2_778
10
12.6313291
20
105.9706245
40
0.4929411
50
17.987628
51
47.7515239
0
ARC
8
DEFAULT_255_2_778
10
12.6654537
20
106.0023389
40
0.4465388
50
48.2567149
51
90.320171
0
ARC
8
DEFAULT_255_2_778
10
12.6638541
20
105.9542874
40
0.4945841
50
90.103751
51
104.0317339
0
ARC
8
DEFAULT_255_2_778
10
12.6706581
20
105.9229342
40
0.5266526
50
103.9228462
51
106.737064
0
ARC
8
DEFAULT_255_2_778
10
12.6850928
20
105.8802316
40
0.5717052
50
106.8899656
51
120.2615348
0
ARC
8
DEFAULT_255_2_778
10
12.7341581
20
105.7957122
40
0.6694339
50
120.2432243
51
131.2854864
0
ARC
8
DEFAULT_255_2_778
10
12.785036
20
105.734952
40
0.7486631
50
131.143212
51
134.0802792
0
ARC
8
DEFAULT_255_2_778
10
15.2709404
20
104.7619131
40
0.1197666
50
309.5218924
51
339.9060311
0
ARC
8
DEFAULT_255_2_778
10
15.3039085
20
104.7244254
40
0.0698871
50
287.710739
51
308.230668
0
ARC
8
DEFAULT_255_2_778
10
15.3092212
20
104.7087982
40
0.0533853
50
270.2503717
51
287.3813074
0
ARC
8
DEFAULT_255_2_778
10
15.3118783
20
104.7096536
40
0.0542942
50
194.7346052
51
267.4414086
0
ARC
8
DEFAULT_255_2_778
10
15.3603123
20
104.732672
40
0.107451
50
190.9475811
51
200.0439116
0
ARC
8
DEFAULT_255_2_778
10
14.9941035
20
104.7197621
40
0.2608211
50
358.353068
51
64.1268931
0
ARC
8
DEFAULT_255_2_778
10
15.0249058
20
104.7654249
40
0.206441
50
66.2890109
51
89.9969258
0
ARC
8
DEFAULT_255_2_778
10
15.0382115
20
104.7301645
40
0.2420668
50
93.1483498
51
177.0819403
0
ARC
8
DEFAULT_255_2_778
10
15.0906424
20
104.7123292
40
0.2957256
50
174.1467469
51
180.0122521
0
ARC
8
DEFAULT_255_2_778
10
15.0902349
20
104.715793
40
0.2953391
50
180.6842551
51
197.2976119
0
ARC
8
DEFAULT_255_2_778
10
15.1427344
20
104.7319135
40
0.3502574
50
197.2618666
51
237.3003567
0
ARC
8
DEFAULT_255_2_778
10
15.1574152
20
104.760555
40
0.3823034
50
237.7678185
51
267.0989043
0
ARC
8
DEFAULT_255_2_778
10
15.1676437
20
104.845885
40
0.468079
50
266.3770992
51
270.0209723
0
ARC
8
DEFAULT_255_2_778
10
15.1676985
20
104.8761308
40
0.4983248
50
270.0133909
51
272.716577
0
ARC
8
DEFAULT_255_2_778
10
15.1758148
20
104.7615424
40
0.3834899
50
272.3167324
51
299.1303886
0
ARC
8
DEFAULT_255_2_778
10
15.1234049
20
104.8350329
40
0.4733038
50
300.3417229
51
327.7658215
0
ARC
8
DEFAULT_255_2_778
10
14.9406676
20
104.9635134
40
0.6964958
50
326.843622
51
335.4998036
0
ARC
8
DEFAULT_255_2_778
10
14.8514976
20
105.0057766
40
0.7951648
50
335.3932154
51
340.0324022
0
ARC
8
DEFAULT_255_2_778
10
14.8370312
20
105.0113094
40
0.8106509
50
340.0140149
51
340.5492811
0
ARC
8
DEFAULT_255_2_778
10
10.7612214
20
105.7094581
40
0.768197
50
90.8730151
51
175.0627552
0
ARC
8
DEFAULT_255_2_778
10
10.8136126
20
105.6930058
40
0.8218958
50
174.2343992
51
180.0097514
0
ARC
8
DEFAULT_255_2_778
10
10.7889867
20
105.6897729
40
0.7972759
50
179.7777162
51
222.1414196
0
ARC
8
DEFAULT_255_2_778
10
10.7511509
20
105.651835
40
0.7437709
50
221.9300285
51
269.8741254
0
ARC
8
DEFAULT_255_2_778
10
10.7376549
20
105.6762244
40
0.7682501
50
270.8846918
51
355.0667038
0
ARC
8
DEFAULT_255_2_778
10
10.6852873
20
105.6927267
40
0.8219296
50
354.2345114
51
0.0097094
0
ARC
8
DEFAULT_255_2_778
10
10.7100678
20
105.6959703
40
0.7971551
50
359.7768758
51
42.1436072
0
ARC
8
DEFAULT_255_2_778
10
10.7478782
20
105.7338788
40
0.7436889
50
41.9327014
51
89.8737509
0
ARC
8
DEFAULT_255_2_778
10
10.7319112
20
105.3166045
40
0.2064136
50
282.3154686
51
2.5716381
0
ARC
8
DEFAULT_255_2_778
10
10.749558
20
105.2815913
40
0.1687253
50
269.98603
51
278.995025
0
ARC
8
DEFAULT_255_2_778
10
10.7617107
20
105.3130042
40
0.2005094
50
178.6786273
51
266.5134562
0
ARC
8
DEFAULT_255_2_778
10
10.8074017
20
105.3258655
40
0.2462849
50
179.9999044
51
181.9167359
0
ARC
8
DEFAULT_255_2_778
10
10.7673954
20
106.0691548
40
0.2064787
50
103.0315545
51
182.5228891
0
ARC
8
DEFAULT_255_2_778
10
10.7494718
20
106.1042048
40
0.1685611
50
89.9846994
51
99.7807169
0
ARC
8
DEFAULT_255_2_778
10
10.7371616
20
106.0722176
40
0.2009286
50
358.490526
51
86.4746259
0
ARC
8
DEFAULT_255_2_778
10
10.6939639
20
106.0600644
40
0.244153
50
0.0003602
51
1.6101146
0
ARC
8
DEFAULT_255_2_778
10
13.7769085
20
105.6923122
40
1.0339085
50
353.7729731
51
0.0306848
0
ARC
8
DEFAULT_255_2_778
10
14.0136678
20
105.6959703
40
0.7971551
50
359.7768758
51
42.1436072
0
ARC
8
DEFAULT_255_2_778
10
14.0514782
20
105.7338788
40
0.7436889
50
41.9327014
51
89.8737509
0
ARC
8
DEFAULT_255_2_778
10
14.0648214
20
105.7094581
40
0.768197
50
90.8730151
51
175.0627552
0
ARC
8
DEFAULT_255_2_778
10
14.1172126
20
105.6930058
40
0.8218958
50
174.2343992
51
180.0097514
0
ARC
8
DEFAULT_255_2_778
10
14.0925867
20
105.6897729
40
0.7972759
50
179.7777162
51
222.1414196
0
ARC
8
DEFAULT_255_2_778
10
14.0547509
20
105.651835
40
0.7437709
50
221.9300285
51
269.8741254
0
ARC
8
DEFAULT_255_2_778
10
14.0479775
20
105.6618375
40
0.753789
50
270.3906469
51
332.9011285
0
ARC
8
DEFAULT_255_2_778
10
14.0503073
20
105.6733988
40
0.5766383
50
270.2493497
51
330.3649047
0
ARC
8
DEFAULT_255_2_778
10
14.0738266
20
105.3017117
40
0.2060198
50
188.4673322
51
264.146848
0
ARC
8
DEFAULT_255_2_778
10
14.1170452
20
105.3258502
40
0.2529285
50
180.0643852
51
192.4374066
0
ARC
8
DEFAULT_255_2_778
10
14.070552
20
106.0693297
40
0.2060435
50
102.2220352
51
182.5768883
0
ARC
8
DEFAULT_255_2_778
10
14.0532765
20
106.1035306
40
0.1692354
50
89.9863487
51
98.9553742
0
ARC
8
DEFAULT_255_2_778
10
14.0410627
20
106.0724487
40
0.2006917
50
358.1298546
51
86.4993767
0
ARC
8
DEFAULT_255_2_778
10
13.9951604
20
106.0600582
40
0.2465564
50
0.0018041
51
1.3574921
0
ARC
8
DEFAULT_255_2_778
10
18.8395085
20
105.6923122
40
1.0339085
50
353.7729731
51
0.0306848
0
ARC
8
DEFAULT_255_2_778
10
19.0763127
20
105.6959756
40
0.7971102
50
359.7764759
51
42.1460177
0
ARC
8
DEFAULT_255_2_778
10
19.1140101
20
105.7337511
40
0.7438166
50
41.9370909
51
89.8762358
0
ARC
8
DEFAULT_255_2_778
10
19.1273214
20
105.7094581
40
0.768197
50
90.8730151
51
175.0627552
0
ARC
8
DEFAULT_255_2_778
10
19.1797126
20
105.6930058
40
0.8218958
50
174.2343992
51
180.0097514
0
ARC
8
DEFAULT_255_2_778
10
19.1550867
20
105.6897729
40
0.7972759
50
179.7777162
51
222.1414196
0
ARC
8
DEFAULT_255_2_778
10
19.1172509
20
105.651835
40
0.7437709
50
221.9300285
51
269.8741254
0
ARC
8
DEFAULT_255_2_778
10
19.1104966
20
105.6622973
40
0.7542487
50
270.3889576
51
332.8797533
0
ARC
8
DEFAULT_255_2_778
10
19.1131073
20
105.6733988
40
0.5766383
50
270.2493497
51
330.3649047
0
ARC
8
DEFAULT_255_2_778
10
19.1366787
20
105.301307
40
0.2056225
50
188.7424888
51
264.120891
0
ARC
8
DEFAULT_255_2_778
10
19.180402
20
105.3258673
40
0.2531853
50
180.0682018
51
192.7352383
0
ARC
8
DEFAULT_255_2_778
10
19.1332623
20
106.069031
40
0.2062492
50
102.479692
51
182.5468765
0
ARC
8
DEFAULT_255_2_778
10
19.1155784
20
106.1040755
40
0.1684904
50
89.986931
51
99.1816697
0
ARC
8
DEFAULT_255_2_778
10
19.1031384
20
106.0718685
40
0.201085
50
358.3379179
51
86.4421934
0
ARC
8
DEFAULT_255_2_778
10
19.0609425
20
106.0598683
40
0.2432745
50
359.9994511
51
1.4527903
0
LINE
8
DEFAULT_255_2_778
10
20.0578169
20
105.0043659
11
20.5605169
21
105.0043659
0
LINE
8
DEFAULT_255_2_778
10
20.5605169
20
105.0043659
11
20.5605169
21
107.0239659
0
LINE
8
DEFAULT_255_2_778
10
20.5605169
20
107.0239659
11
20.0578169
21
107.0239659
0
LINE
8
DEFAULT_255_2_778
10
20.0578169
20
107.0239659
11
20.0578169
21
105.0043659
0
LINE
8
DEFAULT_255_2_778
10
20.0578169
20
105.0043659
11
20.0578169
21
105.0043659
0
LINE
8
DEFAULT_255_2_778
10
20.0578169
20
105.0043659
11
20.0578169
21
105.0043659
0
LINE
8
DEFAULT_255_2_778
10
21.2995169
20
107.0239659
11
21.2995169
21
105.0043659
0
LINE
8
DEFAULT_255_2_778
10
21.2995169
20
105.0043659
11
20.7970169
21
105.0043659
0
LINE
8
DEFAULT_255_2_778
10
20.7970169
20
105.0043659
11
20.7970169
21
107.0239659
0
LINE
8
DEFAULT_255_2_778
10
20.7970169
20
107.0239659
11
21.2995169
21
107.0239659
0
LINE
8
DEFAULT_255_2_778
10
21.2995169
20
107.0239659
11
21.2995169
21
107.0239659
0
LINE
8
DEFAULT_255_2_778
10
21.2995169
20
107.0239659
11
21.2995169
21
107.0239659
0
LINE
8
DEFAULT_255_2_778
10
9.1419169
20
106.2394659
11
8.7355169
21
106.2394659
0
LINE
8
DEFAULT_255_2_778
10
8.7355169
20
106.2394659
11
8.7355169
21
107.0239659
0
LINE
8
DEFAULT_255_2_778
10
8.7355169
20
107.0239659
11
8.0703169
21
107.0239659
0
LINE
8
DEFAULT_255_2_778
10
8.0703169
20
107.0239659
11
8.0703169
21
105.0043659
0
LINE
8
DEFAULT_255_2_778
10
8.0703169
20
105.0043659
11
8.7355169
21
105.0043659
0
LINE
8
DEFAULT_255_2_778
10
8.7355169
20
105.0043659
11
8.7355169
21
106.0058659
0
LINE
8
DEFAULT_255_2_778
10
8.7355169
20
106.0058659
11
9.1419169
21
106.0058659
0
LINE
8
DEFAULT_255_2_778
10
9.1419169
20
106.0058659
11
9.1419169
21
105.0043659
0
LINE
8
DEFAULT_255_2_778
10
9.1419169
20
105.0043659
11
9.8070169
21
105.0043659
0
LINE
8
DEFAULT_255_2_778
10
9.8070169
20
105.0043659
11
9.8070169
21
107.0239659
0
LINE
8
DEFAULT_255_2_778
10
9.8070169
20
107.0239659
11
9.1419169
21
107.0239659
0
LINE
8
DEFAULT_255_2_778
10
9.1419169
20
107.0239659
11
9.1419169
21
106.2394659
0
LINE
8
DEFAULT_255_2_778
10
9.1419169
20
106.2394659
11
9.1419169
21
106.2394659
0
LINE
8
DEFAULT_255_2_778
10
9.1419169
20
106.2394659
11
9.1419169
21
106.2394659
0
LINE
8
DEFAULT_255_2_778
10
12.2645169
20
106.2730659
11
12.2237169
21
106.4066659
0
LINE
8
DEFAULT_255_2_778
10
12.2237169
20
106.4066659
11
11.6768169
21
106.4066659
0
LINE
8
DEFAULT_255_2_778
10
11.6768169
20
106.4066659
11
11.6768169
21
105.0046659
0
LINE
8
DEFAULT_255_2_778
10
11.6768169
20
105.0046659
11
12.2237169
21
105.0046659
0
LINE
8
DEFAULT_255_2_778
10
12.2237169
20
105.0046659
11
12.2237169
21
105.8473659
0
LINE
8
DEFAULT_255_2_778
10
12.2237169
20
105.8473659
11
12.2237169
21
105.8473659
0
LINE
8
DEFAULT_255_2_778
10
12.5857169
20
105.9306659
11
12.5857169
21
105.9306659
0
LINE
8
DEFAULT_255_2_778
10
12.5857169
20
105.9306659
11
12.5857169
21
105.0043659
0
LINE
8
DEFAULT_255_2_778
10
12.5857169
20
105.0043659
11
13.1326169
21
105.0043659
0
LINE
8
DEFAULT_255_2_778
10
13.1326169
20
105.0043659
11
13.1326169
21
105.9140659
0
LINE
8
DEFAULT_255_2_778
10
13.1326169
20
105.9140659
11
13.1326169
21
105.9140659
0
LINE
8
DEFAULT_255_2_778
10
12.2642169
20
106.2727659
11
12.2642169
21
106.2727659
0
LINE
8
DEFAULT_255_2_778
10
12.2642169
20
106.2727659
11
12.2642169
21
106.2727659
0
LINE
8
DEFAULT_255_2_778
10
12.2642169
20
106.2727659
11
12.2642169
21
106.2727659
0
LINE
8
DEFAULT_255_2_778
10
12.2642169
20
106.2727659
11
12.2645169
21
106.2730659
0
LINE
8
DEFAULT_255_2_778
10
17.8816169
20
105.5928659
11
17.6265169
21
106.4064659
0
LINE
8
DEFAULT_255_2_778
10
17.6265169
20
106.4064659
11
17.2532169
21
106.4064659
0
LINE
8
DEFAULT_255_2_778
10
17.2532169
20
106.4064659
11
16.9981169
21
105.5594659
0
LINE
8
DEFAULT_255_2_778
10
16.9981169
20
105.5594659
11
16.7322169
21
106.4064659
0
LINE
8
DEFAULT_255_2_778
10
16.7322169
20
106.4064659
11
16.2113169
21
106.4064659
0
LINE
8
DEFAULT_255_2_778
10
16.2113169
20
106.4064659
11
16.2076169
21
106.4064659
0
LINE
8
DEFAULT_255_2_778
10
16.2076169
20
106.4064659
11
16.0007169
21
106.4064659
0
LINE
8
DEFAULT_255_2_778
10
16.0007169
20
106.4064659
11
15.7382169
21
105.6930659
0
LINE
8
DEFAULT_255_2_778
10
15.7382169
20
105.6930659
11
15.3688169
21
106.4064659
0
LINE
8
DEFAULT_255_2_778
10
15.3688169
20
106.4064659
11
14.7441169
21
106.4064659
0
LINE
8
DEFAULT_255_2_778
10
14.7441169
20
106.4064659
11
15.4794169
21
104.9877659
0
LINE
8
DEFAULT_255_2_778
10
15.4794169
20
104.9877659
11
15.3834169
21
104.7207659
0
LINE
8
DEFAULT_255_2_778
10
15.3834169
20
104.7207659
11
15.3834169
21
104.7207659
0
LINE
8
DEFAULT_255_2_778
10
15.6014169
20
104.7413659
11
15.6014169
21
104.7413659
0
LINE
8
DEFAULT_255_2_778
10
15.6014169
20
104.7413659
11
16.2091169
21
106.4005659
0
LINE
8
DEFAULT_255_2_778
10
16.2091169
20
106.4005659
11
16.6473169
21
105.0041659
0
LINE
8
DEFAULT_255_2_778
10
16.6473169
20
105.0041659
11
17.0463169
21
105.0041659
0
LINE
8
DEFAULT_255_2_778
10
17.0463169
20
105.0041659
11
17.2902169
21
105.8095659
0
LINE
8
DEFAULT_255_2_778
10
17.2902169
20
105.8095659
11
17.5416169
21
105.0041659
0
LINE
8
DEFAULT_255_2_778
10
17.5416169
20
105.0041659
11
17.9186169
21
105.0041659
0
LINE
8
DEFAULT_255_2_778
10
17.9186169
20
105.0041659
11
18.3435169
21
106.4061659
0
LINE
8
DEFAULT_255_2_778
10
18.3435169
20
106.4061659
11
18.1255169
21
106.4061659
0
LINE
8
DEFAULT_255_2_778
10
18.1255169
20
106.4061659
11
17.8816169
21
105.5925659
0
LINE
8
DEFAULT_255_2_778
10
17.8816169
20
105.5925659
11
17.8816169
21
105.5925659
0
LINE
8
DEFAULT_255_2_778
10
17.8816169
20
105.5925659
11
17.8816169
21
105.5925659
0
LINE
8
DEFAULT_255_2_778
10
17.8816169
20
105.5925659
11
17.8816169
21
105.5928659
0
LINE
8
DEFAULT_255_2_778
10
10.7495169
20
106.4775659
11
10.7495169
21
106.4775659
0
LINE
8
DEFAULT_255_2_778
10
10.7495169
20
106.4775659
11
10.7495169
21
106.4775659
0
LINE
8
DEFAULT_255_2_778
10
10.7495169
20
106.4775659
11
10.7495169
21
106.4775659
0
LINE
8
DEFAULT_255_2_778
10
10.7495169
20
106.4775659
11
10.7495169
21
106.4775659
0
LINE
8
DEFAULT_255_2_778
10
10.5611169
20
105.3258659
11
10.5611169
21
105.3258659
0
LINE
8
DEFAULT_255_2_778
10
10.5611169
20
105.3258659
11
10.5611169
21
106.0600659
0
LINE
8
DEFAULT_255_2_778
10
10.5611169
20
106.0600659
11
10.5611169
21
106.0600659
0
LINE
8
DEFAULT_255_2_778
10
10.9381169
20
106.0600659
11
10.9381169
21
106.0600659
0
LINE
8
DEFAULT_255_2_778
10
10.9381169
20
106.0600659
11
10.9381169
21
105.3258659
0
LINE
8
DEFAULT_255_2_778
10
10.9381169
20
105.3258659
11
10.9381169
21
105.3258659
0
LINE
8
DEFAULT_255_2_778
10
10.9381169
20
105.3258659
11
10.9381169
21
105.3258659
0
LINE
8
DEFAULT_255_2_778
10
10.9381169
20
105.3258659
11
10.9381169
21
105.3258659
0
LINE
8
DEFAULT_255_2_778
10
14.7190169
20
105.3184659
11
14.7190169
21
105.3184659
0
LINE
8
DEFAULT_255_2_778
10
14.7190169
20
105.3184659
11
14.5515169
21
105.3882659
0
LINE
8
DEFAULT_255_2_778
10
14.5515169
20
105.3882659
11
14.5515169
21
105.3882659
0
LINE
8
DEFAULT_255_2_778
10
13.8641169
20
105.3255659
11
13.8641169
21
105.3255659
0
LINE
8
DEFAULT_255_2_778
10
13.8641169
20
105.3255659
11
13.8641169
21
105.5801659
0
LINE
8
DEFAULT_255_2_778
10
13.8641169
20
105.5801659
11
14.8042169
21
105.5801659
0
LINE
8
DEFAULT_255_2_778
10
14.8042169
20
105.5801659
11
14.8042169
21
105.5801659
0
LINE
8
DEFAULT_255_2_778
10
14.8042169
20
105.5801659
11
14.8042169
21
105.5801659
0
LINE
8
DEFAULT_255_2_778
10
14.8042169
20
105.5801659
11
14.8047169
21
105.5801659
0
LINE
8
DEFAULT_255_2_778
10
14.2417169
20
106.0600659
11
14.2417169
21
106.0600659
0
LINE
8
DEFAULT_255_2_778
10
14.2417169
20
106.0600659
11
14.2417169
21
105.7804659
0
LINE
8
DEFAULT_255_2_778
10
14.2417169
20
105.7804659
11
13.8647169
21
105.7804659
0
LINE
8
DEFAULT_255_2_778
10
13.8647169
20
105.7804659
11
13.8647169
21
106.0600659
0
LINE
8
DEFAULT_255_2_778
10
13.8647169
20
106.0600659
11
13.8647169
21
106.0600659
0
LINE
8
DEFAULT_255_2_778
10
13.8647169
20
106.0600659
11
13.8647169
21
106.0600659
0
LINE
8
DEFAULT_255_2_778
10
13.8647169
20
106.0600659
11
13.8647169
21
106.0600659
0
LINE
8
DEFAULT_255_2_778
10
19.7818169
20
105.3184659
11
19.7818169
21
105.3184659
0
LINE
8
DEFAULT_255_2_778
10
19.7818169
20
105.3184659
11
19.6143169
21
105.3882659
0
LINE
8
DEFAULT_255_2_778
10
19.6143169
20
105.3882659
11
19.6143169
21
105.3882659
0
LINE
8
DEFAULT_255_2_778
10
18.9272169
20
105.3255659
11
18.9272169
21
105.3255659
0
LINE
8
DEFAULT_255_2_778
10
18.9272169
20
105.3255659
11
18.9272169
21
105.5801659
0
LINE
8
DEFAULT_255_2_778
10
18.9272169
20
105.5801659
11
19.8673169
21
105.5801659
0
LINE
8
DEFAULT_255_2_778
10
19.8673169
20
105.5801659
11
19.8673169
21
105.5801659
0
LINE
8
DEFAULT_255_2_778
10
19.8673169
20
105.5801659
11
19.8673169
21
105.5801659
0
LINE
8
DEFAULT_255_2_778
10
19.8673169
20
105.5801659
11
19.8673169
21
105.5801659
0
LINE
8
DEFAULT_255_2_778
10
19.3042169
20
106.0598659
11
19.3042169
21
106.0598659
0
LINE
8
DEFAULT_255_2_778
10
19.3042169
20
106.0598659
11
19.3042169
21
105.7804659
0
LINE
8
DEFAULT_255_2_778
10
19.3042169
20
105.7804659
11
18.9272169
21
105.7804659
0
LINE
8
DEFAULT_255_2_778
10
18.9272169
20
105.7804659
11
18.9272169
21
106.0600659
0
LINE
8
DEFAULT_255_2_778
10
18.9272169
20
106.0600659
11
18.9272169
21
106.0600659
0
LINE
8
DEFAULT_255_2_778
10
18.9272169
20
106.0600659
11
18.9272169
21
106.0600659
0
LINE
8
DEFAULT_255_2_778
10
18.9272169
20
106.0600659
11
18.9272169
21
106.0598659
0
LINE
8
DEFAULT_255_1_234
10
7.4350364
20
103.0441211
11
7.6342235
21
103.0441211
0
LINE
8
DEFAULT_255_1_234
10
7.6342235
20
103.0441211
11
8.0165342
21
102.0899506
0
LINE
8
DEFAULT_255_1_234
10
8.0165342
20
102.0899506
11
8.398845
21
103.0441211
0
LINE
8
DEFAULT_255_1_234
10
8.398845
20
103.0441211
11
8.5988353
21
103.0441211
0
LINE
8
DEFAULT_255_1_234
10
8.5988353
20
103.0441211
11
8.5988353
21
101.8747
0
LINE
8
DEFAULT_255_1_234
10
8.5988353
20
101.8747
11
8.4446259
21
101.8747
0
LINE
8
DEFAULT_255_1_234
10
8.4446259
20
101.8747
11
8.4446259
21
102.3300996
0
LINE
8
DEFAULT_255_1_234
10
8.4446259
20
102.3300996
11
8.459083
21
102.8216419
0
LINE
8
DEFAULT_255_1_234
10
8.459083
20
102.8216419
11
8.0751659
21
101.8747
0
LINE
8
DEFAULT_255_1_234
10
8.0751659
20
101.8747
11
7.9570994
21
101.8747
0
LINE
8
DEFAULT_255_1_234
10
7.9570994
20
101.8747
11
7.5739854
21
102.8192324
0
LINE
8
DEFAULT_255_1_234
10
7.5739854
20
102.8192324
11
7.5892458
21
102.3300996
0
LINE
8
DEFAULT_255_1_234
10
7.5892458
20
102.3300996
11
7.5892458
21
101.8747
0
LINE
8
DEFAULT_255_1_234
10
7.5892458
20
101.8747
11
7.4350364
21
101.8747
0
LINE
8
DEFAULT_255_1_234
10
7.4350364
20
101.8747
11
7.4350364
21
103.0441211
0
LINE
8
DEFAULT_255_1_234
10
9.540155
20
101.8747
11
9.3843393
21
101.8747
0
LINE
8
DEFAULT_255_1_234
10
9.2164759
20
102.401582
11
9.3610472
21
102.401582
0
LINE
8
DEFAULT_255_1_234
10
9.3610472
20
102.401582
11
9.3610472
21
102.4698518
0
LINE
8
DEFAULT_255_1_234
10
8.9899809
20
102.5027819
11
8.8405906
21
102.5027819
0
LINE
8
DEFAULT_255_1_234
10
9.5096344
20
102.4778835
11
9.5096344
21
102.077903
0
LINE
8
DEFAULT_255_1_234
10
9.540155
20
101.8875508
11
9.540155
21
101.8747
0
LINE
8
DEFAULT_255_1_234
10
9.3610472
20
102.1180617
11
9.3610472
21
102.2963663
0
LINE
8
DEFAULT_255_1_234
10
9.3610472
20
102.2963663
11
9.244587
21
102.2963663
0
ARC
8
DEFAULT_255_1_234
10
9.4882931
20
101.9251194
40
0.1155358
50
197.0791116
51
205.8741701
0
ARC
8
DEFAULT_255_1_234
10
9.612153
20
101.9643654
40
0.2454626
50
192.2918602
51
197.3448991
0
ARC
8
DEFAULT_255_1_234
10
9.8074979
20
102.0077663
40
0.4455697
50
189.1576348
51
192.3971359
0
ARC
8
DEFAULT_255_1_234
10
10.088926
20
102.0536549
40
0.7307142
50
186.8689952
51
189.1979448
0
ARC
8
DEFAULT_255_1_234
10
9.1060414
20
102.2083258
40
0.353352
50
294.0080019
51
316.7604136
0
ARC
8
DEFAULT_255_1_234
10
9.1189478
20
102.1901572
40
0.3315331
50
269.5042461
51
293.2479736
0
ARC
8
DEFAULT_255_1_234
10
9.1129963
20
102.2302491
40
0.3716254
50
255.403374
51
270.4753162
0
ARC
8
DEFAULT_255_1_234
10
9.0899935
20
102.1409825
40
0.2794431
50
228.6140946
51
255.354999
0
ARC
8
DEFAULT_255_1_234
10
9.0567459
20
102.1091491
40
0.2336109
50
181.8953303
51
229.5703879
0
ARC
8
DEFAULT_255_1_234
10
9.1158964
20
102.1155708
40
0.2929755
50
179.984097
51
182.7679515
0
ARC
8
DEFAULT_255_1_234
10
9.1075906
20
102.1190413
40
0.28469
50
161.0341165
51
180.6820968
0
ARC
8
DEFAULT_255_1_234
10
9.0636452
20
102.1304729
40
0.2394402
50
125.0523775
51
160.2033967
0
ARC
8
DEFAULT_255_1_234
10
9.1298461
20
102.0401431
40
0.3514152
50
106.2671988
51
125.4298572
0
ARC
8
DEFAULT_255_1_234
10
9.1870917
20
101.8530842
40
0.5470269
50
95.4857064
51
106.534858
0
ARC
8
DEFAULT_255_1_234
10
9.2144071
20
101.6031758
40
0.7984089
50
89.8515322
51
95.7224983
0
ARC
8
DEFAULT_255_1_234
10
9.1504666
20
102.4716759
40
0.2105886
50
359.503704
51
14.3184734
0
ARC
8
DEFAULT_255_1_234
10
9.207879
20
102.4866017
40
0.1512684
50
14.2187004
51
45.2025693
0
ARC
8
DEFAULT_255_1_234
10
9.2114986
20
102.4880251
40
0.1477163
50
45.8098026
51
73.0032427
0
ARC
8
DEFAULT_255_1_234
10
9.1865954
20
102.4118896
40
0.2278113
50
72.610967
51
85.7232876
0
ARC
8
DEFAULT_255_1_234
10
9.1775948
20
102.3205569
40
0.3195681
50
85.3352114
51
90.0850615
0
ARC
8
DEFAULT_255_1_234
10
9.1752351
20
102.3796391
40
0.2604924
50
89.5853149
51
103.4592217
0
ARC
8
DEFAULT_255_1_234
10
9.1599954
20
102.4431597
40
0.1951693
50
103.44851
51
126.5404292
0
ARC
8
DEFAULT_255_1_234
10
9.1360834
20
102.473743
40
0.1563639
50
126.1729825
51
141.5004088
0
ARC
8
DEFAULT_255_1_234
10
9.0982435
20
102.5034385
40
0.1082645
50
141.3333588
51
180.3474677
0
ARC
8
DEFAULT_255_1_234
10
9.0308145
20
102.5017174
40
0.1902269
50
151.6374668
51
179.6793754
0
ARC
8
DEFAULT_255_1_234
10
9.0910387
20
102.4717334
40
0.2574753
50
142.4988163
51
152.1325379
0
ARC
8
DEFAULT_255_1_234
10
9.1228347
20
102.4467735
40
0.2978957
50
120.8284787
51
142.4132259
0
ARC
8
DEFAULT_255_1_234
10
9.1644456
20
102.3816301
40
0.3751664
50
113.9638113
51
121.1869885
0
ARC
8
DEFAULT_255_1_234
10
9.1780608
20
102.3484544
40
0.4110136
50
93.3784663
51
113.8198047
0
ARC
8
DEFAULT_255_1_234
10
9.185739
20
102.2719446
40
0.487853
50
89.9745882
51
93.7491274
0
ARC
8
DEFAULT_255_1_234
10
9.1892276
20
102.2755605
40
0.4842481
50
79.1325877
51
90.3871757
0
ARC
8
DEFAULT_255_1_234
10
9.2217396
20
102.4380435
40
0.3185522
50
60.1435559
51
79.3654871
0
ARC
8
DEFAULT_255_1_234
10
9.2474085
20
102.487343
40
0.2630271
50
48.6192091
51
59.646742
0
ARC
8
DEFAULT_255_1_234
10
9.2521823
20
102.4936691
40
0.2551253
50
9.0349315
51
48.4844544
0
ARC
8
DEFAULT_255_1_234
10
9.1445667
20
102.4701793
40
0.3651489
50
1.2089744
51
10.0233366
0
ARC
8
DEFAULT_255_1_234
10
10.2732412
20
102.0754518
40
0.7636108
50
179.8160804
51
185.3206488
0
ARC
8
DEFAULT_255_1_234
10
10.0036894
20
102.0497155
40
0.4928344
50
185.2474014
51
192.7953707
0
ARC
8
DEFAULT_255_1_234
10
9.8275151
20
102.0092824
40
0.3120807
50
192.7197759
51
202.9585048
0
ARC
8
DEFAULT_255_1_234
10
9.1377334
20
102.2490928
40
0.2611453
50
270.0069004
51
300.5035019
0
ARC
8
DEFAULT_255_1_234
10
9.1499942
20
102.2362927
40
0.2439274
50
299.5482464
51
315.6095048
0
ARC
8
DEFAULT_255_1_234
10
9.1790039
20
102.2066155
40
0.2024389
50
315.868035
51
334.0596869
0
ARC
8
DEFAULT_255_1_234
10
9.2402399
20
101.5989943
40
0.6973855
50
89.6428514
51
97.2870891
0
ARC
8
DEFAULT_255_1_234
10
9.1961162
20
101.9293571
40
0.3640992
50
96.9938028
51
109.7781797
0
ARC
8
DEFAULT_255_1_234
10
9.1295787
20
102.1074891
40
0.1739759
50
109.0087453
51
135.326626
0
ARC
8
DEFAULT_255_1_234
10
9.1022392
20
102.1413473
40
0.1308198
50
137.4539381
51
182.1082805
0
ARC
8
DEFAULT_255_1_234
10
9.1396382
20
102.1348893
40
0.1681384
50
179.4392907
51
195.7200177
0
ARC
8
DEFAULT_255_1_234
10
9.098481
20
102.1236426
40
0.1254738
50
195.8684065
51
230.1572205
0
ARC
8
DEFAULT_255_1_234
10
9.1227237
20
102.1526769
40
0.1632985
50
230.1530708
51
259.7485588
0
ARC
8
DEFAULT_255_1_234
10
9.1365941
20
102.2180386
40
0.230094
50
259.2463819
51
270.291543
0
LINE
8
DEFAULT_255_1_234
10
10.3891097
20
102.4883248
11
10.2397194
21
102.4883248
0
LINE
8
DEFAULT_255_1_234
10
9.706412
20
102.1421569
11
9.8549991
21
102.1421569
0
ARC
8
DEFAULT_255_1_234
10
10.1209012
20
102.1066959
40
0.1276617
50
359.3334982
51
18.5871358
0
ARC
8
DEFAULT_255_1_234
10
10.141765
20
102.1122133
40
0.1061371
50
19.3540742
51
54.6485071
0
ARC
8
DEFAULT_255_1_234
10
10.0913552
20
102.0426919
40
0.1920087
50
54.3827097
51
65.0622807
0
ARC
8
DEFAULT_255_1_234
10
10.0144948
20
101.88099
40
0.3710447
50
64.8282493
51
71.4200025
0
ARC
8
DEFAULT_255_1_234
10
9.9242823
20
101.6163107
40
0.6506741
50
71.3164301
51
75.8006402
0
ARC
8
DEFAULT_255_1_234
10
9.8401643
20
101.2922561
40
0.9854641
50
75.6809531
51
78.0061883
0
ARC
8
DEFAULT_255_1_234
10
10.2850177
20
103.390177
40
1.1591028
50
254.6901892
51
258.0466452
0
ARC
8
DEFAULT_255_1_234
10
10.1812085
20
103.0142781
40
0.7691345
50
249.9010773
51
254.755261
0
ARC
8
DEFAULT_255_1_234
10
10.0808427
20
102.7416982
40
0.478665
50
243.3097214
51
249.9709442
0
ARC
8
DEFAULT_255_1_234
10
10.0179448
20
102.6162778
40
0.3383568
50
234.4047477
51
243.2862168
0
ARC
8
DEFAULT_255_1_234
10
9.9556972
20
102.5303232
40
0.2322322
50
220.8667099
51
234.5493881
0
ARC
8
DEFAULT_255_1_234
10
9.9214913
20
102.4991817
40
0.1859923
50
214.3062465
51
220.5065136
0
ARC
8
DEFAULT_255_1_234
10
9.9188992
20
102.496088
40
0.1821108
50
186.912965
51
213.9618616
0
ARC
8
DEFAULT_255_1_234
10
9.9721087
20
102.5047009
40
0.2359799
50
179.8808832
51
187.4339886
0
ARC
8
DEFAULT_255_1_234
10
9.956622
20
102.5067088
40
0.2204978
50
132.005434
51
180.3942919
0
ARC
8
DEFAULT_255_1_234
10
10.0222834
20
102.4461083
40
0.3095791
50
129.2319861
51
133.5302299
0
ARC
8
DEFAULT_255_1_234
10
10.0276342
20
102.4366928
40
0.3202615
50
100.4410011
51
128.9081242
0
ARC
8
DEFAULT_255_1_234
10
10.0550225
20
102.3081455
40
0.4516583
50
89.6985377
51
100.9026564
0
ARC
8
DEFAULT_255_1_234
10
10.0607267
20
102.2921166
40
0.4676928
50
77.6965325
51
90.4076836
0
ARC
8
DEFAULT_255_1_234
10
10.0938252
20
102.4348413
40
0.3211988
50
50.7276602
51
78.0399361
0
ARC
8
DEFAULT_255_1_234
10
10.138271
20
102.4866296
40
0.2529778
50
25.7545084
51
51.0957453
0
ARC
8
DEFAULT_255_1_234
10
10.1383935
20
102.4916206
40
0.250738
50
359.2468627
51
24.7394243
0
ARC
8
DEFAULT_255_1_234
10
10.1099387
20
102.4887664
40
0.1297815
50
359.8050318
51
45.1544908
0
ARC
8
DEFAULT_255_1_234
10
10.0692528
20
102.4539794
40
0.1831883
50
43.8047702
51
49.6271585
0
ARC
8
DEFAULT_255_1_234
10
10.070043
20
102.4540678
40
0.18261
50
49.7980766
51
82.1218353
0
ARC
8
DEFAULT_255_1_234
10
10.0581402
20
102.3893998
40
0.2483163
50
81.4465357
51
90.1710293
0
ARC
8
DEFAULT_255_1_234
10
10.0557005
20
102.336788
40
0.300932
50
89.6766211
51
99.1264602
0
ARC
8
DEFAULT_255_1_234
10
10.0385466
20
102.4401537
40
0.1961547
50
98.968313
51
113.4570237
0
ARC
8
DEFAULT_255_1_234
10
10.0189551
20
102.4869965
40
0.1453859
50
113.722589
51
127.4763106
0
ARC
8
DEFAULT_255_1_234
10
10.0021198
20
102.5070124
40
0.1192639
50
126.9083309
51
150.3165862
0
ARC
8
DEFAULT_255_1_234
10
9.997353
20
102.5120981
40
0.112623
50
151.3635175
51
180.0701457
0
ARC
8
DEFAULT_255_1_234
10
10.0282315
20
102.509999
40
0.1435149
50
179.2169974
51
179.9954013
0
ARC
8
DEFAULT_255_1_234
10
9.9921372
20
102.5087056
40
0.1074286
50
179.3040112
51
198.4225446
0
ARC
8
DEFAULT_255_1_234
10
9.9729506
20
102.5037127
40
0.0876573
50
199.2895851
51
238.6034594
0
ARC
8
DEFAULT_255_1_234
10
10.0332352
20
102.598345
40
0.1998512
50
237.9846301
51
246.8744712
0
ARC
8
DEFAULT_255_1_234
10
10.1190297
20
102.7946205
40
0.4140547
50
246.6234531
51
251.8168941
0
ARC
8
DEFAULT_255_1_234
10
10.2220841
20
103.1040905
40
0.7402308
50
251.713434
51
255.0778414
0
ARC
8
DEFAULT_255_1_234
10
10.3420104
20
103.5507563
40
1.2027155
50
255.0367487
51
257.4705983
0
ARC
8
DEFAULT_255_1_234
10
9.8312113
20
101.2493863
40
1.1546601
50
73.6837552
51
77.5016755
0
ARC
8
DEFAULT_255_1_234
10
9.9400888
20
101.6193581
40
0.7690009
50
68.7044154
51
73.7249639
0
ARC
8
DEFAULT_255_1_234
10
10.0303909
20
101.8520654
40
0.5193873
50
63.590599
51
68.6626804
0
ARC
8
DEFAULT_255_1_234
10
10.1074928
20
102.0058123
40
0.3473927
50
54.7106439
51
63.7013633
0
ARC
8
DEFAULT_255_1_234
10
10.1699382
20
102.09304
40
0.2401192
50
41.0622434
51
54.8487496
0
ARC
8
DEFAULT_255_1_234
10
10.2040769
20
102.1243592
40
0.1938094
50
34.4950568
51
40.7105546
0
ARC
8
DEFAULT_255_1_234
10
10.2087576
20
102.1292078
40
0.1872106
50
9.3763373
51
34.0833615
0
ARC
8
DEFAULT_255_1_234
10
10.1434447
20
102.1166728
40
0.2536988
50
359.7694872
51
9.7663171
0
ARC
8
DEFAULT_255_1_234
10
10.1631947
20
102.1123764
40
0.2339696
50
335.8654732
51
0.8022045
0
ARC
8
DEFAULT_255_1_234
10
10.1706992
20
102.1137197
40
0.2277108
50
307.7357725
51
334.7849066
0
ARC
8
DEFAULT_255_1_234
10
10.1306168
20
102.1587645
40
0.2878951
50
307.0241536
51
308.5578354
0
ARC
8
DEFAULT_255_1_234
10
10.1048499
20
102.1973801
40
0.3342515
50
282.9362969
51
306.5646424
0
ARC
8
DEFAULT_255_1_234
10
10.0686796
20
102.3441108
40
0.4853615
50
271.1026298
51
283.2200835
0
ARC
8
DEFAULT_255_1_234
10
10.062304
20
102.4682418
40
0.6096052
50
269.9919117
51
271.4772449
0
ARC
8
DEFAULT_255_1_234
10
10.0596795
20
102.3604436
40
0.5018135
50
259.0723564
51
270.289833
0
ARC
8
DEFAULT_255_1_234
10
10.0384528
20
102.2487271
40
0.388099
50
245.4963068
51
259.0227342
0
ARC
8
DEFAULT_255_1_234
10
10.0106484
20
102.1905615
40
0.3236422
50
228.9684658
51
245.7044727
0
ARC
8
DEFAULT_255_1_234
10
9.9840928
20
102.1578575
40
0.2815426
50
214.4011705
51
228.6759915
0
ARC
8
DEFAULT_255_1_234
10
9.9551668
20
102.142029
40
0.2487548
50
179.9705531
51
215.1572795
0
ARC
8
DEFAULT_255_1_234
10
10.0252268
20
102.1493806
40
0.1703809
50
182.4299387
51
203.0329699
0
ARC
8
DEFAULT_255_1_234
10
10.0067926
20
102.1437396
40
0.1512226
50
203.798802
51
232.548466
0
ARC
8
DEFAULT_255_1_234
10
10.0344447
20
102.1788826
40
0.1959374
50
232.3782728
51
256.3934612
0
ARC
8
DEFAULT_255_1_234
10
10.0574809
20
102.2678842
40
0.2878639
50
256.104506
51
268.4626716
0
ARC
8
DEFAULT_255_1_234
10
10.0621293
20
102.3475487
40
0.3676329
50
268.0715632
51
270.0138206
0
ARC
8
DEFAULT_255_1_234
10
10.0639818
20
102.3203083
40
0.3403971
50
269.7031147
51
278.8341955
0
ARC
8
DEFAULT_255_1_234
10
10.0821911
20
102.2072876
40
0.2259217
50
278.6728789
51
292.8232582
0
ARC
8
DEFAULT_255_1_234
10
10.1022449
20
102.1571449
40
0.171929
50
293.1452328
51
303.6655899
0
ARC
8
DEFAULT_255_1_234
10
10.1287328
20
102.1195204
40
0.1259367
50
303.1248165
51
321.742847
0
ARC
8
DEFAULT_255_1_234
10
10.1473208
20
102.1032156
40
0.1012531
50
322.4748573
51
1.1291126
0
LINE
8
DEFAULT_255_1_234
10
10.6437158
20
102.9541656
11
10.792303
21
102.9541656
0
LINE
8
DEFAULT_255_1_234
10
10.792303
20
102.9541656
11
10.792303
21
102.7437341
0
LINE
8
DEFAULT_255_1_234
10
10.792303
20
102.7437341
11
10.9545441
21
102.7437341
0
LINE
8
DEFAULT_255_1_234
10
10.9545441
20
102.7437341
11
10.9545441
21
102.6288802
0
LINE
8
DEFAULT_255_1_234
10
10.9545441
20
102.6288802
11
10.792303
21
102.6288802
0
LINE
8
DEFAULT_255_1_234
10
10.792303
20
102.6288802
11
10.792303
21
102.0899506
0
LINE
8
DEFAULT_255_1_234
10
10.95856
20
101.9951761
11
10.95856
21
101.8747
0
LINE
8
DEFAULT_255_1_234
10
10.6437158
20
102.0899506
11
10.6437158
21
102.6288802
0
LINE
8
DEFAULT_255_1_234
10
10.6437158
20
102.6288802
11
10.4854906
21
102.6288802
0
LINE
8
DEFAULT_255_1_234
10
10.4854906
20
102.6288802
11
10.4854906
21
102.7437341
0
LINE
8
DEFAULT_255_1_234
10
10.4854906
20
102.7437341
11
10.6437158
21
102.7437341
0
LINE
8
DEFAULT_255_1_234
10
10.6437158
20
102.7437341
11
10.6437158
21
102.9541656
0
ARC
8
DEFAULT_255_1_234
10
10.9930533
20
102.0889084
40
0.200753
50
179.7025659
51
187.917967
0
ARC
8
DEFAULT_255_1_234
10
10.9184559
20
102.0781724
40
0.1253883
50
187.7545981
51
200.2447476
0
ARC
8
DEFAULT_255_1_234
10
10.876388
20
102.0624859
40
0.0804913
50
200.130383
51
219.174133
0
ARC
8
DEFAULT_255_1_234
10
10.8628056
20
102.0532515
40
0.0641445
50
220.4434483
51
249.6172
0
ARC
8
DEFAULT_255_1_234
10
10.8782907
20
102.0921968
40
0.1060489
50
249.1032952
51
262.775154
0
ARC
8
DEFAULT_255_1_234
10
10.8871079
20
102.1550715
40
0.1695354
50
262.4913187
51
270.2611758
0
ARC
8
DEFAULT_255_1_234
10
10.8868496
20
102.1766103
40
0.191075
50
270.3091804
51
275.6625139
0
ARC
8
DEFAULT_255_1_234
10
10.872572
20
102.3267435
40
0.3418851
50
275.5610264
51
279.0879356
0
ARC
8
DEFAULT_255_1_234
10
10.8395598
20
102.5362699
40
0.5539959
50
279.0365489
51
281.5011378
0
ARC
8
DEFAULT_255_1_234
10
10.8038674
20
102.7166423
40
0.7378639
50
281.4243939
51
282.1017894
0
ARC
8
DEFAULT_255_1_234
10
10.8381921
20
102.3084858
40
0.4501761
50
275.2597045
51
285.5083879
0
ARC
8
DEFAULT_255_1_234
10
10.8443246
20
102.2528606
40
0.3942242
50
270.0268409
51
275.1132796
0
ARC
8
DEFAULT_255_1_234
10
10.8423211
20
102.1201614
40
0.261534
50
257.3573315
51
270.479383
0
ARC
8
DEFAULT_255_1_234
10
10.8210102
20
102.0303406
40
0.1692304
50
230.8037497
51
257.741658
0
ARC
8
DEFAULT_255_1_234
10
10.8142005
20
102.0193777
40
0.1564393
50
219.974146
51
230.1990686
0
ARC
8
DEFAULT_255_1_234
10
10.8473952
20
102.0447579
40
0.1981916
50
196.5084186
51
219.4318458
0
ARC
8
DEFAULT_255_1_234
10
10.9489397
20
102.0766194
40
0.3046086
50
184.6404872
51
196.8269686
0
ARC
8
DEFAULT_255_1_234
10
11.0734461
20
102.0891908
40
0.4297309
50
179.8986958
51
184.9681077
0
LINE
8
DEFAULT_255_1_234
10
11.0902805
20
102.2851218
11
11.0902805
21
102.3124297
0
LINE
8
DEFAULT_255_1_234
10
11.827594
20
102.3284932
11
11.827594
21
102.2666488
0
LINE
8
DEFAULT_255_1_234
10
11.827594
20
102.2666488
11
11.2388676
21
102.2666488
0
LINE
8
DEFAULT_255_1_234
10
11.725591
20
102.0971792
11
11.8163496
21
102.0264999
0
LINE
8
DEFAULT_255_1_234
10
11.2436867
20
102.3887313
11
11.6790069
21
102.3887313
0
LINE
8
DEFAULT_255_1_234
10
11.6790069
20
102.3887313
11
11.6790069
21
102.3999757
0
ARC
8
DEFAULT_255_1_234
10
11.484217
20
102.2962332
40
0.4376191
50
252.3266134
51
270.5810217
0
ARC
8
DEFAULT_255_1_234
10
11.4637259
20
102.2221644
40
0.3608374
50
223.3000567
51
251.8561855
0
ARC
8
DEFAULT_255_1_234
10
11.4848619
20
102.2426937
40
0.3902993
50
190.9374509
51
223.3654032
0
ARC
8
DEFAULT_255_1_234
10
11.6573592
20
102.2816885
40
0.5670891
50
179.6531105
51
191.4989439
0
ARC
8
DEFAULT_255_1_234
10
11.6695604
20
102.3156417
40
0.5792888
50
167.4007466
51
180.3176909
0
ARC
8
DEFAULT_255_1_234
10
11.5643666
20
102.3378885
40
0.471777
50
154.1835823
51
167.250763
0
ARC
8
DEFAULT_255_1_234
10
11.5012133
20
102.3711417
40
0.4004528
50
134.3149965
51
154.5315275
0
ARC
8
DEFAULT_255_1_234
10
11.4794628
20
102.3902228
40
0.371612
50
122.8616532
51
133.9707695
0
ARC
8
DEFAULT_255_1_234
10
11.4691202
20
102.4124703
40
0.3473289
50
89.8249009
51
123.4199222
0
ARC
8
DEFAULT_255_1_234
10
11.4741243
20
102.3477967
40
0.4120197
50
74.7876118
51
90.5482747
0
ARC
8
DEFAULT_255_1_234
10
11.5034987
20
102.456303
40
0.2996077
50
39.8178249
51
74.7633718
0
ARC
8
DEFAULT_255_1_234
10
11.4522307
20
102.4163351
40
0.3645855
50
16.8990863
51
39.4829761
0
ARC
8
DEFAULT_255_1_234
10
11.2627603
20
102.3556526
40
0.5635218
50
4.9636328
51
17.2026414
0
ARC
8
DEFAULT_255_1_234
10
11.0209673
20
102.330134
40
0.8066286
50
359.8834553
51
5.2834307
0
ARC
8
DEFAULT_255_1_234
10
11.6247198
20
102.2732803
40
0.3859091
50
180.9846213
51
194.9401313
0
ARC
8
DEFAULT_255_1_234
10
11.5197476
20
102.2445849
40
0.2770883
50
194.80314
51
222.0412631
0
ARC
8
DEFAULT_255_1_234
10
11.4893357
20
102.2144116
40
0.2343055
50
221.5417084
51
268.8614402
0
ARC
8
DEFAULT_255_1_234
10
11.4966352
20
102.2820686
40
0.3021528
50
267.732405
51
270.0097136
0
ARC
8
DEFAULT_255_1_234
10
11.4984162
20
102.3022105
40
0.3222994
50
269.6924892
51
280.4117579
0
ARC
8
DEFAULT_255_1_234
10
11.5160569
20
102.2103193
40
0.2287344
50
280.2255091
51
298.6338936
0
ARC
8
DEFAULT_255_1_234
10
11.5277361
20
102.1859223
40
0.2017294
50
299.0430333
51
300.4643464
0
ARC
8
DEFAULT_255_1_234
10
11.4597366
20
102.2993038
40
0.3339357
50
300.6577328
51
322.0378878
0
ARC
8
DEFAULT_255_1_234
10
11.4246905
20
102.3297021
40
0.3802736
50
321.6750233
51
322.3046845
0
ARC
8
DEFAULT_255_1_234
10
11.5177867
20
102.213037
40
0.3520454
50
276.9728461
51
328.0035423
0
ARC
8
DEFAULT_255_1_234
10
11.490092
20
102.3610841
40
0.5024498
50
269.8361028
51
278.0581756
0
ARC
8
DEFAULT_255_1_234
10
11.4673657
20
102.4355757
40
0.202159
50
89.2018686
51
117.2851756
0
ARC
8
DEFAULT_255_1_234
10
11.4726826
20
102.4313752
40
0.2083484
50
118.0551165
51
137.4540413
0
ARC
8
DEFAULT_255_1_234
10
11.5101566
20
102.3973304
40
0.2589774
50
137.5109581
51
158.8516286
0
ARC
8
DEFAULT_255_1_234
10
11.6239402
20
102.3514074
40
0.38167
50
158.5845963
51
170.1721436
0
ARC
8
DEFAULT_255_1_234
10
11.7408791
20
102.3281823
40
0.5008657
50
169.8376422
51
173.0566086
0
ARC
8
DEFAULT_255_1_234
10
11.2711865
20
102.3792509
40
0.4083467
50
2.9091802
51
12.8847116
0
ARC
8
DEFAULT_255_1_234
10
11.4082541
20
102.4115101
40
0.2675383
50
12.6957781
51
28.6404489
0
ARC
8
DEFAULT_255_1_234
10
11.4624212
20
102.4395458
40
0.2065654
50
29.0169854
51
41.1487595
0
ARC
8
DEFAULT_255_1_234
10
11.4826997
20
102.4572003
40
0.1796786
50
41.1646065
51
85.0013516
0
ARC
8
DEFAULT_255_1_234
10
11.4706094
20
102.3837431
40
0.2539726
50
83.7280015
51
90.0964893
0
LINE
8
DEFAULT_255_1_234
10
12.4195332
20
102.7485531
11
12.4195332
21
102.6104072
0
LINE
8
DEFAULT_255_1_234
10
12.1480604
20
102.4915375
11
12.1480604
21
101.8747
0
LINE
8
DEFAULT_255_1_234
10
12.1480604
20
101.8747
11
11.9994732
21
101.8747
0
LINE
8
DEFAULT_255_1_234
10
11.9994732
20
101.8747
11
11.9994732
21
102.7437341
0
LINE
8
DEFAULT_255_1_234
10
11.9994732
20
102.7437341
11
12.1440445
21
102.7437341
0
LINE
8
DEFAULT_255_1_234
10
12.1440445
20
102.7437341
11
12.1464541
21
102.6433374
0
ARC
8
DEFAULT_255_1_234
10
12.3528737
20
102.2044342
40
0.4114092
50
80.6754243
51
86.8932892
0
ARC
8
DEFAULT_255_1_234
10
12.3468271
20
102.10767
40
0.5083596
50
86.8038578
51
90.0431435
0
ARC
8
DEFAULT_255_1_234
10
12.3431252
20
102.3533866
40
0.2626638
50
89.2759698
51
106.6213787
0
ARC
8
DEFAULT_255_1_234
10
12.3226816
20
102.427683
40
0.1856317
50
107.1346045
51
157.6458115
0
ARC
8
DEFAULT_255_1_234
10
12.3918418
20
102.3893311
40
0.2643398
50
155.6586782
51
157.2539184
0
ARC
8
DEFAULT_255_1_234
10
12.371362
20
102.5062157
40
0.2634121
50
127.8165941
51
148.6302098
0
ARC
8
DEFAULT_255_1_234
10
12.3460089
20
102.5322218
40
0.2273596
50
91.3329982
51
126.7875809
0
ARC
8
DEFAULT_255_1_234
10
12.3536029
20
102.4607195
40
0.299078
50
89.986594
51
92.4688449
0
ARC
8
DEFAULT_255_1_234
10
12.3544424
20
102.4882078
40
0.2715908
50
85.3589899
51
90.1623399
0
ARC
8
DEFAULT_255_1_234
10
12.362894
20
102.5886164
40
0.1708278
50
78.401942
51
85.4594656
0
ARC
8
DEFAULT_255_1_234
10
12.3773824
20
102.6577236
40
0.1002194
50
67.7858312
51
78.5728455
0
ARC
8
DEFAULT_255_1_234
10
12.3881676
20
102.6856887
40
0.0702548
50
63.4835954
51
67.3062642
0
LINE
8
DEFAULT_255_1_234
10
12.7343773
20
103.0441211
11
12.7343773
21
102.0007983
0
LINE
8
DEFAULT_255_1_234
10
12.7343773
20
102.0007983
11
13.2885672
21
102.0007983
0
LINE
8
DEFAULT_255_1_234
10
13.2885672
20
102.0007983
11
13.2885672
21
101.8747
0
LINE
8
DEFAULT_255_1_234
10
13.2885672
20
101.8747
11
12.5793647
21
101.8747
0
LINE
8
DEFAULT_255_1_234
10
12.5793647
20
101.8747
11
12.5793647
21
103.0441211
0
LINE
8
DEFAULT_255_1_234
10
12.5793647
20
103.0441211
11
12.7343773
21
103.0441211
0
LINE
8
DEFAULT_255_1_234
10
13.4018147
20
102.3068075
11
13.4018147
21
102.3172488
0
LINE
8
DEFAULT_255_1_234
10
14.192941
20
102.3100202
11
14.192941
21
102.299579
0
ARC
8
DEFAULT_255_1_234
10
13.9604327
20
102.3204837
40
0.5586273
50
166.3003825
51
180.3317926
0
ARC
8
DEFAULT_255_1_234
10
13.8741486
20
102.3397964
40
0.4702272
50
153.8608245
51
166.0967125
0
ARC
8
DEFAULT_255_1_234
10
13.8075889
20
102.375475
40
0.3947658
50
135.1316692
51
154.253643
0
ARC
8
DEFAULT_255_1_234
10
13.7797448
20
102.4000666
40
0.3576898
50
121.7044358
51
134.776924
0
ARC
8
DEFAULT_255_1_234
10
13.7864442
20
102.3871867
40
0.3721701
50
93.4002104
51
121.5398234
0
ARC
8
DEFAULT_255_1_234
10
13.7959398
20
102.3046228
40
0.4551749
50
89.9706281
51
93.9769836
0
ARC
8
DEFAULT_255_1_234
10
13.800649
20
102.3436362
40
0.4161854
50
71.3323442
51
90.6161982
0
ARC
8
DEFAULT_255_1_234
10
13.8169186
20
102.4038578
40
0.3539455
50
41.1815071
51
70.707185
0
ARC
8
DEFAULT_255_1_234
10
13.7691586
20
102.3604919
40
0.4184468
50
12.1971897
51
41.3445735
0
ARC
8
DEFAULT_255_1_234
10
13.5765594
20
102.3146425
40
0.616399
50
359.5703439
51
12.5804035
0
ARC
8
DEFAULT_255_1_234
10
13.6238669
20
102.2964116
40
0.5690829
50
347.0197749
51
0.3188898
0
ARC
8
DEFAULT_255_1_234
10
13.7197171
20
102.2757808
40
0.4710501
50
334.3504053
51
346.846361
0
ARC
8
DEFAULT_255_1_234
10
13.8042594
20
102.2318805
40
0.3758475
50
310.422922
51
334.8045033
0
ARC
8
DEFAULT_255_1_234
10
13.812442
20
102.2254782
40
0.3656736
50
301.8486886
51
310.097356
0
ARC
8
DEFAULT_255_1_234
10
13.8092146
20
102.2330638
40
0.3738224
50
274.307774
51
301.655379
0
ARC
8
DEFAULT_255_1_234
10
13.7981453
20
102.3208361
40
0.4621997
50
269.9546461
51
274.8588071
0
ARC
8
DEFAULT_255_1_234
10
13.7932387
20
102.2707249
40
0.4121134
50
250.888809
51
270.631312
0
ARC
8
DEFAULT_255_1_234
10
13.7782307
20
102.2148277
40
0.3544073
50
221.1701932
51
250.2227191
0
ARC
8
DEFAULT_255_1_234
10
13.8266461
20
102.2589439
40
0.4198961
50
191.6263638
51
221.3526367
0
ARC
8
DEFAULT_255_1_234
10
14.0154457
20
102.3026329
40
0.6136451
50
179.610213
51
192.0693181
0
ARC
8
DEFAULT_255_1_234
10
14.0577685
20
102.2963633
40
0.5065736
50
179.636298
51
190.6162791
0
ARC
8
DEFAULT_255_1_234
10
13.8935353
20
102.264359
40
0.3392576
50
190.4136628
51
208.7170242
0
ARC
8
DEFAULT_255_1_234
10
13.8424977
20
102.2390366
40
0.2823401
50
209.1867941
51
217.4225593
0
ARC
8
DEFAULT_255_1_234
10
13.7895811
20
102.1924558
40
0.2120636
50
216.1156896
51
265.2575835
0
ARC
8
DEFAULT_255_1_234
10
13.797496
20
102.2498109
40
0.2698952
50
264.5897417
51
270.0601757
0
ARC
8
DEFAULT_255_1_234
10
13.800802
20
102.2118185
40
0.2319225
50
269.2532621
51
291.8792492
0
ARC
8
DEFAULT_255_1_234
10
13.8037242
20
102.1940238
40
0.2143562
50
292.9269754
51
323.1776747
0
ARC
8
DEFAULT_255_1_234
10
13.7644064
20
102.2288452
40
0.2667346
50
322.2518483
51
323.0930371
0
ARC
8
DEFAULT_255_1_234
10
13.7349723
20
102.246999
40
0.3011886
50
323.6941278
51
343.8493282
0
ARC
8
DEFAULT_255_1_234
10
13.5771266
20
102.295035
40
0.4661719
50
343.5748474
51
355.0079071
0
ARC
8
DEFAULT_255_1_234
10
13.3763511
20
102.3158424
40
0.6680042
50
354.7285225
51
0.1206288
0
ARC
8
DEFAULT_255_1_234
10
13.5531977
20
102.3204751
40
0.4911667
50
359.623636
51
11.2015604
0
ARC
8
DEFAULT_255_1_234
10
13.7066205
20
102.352064
40
0.3345323
50
10.9989411
51
30.8319188
0
ARC
8
DEFAULT_255_1_234
10
13.7462077
20
102.3729297
40
0.2898553
50
31.3008956
51
37.3959224
0
ARC
8
DEFAULT_255_1_234
10
13.7958656
20
102.4148653
40
0.2249582
50
36.5915954
51
62.2442953
0
ARC
8
DEFAULT_255_1_234
10
13.8005109
20
102.4145602
40
0.2231053
50
63.3365542
51
89.7195421
0
ARC
8
DEFAULT_255_1_234
10
13.7961963
20
102.3576884
40
0.2800267
50
88.8936788
51
90.0047485
0
ARC
8
DEFAULT_255_1_234
10
13.7930322
20
102.4149787
40
0.2227586
50
89.1921125
51
114.7099455
0
ARC
8
DEFAULT_255_1_234
10
13.7959086
20
102.4187628
40
0.2205633
50
115.7997161
51
142.2900762
0
ARC
8
DEFAULT_255_1_234
10
13.8397819
20
102.3797658
40
0.2791541
50
141.4658779
51
142.3795754
0
ARC
8
DEFAULT_255_1_234
10
13.8506723
20
102.3754557
40
0.2904292
50
143.0175714
51
163.234115
0
ARC
8
DEFAULT_255_1_234
10
14.0084896
20
102.3255054
40
0.4559523
50
162.9447461
51
174.3732162
0
ARC
8
DEFAULT_255_1_234
10
14.223071
20
102.3014143
40
0.6718682
50
174.1228657
51
180.1565175
0
LINE
8
DEFAULT_255_1_234
10
14.9350736
20
102.6473532
11
14.9423021
21
102.7437341
0
LINE
8
DEFAULT_255_1_234
10
14.9423021
20
102.7437341
11
15.0780385
21
102.7437341
0
LINE
8
DEFAULT_255_1_234
10
15.0780385
20
102.7437341
11
15.0780385
21
101.8955825
0
LINE
8
DEFAULT_255_1_234
10
14.3881122
20
101.6827415
11
14.4652169
21
101.7718938
0
LINE
8
DEFAULT_255_1_234
10
14.9286482
20
101.8867476
11
14.9286482
21
101.9614428
0
LINE
8
DEFAULT_255_1_234
10
14.9286482
20
102.1124395
11
14.9286482
21
102.5092073
0
ARC
8
DEFAULT_255_1_234
10
15.0585184
20
102.320767
40
0.7145938
50
169.8803029
51
180.346492
0
ARC
8
DEFAULT_255_1_234
10
14.8231956
20
102.3644732
40
0.4752555
50
152.8532592
51
170.0826994
0
ARC
8
DEFAULT_255_1_234
10
14.739873
20
102.4039298
40
0.3831198
50
142.0149503
51
152.4184154
0
ARC
8
DEFAULT_255_1_234
10
14.6761687
20
102.4619197
40
0.2972906
50
94.3317211
51
143.267544
0
ARC
8
DEFAULT_255_1_234
10
14.6865586
20
102.3836614
40
0.3761364
50
89.949086
51
95.0094918
0
ARC
8
DEFAULT_255_1_234
10
14.6907156
20
102.3995946
40
0.3602233
50
72.9495766
51
90.6080422
0
ARC
8
DEFAULT_255_1_234
10
14.7112262
20
102.4738804
40
0.2831969
50
37.7742493
51
72.5100279
0
ARC
8
DEFAULT_255_1_234
10
14.6192175
20
101.8917461
40
0.4588371
50
346.3654765
51
0.4790689
0
ARC
8
DEFAULT_255_1_234
10
14.7559999
20
101.8569784
40
0.3177173
50
314.3365179
51
346.6439967
0
ARC
8
DEFAULT_255_1_234
10
14.7457901
20
101.871312
40
0.3351156
50
280.7143003
51
313.8723582
0
ARC
8
DEFAULT_255_1_234
10
14.7122554
20
102.0207406
40
0.4882011
50
269.662739
51
281.3210136
0
ARC
8
DEFAULT_255_1_234
10
14.7106233
20
101.979507
40
0.4469607
50
245.5258041
51
269.8408437
0
ARC
8
DEFAULT_255_1_234
10
14.6724789
20
101.9079537
40
0.3660692
50
232.6665166
51
246.3199597
0
ARC
8
DEFAULT_255_1_234
10
14.6240583
20
101.8437155
40
0.2856276
50
214.3037329
51
232.5747698
0
ARC
8
DEFAULT_255_1_234
10
14.7358764
20
101.9862759
40
0.3452771
50
218.3818001
51
236.3658697
0
ARC
8
DEFAULT_255_1_234
10
14.6958588
20
101.9304637
40
0.2766535
50
236.8638847
51
270.6382346
0
ARC
8
DEFAULT_255_1_234
10
14.7013419
20
101.9635542
40
0.3097363
50
269.5557741
51
282.3971413
0
ARC
8
DEFAULT_255_1_234
10
14.7249494
20
101.8620559
40
0.2055403
50
282.04403
51
308.3081445
0
ARC
8
DEFAULT_255_1_234
10
14.7334892
20
101.8484365
40
0.1895677
50
308.8344832
51
315.2032883
0
ARC
8
DEFAULT_255_1_234
10
14.7256465
20
101.854177
40
0.199183
50
315.6210926
51
345.6795494
0
ARC
8
DEFAULT_255_1_234
10
14.6277352
20
101.8814308
40
0.3008009
50
345.2625808
51
358.6313382
0
ARC
8
DEFAULT_255_1_234
10
14.5388774
20
101.8866622
40
0.3897707
50
358.1745328
51
0.0125581
0
ARC
8
DEFAULT_255_1_234
10
14.7073432
20
102.1527802
40
0.2925507
50
275.695063
51
319.1537421
0
ARC
8
DEFAULT_255_1_234
10
14.6861576
20
102.2751945
40
0.4165589
50
269.8801937
51
276.923904
0
ARC
8
DEFAULT_255_1_234
10
14.6808482
20
102.164205
40
0.3056007
50
244.0749417
51
270.8321594
0
ARC
8
DEFAULT_255_1_234
10
14.6883595
20
102.1662057
40
0.3107397
50
217.7817538
51
242.9905588
0
ARC
8
DEFAULT_255_1_234
10
14.7494153
20
102.2204252
40
0.3922508
50
217.5213304
51
218.5773048
0
ARC
8
DEFAULT_255_1_234
10
14.7764685
20
102.2361333
40
0.4232938
50
195.3495212
51
216.9774018
0
ARC
8
DEFAULT_255_1_234
10
14.9787699
20
102.2949389
40
0.6339531
50
183.9386736
51
195.634887
0
ARC
8
DEFAULT_255_1_234
10
15.2063999
20
102.3153851
40
0.8624629
50
179.9295504
51
184.2550478
0
ARC
8
DEFAULT_255_1_234
10
15.0742412
20
102.2965275
40
0.5809212
50
179.6990322
51
188.5748787
0
ARC
8
DEFAULT_255_1_234
10
14.872923
20
102.2650858
40
0.377167
50
188.411837
51
202.0556851
0
ARC
8
DEFAULT_255_1_234
10
14.776046
20
102.227053
40
0.2731001
50
202.2924333
51
215.4475715
0
ARC
8
DEFAULT_255_1_234
10
14.7116087
20
102.1771537
40
0.191695
50
214.4673484
51
264.336154
0
ARC
8
DEFAULT_255_1_234
10
14.7218027
20
102.2408255
40
0.2560911
50
263.4724496
51
270.0961704
0
ARC
8
DEFAULT_255_1_234
10
14.7258229
20
102.225892
40
0.2411839
50
269.1470351
51
291.7977507
0
ARC
8
DEFAULT_255_1_234
10
14.7320663
20
102.1979994
40
0.2130159
50
293.0244875
51
327.6231489
0
ARC
8
DEFAULT_255_1_234
10
14.6612844
20
102.2497511
40
0.3005627
50
326.5166824
51
332.8160514
0
ARC
8
DEFAULT_255_1_234
10
14.6963878
20
102.3857491
40
0.2630339
50
27.9929136
51
47.6313992
0
ARC
8
DEFAULT_255_1_234
10
14.7325402
20
102.4201486
40
0.2132848
50
48.5793389
51
88.624502
0
ARC
8
DEFAULT_255_1_234
10
14.7239248
20
102.3452538
40
0.2884455
50
87.2706405
51
90.0170635
0
ARC
8
DEFAULT_255_1_234
10
14.7210572
20
102.411145
40
0.2225717
50
89.2839171
51
110.1848324
0
ARC
8
DEFAULT_255_1_234
10
14.7149059
20
102.437727
40
0.1955293
50
111.1807684
51
145.0424799
0
ARC
8
DEFAULT_255_1_234
10
14.7255839
20
102.425455
40
0.2113491
50
143.9743769
51
144.1060945
0
ARC
8
DEFAULT_255_1_234
10
14.7798806
20
102.390275
40
0.2759807
50
144.7982748
51
162.8715388
0
ARC
8
DEFAULT_255_1_234
10
14.9493456
20
102.3357842
40
0.453983
50
162.5984223
51
173.3418672
0
ARC
8
DEFAULT_255_1_234
10
15.2161234
20
102.3026851
40
0.7228019
50
173.1877442
51
180.2462216
0
LINE
8
DEFAULT_255_1_234
10
15.463562
20
102.7437341
11
15.463562
21
101.8747
0
LINE
8
DEFAULT_255_1_234
10
15.463562
20
101.8747
11
15.3149748
21
101.8747
0
LINE
8
DEFAULT_255_1_234
10
15.3149748
20
101.8747
11
15.3149748
21
102.7437341
0
LINE
8
DEFAULT_255_1_234
10
15.3149748
20
102.7437341
11
15.463562
21
102.7437341
0
ARC
8
DEFAULT_255_1_234
10
15.4007897
20
102.9751889
40
0.097867
50
161.415052
51
180.5526306
0
ARC
8
DEFAULT_255_1_234
10
15.3883675
20
102.9786077
40
0.0850062
50
138.1827368
51
160.9307106
0
ARC
8
DEFAULT_255_1_234
10
15.377362
20
102.9881588
40
0.0704362
50
104.6368899
51
138.0039868
0
ARC
8
DEFAULT_255_1_234
10
15.3880775
20
102.9514963
40
0.1086221
50
92.0600725
51
105.2189128
0
ARC
8
DEFAULT_255_1_234
10
15.3904124
20
102.9172117
40
0.1429728
50
89.9756393
51
92.5012496
0
ARC
8
DEFAULT_255_1_234
10
15.3914143
20
102.9397731
40
0.1204151
50
78.0235316
51
90.4478182
0
ARC
8
DEFAULT_255_1_234
10
15.4006235
20
102.9811295
40
0.0780493
50
55.051506
51
78.3369085
0
ARC
8
DEFAULT_255_1_234
10
15.4056509
20
102.9895711
40
0.0682538
50
42.0501187
51
54.4513741
0
ARC
8
DEFAULT_255_1_234
10
15.3921376
20
102.9771798
40
0.0865878
50
1.7497075
51
42.1496013
0
ARC
8
DEFAULT_255_1_234
10
15.3666709
20
102.9742738
40
0.1121515
50
359.9852656
51
2.8364544
0
ARC
8
DEFAULT_255_1_234
10
15.3832701
20
102.9733229
40
0.0955566
50
342.1070653
51
0.552888
0
ARC
8
DEFAULT_255_1_234
10
15.3975399
20
102.9693904
40
0.0807713
50
316.7107116
51
341.6516965
0
ARC
8
DEFAULT_255_1_234
10
15.4042436
20
102.9633823
40
0.0717724
50
285.4397031
51
316.5324284
0
ARC
8
DEFAULT_255_1_234
10
15.3932353
20
102.9999554
40
0.1099597
50
272.3547054
51
285.8953117
0
ARC
8
DEFAULT_255_1_234
10
15.3905511
20
103.0365048
40
0.1465932
50
269.9695369
51
272.8160237
0
ARC
8
DEFAULT_255_1_234
10
15.3895692
20
103.0145863
40
0.1246779
50
258.8431134
51
270.4153935
0
ARC
8
DEFAULT_255_1_234
10
15.3805735
20
102.9710414
40
0.0802162
50
238.5431189
51
259.1288175
0
ARC
8
DEFAULT_255_1_234
10
15.3737619
20
102.9586856
40
0.0661247
50
222.5062634
51
237.9906969
0
ARC
8
DEFAULT_255_1_234
10
15.3865207
20
102.9702889
40
0.0833707
50
184.1069131
51
222.460413
0
ARC
8
DEFAULT_255_1_234
10
15.4134448
20
102.9741349
40
0.1105176
50
179.9429482
51
185.0960898
0
LINE
8
DEFAULT_255_1_234
10
16.2546882
20
102.1485823
11
16.3952436
21
102.1485823
0
LINE
8
DEFAULT_255_1_234
10
15.6627491
20
102.3011853
11
15.6627491
21
102.3260837
0
LINE
8
DEFAULT_255_1_234
10
16.3952436
20
102.4449534
11
16.2546882
21
102.4449534
0
LINE
8
DEFAULT_255_1_234
10
15.8113362
20
102.3204615
11
15.8113362
21
102.2923504
0
ARC
8
DEFAULT_255_1_234
10
16.0534917
20
102.1939121
40
0.2140268
50
269.0327816
51
309.2224514
0
ARC
8
DEFAULT_255_1_234
10
16.0744672
20
102.1724108
40
0.1841255
50
308.396669
51
329.6984113
0
ARC
8
DEFAULT_255_1_234
10
16.0882527
20
102.161982
40
0.166974
50
330.401383
51
355.3970571
0
ARC
8
DEFAULT_255_1_234
10
16.1339393
20
102.1637082
40
0.2617417
50
329.2357853
51
356.6870514
0
ARC
8
DEFAULT_255_1_234
10
16.0789415
20
102.1927971
40
0.3238945
50
324.8706984
51
329.7905871
0
ARC
8
DEFAULT_255_1_234
10
16.0711133
20
102.1995106
40
0.3341614
50
298.8769168
51
324.7016144
0
ARC
8
DEFAULT_255_1_234
10
16.0379325
20
102.2523917
40
0.3965068
50
296.9023738
51
299.385174
0
ARC
8
DEFAULT_255_1_234
10
16.0508938
20
102.2236422
40
0.365007
50
269.8406811
51
297.1299281
0
ARC
8
DEFAULT_255_1_234
10
16.0455595
20
102.2874407
40
0.4288259
50
253.315473
51
270.5771285
0
ARC
8
DEFAULT_255_1_234
10
16.020863
20
102.1980739
40
0.3361372
50
221.1002312
51
252.9744583
0
ARC
8
DEFAULT_255_1_234
10
16.0668627
20
102.237559
40
0.3967576
50
194.5394537
51
221.0302238
0
ARC
8
DEFAULT_255_1_234
10
16.2517448
20
102.2890952
40
0.5886672
50
182.0499201
51
194.8773585
0
ARC
8
DEFAULT_255_1_234
10
16.4287646
20
102.300906
40
0.7660157
50
179.9791086
51
182.4591564
0
ARC
8
DEFAULT_255_1_234
10
16.254969
20
102.3290498
40
0.5922274
50
168.614861
51
180.2869651
0
ARC
8
DEFAULT_255_1_234
10
16.1347835
20
102.3526269
40
0.4697532
50
154.9162259
51
168.5402336
0
ARC
8
DEFAULT_255_1_234
10
16.0426343
20
102.398163
40
0.3669966
50
133.5746694
51
155.2558665
0
ARC
8
DEFAULT_255_1_234
10
16.0263502
20
102.4120467
40
0.3457206
50
122.0165146
51
133.2055214
0
ARC
8
DEFAULT_255_1_234
10
16.029934
20
102.4032361
40
0.355095
50
97.8731644
51
121.7531281
0
ARC
8
DEFAULT_255_1_234
10
16.0478423
20
102.2975159
40
0.4622833
50
89.8471353
51
98.2769494
0
ARC
8
DEFAULT_255_1_234
10
16.0527176
20
102.3585091
40
0.401305
50
73.3760412
51
90.5199766
0
ARC
8
DEFAULT_255_1_234
10
16.0723539
20
102.4307516
40
0.3264695
50
47.7085968
51
73.0509704
0
ARC
8
DEFAULT_255_1_234
10
16.0853409
20
102.4420128
40
0.309407
50
3.7443473
51
48.0843753
0
ARC
8
DEFAULT_255_1_234
10
15.9866359
20
102.4262614
40
0.4090351
50
2.6192045
51
5.0432185
0
ARC
8
DEFAULT_255_1_234
10
16.0323212
20
102.4302592
40
0.2228519
50
3.780656
51
23.9356886
0
ARC
8
DEFAULT_255_1_234
10
16.0551828
20
102.4383155
40
0.198697
50
24.4869552
51
46.9440088
0
ARC
8
DEFAULT_255_1_234
10
16.0552679
20
102.4406484
40
0.1969404
50
46.498716
51
89.3298174
0
ARC
8
DEFAULT_255_1_234
10
16.0491033
20
102.3811723
40
0.2565428
50
88.1083975
51
90.0061569
0
ARC
8
DEFAULT_255_1_234
10
16.0463463
20
102.3865759
40
0.251154
50
89.3773333
51
107.2071161
0
ARC
8
DEFAULT_255_1_234
10
16.0320586
20
102.438319
40
0.1975072
50
107.6883219
51
143.3583002
0
ARC
8
DEFAULT_255_1_234
10
16.0887969
20
102.3956873
40
0.2684762
50
143.2846717
51
162.935323
0
ARC
8
DEFAULT_255_1_234
10
16.2393571
20
102.3473652
40
0.4265927
50
162.6650068
51
174.0805419
0
ARC
8
DEFAULT_255_1_234
10
16.453641
20
102.3224636
40
0.6423078
50
173.8423985
51
180.1785963
0
ARC
8
DEFAULT_255_1_234
10
16.398851
20
102.2893039
40
0.5875227
50
179.7028978
51
188.2277152
0
ARC
8
DEFAULT_255_1_234
10
16.1886812
20
102.2578247
40
0.3750127
50
188.0629871
51
201.1160002
0
ARC
8
DEFAULT_255_1_234
10
16.078901
20
102.2159238
40
0.2575093
50
201.2187293
51
216.9761968
0
ARC
8
DEFAULT_255_1_234
10
16.0337573
20
102.1820993
40
0.2010998
50
217.0135981
51
265.2056839
0
ARC
8
DEFAULT_255_1_234
10
16.0493433
20
102.2742695
40
0.2943543
50
263.681807
51
270.104251
0
LINE
8
DEFAULT_255_1_234
10
16.9928049
20
103.0441211
11
17.191992
21
103.0441211
0
LINE
8
DEFAULT_255_1_234
10
17.191992
20
103.0441211
11
17.5743028
21
102.0899506
0
LINE
8
DEFAULT_255_1_234
10
17.5743028
20
102.0899506
11
17.9566135
21
103.0441211
0
LINE
8
DEFAULT_255_1_234
10
17.9566135
20
103.0441211
11
18.1566038
21
103.0441211
0
LINE
8
DEFAULT_255_1_234
10
18.1566038
20
103.0441211
11
18.1566038
21
101.8747
0
LINE
8
DEFAULT_255_1_234
10
18.1566038
20
101.8747
11
18.0023944
21
101.8747
0
LINE
8
DEFAULT_255_1_234
10
18.0023944
20
101.8747
11
18.0023944
21
102.3300996
0
LINE
8
DEFAULT_255_1_234
10
18.0023944
20
102.3300996
11
18.0168516
21
102.8216419
0
LINE
8
DEFAULT_255_1_234
10
18.0168516
20
102.8216419
11
17.6329345
21
101.8747
0
LINE
8
DEFAULT_255_1_234
10
17.6329345
20
101.8747
11
17.5148679
21
101.8747
0
LINE
8
DEFAULT_255_1_234
10
17.5148679
20
101.8747
11
17.131754
21
102.8192324
0
LINE
8
DEFAULT_255_1_234
10
17.131754
20
102.8192324
11
17.1470143
21
102.3300996
0
LINE
8
DEFAULT_255_1_234
10
17.1470143
20
102.3300996
11
17.1470143
21
101.8747
0
LINE
8
DEFAULT_255_1_234
10
17.1470143
20
101.8747
11
16.9928049
21
101.8747
0
LINE
8
DEFAULT_255_1_234
10
16.9928049
20
101.8747
11
16.9928049
21
103.0441211
0
LINE
8
DEFAULT_255_1_234
10
18.5838923
20
103.0441211
11
18.5838923
21
102.0007983
0
LINE
8
DEFAULT_255_1_234
10
18.5838923
20
102.0007983
11
19.1380822
21
102.0007983
0
LINE
8
DEFAULT_255_1_234
10
19.1380822
20
102.0007983
11
19.1380822
21
101.8747
0
LINE
8
DEFAULT_255_1_234
10
19.1380822
20
101.8747
11
18.4288797
21
101.8747
0
LINE
8
DEFAULT_255_1_234
10
18.4288797
20
101.8747
11
18.4288797
21
103.0441211
0
LINE
8
DEFAULT_255_1_234
10
18.4288797
20
103.0441211
11
18.5838923
21
103.0441211
0
LINE
8
DEFAULT_255_1_234
10
19.4625645
20
102.4304963
11
19.3436947
21
102.4610169
0
LINE
8
DEFAULT_255_1_234
10
19.3436947
20
102.4610169
11
19.4031296
21
103.0441211
0
LINE
8
DEFAULT_255_1_234
10
19.4031296
20
103.0441211
11
20.0022973
21
103.0441211
0
LINE
8
DEFAULT_255_1_234
10
20.0022973
20
103.0441211
11
20.0022973
21
102.9067784
0
LINE
8
DEFAULT_255_1_234
10
20.0022973
20
102.9067784
11
19.5292279
21
102.9067784
0
LINE
8
DEFAULT_255_1_234
10
19.5292279
20
102.9067784
11
19.4938882
21
102.5879184
0
LINE
8
DEFAULT_255_1_234
10
19.3019297
20
102.1823156
11
19.4424851
21
102.1823156
0
LINE
8
DEFAULT_255_1_234
10
19.50192
20
102.4626232
11
19.4625645
21
102.4304963
0
ARC
8
DEFAULT_255_1_234
10
19.6793666
20
102.269923
40
0.3681349
50
93.7182161
51
120.2538958
0
ARC
8
DEFAULT_255_1_234
10
19.6887929
20
102.1891394
40
0.449379
50
89.9660152
51
94.2496022
0
ARC
8
DEFAULT_255_1_234
10
19.6928663
20
102.2480549
40
0.390482
50
73.8043271
51
90.5585896
0
ARC
8
DEFAULT_255_1_234
10
19.716356
20
102.3338602
40
0.3015334
50
41.3071453
51
73.5430202
0
ARC
8
DEFAULT_255_1_234
10
19.6747388
20
102.2980324
40
0.3564457
50
13.5075983
51
41.2174222
0
ARC
8
DEFAULT_255_1_234
10
19.5105591
20
102.2550486
40
0.5261351
50
1.1331335
51
13.8829381
0
ARC
8
DEFAULT_255_1_234
10
19.369396
20
102.2474665
40
0.6674378
50
359.9919444
51
1.544251
0
ARC
8
DEFAULT_255_1_234
10
19.4970786
20
102.243328
40
0.5397702
50
347.8572367
51
0.4293338
0
ARC
8
DEFAULT_255_1_234
10
19.6721104
20
102.2036736
40
0.3603188
50
323.673004
51
348.1672506
0
ARC
8
DEFAULT_255_1_234
10
19.7015612
20
102.1857168
40
0.3259678
50
316.8171152
51
323.1492751
0
ARC
8
DEFAULT_255_1_234
10
19.7076801
20
102.182046
40
0.3189975
50
281.8396411
51
316.5457803
0
ARC
8
DEFAULT_255_1_234
10
19.6701065
20
102.3375762
40
0.4789527
50
269.5770101
51
282.4214771
0
ARC
8
DEFAULT_255_1_234
10
19.6629877
20
102.3162125
40
0.45759
50
256.2427136
51
270.4486331
0
ARC
8
DEFAULT_255_1_234
10
19.6330779
20
102.1962229
40
0.3339303
50
228.9023911
51
256.3314342
0
ARC
8
DEFAULT_255_1_234
10
19.6257011
20
102.1845746
40
0.32031
50
193.753695
51
228.5271154
0
ARC
8
DEFAULT_255_1_234
10
19.7494965
20
102.22088
40
0.4492253
50
184.924711
51
194.497588
0
ARC
8
DEFAULT_255_1_234
10
19.7687532
20
102.2244591
40
0.3289787
50
187.3600538
51
198.6732863
0
ARC
8
DEFAULT_255_1_234
10
19.6637826
20
102.1880674
40
0.217884
50
198.4451669
51
217.794479
0
ARC
8
DEFAULT_255_1_234
10
19.6342001
20
102.1671085
40
0.1816698
50
218.2887171
51
228.5612368
0
ARC
8
DEFAULT_255_1_234
10
19.6439788
20
102.1802963
40
0.1980329
50
228.9654866
51
258.1234728
0
ARC
8
DEFAULT_255_1_234
10
19.6645498
20
102.2683833
40
0.2884748
50
257.7258293
51
270.401361
0
ARC
8
DEFAULT_255_1_234
10
19.6690385
20
102.2238821
40
0.2439788
50
269.4204404
51
286.4209037
0
ARC
8
DEFAULT_255_1_234
10
19.6838872
20
102.1699657
40
0.1880666
50
286.7251356
51
320.600362
0
ARC
8
DEFAULT_255_1_234
10
19.6455697
20
102.2010595
40
0.2374121
50
320.6712579
51
344.5441685
0
ARC
8
DEFAULT_255_1_234
10
19.5299023
20
102.2350045
40
0.3579479
50
344.2412205
51
356.7357071
0
ARC
8
DEFAULT_255_1_234
10
19.4050172
20
102.2453444
40
0.4832297
50
356.3548756
51
0.0500261
0
ARC
8
DEFAULT_255_1_234
10
19.5386681
20
102.248465
40
0.3495889
50
359.5576869
51
12.953486
0
ARC
8
DEFAULT_255_1_234
10
19.6441578
20
102.2740434
40
0.2410532
50
12.6490276
51
41.6081334
0
ARC
8
DEFAULT_255_1_234
10
19.6671949
20
102.2936321
40
0.2108218
50
41.7850273
51
85.9892764
0
ARC
8
DEFAULT_255_1_234
10
19.6548686
20
102.2123462
40
0.2928454
50
84.6957577
51
90.0676183
0
ARC
8
DEFAULT_255_1_234
10
19.652517
20
102.1454716
40
0.3597255
50
89.6804936
51
99.1614436
0
ARC
8
DEFAULT_255_1_234
10
19.6319801
20
102.2682131
40
0.235281
50
98.9830931
51
113.8908934
0
ARC
8
DEFAULT_255_1_234
10
19.6090211
20
102.3223587
40
0.176479
50
114.1950727
51
127.3641004
0
LINE
8
DEFAULT_255_1_234
10
20.9323726
20
102.5662327
11
20.9323726
21
102.3734709
0
LINE
8
DEFAULT_255_1_234
10
20.1942558
20
102.3533916
11
20.1942558
21
102.5517755
0
LINE
8
DEFAULT_255_1_234
10
20.7837854
20
102.3333123
11
20.7837854
21
102.5766739
0
LINE
8
DEFAULT_255_1_234
10
20.342843
20
102.5879184
11
20.342843
21
102.3501789
0
ARC
8
DEFAULT_255_1_234
10
19.7076615
20
102.3685805
40
1.2247208
50
353.8441951
51
0.2287902
0
ARC
8
DEFAULT_255_1_234
10
20.1716119
20
102.3167806
40
0.7578929
50
344.4934747
51
353.9765454
0
ARC
8
DEFAULT_255_1_234
10
20.4708709
20
102.2316981
40
0.4467846
50
329.2803592
51
344.7472793
0
ARC
8
DEFAULT_255_1_234
10
20.5701534
20
102.1772018
40
0.3336173
50
324.9352394
51
328.6160465
0
ARC
8
DEFAULT_255_1_234
10
20.6078643
20
102.1508427
40
0.2876076
50
280.580143
51
324.9173126
0
ARC
8
DEFAULT_255_1_234
10
20.5677435
20
102.3179099
40
0.4592847
50
269.5977311
51
281.6734359
0
ARC
8
DEFAULT_255_1_234
10
20.5605341
20
102.3059173
40
0.4472986
50
256.6228859
51
270.51044
0
ARC
8
DEFAULT_255_1_234
10
20.5203319
20
102.1510877
40
0.2873874
50
215.8618325
51
257.2788573
0
ARC
8
DEFAULT_255_1_234
10
20.622435
20
102.2195977
40
0.4102928
50
197.9693508
51
215.2623606
0
ARC
8
DEFAULT_255_1_234
10
20.8709466
20
102.3034709
40
0.6725652
50
187.8816417
51
198.2346507
0
ARC
8
DEFAULT_255_1_234
10
21.2667674
20
102.3606079
40
1.0724845
50
180.8976217
51
188.0055519
0
ARC
8
DEFAULT_255_1_234
10
21.5467862
20
102.3709777
40
1.3526448
50
180.7449369
51
181.1510016
0
ARC
8
DEFAULT_255_1_234
10
21.3890591
20
102.5566042
40
1.1948131
50
173.7675579
51
180.231553
0
ARC
8
DEFAULT_255_1_234
10
20.9372738
20
102.6076666
40
0.7401564
50
164.3058563
51
173.9002247
0
ARC
8
DEFAULT_255_1_234
10
20.6460807
20
102.6915656
40
0.4371288
50
148.7922025
51
164.568378
0
ARC
8
DEFAULT_255_1_234
10
20.5509259
20
102.7446929
40
0.3282386
50
144.5883898
51
148.1176286
0
ARC
8
DEFAULT_255_1_234
10
20.5166157
20
102.7686315
40
0.2864044
50
101.6440918
51
144.514236
0
ARC
8
DEFAULT_255_1_234
10
20.5591224
20
102.5997069
40
0.4604934
50
89.5284041
51
102.5819763
0
ARC
8
DEFAULT_255_1_234
10
20.5670311
20
102.5958018
40
0.464401
50
77.0437873
51
90.5081339
0
ARC
8
DEFAULT_255_1_234
10
20.6072313
20
102.7600615
40
0.2953195
50
48.2778575
51
77.4994676
0
ARC
8
DEFAULT_255_1_234
10
20.6144944
20
102.7729746
40
0.2808655
50
36.3142134
51
47.6305865
0
ARC
8
DEFAULT_255_1_234
10
20.5276251
20
102.7144515
40
0.3855453
50
18.2931786
51
35.6769206
0
ARC
8
DEFAULT_255_1_234
10
20.273301
20
102.6271593
40
0.654423
50
8.024666
51
18.5605216
0
ARC
8
DEFAULT_255_1_234
10
19.856993
20
102.5656792
40
1.0752407
50
1.1274072
51
8.1718305
0
ARC
8
DEFAULT_255_1_234
10
19.5334121
20
102.5529885
40
1.3990231
50
0.5424119
51
1.3863029
0
ARC
8
DEFAULT_255_1_234
10
19.7155499
20
102.5802342
40
1.0682415
50
359.8090433
51
4.9407866
0
ARC
8
DEFAULT_255_1_234
10
20.1365513
20
102.6178113
40
0.6455691
50
4.8362157
51
12.2904523
0
ARC
8
DEFAULT_255_1_234
10
20.4120628
20
102.6791965
40
0.3633074
50
12.0805627
51
23.8173984
0
ARC
8
DEFAULT_255_1_234
10
20.5294333
20
102.7288919
40
0.2358723
50
24.2871213
51
31.3935614
0
ARC
8
DEFAULT_255_1_234
10
20.581903
20
102.7632233
40
0.1732111
50
30.7407893
51
82.4657128
0
ARC
8
DEFAULT_255_1_234
10
20.5639164
20
102.6748691
40
0.263235
50
81.1060089
51
90.2184952
0
ARC
8
DEFAULT_255_1_234
10
20.5603463
20
102.7006924
40
0.2374236
50
89.3806855
51
105.6762551
0
ARC
8
DEFAULT_255_1_234
10
20.5420094
20
102.7673567
40
0.1682847
50
105.7981136
51
149.7388061
0
ARC
8
DEFAULT_255_1_234
10
20.6484172
20
102.703395
40
0.2924306
50
149.4208916
51
163.6286378
0
ARC
8
DEFAULT_255_1_234
10
20.857506
20
102.639625
40
0.5110213
50
163.3763315
51
172.1410975
0
ARC
8
DEFAULT_255_1_234
10
21.1875779
20
102.5923518
40
0.8444586
50
172.0259487
51
178.0703232
0
ARC
8
DEFAULT_255_1_234
10
21.4905869
20
102.5779906
40
1.1477868
50
177.8631668
51
179.5044149
0
ARC
8
DEFAULT_255_1_234
10
21.3833273
20
102.3465389
40
1.0404907
50
179.7995573
51
185.2460446
0
ARC
8
DEFAULT_255_1_234
10
20.9790312
20
102.3082513
40
0.6343885
50
185.1411642
51
193.0079639
0
ARC
8
DEFAULT_255_1_234
10
20.7146785
20
102.2457641
40
0.3627568
50
192.7897626
51
205.2507664
0
ARC
8
DEFAULT_255_1_234
10
20.6100332
20
102.1990415
40
0.2481908
50
205.8005384
51
211.2537509
0
ARC
8
DEFAULT_255_1_234
10
20.5576772
20
102.163958
40
0.1852521
50
210.3789793
51
238.4008143
0
ARC
8
DEFAULT_255_1_234
10
20.5557294
20
102.1686376
40
0.1882621
50
239.6520629
51
265.9793761
0
ARC
8
DEFAULT_255_1_234
10
20.5642495
20
102.2358427
40
0.2559272
50
265.1315437
51
270.060332
0
ARC
8
DEFAULT_255_1_234
10
20.5671273
20
102.2034534
40
0.2235528
50
269.3314664
51
287.2178029
0
ARC
8
DEFAULT_255_1_234
10
20.5809125
20
102.1531279
40
0.1714108
50
287.7958004
51
329.080874
0
ARC
8
DEFAULT_255_1_234
10
20.4851582
20
102.212893
40
0.2842745
50
328.6634704
51
343.3325132
0
ARC
8
DEFAULT_255_1_234
10
20.2678602
20
102.2805863
40
0.5118644
50
343.0499468
51
351.9393422
0
ARC
8
DEFAULT_255_1_234
10
19.9211902
20
102.3316949
40
0.8622784
50
351.8069023
51
357.7959224
0
ARC
8
DEFAULT_255_1_234
10
19.5976458
20
102.3484721
40
1.1862365
50
357.5871873
51
359.2677531
0
LINE
8
DEFAULT_255_2_778
10
19.9765417
20
92.4718488
11
18.6536417
21
92.4718488
0
LINE
8
DEFAULT_255_2_778
10
18.6536417
20
92.4718488
11
18.6536417
21
51.4614488
0
LINE
8
DEFAULT_255_2_778
10
18.6536417
20
46.1697488
11
18.6536417
21
5.1593488
0
LINE
8
DEFAULT_255_2_778
10
18.6536417
20
5.1593488
11
19.9765417
21
5.1593488
0
LINE
8
DEFAULT_255_2_778
10
17.3307834
20
51.4614333
11
19.9765834
21
51.4614333
0
LINE
8
DEFAULT_255_2_778
10
19.9765834
20
51.4614333
11
19.9765834
21
46.1697333
0
LINE
8
DEFAULT_255_2_778
10
19.9765834
20
46.1697333
11
17.3307834
21
46.1697333
0
LINE
8
DEFAULT_255_2_778
10
17.3307834
20
46.1697333
11
17.3307834
21
51.4614333
0
ARC
8
DEFAULT_255_2_778_1
10
21.1303591
20
46.272177
40
4.816461
50
120.9442904
51
122.351755
0
ARC
8
DEFAULT_255_2_778_1
10
20.6837523
20
46.9758039
40
3.9830657
50
122.3407904
51
124.1946752
0
ARC
8
DEFAULT_255_2_778_1
10
20.2438464
20
47.6223306
40
3.2010724
50
124.1855758
51
126.4338849
0
ARC
8
DEFAULT_255_2_778_1
10
19.8579129
20
48.1450611
40
2.5513094
50
126.4326926
51
128.8877368
0
ARC
8
DEFAULT_255_2_778_1
10
19.5230968
20
48.5594658
40
2.0185498
50
128.8749205
51
131.8726567
0
ARC
8
DEFAULT_255_2_778_1
10
19.2259677
20
48.8904854
40
1.5737356
50
131.8616166
51
135.4168838
0
ARC
8
DEFAULT_255_2_778_1
10
18.963168
20
49.1486765
40
1.2053256
50
135.3893975
51
139.9687014
0
ARC
8
DEFAULT_255_2_778_1
10
18.7302889
20
49.3435102
40
0.9016937
50
139.9301659
51
145.9260426
0
ARC
8
DEFAULT_255_2_778_1
10
18.534154
20
49.4755104
40
0.6652776
50
145.8787362
51
153.8146208
0
ARC
8
DEFAULT_255_2_778_1
10
18.3820553
20
49.5498797
40
0.4959714
50
153.770634
51
164.3484794
0
ARC
8
DEFAULT_255_2_778_1
10
18.2807387
20
49.5780786
40
0.3908039
50
164.3220276
51
179.8083066
0
ARC
8
DEFAULT_255_2_778_1
10
18.3017789
20
49.586215
40
0.4118985
50
180.9499449
51
213.8111542
0
ARC
8
DEFAULT_255_2_778_1
10
18.5776828
20
49.7557896
40
0.73561
50
212.8271214
51
224.258472
0
ARC
8
DEFAULT_255_2_778_1
10
18.9605335
20
50.1251236
40
1.267567
50
224.1376218
51
231.4508261
0
ARC
8
DEFAULT_255_2_778_1
10
19.6032195
20
50.9281168
40
2.2960809
50
231.3955893
51
236.1256478
0
ARC
8
DEFAULT_255_2_778_1
10
21.4355223
20
53.6746293
40
5.5976905
50
236.2233172
51
239.1314682
0
ARC
8
DEFAULT_255_2_778_1
10
33.385427
20
73.4023568
40
28.6623793
50
238.8606853
51
239.0711101
0
ARC
8
DEFAULT_255_2_778_1
10
14.2132281
20
41.3052653
40
8.7248518
50
57.2420924
51
59.4062964
0
ARC
8
DEFAULT_255_2_778_1
10
17.4409241
20
46.3362102
40
2.747542
50
52.8289294
51
57.079028
0
ARC
8
DEFAULT_255_2_778_1
10
18.2155783
20
47.3565488
40
1.466457
50
46.3041868
51
52.8596521
0
ARC
8
DEFAULT_255_2_778_1
10
18.6478073
20
47.8066842
40
0.8424061
50
36.2174211
51
46.4090895
0
ARC
8
DEFAULT_255_2_778_1
10
18.9323088
20
48.0115128
40
0.4918609
50
17.400375
51
36.5489745
0
ARC
8
DEFAULT_255_2_778_1
10
19.0463994
20
48.0513754
40
0.3710912
50
0.0676858
51
16.7951297
0
ARC
8
DEFAULT_255_2_778_1
10
19.0253613
20
48.0532428
40
0.3921317
50
343.8035191
51
359.7912046
0
ARC
8
DEFAULT_255_2_778_1
10
18.9190912
20
48.0837167
40
0.5026844
50
333.2506233
51
343.8465691
0
ARC
8
DEFAULT_255_2_778_1
10
18.7652757
20
48.1604313
40
0.6745679
50
325.6600948
51
333.3122657
0
ARC
8
DEFAULT_255_2_778_1
10
18.5698344
20
48.2932296
40
0.9108568
50
319.7560915
51
325.6976089
0
ARC
8
DEFAULT_255_2_778_1
10
18.341699
20
48.4850002
40
1.2088854
50
315.4577584
51
319.8037947
0
ARC
8
DEFAULT_255_2_778_1
10
18.0783127
20
48.7438507
40
1.5781764
50
311.7298824
51
315.4670864
0
ARC
8
DEFAULT_255_2_778_1
10
17.7692879
20
49.0894074
40
2.0417554
50
308.723055
51
311.7470879
0
ARC
8
DEFAULT_255_2_778_1
10
17.415089
20
49.5306492
40
2.6075745
50
306.1165163
51
308.7300151
0
ARC
8
DEFAULT_255_2_778_1
10
17.0121091
20
50.0819523
40
3.2904564
50
303.9559446
51
306.1266333
0
ARC
8
DEFAULT_255_2_778_1
10
16.6005432
20
50.691215
40
4.0257023
50
302.3733397
51
303.9712246
0
ARC
8
DEFAULT_255_2_778_1
10
16.1809347
20
51.3527058
40
4.8090549
50
300.9434827
51
302.3758078
0
LINE
8
DEFAULT_255_1_234
10
4.6620265
20
100.8590276
11
4.6620265
21
100.5176788
0
LINE
8
DEFAULT_255_1_234
10
4.6620265
20
100.5176788
11
4.988115
21
100.5176788
0
LINE
8
DEFAULT_255_1_234
10
4.988115
20
100.5176788
11
4.988115
21
100.3771233
0
LINE
8
DEFAULT_255_1_234
10
4.988115
20
100.3771233
11
4.6620265
21
100.3771233
0
LINE
8
DEFAULT_255_1_234
10
4.6620265
20
100.3771233
11
4.6620265
21
100.0076634
0
LINE
8
DEFAULT_255_1_234
10
4.6620265
20
100.0076634
11
4.5126361
21
100.0076634
0
LINE
8
DEFAULT_255_1_234
10
4.5126361
20
100.0076634
11
4.5126361
21
100.3771233
0
LINE
8
DEFAULT_255_1_234
10
4.5126361
20
100.3771233
11
4.1865476
21
100.3771233
0
LINE
8
DEFAULT_255_1_234
10
4.1865476
20
100.3771233
11
4.1865476
21
100.5176788
0
LINE
8
DEFAULT_255_1_234
10
4.1865476
20
100.5176788
11
4.5126361
21
100.5176788
0
LINE
8
DEFAULT_255_1_234
10
4.5126361
20
100.5176788
11
4.5126361
21
100.8590276
0
LINE
8
DEFAULT_255_1_234
10
4.5126361
20
100.8590276
11
4.6620265
21
100.8590276
0
LINE
8
DEFAULT_255_1_234
10
5.9197967
20
100.0116792
11
5.9197967
21
99.8904
0
LINE
8
DEFAULT_255_1_234
10
5.9197967
20
99.8904
11
5.1535688
21
99.8904
0
LINE
8
DEFAULT_255_1_234
10
5.1535688
20
99.8904
11
5.1535688
21
99.9972221
0
LINE
8
DEFAULT_255_1_234
10
5.1535688
20
99.9972221
11
5.5583685
21
100.4469995
0
LINE
8
DEFAULT_255_1_234
10
5.2796671
20
100.7152595
11
5.13108
21
100.7152595
0
LINE
8
DEFAULT_255_1_234
10
5.6459144
20
100.3514218
11
5.3326766
21
100.0116792
0
LINE
8
DEFAULT_255_1_234
10
5.3326766
20
100.0116792
11
5.9197967
21
100.0116792
0
ARC
8
DEFAULT_255_1_234
10
4.2093518
20
101.6399527
40
1.8008286
50
318.5132453
51
320.7828378
0
ARC
8
DEFAULT_255_1_234
10
4.7380492
20
101.2096426
40
1.1191493
50
320.7372736
51
323.9737074
0
ARC
8
DEFAULT_255_1_234
10
5.1300349
20
100.9256361
40
0.6350923
50
323.8961724
51
328.6421089
0
ARC
8
DEFAULT_255_1_234
10
5.3346944
20
100.7994031
40
0.3946393
50
328.8299013
51
331.789948
0
ARC
8
DEFAULT_255_1_234
10
5.4344123
20
100.7479509
40
0.2824501
50
331.4255242
51
352.9364833
0
ARC
8
DEFAULT_255_1_234
10
5.4480623
20
100.7448976
40
0.2685315
50
353.2248685
51
0.0169286
0
ARC
8
DEFAULT_255_1_234
10
5.46905
20
100.747195
40
0.2475536
50
359.4866256
51
15.9339782
0
ARC
8
DEFAULT_255_1_234
10
5.5197485
20
100.7608286
40
0.1950618
50
16.1714718
51
43.5284424
0
ARC
8
DEFAULT_255_1_234
10
5.5274794
20
100.7685573
40
0.184134
50
43.4415429
51
83.1661404
0
ARC
8
DEFAULT_255_1_234
10
5.5140712
20
100.6948771
40
0.258926
50
82.160215
51
90.1505798
0
ARC
8
DEFAULT_255_1_234
10
5.510914
20
100.6411865
40
0.3126255
50
89.5460705
51
102.5418777
0
ARC
8
DEFAULT_255_1_234
10
5.4866226
20
100.7442665
40
0.2067346
50
102.1739365
51
129.2061916
0
ARC
8
DEFAULT_255_1_234
10
5.4787297
20
100.7567094
40
0.1921118
50
129.7279328
51
135.7542026
0
ARC
8
DEFAULT_255_1_234
10
5.4908825
20
100.7470045
40
0.2075944
50
136.175737
51
166.3674722
0
ARC
8
DEFAULT_255_1_234
10
5.5915744
20
100.7200182
40
0.3118201
50
165.9092917
51
178.8683903
0
ARC
8
DEFAULT_255_1_234
10
5.6780606
20
100.7153179
40
0.3983935
50
178.438168
51
180.0083905
0
ARC
8
DEFAULT_255_1_234
10
5.5379208
20
100.7192231
40
0.4068601
50
163.2878735
51
180.5581814
0
ARC
8
DEFAULT_255_1_234
10
5.4577469
20
100.741284
40
0.3237344
50
133.454115
51
162.9470031
0
ARC
8
DEFAULT_255_1_234
10
5.475601
20
100.7223
40
0.349795
50
100.7869394
51
133.4384016
0
ARC
8
DEFAULT_255_1_234
10
5.5103782
20
100.5674319
40
0.5084616
50
89.6605301
51
101.3704185
0
ARC
8
DEFAULT_255_1_234
10
5.5170121
20
100.5735496
40
0.502348
50
78.2171172
51
90.4130393
0
ARC
8
DEFAULT_255_1_234
10
5.5525199
20
100.7359637
40
0.3361092
50
55.9268222
51
78.4888551
0
ARC
8
DEFAULT_255_1_234
10
5.5721639
20
100.7698324
40
0.2970617
50
47.9292255
51
55.4054003
0
ARC
8
DEFAULT_255_1_234
10
5.58232
20
100.7801502
40
0.2825983
50
4.3347696
51
48.0560701
0
ARC
8
DEFAULT_255_1_234
10
5.4727593
20
100.7631601
40
0.393225
50
359.925209
51
5.5967654
0
ARC
8
DEFAULT_255_1_234
10
5.5156485
20
100.7687816
40
0.3503892
50
337.8914096
51
358.9967724
0
ARC
8
DEFAULT_255_1_234
10
5.2442897
20
100.8734706
40
0.6412172
50
326.9135351
51
338.3505194
0
ARC
8
DEFAULT_255_1_234
10
4.8457201
20
101.1289284
40
1.1146189
50
319.6472867
51
327.095818
0
ARC
8
DEFAULT_255_1_234
10
4.4624204
20
101.4451
40
1.6114559
50
317.2586784
51
319.9046139
0
LINE
8
DEFAULT_255_1_234
10
6.7044975
20
101.0598211
11
6.7044975
21
100.283152
0
LINE
8
DEFAULT_255_1_234
10
6.7044975
20
100.283152
11
6.8667386
21
100.283152
0
LINE
8
DEFAULT_255_1_234
10
6.8667386
20
100.283152
11
6.8667386
21
100.1618728
0
LINE
8
DEFAULT_255_1_234
10
6.8667386
20
100.1618728
11
6.7044975
21
100.1618728
0
LINE
8
DEFAULT_255_1_234
10
6.7044975
20
100.1618728
11
6.7044975
21
99.8904
0
LINE
8
DEFAULT_255_1_234
10
6.7044975
20
99.8904
11
6.5551072
21
99.8904
0
LINE
8
DEFAULT_255_1_234
10
6.5551072
20
99.8904
11
6.5551072
21
100.1618728
0
LINE
8
DEFAULT_255_1_234
10
6.5551072
20
100.1618728
11
6.0226029
21
100.1618728
0
LINE
8
DEFAULT_255_1_234
10
6.0226029
20
100.1618728
11
6.0226029
21
100.2494187
0
LINE
8
DEFAULT_255_1_234
10
6.0226029
20
100.2494187
11
6.5462723
21
101.0598211
0
LINE
8
DEFAULT_255_1_234
10
6.5462723
20
101.0598211
11
6.7044975
21
101.0598211
0
LINE
8
DEFAULT_255_1_234
10
6.5374374
20
100.8244912
11
6.1912694
21
100.283152
0
LINE
8
DEFAULT_255_1_234
10
6.1912694
20
100.283152
11
6.5551072
21
100.283152
0
LINE
8
DEFAULT_255_1_234
10
6.5551072
20
100.283152
11
6.5551072
21
100.8566181
0
LINE
8
DEFAULT_255_1_234
10
6.5551072
20
100.8566181
11
6.5374374
21
100.8244912
0
LINE
8
DEFAULT_255_1_234
10
7.0940368
20
101.0598211
11
7.4265508
21
100.0952093
0
LINE
8
DEFAULT_255_1_234
10
7.4265508
20
100.0952093
11
7.7606711
21
101.0598211
0
LINE
8
DEFAULT_255_1_234
10
7.7606711
20
101.0598211
11
7.9293376
21
101.0598211
0
LINE
8
DEFAULT_255_1_234
10
7.9293376
20
101.0598211
11
7.4956237
21
99.8904
0
LINE
8
DEFAULT_255_1_234
10
7.4956237
20
99.8904
11
7.3590842
21
99.8904
0
LINE
8
DEFAULT_255_1_234
10
7.3590842
20
99.8904
11
6.9261735
21
101.0598211
0
LINE
8
DEFAULT_255_1_234
10
6.9261735
20
101.0598211
11
7.0940368
21
101.0598211
0
LINE
8
DEFAULT_255_1_234
10
21.1886663
20
100.4478026
11
21.1886663
21
100.3265234
0
LINE
8
DEFAULT_255_1_234
10
21.1886663
20
100.3265234
11
20.7967174
21
100.3265234
0
LINE
8
DEFAULT_255_1_234
10
20.7967174
20
100.3265234
11
20.7967174
21
100.4478026
0
LINE
8
DEFAULT_255_1_234
10
20.7967174
20
100.4478026
11
21.1886663
21
100.4478026
0
LINE
8
DEFAULT_255_1_234
10
22.0842051
20
100.0116792
11
22.0842051
21
99.8904
0
LINE
8
DEFAULT_255_1_234
10
22.0842051
20
99.8904
11
21.3179772
21
99.8904
0
LINE
8
DEFAULT_255_1_234
10
21.3179772
20
99.8904
11
21.3179772
21
99.9972221
0
LINE
8
DEFAULT_255_1_234
10
21.3179772
20
99.9972221
11
21.7227769
21
100.4469995
0
LINE
8
DEFAULT_255_1_234
10
21.4440755
20
100.7152595
11
21.2954884
21
100.7152595
0
LINE
8
DEFAULT_255_1_234
10
21.8103228
20
100.3514218
11
21.497085
21
100.0116792
0
LINE
8
DEFAULT_255_1_234
10
21.497085
20
100.0116792
11
22.0842051
21
100.0116792
0
ARC
8
DEFAULT_255_1_234
10
20.3737602
20
101.6399527
40
1.8008286
50
318.5132453
51
320.7828378
0
ARC
8
DEFAULT_255_1_234
10
20.9024576
20
101.2096426
40
1.1191493
50
320.7372736
51
323.9737074
0
ARC
8
DEFAULT_255_1_234
10
21.2944433
20
100.9256361
40
0.6350923
50
323.8961724
51
328.6421089
0
ARC
8
DEFAULT_255_1_234
10
21.4991028
20
100.7994031
40
0.3946393
50
328.8299013
51
331.789948
0
ARC
8
DEFAULT_255_1_234
10
21.5988207
20
100.7479509
40
0.2824501
50
331.4255242
51
352.9364833
0
ARC
8
DEFAULT_255_1_234
10
21.6124707
20
100.7448976
40
0.2685315
50
353.2248685
51
0.0169286
0
ARC
8
DEFAULT_255_1_234
10
21.6334584
20
100.747195
40
0.2475536
50
359.4866256
51
15.9339782
0
ARC
8
DEFAULT_255_1_234
10
21.6841569
20
100.7608286
40
0.1950618
50
16.1714718
51
43.5284424
0
ARC
8
DEFAULT_255_1_234
10
21.6918878
20
100.7685573
40
0.184134
50
43.4415429
51
83.1661404
0
ARC
8
DEFAULT_255_1_234
10
21.6784796
20
100.6948771
40
0.258926
50
82.160215
51
90.1505798
0
ARC
8
DEFAULT_255_1_234
10
21.6753224
20
100.6411865
40
0.3126255
50
89.5460705
51
102.5418777
0
ARC
8
DEFAULT_255_1_234
10
21.651031
20
100.7442665
40
0.2067346
50
102.1739365
51
129.2061916
0
ARC
8
DEFAULT_255_1_234
10
21.6431381
20
100.7567094
40
0.1921118
50
129.7279328
51
135.7542026
0
ARC
8
DEFAULT_255_1_234
10
21.6552909
20
100.7470045
40
0.2075944
50
136.175737
51
166.3674722
0
ARC
8
DEFAULT_255_1_234
10
21.7559828
20
100.7200182
40
0.3118201
50
165.9092917
51
178.8683903
0
ARC
8
DEFAULT_255_1_234
10
21.842469
20
100.7153179
40
0.3983935
50
178.438168
51
180.0083905
0
ARC
8
DEFAULT_255_1_234
10
21.7023292
20
100.7192231
40
0.4068601
50
163.2878735
51
180.5581814
0
ARC
8
DEFAULT_255_1_234
10
21.6221553
20
100.741284
40
0.3237344
50
133.454115
51
162.9470031
0
ARC
8
DEFAULT_255_1_234
10
21.6400094
20
100.7223
40
0.349795
50
100.7869394
51
133.4384016
0
ARC
8
DEFAULT_255_1_234
10
21.6747866
20
100.5674319
40
0.5084616
50
89.6605301
51
101.3704185
0
ARC
8
DEFAULT_255_1_234
10
21.6814205
20
100.5735496
40
0.502348
50
78.2171172
51
90.4130393
0
ARC
8
DEFAULT_255_1_234
10
21.7169283
20
100.7359637
40
0.3361092
50
55.9268222
51
78.4888551
0
ARC
8
DEFAULT_255_1_234
10
21.7365723
20
100.7698324
40
0.2970617
50
47.9292255
51
55.4054003
0
ARC
8
DEFAULT_255_1_234
10
21.7467284
20
100.7801502
40
0.2825983
50
4.3347696
51
48.0560701
0
ARC
8
DEFAULT_255_1_234
10
21.6371677
20
100.7631601
40
0.393225
50
359.925209
51
5.5967654
0
ARC
8
DEFAULT_255_1_234
10
21.6800569
20
100.7687816
40
0.3503892
50
337.8914096
51
358.9967724
0
ARC
8
DEFAULT_255_1_234
10
21.4086981
20
100.8734706
40
0.6412172
50
326.9135351
51
338.3505194
0
ARC
8
DEFAULT_255_1_234
10
21.0101285
20
101.1289284
40
1.1146189
50
319.6472867
51
327.095818
0
ARC
8
DEFAULT_255_1_234
10
20.6268288
20
101.4451
40
1.6114559
50
317.2586784
51
319.9046139
0
LINE
8
DEFAULT_255_1_234
10
22.8689059
20
101.0598211
11
22.8689059
21
100.283152
0
LINE
8
DEFAULT_255_1_234
10
22.8689059
20
100.283152
11
23.031147
21
100.283152
0
LINE
8
DEFAULT_255_1_234
10
23.031147
20
100.283152
11
23.031147
21
100.1618728
0
LINE
8
DEFAULT_255_1_234
10
23.031147
20
100.1618728
11
22.8689059
21
100.1618728
0
LINE
8
DEFAULT_255_1_234
10
22.8689059
20
100.1618728
11
22.8689059
21
99.8904
0
LINE
8
DEFAULT_255_1_234
10
22.8689059
20
99.8904
11
22.7195156
21
99.8904
0
LINE
8
DEFAULT_255_1_234
10
22.7195156
20
99.8904
11
22.7195156
21
100.1618728
0
LINE
8
DEFAULT_255_1_234
10
22.7195156
20
100.1618728
11
22.1870113
21
100.1618728
0
LINE
8
DEFAULT_255_1_234
10
22.1870113
20
100.1618728
11
22.1870113
21
100.2494187
0
LINE
8
DEFAULT_255_1_234
10
22.1870113
20
100.2494187
11
22.7106807
21
101.0598211
0
LINE
8
DEFAULT_255_1_234
10
22.7106807
20
101.0598211
11
22.8689059
21
101.0598211
0
LINE
8
DEFAULT_255_1_234
10
22.7018458
20
100.8244912
11
22.3556778
21
100.283152
0
LINE
8
DEFAULT_255_1_234
10
22.3556778
20
100.283152
11
22.7195156
21
100.283152
0
LINE
8
DEFAULT_255_1_234
10
22.7195156
20
100.283152
11
22.7195156
21
100.8566181
0
LINE
8
DEFAULT_255_1_234
10
22.7195156
20
100.8566181
11
22.7018458
21
100.8244912
0
LINE
8
DEFAULT_255_1_234
10
23.2584452
20
101.0598211
11
23.5909592
21
100.0952093
0
LINE
8
DEFAULT_255_1_234
10
23.5909592
20
100.0952093
11
23.9250795
21
101.0598211
0
LINE
8
DEFAULT_255_1_234
10
23.9250795
20
101.0598211
11
24.093746
21
101.0598211
0
LINE
8
DEFAULT_255_1_234
10
24.093746
20
101.0598211
11
23.6600321
21
99.8904
0
LINE
8
DEFAULT_255_1_234
10
23.6600321
20
99.8904
11
23.5234926
21
99.8904
0
LINE
8
DEFAULT_255_1_234
10
23.5234926
20
99.8904
11
23.0905819
21
101.0598211
0
LINE
8
DEFAULT_255_1_234
10
23.0905819
20
101.0598211
11
23.2584452
21
101.0598211
0
LINE
8
DEFAULT_255_1_234
10
20.960023
20
5.0114663
11
21.1150355
21
5.0114663
0
LINE
8
DEFAULT_255_1_234
10
20.2146777
20
5.1704947
11
20.2146777
21
5.2829391
0
LINE
8
DEFAULT_255_1_234
10
21.1150355
20
5.4339357
11
20.960023
21
5.4339357
0
LINE
8
DEFAULT_255_1_234
10
20.3696902
20
5.2789232
11
20.3696902
21
5.1656757
0
ARC
8
DEFAULT_255_1_234
10
20.5669742
20
5.0711846
40
0.5513052
50
340.1774281
51
353.7814284
0
ARC
8
DEFAULT_255_1_234
10
20.7241095
20
5.0126582
40
0.3836379
50
311.4558989
51
340.4421614
0
ARC
8
DEFAULT_255_1_234
10
20.7207763
20
5.0237528
40
0.3941894
50
282.4333181
51
310.7513653
0
ARC
8
DEFAULT_255_1_234
10
20.6768502
20
5.2052679
40
0.5809175
50
269.9358511
51
282.809604
0
ARC
8
DEFAULT_255_1_234
10
20.6716568
20
5.3510212
40
0.7266847
50
270.0021091
51
270.3581957
0
ARC
8
DEFAULT_255_1_234
10
20.6663985
20
5.0909585
40
0.4666519
50
250.7884749
51
270.6489167
0
ARC
8
DEFAULT_255_1_234
10
20.649582
20
5.0272319
40
0.4009729
50
219.3627325
51
250.0611886
0
ARC
8
DEFAULT_255_1_234
10
20.7325031
20
5.0977042
40
0.5097822
50
193.5479632
51
219.5756669
0
ARC
8
DEFAULT_255_1_234
10
20.9696652
20
5.1592919
40
0.7547848
50
181.1218675
51
193.87563
0
ARC
8
DEFAULT_255_1_234
10
21.1766833
20
5.170358
40
0.9620055
50
179.9918545
51
181.5394234
0
ARC
8
DEFAULT_255_1_234
10
20.9915935
20
5.2866788
40
0.7769248
50
169.5837241
51
180.2757934
0
ARC
8
DEFAULT_255_1_234
10
20.8078873
20
5.3206229
40
0.590109
50
155.0365899
51
169.6003176
0
ARC
8
DEFAULT_255_1_234
10
20.6943337
20
5.3753677
40
0.4640625
50
136.783148
51
155.2472683
0
ARC
8
DEFAULT_255_1_234
10
20.6553814
20
5.4084562
40
0.4130255
50
121.7633186
51
136.428115
0
ARC
8
DEFAULT_255_1_234
10
20.6688776
20
5.3835227
40
0.4413323
50
95.6459699
51
121.5490577
0
ARC
8
DEFAULT_255_1_234
10
20.6846058
20
5.2726949
40
0.55319
50
89.924208
51
96.1377933
0
ARC
8
DEFAULT_255_1_234
10
20.6896491
20
5.2845542
40
0.5413475
50
76.6779277
51
90.4563316
0
ARC
8
DEFAULT_255_1_234
10
20.7290114
20
5.4436114
40
0.3775041
50
47.485847
51
76.9287264
0
ARC
8
DEFAULT_255_1_234
10
20.7143087
20
5.4336159
40
0.3948286
50
16.5424086
51
46.8933463
0
ARC
8
DEFAULT_255_1_234
10
20.5535244
20
5.3807861
40
0.564021
50
5.4072051
51
17.0365086
0
ARC
8
DEFAULT_255_1_234
10
20.4096261
20
5.3576679
40
0.5556559
50
7.8891745
51
15.9239216
0
ARC
8
DEFAULT_255_1_234
10
20.6083274
20
5.4153631
40
0.3487515
50
15.7653144
51
27.9410532
0
ARC
8
DEFAULT_255_1_234
10
20.7187492
20
5.474479
40
0.2235026
50
27.8166557
51
46.4008329
0
ARC
8
DEFAULT_255_1_234
10
20.7237135
20
5.4739082
40
0.2205286
50
47.4371857
51
75.0698205
0
ARC
8
DEFAULT_255_1_234
10
20.6928529
20
5.3664765
40
0.3322915
50
74.7008593
51
87.8124495
0
ARC
8
DEFAULT_255_1_234
10
20.6855217
20
5.2608844
40
0.4380987
50
87.3814673
51
90.0240855
0
ARC
8
DEFAULT_255_1_234
10
20.681676
20
5.3786291
40
0.3203749
50
89.3451631
51
108.5745436
0
ARC
8
DEFAULT_255_1_234
10
20.6679865
20
5.4299908
40
0.2673494
50
109.2998449
51
143.3037509
0
ARC
8
DEFAULT_255_1_234
10
20.7441938
20
5.3713881
40
0.3634757
50
143.0753173
51
163.1916937
0
ARC
8
DEFAULT_255_1_234
10
20.9393666
20
5.3097967
40
0.5681262
50
162.9373603
51
174.6208611
0
ARC
8
DEFAULT_255_1_234
10
21.2019708
20
5.281001
40
0.8322832
50
174.3419979
51
180.1430411
0
ARC
8
DEFAULT_255_1_234
10
21.1088864
20
5.1615698
40
0.7392076
50
179.6817502
51
189.150529
0
ARC
8
DEFAULT_255_1_234
10
20.8588112
20
5.119919
40
0.4856932
50
188.9910863
51
203.5773039
0
ARC
8
DEFAULT_255_1_234
10
20.7508445
20
5.0751211
40
0.3688271
50
203.9077269
51
215.1312379
0
ARC
8
DEFAULT_255_1_234
10
20.6585539
20
5.0035941
40
0.2522457
50
213.9071664
51
263.8849284
0
ARC
8
DEFAULT_255_1_234
10
20.6710868
20
5.0820518
40
0.3316174
50
263.1758525
51
270.1031083
0
ARC
8
DEFAULT_255_1_234
10
20.674296
20
5.2067365
40
0.4563091
50
269.6719807
51
279.0609165
0
ARC
8
DEFAULT_255_1_234
10
20.7009728
20
5.0454907
40
0.2928759
50
278.8750225
51
293.6346586
0
ARC
8
DEFAULT_255_1_234
10
20.7329936
20
4.97029
40
0.2111472
50
293.8553404
51
310.0518804
0
ARC
8
DEFAULT_255_1_234
10
20.733479
20
4.9640516
40
0.2060917
50
311.0646779
51
332.0108348
0
ARC
8
DEFAULT_255_1_234
10
20.6142517
20
5.0297978
40
0.3422352
50
331.6588543
51
343.2878891
0
ARC
8
DEFAULT_255_1_234
10
20.4080032
20
5.0931798
40
0.5580003
50
343.1446044
51
351.010618
0
ARC
8
DEFAULT_255_1_234
10
20.2538678
20
5.1212871
40
0.7146438
50
350.7157277
51
351.1602153
0
LINE
8
DEFAULT_255_1_234
10
22.2242186
20
5.8098211
11
22.2242186
21
4.6404
0
LINE
8
DEFAULT_255_1_234
10
22.2242186
20
4.6404
11
22.0692061
21
4.6404
0
LINE
8
DEFAULT_255_1_234
10
22.0692061
20
4.6404
11
22.0692061
21
5.180936
0
LINE
8
DEFAULT_255_1_234
10
22.0692061
20
5.180936
11
21.4796765
21
5.180936
0
LINE
8
DEFAULT_255_1_234
10
21.4796765
20
5.180936
11
21.4796765
21
4.6404
0
LINE
8
DEFAULT_255_1_234
10
21.4796765
20
4.6404
11
21.3254671
21
4.6404
0
LINE
8
DEFAULT_255_1_234
10
21.3254671
20
4.6404
11
21.3254671
21
5.8098211
0
LINE
8
DEFAULT_255_1_234
10
21.3254671
20
5.8098211
11
21.4796765
21
5.8098211
0
LINE
8
DEFAULT_255_1_234
10
21.4796765
20
5.8098211
11
21.4796765
21
5.3070343
0
LINE
8
DEFAULT_255_1_234
10
21.4796765
20
5.3070343
11
22.0692061
21
5.3070343
0
LINE
8
DEFAULT_255_1_234
10
22.0692061
20
5.3070343
11
22.0692061
21
5.8098211
0
LINE
8
DEFAULT_255_1_234
10
22.0692061
20
5.8098211
11
22.2242186
21
5.8098211
0
LINE
8
DEFAULT_255_1_234
10
22.6756023
20
5.1761169
11
22.6756023
21
5.2973962
0
LINE
8
DEFAULT_255_1_234
10
22.6756023
20
5.2973962
11
22.7872435
21
5.2973962
0
LINE
8
DEFAULT_255_1_234
10
22.5968913
20
5.5030087
11
22.4483041
21
5.5030087
0
LINE
8
DEFAULT_255_1_234
10
22.4378628
20
4.9488188
11
22.5872532
21
4.9488188
0
LINE
8
DEFAULT_255_1_234
10
22.7872435
20
5.1761169
11
22.6756023
21
5.1761169
0
ARC
8
DEFAULT_255_1_234
10
22.7843301
20
5.6366713
40
0.3392876
50
270.4919872
51
281.8951556
0
ARC
8
DEFAULT_255_1_234
10
22.8084563
20
5.5264702
40
0.2264817
50
281.6691735
51
301.2943132
0
ARC
8
DEFAULT_255_1_234
10
22.8254773
20
5.4953304
40
0.1910381
50
301.7833094
51
311.7545298
0
ARC
8
DEFAULT_255_1_234
10
22.8346349
20
5.4851748
40
0.1773635
50
311.7323931
51
354.2802411
0
ARC
8
DEFAULT_255_1_234
10
22.7619974
20
5.4976722
40
0.2509385
50
353.0937916
51
0.1181479
0
ARC
8
DEFAULT_255_1_234
10
22.7158759
20
5.5024386
40
0.2970898
50
359.1805295
51
15.0453146
0
ARC
8
DEFAULT_255_1_234
10
22.8504596
20
5.5416992
40
0.1569564
50
13.9577229
51
77.6713066
0
ARC
8
DEFAULT_255_1_234
10
22.8118125
20
5.4031949
40
0.3006298
50
76.1116566
51
90.7026153
0
ARC
8
DEFAULT_255_1_234
10
22.8058963
20
5.4305545
40
0.2732568
50
89.5324876
51
103.531937
0
ARC
8
DEFAULT_255_1_234
10
22.7858407
20
5.5104884
40
0.1908508
50
103.2931773
51
133.5619022
0
ARC
8
DEFAULT_255_1_234
10
22.7813896
20
5.5164375
40
0.1834746
50
133.8349307
51
173.5344437
0
ARC
8
DEFAULT_255_1_234
10
22.8536939
20
5.5036213
40
0.2568033
50
172.5096846
51
180.1366907
0
ARC
8
DEFAULT_255_1_234
10
22.7585833
20
5.5070622
40
0.3103056
50
155.3484492
51
180.7484736
0
ARC
8
DEFAULT_255_1_234
10
22.7536922
20
5.5041846
40
0.3070957
50
131.5744599
51
154.4798489
0
ARC
8
DEFAULT_255_1_234
10
22.7850069
20
5.472531
40
0.3515643
50
96.9875458
51
131.9690667
0
ARC
8
DEFAULT_255_1_234
10
22.8069549
20
5.3479636
40
0.4779224
50
89.8596053
51
97.7825159
0
ARC
8
DEFAULT_255_1_234
10
22.8117612
20
5.3217616
40
0.5041361
50
78.3655447
51
90.4131539
0
ARC
8
DEFAULT_255_1_234
10
22.847553
20
5.4876887
40
0.3344039
50
56.6229102
51
78.638727
0
ARC
8
DEFAULT_255_1_234
10
22.8690474
20
5.5252805
40
0.2912001
50
47.0253525
51
56.0854072
0
ARC
8
DEFAULT_255_1_234
10
22.8710254
20
5.5292223
40
0.2869704
50
10.9208013
51
46.7778124
0
ARC
8
DEFAULT_255_1_234
10
22.734632
20
5.4976857
40
0.426899
50
359.6364486
51
11.6087304
0
ARC
8
DEFAULT_255_1_234
10
22.9181164
20
5.4961752
40
0.243409
50
332.3549906
51
359.7179418
0
ARC
8
DEFAULT_255_1_234
10
22.8530766
20
5.5270142
40
0.3153459
50
325.2333722
51
332.8745602
0
ARC
8
DEFAULT_255_1_234
10
22.868339
20
5.5163828
40
0.2967456
50
292.9802137
51
325.2392345
0
ARC
8
DEFAULT_255_1_234
10
22.8408763
20
5.5697863
40
0.3566604
50
292.5402179
51
293.6924929
0
ARC
8
DEFAULT_255_1_234
10
22.8801359
20
4.9243091
40
0.3307468
50
57.6435486
51
72.8625112
0
ARC
8
DEFAULT_255_1_234
10
22.9155859
20
4.9817549
40
0.2632492
50
36.7248896
51
57.4697979
0
ARC
8
DEFAULT_255_1_234
10
22.9144492
20
4.983022
40
0.2634081
50
8.0545065
51
36.356114
0
ARC
8
DEFAULT_255_1_234
10
22.8281677
20
4.9675174
40
0.3510261
50
359.8320645
51
8.5869982
0
ARC
8
DEFAULT_255_1_234
10
22.7906453
20
4.9627101
40
0.3885653
50
343.9829931
51
0.5571613
0
ARC
8
DEFAULT_255_1_234
10
22.879265
20
4.9384438
40
0.2966924
50
311.6359546
51
343.7651759
0
ARC
8
DEFAULT_255_1_234
10
22.8414219
20
4.9811102
40
0.3537231
50
279.7829875
51
311.6255694
0
ARC
8
DEFAULT_255_1_234
10
22.8112996
20
5.124828
40
0.5004971
50
269.7286406
51
280.3856417
0
ARC
8
DEFAULT_255_1_234
10
22.8051068
20
5.1206996
40
0.4963778
50
256.6828919
51
270.4412052
0
ARC
8
DEFAULT_255_1_234
10
22.7712364
20
4.9822394
40
0.3538406
50
229.4223008
51
256.8556159
0
ARC
8
DEFAULT_255_1_234
10
22.7297757
20
4.9355736
40
0.2914296
50
181.818294
51
229.6455059
0
ARC
8
DEFAULT_255_1_234
10
22.8337713
20
4.9486496
40
0.3959084
50
179.9755256
51
183.2323064
0
ARC
8
DEFAULT_255_1_234
10
22.8165459
20
4.9466037
40
0.2293034
50
179.4465117
51
196.2869258
0
ARC
8
DEFAULT_255_1_234
10
22.7677867
20
4.9332651
40
0.1787621
50
196.5661473
51
227.705904
0
ARC
8
DEFAULT_255_1_234
10
22.7841962
20
4.9516155
40
0.2033784
50
227.7652068
51
257.8762805
0
ARC
8
DEFAULT_255_1_234
10
22.8066932
20
5.0459156
40
0.3003081
50
257.4584385
51
270.426602
0
ARC
8
DEFAULT_255_1_234
10
22.8112498
20
5.0748996
40
0.329292
50
269.5962073
51
280.8789248
0
ARC
8
DEFAULT_255_1_234
10
22.8342027
20
4.9602685
40
0.2123908
50
280.6346389
51
299.8595945
0
ARC
8
DEFAULT_255_1_234
10
22.8532934
20
4.9240212
40
0.171457
50
300.3576302
51
314.5517981
0
ARC
8
DEFAULT_255_1_234
10
22.8449994
20
4.9300919
40
0.1816095
50
315.0728369
51
345.0431014
0
ARC
8
DEFAULT_255_1_234
10
22.7526808
20
4.9569841
40
0.2777492
50
344.5986631
51
357.9269593
0
ARC
8
DEFAULT_255_1_234
10
22.6631135
20
4.9631276
40
0.3674917
50
357.4748886
51
0.0231117
0
ARC
8
DEFAULT_255_1_234
10
22.7654244
20
4.9655679
40
0.2651907
50
359.5047933
51
13.4239635
0
ARC
8
DEFAULT_255_1_234
10
22.8520887
20
4.9877478
40
0.1757509
50
12.9498199
51
48.7551375
0
ARC
8
DEFAULT_255_1_234
10
22.8338621
20
4.96284
40
0.2065134
50
49.5088623
51
72.1836453
0
ARC
8
DEFAULT_255_1_234
10
22.7980774
20
4.8566291
40
0.3185836
50
71.9010081
51
84.3554254
0
ARC
8
DEFAULT_255_1_234
10
22.7819406
20
4.7205326
40
0.4556151
50
84.0193428
51
89.333121
0
LINE
8
DEFAULT_255_1_234
10
24.134166
20
5.0781297
11
24.134166
21
5.065279
0
LINE
8
DEFAULT_255_1_234
10
23.5422269
20
4.7407967
11
23.5349983
21
4.6404
0
LINE
8
DEFAULT_255_1_234
10
23.5349983
20
4.6404
11
23.3984587
21
4.6404
0
LINE
8
DEFAULT_255_1_234
10
23.3984587
20
4.6404
11
23.3984587
21
5.874075
0
LINE
8
DEFAULT_255_1_234
10
23.3984587
20
5.874075
11
23.5470459
21
5.874075
0
LINE
8
DEFAULT_255_1_234
10
23.5470459
20
5.874075
11
23.5470459
21
5.4138564
0
LINE
8
DEFAULT_255_1_234
10
23.5470459
20
5.2628597
11
23.5470459
21
4.8869744
0
ARC
8
DEFAULT_255_1_234
10
23.4294935
20
5.0608573
40
0.7046863
50
349.4825105
51
0.3595108
0
ARC
8
DEFAULT_255_1_234
10
23.6572176
20
5.0170022
40
0.4727857
50
331.8602128
51
349.6704139
0
ARC
8
DEFAULT_255_1_234
10
23.7304944
20
4.9813125
40
0.3913503
50
322.8939783
51
331.4081204
0
ARC
8
DEFAULT_255_1_234
10
23.8000342
20
4.9233707
40
0.300965
50
296.7249167
51
323.7044215
0
ARC
8
DEFAULT_255_1_234
10
23.8030239
20
4.9303043
40
0.3058683
50
270.6342811
51
295.6405548
0
ARC
8
DEFAULT_255_1_234
10
23.7968549
20
5.0105995
40
0.3862632
50
269.9967524
51
271.4174733
0
ARC
8
DEFAULT_255_1_234
10
23.7930213
20
4.9970686
40
0.3727515
50
253.657532
51
270.5859025
0
ARC
8
DEFAULT_255_1_234
10
23.7699319
20
4.9127235
40
0.2853216
50
217.0543181
51
253.3409865
0
ARC
8
DEFAULT_255_1_234
10
23.7765987
20
5.2311052
40
0.2934152
50
93.1931545
51
141.4760602
0
ARC
8
DEFAULT_255_1_234
10
23.7948203
20
5.1078453
40
0.4176524
50
89.9442578
51
94.747309
0
ARC
8
DEFAULT_255_1_234
10
23.799195
20
5.190141
40
0.3353801
50
70.6103515
51
90.6779749
0
ARC
8
DEFAULT_255_1_234
10
23.8106252
20
5.235689
40
0.2886533
50
36.1152635
51
69.7489296
0
ARC
8
DEFAULT_255_1_234
10
23.7119656
20
5.1603708
40
0.4127561
50
15.4648517
51
36.4891396
0
ARC
8
DEFAULT_255_1_234
10
23.5061342
20
5.1004524
40
0.6271187
50
3.9220813
51
15.7265815
0
ARC
8
DEFAULT_255_1_234
10
23.2702186
20
5.0792325
40
0.863948
50
359.9268643
51
4.2559037
0
ARC
8
DEFAULT_255_1_234
10
23.3516567
20
5.0852103
40
0.6339295
50
359.7230081
51
7.7115859
0
ARC
8
DEFAULT_255_1_234
10
23.5778132
20
5.1168172
40
0.4055784
50
7.5740023
51
19.4151451
0
ARC
8
DEFAULT_255_1_234
10
23.7045771
20
5.1614519
40
0.2711858
50
19.4238354
51
34.9161182
0
ARC
8
DEFAULT_255_1_234
10
23.7716509
20
5.2101172
40
0.1883373
50
34.4556322
51
84.4656458
0
ARC
8
DEFAULT_255_1_234
10
23.7587957
20
5.1346057
40
0.2647939
50
83.2727306
51
90.1114621
0
ARC
8
DEFAULT_255_1_234
10
23.7545814
20
5.1544509
40
0.2449763
50
89.1347934
51
111.4089923
0
ARC
8
DEFAULT_255_1_234
10
23.7466365
20
5.1872473
40
0.2115923
50
112.6478598
51
148.9260864
0
ARC
8
DEFAULT_255_1_234
10
23.8244163
20
5.1330985
40
0.3062228
50
147.7597608
51
154.928557
0
ARC
8
DEFAULT_255_1_234
10
23.7984224
20
5.0086379
40
0.2792708
50
205.8264786
51
224.5301003
0
ARC
8
DEFAULT_255_1_234
10
23.7506528
20
4.9659914
40
0.2153317
50
225.354483
51
269.2437579
0
ARC
8
DEFAULT_255_1_234
10
23.7598163
20
5.0466292
40
0.2961942
50
267.6770046
51
270.0136612
0
ARC
8
DEFAULT_255_1_234
10
23.7625514
20
4.9707938
40
0.2203751
50
269.3072485
51
289.499141
0
ARC
8
DEFAULT_255_1_234
10
23.7697578
20
4.9411394
40
0.1900415
50
290.4353973
51
325.3766314
0
ARC
8
DEFAULT_255_1_234
10
23.7068801
20
4.9865643
40
0.2675986
50
325.0223901
51
342.692398
0
ARC
8
DEFAULT_255_1_234
10
23.5371689
20
5.0417812
40
0.446058
50
342.4062876
51
352.8669243
0
ARC
8
DEFAULT_255_1_234
10
23.2651164
20
5.0774975
40
0.7204419
50
352.7350668
51
359.8556985
0
ARC
8
DEFAULT_255_1_234
10
23.074086
20
5.0821018
40
0.9114927
50
359.5965197
51
0.0027543
0
LINE
8
DEFAULT_255_1_234
10
20.804623
20
12.9489663
11
20.9596355
21
12.9489663
0
LINE
8
DEFAULT_255_1_234
10
20.0592777
20
13.1079947
11
20.0592777
21
13.2204391
0
LINE
8
DEFAULT_255_1_234
10
20.9596355
20
13.3714357
11
20.804623
21
13.3714357
0
LINE
8
DEFAULT_255_1_234
10
20.2142902
20
13.2164232
11
20.2142902
21
13.1031757
0
ARC
8
DEFAULT_255_1_234
10
20.4115742
20
13.0086846
40
0.5513052
50
340.1774281
51
353.7814284
0
ARC
8
DEFAULT_255_1_234
10
20.5687095
20
12.9501582
40
0.3836379
50
311.4558989
51
340.4421614
0
ARC
8
DEFAULT_255_1_234
10
20.5653763
20
12.9612528
40
0.3941894
50
282.4333181
51
310.7513653
0
ARC
8
DEFAULT_255_1_234
10
20.5214502
20
13.1427679
40
0.5809175
50
269.9358511
51
282.809604
0
ARC
8
DEFAULT_255_1_234
10
20.5162568
20
13.2885212
40
0.7266847
50
270.0021091
51
270.3581957
0
ARC
8
DEFAULT_255_1_234
10
20.5109985
20
13.0284585
40
0.4666519
50
250.7884749
51
270.6489167
0
ARC
8
DEFAULT_255_1_234
10
20.494182
20
12.9647319
40
0.4009729
50
219.3627325
51
250.0611886
0
ARC
8
DEFAULT_255_1_234
10
20.5771031
20
13.0352042
40
0.5097822
50
193.5479632
51
219.5756669
0
ARC
8
DEFAULT_255_1_234
10
20.8142652
20
13.0967919
40
0.7547848
50
181.1218675
51
193.87563
0
ARC
8
DEFAULT_255_1_234
10
21.0212833
20
13.107858
40
0.9620055
50
179.9918545
51
181.5394234
0
ARC
8
DEFAULT_255_1_234
10
20.8361935
20
13.2241788
40
0.7769248
50
169.5837241
51
180.2757934
0
ARC
8
DEFAULT_255_1_234
10
20.6524873
20
13.2581229
40
0.590109
50
155.0365899
51
169.6003176
0
ARC
8
DEFAULT_255_1_234
10
20.5389337
20
13.3128677
40
0.4640625
50
136.783148
51
155.2472683
0
ARC
8
DEFAULT_255_1_234
10
20.4999814
20
13.3459562
40
0.4130255
50
121.7633186
51
136.428115
0
ARC
8
DEFAULT_255_1_234
10
20.5134776
20
13.3210227
40
0.4413323
50
95.6459699
51
121.5490577
0
ARC
8
DEFAULT_255_1_234
10
20.5292058
20
13.2101949
40
0.55319
50
89.924208
51
96.1377933
0
ARC
8
DEFAULT_255_1_234
10
20.5342491
20
13.2220542
40
0.5413475
50
76.6779277
51
90.4563316
0
ARC
8
DEFAULT_255_1_234
10
20.5736114
20
13.3811114
40
0.3775041
50
47.485847
51
76.9287264
0
ARC
8
DEFAULT_255_1_234
10
20.5589087
20
13.3711159
40
0.3948286
50
16.5424086
51
46.8933463
0
ARC
8
DEFAULT_255_1_234
10
20.3981244
20
13.3182861
40
0.564021
50
5.4072051
51
17.0365086
0
ARC
8
DEFAULT_255_1_234
10
20.2542261
20
13.2951679
40
0.5556559
50
7.8891745
51
15.9239216
0
ARC
8
DEFAULT_255_1_234
10
20.4529274
20
13.3528631
40
0.3487515
50
15.7653144
51
27.9410532
0
ARC
8
DEFAULT_255_1_234
10
20.5633492
20
13.411979
40
0.2235026
50
27.8166557
51
46.4008329
0
ARC
8
DEFAULT_255_1_234
10
20.5683135
20
13.4114082
40
0.2205286
50
47.4371857
51
75.0698205
0
ARC
8
DEFAULT_255_1_234
10
20.5374529
20
13.3039765
40
0.3322915
50
74.7008593
51
87.8124495
0
ARC
8
DEFAULT_255_1_234
10
20.5301217
20
13.1983844
40
0.4380987
50
87.3814673
51
90.0240855
0
ARC
8
DEFAULT_255_1_234
10
20.526276
20
13.3161291
40
0.3203749
50
89.3451631
51
108.5745436
0
ARC
8
DEFAULT_255_1_234
10
20.5125865
20
13.3674908
40
0.2673494
50
109.2998449
51
143.3037509
0
ARC
8
DEFAULT_255_1_234
10
20.5887938
20
13.3088881
40
0.3634757
50
143.0753173
51
163.1916937
0
ARC
8
DEFAULT_255_1_234
10
20.7839666
20
13.2472967
40
0.5681262
50
162.9373603
51
174.6208611
0
ARC
8
DEFAULT_255_1_234
10
21.0465708
20
13.218501
40
0.8322832
50
174.3419979
51
180.1430411
0
ARC
8
DEFAULT_255_1_234
10
20.9534864
20
13.0990698
40
0.7392076
50
179.6817502
51
189.150529
0
ARC
8
DEFAULT_255_1_234
10
20.7034112
20
13.057419
40
0.4856932
50
188.9910863
51
203.5773039
0
ARC
8
DEFAULT_255_1_234
10
20.5954445
20
13.0126211
40
0.3688271
50
203.9077269
51
215.1312379
0
ARC
8
DEFAULT_255_1_234
10
20.5031539
20
12.9410941
40
0.2522457
50
213.9071664
51
263.8849284
0
ARC
8
DEFAULT_255_1_234
10
20.5156868
20
13.0195518
40
0.3316174
50
263.1758525
51
270.1031083
0
ARC
8
DEFAULT_255_1_234
10
20.518896
20
13.1442365
40
0.4563091
50
269.6719807
51
279.0609165
0
ARC
8
DEFAULT_255_1_234
10
20.5455728
20
12.9829907
40
0.2928759
50
278.8750225
51
293.6346586
0
ARC
8
DEFAULT_255_1_234
10
20.5775936
20
12.90779
40
0.2111472
50
293.8553404
51
310.0518804
0
ARC
8
DEFAULT_255_1_234
10
20.578079
20
12.9015516
40
0.2060917
50
311.0646779
51
332.0108348
0
ARC
8
DEFAULT_255_1_234
10
20.4588517
20
12.9672978
40
0.3422352
50
331.6588543
51
343.2878891
0
ARC
8
DEFAULT_255_1_234
10
20.2526032
20
13.0306798
40
0.5580003
50
343.1446044
51
351.010618
0
ARC
8
DEFAULT_255_1_234
10
20.0984678
20
13.0587871
40
0.7146438
50
350.7157277
51
351.1602153
0
LINE
8
DEFAULT_255_1_234
10
22.0688186
20
13.7473211
11
22.0688186
21
12.5779
0
LINE
8
DEFAULT_255_1_234
10
22.0688186
20
12.5779
11
21.9138061
21
12.5779
0
LINE
8
DEFAULT_255_1_234
10
21.9138061
20
12.5779
11
21.9138061
21
13.118436
0
LINE
8
DEFAULT_255_1_234
10
21.9138061
20
13.118436
11
21.3242765
21
13.118436
0
LINE
8
DEFAULT_255_1_234
10
21.3242765
20
13.118436
11
21.3242765
21
12.5779
0
LINE
8
DEFAULT_255_1_234
10
21.3242765
20
12.5779
11
21.1700671
21
12.5779
0
LINE
8
DEFAULT_255_1_234
10
21.1700671
20
12.5779
11
21.1700671
21
13.7473211
0
LINE
8
DEFAULT_255_1_234
10
21.1700671
20
13.7473211
11
21.3242765
21
13.7473211
0
LINE
8
DEFAULT_255_1_234
10
21.3242765
20
13.7473211
11
21.3242765
21
13.2445343
0
LINE
8
DEFAULT_255_1_234
10
21.3242765
20
13.2445343
11
21.9138061
21
13.2445343
0
LINE
8
DEFAULT_255_1_234
10
21.9138061
20
13.2445343
11
21.9138061
21
13.7473211
0
LINE
8
DEFAULT_255_1_234
10
21.9138061
20
13.7473211
11
22.0688186
21
13.7473211
0
LINE
8
DEFAULT_255_1_234
10
22.5202023
20
13.1136169
11
22.5202023
21
13.2348962
0
LINE
8
DEFAULT_255_1_234
10
22.5202023
20
13.2348962
11
22.6318435
21
13.2348962
0
LINE
8
DEFAULT_255_1_234
10
22.4414913
20
13.4405087
11
22.2929041
21
13.4405087
0
LINE
8
DEFAULT_255_1_234
10
22.2824628
20
12.8863188
11
22.4318532
21
12.8863188
0
LINE
8
DEFAULT_255_1_234
10
22.6318435
20
13.1136169
11
22.5202023
21
13.1136169
0
ARC
8
DEFAULT_255_1_234
10
22.6289301
20
13.5741713
40
0.3392876
50
270.4919872
51
281.8951556
0
ARC
8
DEFAULT_255_1_234
10
22.6530563
20
13.4639702
40
0.2264817
50
281.6691735
51
301.2943132
0
ARC
8
DEFAULT_255_1_234
10
22.6700773
20
13.4328304
40
0.1910381
50
301.7833094
51
311.7545298
0
ARC
8
DEFAULT_255_1_234
10
22.6792349
20
13.4226748
40
0.1773635
50
311.7323931
51
354.2802411
0
ARC
8
DEFAULT_255_1_234
10
22.6065974
20
13.4351722
40
0.2509385
50
353.0937916
51
0.1181479
0
ARC
8
DEFAULT_255_1_234
10
22.5604759
20
13.4399386
40
0.2970898
50
359.1805295
51
15.0453146
0
ARC
8
DEFAULT_255_1_234
10
22.6950596
20
13.4791992
40
0.1569564
50
13.9577229
51
77.6713066
0
ARC
8
DEFAULT_255_1_234
10
22.6564125
20
13.3406949
40
0.3006298
50
76.1116566
51
90.7026153
0
ARC
8
DEFAULT_255_1_234
10
22.6504963
20
13.3680545
40
0.2732568
50
89.5324876
51
103.531937
0
ARC
8
DEFAULT_255_1_234
10
22.6304407
20
13.4479884
40
0.1908508
50
103.2931773
51
133.5619022
0
ARC
8
DEFAULT_255_1_234
10
22.6259896
20
13.4539375
40
0.1834746
50
133.8349307
51
173.5344437
0
ARC
8
DEFAULT_255_1_234
10
22.6982939
20
13.4411213
40
0.2568033
50
172.5096846
51
180.1366907
0
ARC
8
DEFAULT_255_1_234
10
22.6031833
20
13.4445622
40
0.3103056
50
155.3484492
51
180.7484736
0
ARC
8
DEFAULT_255_1_234
10
22.5982922
20
13.4416846
40
0.3070957
50
131.5744599
51
154.4798489
0
ARC
8
DEFAULT_255_1_234
10
22.6296069
20
13.410031
40
0.3515643
50
96.9875458
51
131.9690667
0
ARC
8
DEFAULT_255_1_234
10
22.6515549
20
13.2854636
40
0.4779224
50
89.8596053
51
97.7825159
0
ARC
8
DEFAULT_255_1_234
10
22.6563612
20
13.2592616
40
0.5041361
50
78.3655447
51
90.4131539
0
ARC
8
DEFAULT_255_1_234
10
22.692153
20
13.4251887
40
0.3344039
50
56.6229102
51
78.638727
0
ARC
8
DEFAULT_255_1_234
10
22.7136474
20
13.4627805
40
0.2912001
50
47.0253525
51
56.0854072
0
ARC
8
DEFAULT_255_1_234
10
22.7156254
20
13.4667223
40
0.2869704
50
10.9208013
51
46.7778124
0
ARC
8
DEFAULT_255_1_234
10
22.579232
20
13.4351857
40
0.426899
50
359.6364486
51
11.6087304
0
ARC
8
DEFAULT_255_1_234
10
22.7627164
20
13.4336752
40
0.243409
50
332.3549906
51
359.7179418
0
ARC
8
DEFAULT_255_1_234
10
22.6976766
20
13.4645142
40
0.3153459
50
325.2333722
51
332.8745602
0
ARC
8
DEFAULT_255_1_234
10
22.712939
20
13.4538828
40
0.2967456
50
292.9802137
51
325.2392345
0
ARC
8
DEFAULT_255_1_234
10
22.6854763
20
13.5072863
40
0.3566604
50
292.5402179
51
293.6924929
0
ARC
8
DEFAULT_255_1_234
10
22.7247359
20
12.8618091
40
0.3307468
50
57.6435486
51
72.8625112
0
ARC
8
DEFAULT_255_1_234
10
22.7601859
20
12.9192549
40
0.2632492
50
36.7248896
51
57.4697979
0
ARC
8
DEFAULT_255_1_234
10
22.7590492
20
12.920522
40
0.2634081
50
8.0545065
51
36.356114
0
ARC
8
DEFAULT_255_1_234
10
22.6727677
20
12.9050174
40
0.3510261
50
359.8320645
51
8.5869982
0
ARC
8
DEFAULT_255_1_234
10
22.6352453
20
12.9002101
40
0.3885653
50
343.9829931
51
0.5571613
0
ARC
8
DEFAULT_255_1_234
10
22.723865
20
12.8759438
40
0.2966924
50
311.6359546
51
343.7651759
0
ARC
8
DEFAULT_255_1_234
10
22.6860219
20
12.9186102
40
0.3537231
50
279.7829875
51
311.6255694
0
ARC
8
DEFAULT_255_1_234
10
22.6558996
20
13.062328
40
0.5004971
50
269.7286406
51
280.3856417
0
ARC
8
DEFAULT_255_1_234
10
22.6497068
20
13.0581996
40
0.4963778
50
256.6828919
51
270.4412052
0
ARC
8
DEFAULT_255_1_234
10
22.6158364
20
12.9197394
40
0.3538406
50
229.4223008
51
256.8556159
0
ARC
8
DEFAULT_255_1_234
10
22.5743757
20
12.8730736
40
0.2914296
50
181.818294
51
229.6455059
0
ARC
8
DEFAULT_255_1_234
10
22.6783713
20
12.8861496
40
0.3959084
50
179.9755256
51
183.2323064
0
ARC
8
DEFAULT_255_1_234
10
22.6611459
20
12.8841037
40
0.2293034
50
179.4465117
51
196.2869258
0
ARC
8
DEFAULT_255_1_234
10
22.6123867
20
12.8707651
40
0.1787621
50
196.5661473
51
227.705904
0
ARC
8
DEFAULT_255_1_234
10
22.6287962
20
12.8891155
40
0.2033784
50
227.7652068
51
257.8762805
0
ARC
8
DEFAULT_255_1_234
10
22.6512932
20
12.9834156
40
0.3003081
50
257.4584385
51
270.426602
0
ARC
8
DEFAULT_255_1_234
10
22.6558498
20
13.0123996
40
0.329292
50
269.5962073
51
280.8789248
0
ARC
8
DEFAULT_255_1_234
10
22.6788027
20
12.8977685
40
0.2123908
50
280.6346389
51
299.8595945
0
ARC
8
DEFAULT_255_1_234
10
22.6978934
20
12.8615212
40
0.171457
50
300.3576302
51
314.5517981
0
ARC
8
DEFAULT_255_1_234
10
22.6895994
20
12.8675919
40
0.1816095
50
315.0728369
51
345.0431014
0
ARC
8
DEFAULT_255_1_234
10
22.5972808
20
12.8944841
40
0.2777492
50
344.5986631
51
357.9269593
0
ARC
8
DEFAULT_255_1_234
10
22.5077135
20
12.9006276
40
0.3674917
50
357.4748886
51
0.0231117
0
ARC
8
DEFAULT_255_1_234
10
22.6100244
20
12.9030679
40
0.2651907
50
359.5047933
51
13.4239635
0
ARC
8
DEFAULT_255_1_234
10
22.6966887
20
12.9252478
40
0.1757509
50
12.9498199
51
48.7551375
0
ARC
8
DEFAULT_255_1_234
10
22.6784621
20
12.90034
40
0.2065134
50
49.5088623
51
72.1836453
0
ARC
8
DEFAULT_255_1_234
10
22.6426774
20
12.7941291
40
0.3185836
50
71.9010081
51
84.3554254
0
ARC
8
DEFAULT_255_1_234
10
22.6265406
20
12.6580326
40
0.4556151
50
84.0193428
51
89.333121
0
LINE
8
DEFAULT_255_1_234
10
23.6719536
20
12.5779
11
23.2663508
21
12.5779
0
LINE
8
DEFAULT_255_1_234
10
23.2663508
20
12.5779
11
23.2663508
21
13.7473211
0
LINE
8
DEFAULT_255_1_234
10
23.2663508
20
13.7473211
11
23.6486615
21
13.7473211
0
LINE
8
DEFAULT_255_1_234
10
23.6775758
20
13.1248614
11
23.4205602
21
13.1248614
0
LINE
8
DEFAULT_255_1_234
10
23.4205602
20
13.1248614
11
23.4205602
21
12.7039983
0
LINE
8
DEFAULT_255_1_234
10
23.4205602
20
12.7039983
11
23.6751663
21
12.7039983
0
LINE
8
DEFAULT_255_1_234
10
23.4205602
20
13.6204196
11
23.4205602
21
13.2485501
0
LINE
8
DEFAULT_255_1_234
10
23.4205602
20
13.2485501
11
23.6534806
21
13.2485501
0
LINE
8
DEFAULT_255_1_234
10
23.6486615
20
13.6204196
11
23.4205602
21
13.6204196
0
ARC
8
DEFAULT_255_1_234
10
23.6524324
20
13.0105901
40
0.7367406
50
82.1257326
51
90.2932599
0
ARC
8
DEFAULT_255_1_234
10
23.6913279
20
13.2824013
40
0.4621653
50
69.9044149
51
82.2857423
0
ARC
8
DEFAULT_255_1_234
10
23.7483957
20
13.4366637
40
0.2976871
50
51.1838526
51
70.0181538
0
ARC
8
DEFAULT_255_1_234
10
23.7738923
20
13.473724
40
0.2528517
50
12.1017251
51
50.4214761
0
ARC
8
DEFAULT_255_1_234
10
23.6354797
20
13.4389676
40
0.3955061
50
359.5251267
51
12.8211707
0
ARC
8
DEFAULT_255_1_234
10
23.7934723
20
13.4320344
40
0.2375281
50
323.4908128
51
0.8817314
0
ARC
8
DEFAULT_255_1_234
10
23.751641
20
13.464355
40
0.2903817
50
298.6825083
51
323.2756573
0
ARC
8
DEFAULT_255_1_234
10
23.7154773
20
13.5244649
40
0.3604842
50
293.1999386
51
299.1396394
0
ARC
8
DEFAULT_255_1_234
10
23.7827746
20
12.9159126
40
0.2871098
50
54.0011765
51
74.9167975
0
ARC
8
DEFAULT_255_1_234
10
23.7944105
20
12.9356332
40
0.2643248
50
36.3580696
51
53.5291921
0
ARC
8
DEFAULT_255_1_234
10
23.7817347
20
12.9265998
40
0.2798884
50
4.8189881
51
36.3089977
0
ARC
8
DEFAULT_255_1_234
10
23.7038182
20
12.915627
40
0.358478
50
359.9370252
51
5.5204067
0
ARC
8
DEFAULT_255_1_234
10
23.6713704
20
12.9115667
40
0.3909429
50
344.7478609
51
0.5373281
0
ARC
8
DEFAULT_255_1_234
10
23.7704675
20
12.8848544
40
0.2883093
50
311.1786488
51
344.6886812
0
ARC
8
DEFAULT_255_1_234
10
23.7412722
20
12.9211987
40
0.3348923
50
286.0418249
51
310.8441291
0
ARC
8
DEFAULT_255_1_234
10
23.6905554
20
13.0858807
40
0.5071869
50
274.1042341
51
286.4071509
0
ARC
8
DEFAULT_255_1_234
10
23.672881
20
13.2742229
40
0.6963234
50
269.9236873
51
274.445647
0
ARC
8
DEFAULT_255_1_234
10
23.6774811
20
13.0402537
40
0.3362634
50
269.6055768
51
281.3740047
0
ARC
8
DEFAULT_255_1_234
10
23.7005449
20
12.9309353
40
0.224546
50
281.1055983
51
302.5132223
0
ARC
8
DEFAULT_255_1_234
10
23.7152348
20
12.9045823
40
0.1944357
50
303.0368945
51
311.8811219
0
ARC
8
DEFAULT_255_1_234
10
23.7223755
20
12.896089
40
0.1833454
50
311.9916004
51
351.7143462
0
ARC
8
DEFAULT_255_1_234
10
23.6406985
20
12.912593
40
0.2665871
50
350.7339597
51
0.2221581
0
ARC
8
DEFAULT_255_1_234
10
23.6299431
20
12.9182467
40
0.2773789
50
359.0456241
51
17.2296242
0
ARC
8
DEFAULT_255_1_234
10
23.7338548
20
12.9491163
40
0.1689915
50
17.6685481
51
78.9940892
0
ARC
8
DEFAULT_255_1_234
10
23.6821712
20
12.7636224
40
0.3612658
50
76.5635957
51
90.6980921
0
LINE
8
DEFAULT_255_1_234
10
23.6777696
20
13.1248613
11
23.6775758
21
13.1248614
0
ARC
8
DEFAULT_255_1_234
10
23.6557372
20
13.5771036
40
0.3285612
50
269.6064736
51
281.4533503
0
ARC
8
DEFAULT_255_1_234
10
23.6780192
20
13.4719688
40
0.2210975
50
281.2041486
51
302.5148063
0
ARC
8
DEFAULT_255_1_234
10
23.6917042
20
13.4473241
40
0.1929674
50
303.021671
51
309.8369575
0
ARC
8
DEFAULT_255_1_234
10
23.7100503
20
13.4267488
40
0.1654181
50
309.5228395
51
356.9509836
0
ARC
8
DEFAULT_255_1_234
10
23.6437086
20
13.4362932
40
0.2322512
50
355.4701227
51
0.0492546
0
ARC
8
DEFAULT_255_1_234
10
23.6158177
20
13.4385094
40
0.2601498
50
359.5558597
51
11.2096359
0
ARC
8
DEFAULT_255_1_234
10
23.7115467
20
13.458323
40
0.1623975
50
10.9182341
51
31.3230275
0
ARC
8
DEFAULT_255_1_234
10
23.74012
20
13.4742214
40
0.1297302
50
31.8852677
51
52.1412565
0
ARC
8
DEFAULT_255_1_234
10
23.7126933
20
13.435475
40
0.1771663
50
52.8285564
51
71.9850297
0
ARC
8
DEFAULT_255_1_234
10
23.6751109
20
13.3248664
40
0.2939794
50
71.6863486
51
82.8455995
0
ARC
8
DEFAULT_255_1_234
10
23.6511645
20
13.1439149
40
0.476506
50
82.6984714
51
90.1729175
0
ARC
8
DEFAULT_255_1_234
10
23.648928
20
13.2662623
40
0.3541573
50
89.8708275
51
90.0431131
0
LINE
8
DEFAULT_255_1_234
10
20.674023
20
20.8864663
11
20.8290355
21
20.8864663
0
LINE
8
DEFAULT_255_1_234
10
19.9286777
20
21.0454947
11
19.9286777
21
21.1579391
0
LINE
8
DEFAULT_255_1_234
10
20.8290355
20
21.3089357
11
20.674023
21
21.3089357
0
LINE
8
DEFAULT_255_1_234
10
20.0836902
20
21.1539232
11
20.0836902
21
21.0406757
0
ARC
8
DEFAULT_255_1_234
10
20.2809742
20
20.9461846
40
0.5513052
50
340.1774281
51
353.7814284
0
ARC
8
DEFAULT_255_1_234
10
20.4381095
20
20.8876582
40
0.3836379
50
311.4558989
51
340.4421614
0
ARC
8
DEFAULT_255_1_234
10
20.4347763
20
20.8987528
40
0.3941894
50
282.4333181
51
310.7513653
0
ARC
8
DEFAULT_255_1_234
10
20.3908502
20
21.0802679
40
0.5809175
50
269.9358511
51
282.809604
0
ARC
8
DEFAULT_255_1_234
10
20.3856568
20
21.2260212
40
0.7266847
50
270.0021091
51
270.3581957
0
ARC
8
DEFAULT_255_1_234
10
20.3803985
20
20.9659585
40
0.4666519
50
250.7884749
51
270.6489167
0
ARC
8
DEFAULT_255_1_234
10
20.363582
20
20.9022319
40
0.4009729
50
219.3627325
51
250.0611886
0
ARC
8
DEFAULT_255_1_234
10
20.4465031
20
20.9727042
40
0.5097822
50
193.5479632
51
219.5756669
0
ARC
8
DEFAULT_255_1_234
10
20.6836652
20
21.0342919
40
0.7547848
50
181.1218675
51
193.87563
0
ARC
8
DEFAULT_255_1_234
10
20.8906833
20
21.045358
40
0.9620055
50
179.9918545
51
181.5394234
0
ARC
8
DEFAULT_255_1_234
10
20.7055935
20
21.1616788
40
0.7769248
50
169.5837241
51
180.2757934
0
ARC
8
DEFAULT_255_1_234
10
20.5218873
20
21.1956229
40
0.590109
50
155.0365899
51
169.6003176
0
ARC
8
DEFAULT_255_1_234
10
20.4083337
20
21.2503677
40
0.4640625
50
136.783148
51
155.2472683
0
ARC
8
DEFAULT_255_1_234
10
20.3693814
20
21.2834562
40
0.4130255
50
121.7633186
51
136.428115
0
ARC
8
DEFAULT_255_1_234
10
20.3828776
20
21.2585227
40
0.4413323
50
95.6459699
51
121.5490577
0
ARC
8
DEFAULT_255_1_234
10
20.3986058
20
21.1476949
40
0.55319
50
89.924208
51
96.1377933
0
ARC
8
DEFAULT_255_1_234
10
20.4036491
20
21.1595542
40
0.5413475
50
76.6779277
51
90.4563316
0
ARC
8
DEFAULT_255_1_234
10
20.4430114
20
21.3186114
40
0.3775041
50
47.485847
51
76.9287264
0
ARC
8
DEFAULT_255_1_234
10
20.4283087
20
21.3086159
40
0.3948286
50
16.5424086
51
46.8933463
0
ARC
8
DEFAULT_255_1_234
10
20.2675244
20
21.2557861
40
0.564021
50
5.4072051
51
17.0365086
0
ARC
8
DEFAULT_255_1_234
10
20.1236261
20
21.2326679
40
0.5556559
50
7.8891745
51
15.9239216
0
ARC
8
DEFAULT_255_1_234
10
20.3223274
20
21.2903631
40
0.3487515
50
15.7653144
51
27.9410532
0
ARC
8
DEFAULT_255_1_234
10
20.4327492
20
21.349479
40
0.2235026
50
27.8166557
51
46.4008329
0
ARC
8
DEFAULT_255_1_234
10
20.4377135
20
21.3489082
40
0.2205286
50
47.4371857
51
75.0698205
0
ARC
8
DEFAULT_255_1_234
10
20.4068529
20
21.2414765
40
0.3322915
50
74.7008593
51
87.8124495
0
ARC
8
DEFAULT_255_1_234
10
20.3995217
20
21.1358844
40
0.4380987
50
87.3814673
51
90.0240855
0
ARC
8
DEFAULT_255_1_234
10
20.395676
20
21.2536291
40
0.3203749
50
89.3451631
51
108.5745436
0
ARC
8
DEFAULT_255_1_234
10
20.3819865
20
21.3049908
40
0.2673494
50
109.2998449
51
143.3037509
0
ARC
8
DEFAULT_255_1_234
10
20.4581938
20
21.2463881
40
0.3634757
50
143.0753173
51
163.1916937
0
ARC
8
DEFAULT_255_1_234
10
20.6533666
20
21.1847967
40
0.5681262
50
162.9373603
51
174.6208611
0
ARC
8
DEFAULT_255_1_234
10
20.9159708
20
21.156001
40
0.8322832
50
174.3419979
51
180.1430411
0
ARC
8
DEFAULT_255_1_234
10
20.8228864
20
21.0365698
40
0.7392076
50
179.6817502
51
189.150529
0
ARC
8
DEFAULT_255_1_234
10
20.5728112
20
20.994919
40
0.4856932
50
188.9910863
51
203.5773039
0
ARC
8
DEFAULT_255_1_234
10
20.4648445
20
20.9501211
40
0.3688271
50
203.9077269
51
215.1312379
0
ARC
8
DEFAULT_255_1_234
10
20.3725539
20
20.8785941
40
0.2522457
50
213.9071664
51
263.8849284
0
ARC
8
DEFAULT_255_1_234
10
20.3850868
20
20.9570518
40
0.3316174
50
263.1758525
51
270.1031083
0
ARC
8
DEFAULT_255_1_234
10
20.388296
20
21.0817365
40
0.4563091
50
269.6719807
51
279.0609165
0
ARC
8
DEFAULT_255_1_234
10
20.4149728
20
20.9204907
40
0.2928759
50
278.8750225
51
293.6346586
0
ARC
8
DEFAULT_255_1_234
10
20.4469936
20
20.84529
40
0.2111472
50
293.8553404
51
310.0518804
0
ARC
8
DEFAULT_255_1_234
10
20.447479
20
20.8390516
40
0.2060917
50
311.0646779
51
332.0108348
0
ARC
8
DEFAULT_255_1_234
10
20.3282517
20
20.9047978
40
0.3422352
50
331.6588543
51
343.2878891
0
ARC
8
DEFAULT_255_1_234
10
20.1220032
20
20.9681798
40
0.5580003
50
343.1446044
51
351.010618
0
ARC
8
DEFAULT_255_1_234
10
19.9678678
20
20.9962871
40
0.7146438
50
350.7157277
51
351.1602153
0
LINE
8
DEFAULT_255_1_234
10
21.9382186
20
21.6848211
11
21.9382186
21
20.5154
0
LINE
8
DEFAULT_255_1_234
10
21.9382186
20
20.5154
11
21.7832061
21
20.5154
0
LINE
8
DEFAULT_255_1_234
10
21.7832061
20
20.5154
11
21.7832061
21
21.055936
0
LINE
8
DEFAULT_255_1_234
10
21.7832061
20
21.055936
11
21.1936765
21
21.055936
0
LINE
8
DEFAULT_255_1_234
10
21.1936765
20
21.055936
11
21.1936765
21
20.5154
0
LINE
8
DEFAULT_255_1_234
10
21.1936765
20
20.5154
11
21.0394671
21
20.5154
0
LINE
8
DEFAULT_255_1_234
10
21.0394671
20
20.5154
11
21.0394671
21
21.6848211
0
LINE
8
DEFAULT_255_1_234
10
21.0394671
20
21.6848211
11
21.1936765
21
21.6848211
0
LINE
8
DEFAULT_255_1_234
10
21.1936765
20
21.6848211
11
21.1936765
21
21.1820343
0
LINE
8
DEFAULT_255_1_234
10
21.1936765
20
21.1820343
11
21.7832061
21
21.1820343
0
LINE
8
DEFAULT_255_1_234
10
21.7832061
20
21.1820343
11
21.7832061
21
21.6848211
0
LINE
8
DEFAULT_255_1_234
10
21.7832061
20
21.6848211
11
21.9382186
21
21.6848211
0
LINE
8
DEFAULT_255_1_234
10
22.3896023
20
21.0511169
11
22.3896023
21
21.1723962
0
LINE
8
DEFAULT_255_1_234
10
22.3896023
20
21.1723962
11
22.5012435
21
21.1723962
0
LINE
8
DEFAULT_255_1_234
10
22.3108913
20
21.3780087
11
22.1623041
21
21.3780087
0
LINE
8
DEFAULT_255_1_234
10
22.1518628
20
20.8238188
11
22.3012532
21
20.8238188
0
LINE
8
DEFAULT_255_1_234
10
22.5012435
20
21.0511169
11
22.3896023
21
21.0511169
0
ARC
8
DEFAULT_255_1_234
10
22.4983301
20
21.5116713
40
0.3392876
50
270.4919872
51
281.8951556
0
ARC
8
DEFAULT_255_1_234
10
22.5224563
20
21.4014702
40
0.2264817
50
281.6691735
51
301.2943132
0
ARC
8
DEFAULT_255_1_234
10
22.5394773
20
21.3703304
40
0.1910381
50
301.7833094
51
311.7545298
0
ARC
8
DEFAULT_255_1_234
10
22.5486349
20
21.3601748
40
0.1773635
50
311.7323931
51
354.2802411
0
ARC
8
DEFAULT_255_1_234
10
22.4759974
20
21.3726722
40
0.2509385
50
353.0937916
51
0.1181479
0
ARC
8
DEFAULT_255_1_234
10
22.4298759
20
21.3774386
40
0.2970898
50
359.1805295
51
15.0453146
0
ARC
8
DEFAULT_255_1_234
10
22.5644596
20
21.4166992
40
0.1569564
50
13.9577229
51
77.6713066
0
ARC
8
DEFAULT_255_1_234
10
22.5258125
20
21.2781949
40
0.3006298
50
76.1116566
51
90.7026153
0
ARC
8
DEFAULT_255_1_234
10
22.5198963
20
21.3055545
40
0.2732568
50
89.5324876
51
103.531937
0
ARC
8
DEFAULT_255_1_234
10
22.4998407
20
21.3854884
40
0.1908508
50
103.2931773
51
133.5619022
0
ARC
8
DEFAULT_255_1_234
10
22.4953896
20
21.3914375
40
0.1834746
50
133.8349307
51
173.5344437
0
ARC
8
DEFAULT_255_1_234
10
22.5676939
20
21.3786213
40
0.2568033
50
172.5096846
51
180.1366907
0
ARC
8
DEFAULT_255_1_234
10
22.4725833
20
21.3820622
40
0.3103056
50
155.3484492
51
180.7484736
0
ARC
8
DEFAULT_255_1_234
10
22.4676922
20
21.3791846
40
0.3070957
50
131.5744599
51
154.4798489
0
ARC
8
DEFAULT_255_1_234
10
22.4990069
20
21.347531
40
0.3515643
50
96.9875458
51
131.9690667
0
ARC
8
DEFAULT_255_1_234
10
22.5209549
20
21.2229636
40
0.4779224
50
89.8596053
51
97.7825159
0
ARC
8
DEFAULT_255_1_234
10
22.5257612
20
21.1967616
40
0.5041361
50
78.3655447
51
90.4131539
0
ARC
8
DEFAULT_255_1_234
10
22.561553
20
21.3626887
40
0.3344039
50
56.6229102
51
78.638727
0
ARC
8
DEFAULT_255_1_234
10
22.5830474
20
21.4002805
40
0.2912001
50
47.0253525
51
56.0854072
0
ARC
8
DEFAULT_255_1_234
10
22.5850254
20
21.4042223
40
0.2869704
50
10.9208013
51
46.7778124
0
ARC
8
DEFAULT_255_1_234
10
22.448632
20
21.3726857
40
0.426899
50
359.6364486
51
11.6087304
0
ARC
8
DEFAULT_255_1_234
10
22.6321164
20
21.3711752
40
0.243409
50
332.3549906
51
359.7179418
0
ARC
8
DEFAULT_255_1_234
10
22.5670766
20
21.4020142
40
0.3153459
50
325.2333722
51
332.8745602
0
ARC
8
DEFAULT_255_1_234
10
22.582339
20
21.3913828
40
0.2967456
50
292.9802137
51
325.2392345
0
ARC
8
DEFAULT_255_1_234
10
22.5548763
20
21.4447863
40
0.3566604
50
292.5402179
51
293.6924929
0
ARC
8
DEFAULT_255_1_234
10
22.5941359
20
20.7993091
40
0.3307468
50
57.6435486
51
72.8625112
0
ARC
8
DEFAULT_255_1_234
10
22.6295859
20
20.8567549
40
0.2632492
50
36.7248896
51
57.4697979
0
ARC
8
DEFAULT_255_1_234
10
22.6284492
20
20.858022
40
0.2634081
50
8.0545065
51
36.356114
0
ARC
8
DEFAULT_255_1_234
10
22.5421677
20
20.8425174
40
0.3510261
50
359.8320645
51
8.5869982
0
ARC
8
DEFAULT_255_1_234
10
22.5046453
20
20.8377101
40
0.3885653
50
343.9829931
51
0.5571613
0
ARC
8
DEFAULT_255_1_234
10
22.593265
20
20.8134438
40
0.2966924
50
311.6359546
51
343.7651759
0
ARC
8
DEFAULT_255_1_234
10
22.5554219
20
20.8561102
40
0.3537231
50
279.7829875
51
311.6255694
0
ARC
8
DEFAULT_255_1_234
10
22.5252996
20
20.999828
40
0.5004971
50
269.7286406
51
280.3856417
0
ARC
8
DEFAULT_255_1_234
10
22.5191068
20
20.9956996
40
0.4963778
50
256.6828919
51
270.4412052
0
ARC
8
DEFAULT_255_1_234
10
22.4852364
20
20.8572394
40
0.3538406
50
229.4223008
51
256.8556159
0
ARC
8
DEFAULT_255_1_234
10
22.4437757
20
20.8105736
40
0.2914296
50
181.818294
51
229.6455059
0
ARC
8
DEFAULT_255_1_234
10
22.5477713
20
20.8236496
40
0.3959084
50
179.9755256
51
183.2323064
0
ARC
8
DEFAULT_255_1_234
10
22.5305459
20
20.8216037
40
0.2293034
50
179.4465117
51
196.2869258
0
ARC
8
DEFAULT_255_1_234
10
22.4817867
20
20.8082651
40
0.1787621
50
196.5661473
51
227.705904
0
ARC
8
DEFAULT_255_1_234
10
22.4981962
20
20.8266155
40
0.2033784
50
227.7652068
51
257.8762805
0
ARC
8
DEFAULT_255_1_234
10
22.5206932
20
20.9209156
40
0.3003081
50
257.4584385
51
270.426602
0
ARC
8
DEFAULT_255_1_234
10
22.5252498
20
20.9498996
40
0.329292
50
269.5962073
51
280.8789248
0
ARC
8
DEFAULT_255_1_234
10
22.5482027
20
20.8352685
40
0.2123908
50
280.6346389
51
299.8595945
0
ARC
8
DEFAULT_255_1_234
10
22.5672934
20
20.7990212
40
0.171457
50
300.3576302
51
314.5517981
0
ARC
8
DEFAULT_255_1_234
10
22.5589994
20
20.8050919
40
0.1816095
50
315.0728369
51
345.0431014
0
ARC
8
DEFAULT_255_1_234
10
22.4666808
20
20.8319841
40
0.2777492
50
344.5986631
51
357.9269593
0
ARC
8
DEFAULT_255_1_234
10
22.3771135
20
20.8381276
40
0.3674917
50
357.4748886
51
0.0231117
0
ARC
8
DEFAULT_255_1_234
10
22.4794244
20
20.8405679
40
0.2651907
50
359.5047933
51
13.4239635
0
ARC
8
DEFAULT_255_1_234
10
22.5660887
20
20.8627478
40
0.1757509
50
12.9498199
51
48.7551375
0
ARC
8
DEFAULT_255_1_234
10
22.5478621
20
20.83784
40
0.2065134
50
49.5088623
51
72.1836453
0
ARC
8
DEFAULT_255_1_234
10
22.5120774
20
20.7316291
40
0.3185836
50
71.9010081
51
84.3554254
0
ARC
8
DEFAULT_255_1_234
10
22.4959406
20
20.5955326
40
0.4556151
50
84.0193428
51
89.333121
0
LINE
8
DEFAULT_255_1_234
10
23.8931437
20
20.5154
11
23.7815025
21
20.8206061
0
LINE
8
DEFAULT_255_1_234
10
23.7815025
20
20.8206061
11
23.2915665
21
20.8206061
0
LINE
8
DEFAULT_255_1_234
10
23.2915665
20
20.8206061
11
23.1815317
21
20.5154
0
LINE
8
DEFAULT_255_1_234
10
23.1815317
20
20.5154
11
23.0225033
21
20.5154
0
LINE
8
DEFAULT_255_1_234
10
23.0225033
20
20.5154
11
23.4690679
21
21.6848211
0
LINE
8
DEFAULT_255_1_234
10
23.4690679
20
21.6848211
11
23.6040011
21
21.6848211
0
LINE
8
DEFAULT_255_1_234
10
23.6040011
20
21.6848211
11
24.0513689
21
20.5154
0
LINE
8
DEFAULT_255_1_234
10
24.0513689
20
20.5154
11
23.8931437
21
20.5154
0
LINE
8
DEFAULT_255_1_234
10
23.5365345
20
21.4944689
11
23.3381506
21
20.9475075
0
LINE
8
DEFAULT_255_1_234
10
23.3381506
20
20.9475075
11
23.7357216
21
20.9475075
0
LINE
8
DEFAULT_255_1_234
10
23.7357216
20
20.9475075
11
23.5365345
21
21.4944689
0
LINE
8
DEFAULT_255_1_234
10
20.960023
20
28.8239663
11
21.1150355
21
28.8239663
0
LINE
8
DEFAULT_255_1_234
10
20.2146777
20
28.9829947
11
20.2146777
21
29.0954391
0
LINE
8
DEFAULT_255_1_234
10
21.1150355
20
29.2464357
11
20.960023
21
29.2464357
0
LINE
8
DEFAULT_255_1_234
10
20.3696902
20
29.0914232
11
20.3696902
21
28.9781757
0
ARC
8
DEFAULT_255_1_234
10
20.5669742
20
28.8836846
40
0.5513052
50
340.1774281
51
353.7814284
0
ARC
8
DEFAULT_255_1_234
10
20.7241095
20
28.8251582
40
0.3836379
50
311.4558989
51
340.4421614
0
ARC
8
DEFAULT_255_1_234
10
20.7207763
20
28.8362528
40
0.3941894
50
282.4333181
51
310.7513653
0
ARC
8
DEFAULT_255_1_234
10
20.6768502
20
29.0177679
40
0.5809175
50
269.9358511
51
282.809604
0
ARC
8
DEFAULT_255_1_234
10
20.6716568
20
29.1635212
40
0.7266847
50
270.0021091
51
270.3581957
0
ARC
8
DEFAULT_255_1_234
10
20.6663985
20
28.9034585
40
0.4666519
50
250.7884749
51
270.6489167
0
ARC
8
DEFAULT_255_1_234
10
20.649582
20
28.8397319
40
0.4009729
50
219.3627325
51
250.0611886
0
ARC
8
DEFAULT_255_1_234
10
20.7325031
20
28.9102042
40
0.5097822
50
193.5479632
51
219.5756669
0
ARC
8
DEFAULT_255_1_234
10
20.9696652
20
28.9717919
40
0.7547848
50
181.1218675
51
193.87563
0
ARC
8
DEFAULT_255_1_234
10
21.1766833
20
28.982858
40
0.9620055
50
179.9918545
51
181.5394234
0
ARC
8
DEFAULT_255_1_234
10
20.9915935
20
29.0991788
40
0.7769248
50
169.5837241
51
180.2757934
0
ARC
8
DEFAULT_255_1_234
10
20.8078873
20
29.1331229
40
0.590109
50
155.0365899
51
169.6003176
0
ARC
8
DEFAULT_255_1_234
10
20.6943337
20
29.1878677
40
0.4640625
50
136.783148
51
155.2472683
0
ARC
8
DEFAULT_255_1_234
10
20.6553814
20
29.2209562
40
0.4130255
50
121.7633186
51
136.428115
0
ARC
8
DEFAULT_255_1_234
10
20.6688776
20
29.1960227
40
0.4413323
50
95.6459699
51
121.5490577
0
ARC
8
DEFAULT_255_1_234
10
20.6846058
20
29.0851949
40
0.55319
50
89.924208
51
96.1377933
0
ARC
8
DEFAULT_255_1_234
10
20.6896491
20
29.0970542
40
0.5413475
50
76.6779277
51
90.4563316
0
ARC
8
DEFAULT_255_1_234
10
20.7290114
20
29.2561114
40
0.3775041
50
47.485847
51
76.9287264
0
ARC
8
DEFAULT_255_1_234
10
20.7143087
20
29.2461159
40
0.3948286
50
16.5424086
51
46.8933463
0
ARC
8
DEFAULT_255_1_234
10
20.5535244
20
29.1932861
40
0.564021
50
5.4072051
51
17.0365086
0
ARC
8
DEFAULT_255_1_234
10
20.4096261
20
29.1701679
40
0.5556559
50
7.8891745
51
15.9239216
0
ARC
8
DEFAULT_255_1_234
10
20.6083274
20
29.2278631
40
0.3487515
50
15.7653144
51
27.9410532
0
ARC
8
DEFAULT_255_1_234
10
20.7187492
20
29.286979
40
0.2235026
50
27.8166557
51
46.4008329
0
ARC
8
DEFAULT_255_1_234
10
20.7237135
20
29.2864082
40
0.2205286
50
47.4371857
51
75.0698205
0
ARC
8
DEFAULT_255_1_234
10
20.6928529
20
29.1789765
40
0.3322915
50
74.7008593
51
87.8124495
0
ARC
8
DEFAULT_255_1_234
10
20.6855217
20
29.0733844
40
0.4380987
50
87.3814673
51
90.0240855
0
ARC
8
DEFAULT_255_1_234
10
20.681676
20
29.1911291
40
0.3203749
50
89.3451631
51
108.5745436
0
ARC
8
DEFAULT_255_1_234
10
20.6679865
20
29.2424908
40
0.2673494
50
109.2998449
51
143.3037509
0
ARC
8
DEFAULT_255_1_234
10
20.7441938
20
29.1838881
40
0.3634757
50
143.0753173
51
163.1916937
0
ARC
8
DEFAULT_255_1_234
10
20.9393666
20
29.1222967
40
0.5681262
50
162.9373603
51
174.6208611
0
ARC
8
DEFAULT_255_1_234
10
21.2019708
20
29.093501
40
0.8322832
50
174.3419979
51
180.1430411
0
ARC
8
DEFAULT_255_1_234
10
21.1088864
20
28.9740698
40
0.7392076
50
179.6817502
51
189.150529
0
ARC
8
DEFAULT_255_1_234
10
20.8588112
20
28.932419
40
0.4856932
50
188.9910863
51
203.5773039
0
ARC
8
DEFAULT_255_1_234
10
20.7508445
20
28.8876211
40
0.3688271
50
203.9077269
51
215.1312379
0
ARC
8
DEFAULT_255_1_234
10
20.6585539
20
28.8160941
40
0.2522457
50
213.9071664
51
263.8849284
0
ARC
8
DEFAULT_255_1_234
10
20.6710868
20
28.8945518
40
0.3316174
50
263.1758525
51
270.1031083
0
ARC
8
DEFAULT_255_1_234
10
20.674296
20
29.0192365
40
0.4563091
50
269.6719807
51
279.0609165
0
ARC
8
DEFAULT_255_1_234
10
20.7009728
20
28.8579907
40
0.2928759
50
278.8750225
51
293.6346586
0
ARC
8
DEFAULT_255_1_234
10
20.7329936
20
28.78279
40
0.2111472
50
293.8553404
51
310.0518804
0
ARC
8
DEFAULT_255_1_234
10
20.733479
20
28.7765516
40
0.2060917
50
311.0646779
51
332.0108348
0
ARC
8
DEFAULT_255_1_234
10
20.6142517
20
28.8422978
40
0.3422352
50
331.6588543
51
343.2878891
0
ARC
8
DEFAULT_255_1_234
10
20.4080032
20
28.9056798
40
0.5580003
50
343.1446044
51
351.010618
0
ARC
8
DEFAULT_255_1_234
10
20.2538678
20
28.9337871
40
0.7146438
50
350.7157277
51
351.1602153
0
LINE
8
DEFAULT_255_1_234
10
22.2242186
20
29.6223211
11
22.2242186
21
28.4529
0
LINE
8
DEFAULT_255_1_234
10
22.2242186
20
28.4529
11
22.0692061
21
28.4529
0
LINE
8
DEFAULT_255_1_234
10
22.0692061
20
28.4529
11
22.0692061
21
28.993436
0
LINE
8
DEFAULT_255_1_234
10
22.0692061
20
28.993436
11
21.4796765
21
28.993436
0
LINE
8
DEFAULT_255_1_234
10
21.4796765
20
28.993436
11
21.4796765
21
28.4529
0
LINE
8
DEFAULT_255_1_234
10
21.4796765
20
28.4529
11
21.3254671
21
28.4529
0
LINE
8
DEFAULT_255_1_234
10
21.3254671
20
28.4529
11
21.3254671
21
29.6223211
0
LINE
8
DEFAULT_255_1_234
10
21.3254671
20
29.6223211
11
21.4796765
21
29.6223211
0
LINE
8
DEFAULT_255_1_234
10
21.4796765
20
29.6223211
11
21.4796765
21
29.1195343
0
LINE
8
DEFAULT_255_1_234
10
21.4796765
20
29.1195343
11
22.0692061
21
29.1195343
0
LINE
8
DEFAULT_255_1_234
10
22.0692061
20
29.1195343
11
22.0692061
21
29.6223211
0
LINE
8
DEFAULT_255_1_234
10
22.0692061
20
29.6223211
11
22.2242186
21
29.6223211
0
LINE
8
DEFAULT_255_1_234
10
23.2257764
20
28.5741792
11
23.2257764
21
28.4529
0
LINE
8
DEFAULT_255_1_234
10
23.2257764
20
28.4529
11
22.4595485
21
28.4529
0
LINE
8
DEFAULT_255_1_234
10
22.4595485
20
28.4529
11
22.4595485
21
28.5597221
0
LINE
8
DEFAULT_255_1_234
10
22.4595485
20
28.5597221
11
22.8643481
21
29.0094995
0
LINE
8
DEFAULT_255_1_234
10
22.5856468
20
29.2777595
11
22.4370597
21
29.2777595
0
LINE
8
DEFAULT_255_1_234
10
22.9518941
20
28.9139218
11
22.6386563
21
28.5741792
0
LINE
8
DEFAULT_255_1_234
10
22.6386563
20
28.5741792
11
23.2257764
21
28.5741792
0
ARC
8
DEFAULT_255_1_234
10
21.5153315
20
30.2024527
40
1.8008286
50
318.5132453
51
320.7828378
0
ARC
8
DEFAULT_255_1_234
10
22.0440289
20
29.7721426
40
1.1191493
50
320.7372736
51
323.9737074
0
ARC
8
DEFAULT_255_1_234
10
22.4360146
20
29.4881361
40
0.6350923
50
323.8961724
51
328.6421089
0
ARC
8
DEFAULT_255_1_234
10
22.6406741
20
29.3619031
40
0.3946393
50
328.8299013
51
331.789948
0
ARC
8
DEFAULT_255_1_234
10
22.7403919
20
29.3104509
40
0.2824501
50
331.4255242
51
352.9364833
0
ARC
8
DEFAULT_255_1_234
10
22.754042
20
29.3073976
40
0.2685315
50
353.2248685
51
0.0169286
0
ARC
8
DEFAULT_255_1_234
10
22.7750297
20
29.309695
40
0.2475536
50
359.4866256
51
15.9339782
0
ARC
8
DEFAULT_255_1_234
10
22.8257282
20
29.3233286
40
0.1950618
50
16.1714718
51
43.5284424
0
ARC
8
DEFAULT_255_1_234
10
22.8334591
20
29.3310573
40
0.184134
50
43.4415429
51
83.1661404
0
ARC
8
DEFAULT_255_1_234
10
22.8200509
20
29.2573771
40
0.258926
50
82.160215
51
90.1505798
0
ARC
8
DEFAULT_255_1_234
10
22.8168936
20
29.2036865
40
0.3126255
50
89.5460705
51
102.5418777
0
ARC
8
DEFAULT_255_1_234
10
22.7926022
20
29.3067665
40
0.2067346
50
102.1739365
51
129.2061916
0
ARC
8
DEFAULT_255_1_234
10
22.7847094
20
29.3192094
40
0.1921118
50
129.7279328
51
135.7542026
0
ARC
8
DEFAULT_255_1_234
10
22.7968622
20
29.3095045
40
0.2075944
50
136.175737
51
166.3674722
0
ARC
8
DEFAULT_255_1_234
10
22.8975541
20
29.2825182
40
0.3118201
50
165.9092917
51
178.8683903
0
ARC
8
DEFAULT_255_1_234
10
22.9840402
20
29.2778179
40
0.3983935
50
178.438168
51
180.0083905
0
ARC
8
DEFAULT_255_1_234
10
22.8439005
20
29.2817231
40
0.4068601
50
163.2878735
51
180.5581814
0
ARC
8
DEFAULT_255_1_234
10
22.7637266
20
29.303784
40
0.3237344
50
133.454115
51
162.9470031
0
ARC
8
DEFAULT_255_1_234
10
22.7815807
20
29.2848
40
0.349795
50
100.7869394
51
133.4384016
0
ARC
8
DEFAULT_255_1_234
10
22.8163579
20
29.1299319
40
0.5084616
50
89.6605301
51
101.3704185
0
ARC
8
DEFAULT_255_1_234
10
22.8229918
20
29.1360496
40
0.502348
50
78.2171172
51
90.4130393
0
ARC
8
DEFAULT_255_1_234
10
22.8584996
20
29.2984637
40
0.3361092
50
55.9268222
51
78.4888551
0
ARC
8
DEFAULT_255_1_234
10
22.8781436
20
29.3323324
40
0.2970617
50
47.9292255
51
55.4054003
0
ARC
8
DEFAULT_255_1_234
10
22.8882997
20
29.3426502
40
0.2825983
50
4.3347696
51
48.0560701
0
ARC
8
DEFAULT_255_1_234
10
22.778739
20
29.3256601
40
0.393225
50
359.925209
51
5.5967654
0
ARC
8
DEFAULT_255_1_234
10
22.8216282
20
29.3312816
40
0.3503892
50
337.8914096
51
358.9967724
0
ARC
8
DEFAULT_255_1_234
10
22.5502694
20
29.4359706
40
0.6412172
50
326.9135351
51
338.3505194
0
ARC
8
DEFAULT_255_1_234
10
22.1516998
20
29.6914284
40
1.1146189
50
319.6472867
51
327.095818
0
ARC
8
DEFAULT_255_1_234
10
21.7684001
20
30.0076
40
1.6114559
50
317.2586784
51
319.9046139
0
LINE
8
DEFAULT_255_1_234
10
24.134166
20
28.8906297
11
24.134166
21
28.877779
0
LINE
8
DEFAULT_255_1_234
10
23.5422269
20
28.5532967
11
23.5349983
21
28.4529
0
LINE
8
DEFAULT_255_1_234
10
23.5349983
20
28.4529
11
23.3984587
21
28.4529
0
LINE
8
DEFAULT_255_1_234
10
23.3984587
20
28.4529
11
23.3984587
21
29.686575
0
LINE
8
DEFAULT_255_1_234
10
23.3984587
20
29.686575
11
23.5470459
21
29.686575
0
LINE
8
DEFAULT_255_1_234
10
23.5470459
20
29.686575
11
23.5470459
21
29.2263564
0
LINE
8
DEFAULT_255_1_234
10
23.5470459
20
29.0753597
11
23.5470459
21
28.6994744
0
ARC
8
DEFAULT_255_1_234
10
23.4294935
20
28.8733573
40
0.7046863
50
349.4825105
51
0.3595108
0
ARC
8
DEFAULT_255_1_234
10
23.6572176
20
28.8295022
40
0.4727857
50
331.8602128
51
349.6704139
0
ARC
8
DEFAULT_255_1_234
10
23.7304944
20
28.7938125
40
0.3913503
50
322.8939783
51
331.4081204
0
ARC
8
DEFAULT_255_1_234
10
23.8000342
20
28.7358707
40
0.300965
50
296.7249167
51
323.7044215
0
ARC
8
DEFAULT_255_1_234
10
23.8030239
20
28.7428043
40
0.3058683
50
270.6342811
51
295.6405548
0
ARC
8
DEFAULT_255_1_234
10
23.7968549
20
28.8230995
40
0.3862632
50
269.9967524
51
271.4174733
0
ARC
8
DEFAULT_255_1_234
10
23.7930213
20
28.8095686
40
0.3727515
50
253.657532
51
270.5859025
0
ARC
8
DEFAULT_255_1_234
10
23.7699319
20
28.7252235
40
0.2853216
50
217.0543181
51
253.3409865
0
ARC
8
DEFAULT_255_1_234
10
23.7765987
20
29.0436052
40
0.2934152
50
93.1931545
51
141.4760602
0
ARC
8
DEFAULT_255_1_234
10
23.7948203
20
28.9203453
40
0.4176524
50
89.9442578
51
94.747309
0
ARC
8
DEFAULT_255_1_234
10
23.799195
20
29.002641
40
0.3353801
50
70.6103515
51
90.6779749
0
ARC
8
DEFAULT_255_1_234
10
23.8106252
20
29.048189
40
0.2886533
50
36.1152635
51
69.7489296
0
ARC
8
DEFAULT_255_1_234
10
23.7119656
20
28.9728708
40
0.4127561
50
15.4648517
51
36.4891396
0
ARC
8
DEFAULT_255_1_234
10
23.5061342
20
28.9129524
40
0.6271187
50
3.9220813
51
15.7265815
0
ARC
8
DEFAULT_255_1_234
10
23.2702186
20
28.8917325
40
0.863948
50
359.9268643
51
4.2559037
0
ARC
8
DEFAULT_255_1_234
10
23.3516567
20
28.8977103
40
0.6339295
50
359.7230081
51
7.7115859
0
ARC
8
DEFAULT_255_1_234
10
23.5778132
20
28.9293172
40
0.4055784
50
7.5740023
51
19.4151451
0
ARC
8
DEFAULT_255_1_234
10
23.7045771
20
28.9739519
40
0.2711858
50
19.4238354
51
34.9161182
0
ARC
8
DEFAULT_255_1_234
10
23.7716509
20
29.0226172
40
0.1883373
50
34.4556322
51
84.4656458
0
ARC
8
DEFAULT_255_1_234
10
23.7587957
20
28.9471057
40
0.2647939
50
83.2727306
51
90.1114621
0
ARC
8
DEFAULT_255_1_234
10
23.7545814
20
28.9669509
40
0.2449763
50
89.1347934
51
111.4089923
0
ARC
8
DEFAULT_255_1_234
10
23.7466365
20
28.9997473
40
0.2115923
50
112.6478598
51
148.9260864
0
ARC
8
DEFAULT_255_1_234
10
23.8244163
20
28.9455985
40
0.3062228
50
147.7597608
51
154.928557
0
ARC
8
DEFAULT_255_1_234
10
23.7984224
20
28.8211379
40
0.2792708
50
205.8264786
51
224.5301003
0
ARC
8
DEFAULT_255_1_234
10
23.7506528
20
28.7784914
40
0.2153317
50
225.354483
51
269.2437579
0
ARC
8
DEFAULT_255_1_234
10
23.7598163
20
28.8591292
40
0.2961942
50
267.6770046
51
270.0136612
0
ARC
8
DEFAULT_255_1_234
10
23.7625514
20
28.7832938
40
0.2203751
50
269.3072485
51
289.499141
0
ARC
8
DEFAULT_255_1_234
10
23.7697578
20
28.7536394
40
0.1900415
50
290.4353973
51
325.3766314
0
ARC
8
DEFAULT_255_1_234
10
23.7068801
20
28.7990643
40
0.2675986
50
325.0223901
51
342.692398
0
ARC
8
DEFAULT_255_1_234
10
23.5371689
20
28.8542812
40
0.446058
50
342.4062876
51
352.8669243
0
ARC
8
DEFAULT_255_1_234
10
23.2651164
20
28.8899975
40
0.7204419
50
352.7350668
51
359.8556985
0
ARC
8
DEFAULT_255_1_234
10
23.074086
20
28.8946018
40
0.9114927
50
359.5965197
51
0.0027543
0
LINE
8
DEFAULT_255_1_234
10
20.804623
20
36.7614663
11
20.9596355
21
36.7614663
0
LINE
8
DEFAULT_255_1_234
10
20.0592777
20
36.9204947
11
20.0592777
21
37.0329391
0
LINE
8
DEFAULT_255_1_234
10
20.9596355
20
37.1839357
11
20.804623
21
37.1839357
0
LINE
8
DEFAULT_255_1_234
10
20.2142902
20
37.0289232
11
20.2142902
21
36.9156757
0
ARC
8
DEFAULT_255_1_234
10
20.4115742
20
36.8211846
40
0.5513052
50
340.1774281
51
353.7814284
0
ARC
8
DEFAULT_255_1_234
10
20.5687095
20
36.7626582
40
0.3836379
50
311.4558989
51
340.4421614
0
ARC
8
DEFAULT_255_1_234
10
20.5653763
20
36.7737528
40
0.3941894
50
282.4333181
51
310.7513653
0
ARC
8
DEFAULT_255_1_234
10
20.5214502
20
36.9552679
40
0.5809175
50
269.9358511
51
282.809604
0
ARC
8
DEFAULT_255_1_234
10
20.5162568
20
37.1010212
40
0.7266847
50
270.0021091
51
270.3581957
0
ARC
8
DEFAULT_255_1_234
10
20.5109985
20
36.8409585
40
0.4666519
50
250.7884749
51
270.6489167
0
ARC
8
DEFAULT_255_1_234
10
20.494182
20
36.7772319
40
0.4009729
50
219.3627325
51
250.0611886
0
ARC
8
DEFAULT_255_1_234
10
20.5771031
20
36.8477042
40
0.5097822
50
193.5479632
51
219.5756669
0
ARC
8
DEFAULT_255_1_234
10
20.8142652
20
36.9092919
40
0.7547848
50
181.1218675
51
193.87563
0
ARC
8
DEFAULT_255_1_234
10
21.0212833
20
36.920358
40
0.9620055
50
179.9918545
51
181.5394234
0
ARC
8
DEFAULT_255_1_234
10
20.8361935
20
37.0366788
40
0.7769248
50
169.5837241
51
180.2757934
0
ARC
8
DEFAULT_255_1_234
10
20.6524873
20
37.0706229
40
0.590109
50
155.0365899
51
169.6003176
0
ARC
8
DEFAULT_255_1_234
10
20.5389337
20
37.1253677
40
0.4640625
50
136.783148
51
155.2472683
0
ARC
8
DEFAULT_255_1_234
10
20.4999814
20
37.1584562
40
0.4130255
50
121.7633186
51
136.428115
0
ARC
8
DEFAULT_255_1_234
10
20.5134776
20
37.1335227
40
0.4413323
50
95.6459699
51
121.5490577
0
ARC
8
DEFAULT_255_1_234
10
20.5292058
20
37.0226949
40
0.55319
50
89.924208
51
96.1377933
0
ARC
8
DEFAULT_255_1_234
10
20.5342491
20
37.0345542
40
0.5413475
50
76.6779277
51
90.4563316
0
ARC
8
DEFAULT_255_1_234
10
20.5736114
20
37.1936114
40
0.3775041
50
47.485847
51
76.9287264
0
ARC
8
DEFAULT_255_1_234
10
20.5589087
20
37.1836159
40
0.3948286
50
16.5424086
51
46.8933463
0
ARC
8
DEFAULT_255_1_234
10
20.3981244
20
37.1307861
40
0.564021
50
5.4072051
51
17.0365086
0
ARC
8
DEFAULT_255_1_234
10
20.2542261
20
37.1076679
40
0.5556559
50
7.8891745
51
15.9239216
0
ARC
8
DEFAULT_255_1_234
10
20.4529274
20
37.1653631
40
0.3487515
50
15.7653144
51
27.9410532
0
ARC
8
DEFAULT_255_1_234
10
20.5633492
20
37.224479
40
0.2235026
50
27.8166557
51
46.4008329
0
ARC
8
DEFAULT_255_1_234
10
20.5683135
20
37.2239082
40
0.2205286
50
47.4371857
51
75.0698205
0
ARC
8
DEFAULT_255_1_234
10
20.5374529
20
37.1164765
40
0.3322915
50
74.7008593
51
87.8124495
0
ARC
8
DEFAULT_255_1_234
10
20.5301217
20
37.0108844
40
0.4380987
50
87.3814673
51
90.0240855
0
ARC
8
DEFAULT_255_1_234
10
20.526276
20
37.1286291
40
0.3203749
50
89.3451631
51
108.5745436
0
ARC
8
DEFAULT_255_1_234
10
20.5125865
20
37.1799908
40
0.2673494
50
109.2998449
51
143.3037509
0
ARC
8
DEFAULT_255_1_234
10
20.5887938
20
37.1213881
40
0.3634757
50
143.0753173
51
163.1916937
0
ARC
8
DEFAULT_255_1_234
10
20.7839666
20
37.0597967
40
0.5681262
50
162.9373603
51
174.6208611
0
ARC
8
DEFAULT_255_1_234
10
21.0465708
20
37.031001
40
0.8322832
50
174.3419979
51
180.1430411
0
ARC
8
DEFAULT_255_1_234
10
20.9534864
20
36.9115698
40
0.7392076
50
179.6817502
51
189.150529
0
ARC
8
DEFAULT_255_1_234
10
20.7034112
20
36.869919
40
0.4856932
50
188.9910863
51
203.5773039
0
ARC
8
DEFAULT_255_1_234
10
20.5954445
20
36.8251211
40
0.3688271
50
203.9077269
51
215.1312379
0
ARC
8
DEFAULT_255_1_234
10
20.5031539
20
36.7535941
40
0.2522457
50
213.9071664
51
263.8849284
0
ARC
8
DEFAULT_255_1_234
10
20.5156868
20
36.8320518
40
0.3316174
50
263.1758525
51
270.1031083
0
ARC
8
DEFAULT_255_1_234
10
20.518896
20
36.9567365
40
0.4563091
50
269.6719807
51
279.0609165
0
ARC
8
DEFAULT_255_1_234
10
20.5455728
20
36.7954907
40
0.2928759
50
278.8750225
51
293.6346586
0
ARC
8
DEFAULT_255_1_234
10
20.5775936
20
36.72029
40
0.2111472
50
293.8553404
51
310.0518804
0
ARC
8
DEFAULT_255_1_234
10
20.578079
20
36.7140516
40
0.2060917
50
311.0646779
51
332.0108348
0
ARC
8
DEFAULT_255_1_234
10
20.4588517
20
36.7797978
40
0.3422352
50
331.6588543
51
343.2878891
0
ARC
8
DEFAULT_255_1_234
10
20.2526032
20
36.8431798
40
0.5580003
50
343.1446044
51
351.010618
0
ARC
8
DEFAULT_255_1_234
10
20.0984678
20
36.8712871
40
0.7146438
50
350.7157277
51
351.1602153
0
LINE
8
DEFAULT_255_1_234
10
22.0688186
20
37.5598211
11
22.0688186
21
36.3904
0
LINE
8
DEFAULT_255_1_234
10
22.0688186
20
36.3904
11
21.9138061
21
36.3904
0
LINE
8
DEFAULT_255_1_234
10
21.9138061
20
36.3904
11
21.9138061
21
36.930936
0
LINE
8
DEFAULT_255_1_234
10
21.9138061
20
36.930936
11
21.3242765
21
36.930936
0
LINE
8
DEFAULT_255_1_234
10
21.3242765
20
36.930936
11
21.3242765
21
36.3904
0
LINE
8
DEFAULT_255_1_234
10
21.3242765
20
36.3904
11
21.1700671
21
36.3904
0
LINE
8
DEFAULT_255_1_234
10
21.1700671
20
36.3904
11
21.1700671
21
37.5598211
0
LINE
8
DEFAULT_255_1_234
10
21.1700671
20
37.5598211
11
21.3242765
21
37.5598211
0
LINE
8
DEFAULT_255_1_234
10
21.3242765
20
37.5598211
11
21.3242765
21
37.0570343
0
LINE
8
DEFAULT_255_1_234
10
21.3242765
20
37.0570343
11
21.9138061
21
37.0570343
0
LINE
8
DEFAULT_255_1_234
10
21.9138061
20
37.0570343
11
21.9138061
21
37.5598211
0
LINE
8
DEFAULT_255_1_234
10
21.9138061
20
37.5598211
11
22.0688186
21
37.5598211
0
LINE
8
DEFAULT_255_1_234
10
23.0703764
20
36.5116792
11
23.0703764
21
36.3904
0
LINE
8
DEFAULT_255_1_234
10
23.0703764
20
36.3904
11
22.3041485
21
36.3904
0
LINE
8
DEFAULT_255_1_234
10
22.3041485
20
36.3904
11
22.3041485
21
36.4972221
0
LINE
8
DEFAULT_255_1_234
10
22.3041485
20
36.4972221
11
22.7089481
21
36.9469995
0
LINE
8
DEFAULT_255_1_234
10
22.4302468
20
37.2152595
11
22.2816597
21
37.2152595
0
LINE
8
DEFAULT_255_1_234
10
22.7964941
20
36.8514218
11
22.4832563
21
36.5116792
0
LINE
8
DEFAULT_255_1_234
10
22.4832563
20
36.5116792
11
23.0703764
21
36.5116792
0
ARC
8
DEFAULT_255_1_234
10
21.3599315
20
38.1399527
40
1.8008286
50
318.5132453
51
320.7828378
0
ARC
8
DEFAULT_255_1_234
10
21.8886289
20
37.7096426
40
1.1191493
50
320.7372736
51
323.9737074
0
ARC
8
DEFAULT_255_1_234
10
22.2806146
20
37.4256361
40
0.6350923
50
323.8961724
51
328.6421089
0
ARC
8
DEFAULT_255_1_234
10
22.4852741
20
37.2994031
40
0.3946393
50
328.8299013
51
331.789948
0
ARC
8
DEFAULT_255_1_234
10
22.5849919
20
37.2479509
40
0.2824501
50
331.4255242
51
352.9364833
0
ARC
8
DEFAULT_255_1_234
10
22.598642
20
37.2448976
40
0.2685315
50
353.2248685
51
0.0169286
0
ARC
8
DEFAULT_255_1_234
10
22.6196297
20
37.247195
40
0.2475536
50
359.4866256
51
15.9339782
0
ARC
8
DEFAULT_255_1_234
10
22.6703282
20
37.2608286
40
0.1950618
50
16.1714718
51
43.5284424
0
ARC
8
DEFAULT_255_1_234
10
22.6780591
20
37.2685573
40
0.184134
50
43.4415429
51
83.1661404
0
ARC
8
DEFAULT_255_1_234
10
22.6646509
20
37.1948771
40
0.258926
50
82.160215
51
90.1505798
0
ARC
8
DEFAULT_255_1_234
10
22.6614936
20
37.1411865
40
0.3126255
50
89.5460705
51
102.5418777
0
ARC
8
DEFAULT_255_1_234
10
22.6372022
20
37.2442665
40
0.2067346
50
102.1739365
51
129.2061916
0
ARC
8
DEFAULT_255_1_234
10
22.6293094
20
37.2567094
40
0.1921118
50
129.7279328
51
135.7542026
0
ARC
8
DEFAULT_255_1_234
10
22.6414622
20
37.2470045
40
0.2075944
50
136.175737
51
166.3674722
0
ARC
8
DEFAULT_255_1_234
10
22.7421541
20
37.2200182
40
0.3118201
50
165.9092917
51
178.8683903
0
ARC
8
DEFAULT_255_1_234
10
22.8286402
20
37.2153179
40
0.3983935
50
178.438168
51
180.0083905
0
ARC
8
DEFAULT_255_1_234
10
22.6885005
20
37.2192231
40
0.4068601
50
163.2878735
51
180.5581814
0
ARC
8
DEFAULT_255_1_234
10
22.6083266
20
37.241284
40
0.3237344
50
133.454115
51
162.9470031
0
ARC
8
DEFAULT_255_1_234
10
22.6261807
20
37.2223
40
0.349795
50
100.7869394
51
133.4384016
0
ARC
8
DEFAULT_255_1_234
10
22.6609579
20
37.0674319
40
0.5084616
50
89.6605301
51
101.3704185
0
ARC
8
DEFAULT_255_1_234
10
22.6675918
20
37.0735496
40
0.502348
50
78.2171172
51
90.4130393
0
ARC
8
DEFAULT_255_1_234
10
22.7030996
20
37.2359637
40
0.3361092
50
55.9268222
51
78.4888551
0
ARC
8
DEFAULT_255_1_234
10
22.7227436
20
37.2698324
40
0.2970617
50
47.9292255
51
55.4054003
0
ARC
8
DEFAULT_255_1_234
10
22.7328997
20
37.2801502
40
0.2825983
50
4.3347696
51
48.0560701
0
ARC
8
DEFAULT_255_1_234
10
22.623339
20
37.2631601
40
0.393225
50
359.925209
51
5.5967654
0
ARC
8
DEFAULT_255_1_234
10
22.6662282
20
37.2687816
40
0.3503892
50
337.8914096
51
358.9967724
0
ARC
8
DEFAULT_255_1_234
10
22.3948694
20
37.3734706
40
0.6412172
50
326.9135351
51
338.3505194
0
ARC
8
DEFAULT_255_1_234
10
21.9962998
20
37.6289284
40
1.1146189
50
319.6472867
51
327.095818
0
ARC
8
DEFAULT_255_1_234
10
21.6130001
20
37.9451
40
1.6114559
50
317.2586784
51
319.9046139
0
LINE
8
DEFAULT_255_1_234
10
23.6719536
20
36.3904
11
23.2663508
21
36.3904
0
LINE
8
DEFAULT_255_1_234
10
23.2663508
20
36.3904
11
23.2663508
21
37.5598211
0
LINE
8
DEFAULT_255_1_234
10
23.2663508
20
37.5598211
11
23.6486615
21
37.5598211
0
LINE
8
DEFAULT_255_1_234
10
23.6775758
20
36.9373614
11
23.4205602
21
36.9373614
0
LINE
8
DEFAULT_255_1_234
10
23.4205602
20
36.9373614
11
23.4205602
21
36.5164983
0
LINE
8
DEFAULT_255_1_234
10
23.4205602
20
36.5164983
11
23.6751663
21
36.5164983
0
LINE
8
DEFAULT_255_1_234
10
23.4205602
20
37.4329196
11
23.4205602
21
37.0610501
0
LINE
8
DEFAULT_255_1_234
10
23.4205602
20
37.0610501
11
23.6534806
21
37.0610501
0
LINE
8
DEFAULT_255_1_234
10
23.6486615
20
37.4329196
11
23.4205602
21
37.4329196
0
ARC
8
DEFAULT_255_1_234
10
23.6524324
20
36.8230901
40
0.7367406
50
82.1257326
51
90.2932599
0
ARC
8
DEFAULT_255_1_234
10
23.6913279
20
37.0949013
40
0.4621653
50
69.9044149
51
82.2857423
0
ARC
8
DEFAULT_255_1_234
10
23.7483957
20
37.2491637
40
0.2976871
50
51.1838526
51
70.0181538
0
ARC
8
DEFAULT_255_1_234
10
23.7738923
20
37.286224
40
0.2528517
50
12.1017251
51
50.4214761
0
ARC
8
DEFAULT_255_1_234
10
23.6354797
20
37.2514676
40
0.3955061
50
359.5251267
51
12.8211707
0
ARC
8
DEFAULT_255_1_234
10
23.7934723
20
37.2445344
40
0.2375281
50
323.4908128
51
0.8817314
0
ARC
8
DEFAULT_255_1_234
10
23.751641
20
37.276855
40
0.2903817
50
298.6825083
51
323.2756573
0
ARC
8
DEFAULT_255_1_234
10
23.7154773
20
37.3369649
40
0.3604842
50
293.1999386
51
299.1396394
0
ARC
8
DEFAULT_255_1_234
10
23.7827746
20
36.7284126
40
0.2871098
50
54.0011765
51
74.9167975
0
ARC
8
DEFAULT_255_1_234
10
23.7944105
20
36.7481332
40
0.2643248
50
36.3580696
51
53.5291921
0
ARC
8
DEFAULT_255_1_234
10
23.7817347
20
36.7390998
40
0.2798884
50
4.8189881
51
36.3089977
0
ARC
8
DEFAULT_255_1_234
10
23.7038182
20
36.728127
40
0.358478
50
359.9370252
51
5.5204067
0
ARC
8
DEFAULT_255_1_234
10
23.6713704
20
36.7240667
40
0.3909429
50
344.7478609
51
0.5373281
0
ARC
8
DEFAULT_255_1_234
10
23.7704675
20
36.6973544
40
0.2883093
50
311.1786488
51
344.6886812
0
ARC
8
DEFAULT_255_1_234
10
23.7412722
20
36.7336987
40
0.3348923
50
286.0418249
51
310.8441291
0
ARC
8
DEFAULT_255_1_234
10
23.6905554
20
36.8983807
40
0.5071869
50
274.1042341
51
286.4071509
0
ARC
8
DEFAULT_255_1_234
10
23.672881
20
37.0867229
40
0.6963234
50
269.9236873
51
274.445647
0
ARC
8
DEFAULT_255_1_234
10
23.6774811
20
36.8527537
40
0.3362634
50
269.6055768
51
281.3740047
0
ARC
8
DEFAULT_255_1_234
10
23.7005449
20
36.7434353
40
0.224546
50
281.1055983
51
302.5132223
0
ARC
8
DEFAULT_255_1_234
10
23.7152348
20
36.7170823
40
0.1944357
50
303.0368945
51
311.8811219
0
ARC
8
DEFAULT_255_1_234
10
23.7223755
20
36.708589
40
0.1833454
50
311.9916004
51
351.7143462
0
ARC
8
DEFAULT_255_1_234
10
23.6406985
20
36.725093
40
0.2665871
50
350.7339597
51
0.2221581
0
ARC
8
DEFAULT_255_1_234
10
23.6299431
20
36.7307467
40
0.2773789
50
359.0456241
51
17.2296242
0
ARC
8
DEFAULT_255_1_234
10
23.7338548
20
36.7616163
40
0.1689915
50
17.6685481
51
78.9940892
0
ARC
8
DEFAULT_255_1_234
10
23.6821712
20
36.5761224
40
0.3612658
50
76.5635957
51
90.6980921
0
LINE
8
DEFAULT_255_1_234
10
23.6777696
20
36.9373613
11
23.6775758
21
36.9373614
0
ARC
8
DEFAULT_255_1_234
10
23.6557372
20
37.3896036
40
0.3285612
50
269.6064736
51
281.4533503
0
ARC
8
DEFAULT_255_1_234
10
23.6780192
20
37.2844688
40
0.2210975
50
281.2041486
51
302.5148063
0
ARC
8
DEFAULT_255_1_234
10
23.6917042
20
37.2598241
40
0.1929674
50
303.021671
51
309.8369575
0
ARC
8
DEFAULT_255_1_234
10
23.7100503
20
37.2392488
40
0.1654181
50
309.5228395
51
356.9509836
0
ARC
8
DEFAULT_255_1_234
10
23.6437086
20
37.2487932
40
0.2322512
50
355.4701227
51
0.0492546
0
ARC
8
DEFAULT_255_1_234
10
23.6158177
20
37.2510094
40
0.2601498
50
359.5558597
51
11.2096359
0
ARC
8
DEFAULT_255_1_234
10
23.7115467
20
37.270823
40
0.1623975
50
10.9182341
51
31.3230275
0
ARC
8
DEFAULT_255_1_234
10
23.74012
20
37.2867214
40
0.1297302
50
31.8852677
51
52.1412565
0
ARC
8
DEFAULT_255_1_234
10
23.7126933
20
37.247975
40
0.1771663
50
52.8285564
51
71.9850297
0
ARC
8
DEFAULT_255_1_234
10
23.6751109
20
37.1373664
40
0.2939794
50
71.6863486
51
82.8455995
0
ARC
8
DEFAULT_255_1_234
10
23.6511645
20
36.9564149
40
0.476506
50
82.6984714
51
90.1729175
0
ARC
8
DEFAULT_255_1_234
10
23.648928
20
37.0787623
40
0.3541573
50
89.8708275
51
90.0431131
0
LINE
8
DEFAULT_255_1_234
10
20.674023
20
44.6989663
11
20.8290355
21
44.6989663
0
LINE
8
DEFAULT_255_1_234
10
19.9286777
20
44.8579947
11
19.9286777
21
44.9704391
0
LINE
8
DEFAULT_255_1_234
10
20.8290355
20
45.1214357
11
20.674023
21
45.1214357
0
LINE
8
DEFAULT_255_1_234
10
20.0836902
20
44.9664232
11
20.0836902
21
44.8531757
0
ARC
8
DEFAULT_255_1_234
10
20.2809742
20
44.7586846
40
0.5513052
50
340.1774281
51
353.7814284
0
ARC
8
DEFAULT_255_1_234
10
20.4381095
20
44.7001582
40
0.3836379
50
311.4558989
51
340.4421614
0
ARC
8
DEFAULT_255_1_234
10
20.4347763
20
44.7112528
40
0.3941894
50
282.4333181
51
310.7513653
0
ARC
8
DEFAULT_255_1_234
10
20.3908502
20
44.8927679
40
0.5809175
50
269.9358511
51
282.809604
0
ARC
8
DEFAULT_255_1_234
10
20.3856568
20
45.0385212
40
0.7266847
50
270.0021091
51
270.3581957
0
ARC
8
DEFAULT_255_1_234
10
20.3803985
20
44.7784585
40
0.4666519
50
250.7884749
51
270.6489167
0
ARC
8
DEFAULT_255_1_234
10
20.363582
20
44.7147319
40
0.4009729
50
219.3627325
51
250.0611886
0
ARC
8
DEFAULT_255_1_234
10
20.4465031
20
44.7852042
40
0.5097822
50
193.5479632
51
219.5756669
0
ARC
8
DEFAULT_255_1_234
10
20.6836652
20
44.8467919
40
0.7547848
50
181.1218675
51
193.87563
0
ARC
8
DEFAULT_255_1_234
10
20.8906833
20
44.857858
40
0.9620055
50
179.9918545
51
181.5394234
0
ARC
8
DEFAULT_255_1_234
10
20.7055935
20
44.9741788
40
0.7769248
50
169.5837241
51
180.2757934
0
ARC
8
DEFAULT_255_1_234
10
20.5218873
20
45.0081229
40
0.590109
50
155.0365899
51
169.6003176
0
ARC
8
DEFAULT_255_1_234
10
20.4083337
20
45.0628677
40
0.4640625
50
136.783148
51
155.2472683
0
ARC
8
DEFAULT_255_1_234
10
20.3693814
20
45.0959562
40
0.4130255
50
121.7633186
51
136.428115
0
ARC
8
DEFAULT_255_1_234
10
20.3828776
20
45.0710227
40
0.4413323
50
95.6459699
51
121.5490577
0
ARC
8
DEFAULT_255_1_234
10
20.3986058
20
44.9601949
40
0.55319
50
89.924208
51
96.1377933
0
ARC
8
DEFAULT_255_1_234
10
20.4036491
20
44.9720542
40
0.5413475
50
76.6779277
51
90.4563316
0
ARC
8
DEFAULT_255_1_234
10
20.4430114
20
45.1311114
40
0.3775041
50
47.485847
51
76.9287264
0
ARC
8
DEFAULT_255_1_234
10
20.4283087
20
45.1211159
40
0.3948286
50
16.5424086
51
46.8933463
0
ARC
8
DEFAULT_255_1_234
10
20.2675244
20
45.0682861
40
0.564021
50
5.4072051
51
17.0365086
0
ARC
8
DEFAULT_255_1_234
10
20.1236261
20
45.0451679
40
0.5556559
50
7.8891745
51
15.9239216
0
ARC
8
DEFAULT_255_1_234
10
20.3223274
20
45.1028631
40
0.3487515
50
15.7653144
51
27.9410532
0
ARC
8
DEFAULT_255_1_234
10
20.4327492
20
45.161979
40
0.2235026
50
27.8166557
51
46.4008329
0
ARC
8
DEFAULT_255_1_234
10
20.4377135
20
45.1614082
40
0.2205286
50
47.4371857
51
75.0698205
0
ARC
8
DEFAULT_255_1_234
10
20.4068529
20
45.0539765
40
0.3322915
50
74.7008593
51
87.8124495
0
ARC
8
DEFAULT_255_1_234
10
20.3995217
20
44.9483844
40
0.4380987
50
87.3814673
51
90.0240855
0
ARC
8
DEFAULT_255_1_234
10
20.395676
20
45.0661291
40
0.3203749
50
89.3451631
51
108.5745436
0
ARC
8
DEFAULT_255_1_234
10
20.3819865
20
45.1174908
40
0.2673494
50
109.2998449
51
143.3037509
0
ARC
8
DEFAULT_255_1_234
10
20.4581938
20
45.0588881
40
0.3634757
50
143.0753173
51
163.1916937
0
ARC
8
DEFAULT_255_1_234
10
20.6533666
20
44.9972967
40
0.5681262
50
162.9373603
51
174.6208611
0
ARC
8
DEFAULT_255_1_234
10
20.9159708
20
44.968501
40
0.8322832
50
174.3419979
51
180.1430411
0
ARC
8
DEFAULT_255_1_234
10
20.8228864
20
44.8490698
40
0.7392076
50
179.6817502
51
189.150529
0
ARC
8
DEFAULT_255_1_234
10
20.5728112
20
44.807419
40
0.4856932
50
188.9910863
51
203.5773039
0
ARC
8
DEFAULT_255_1_234
10
20.4648445
20
44.7626211
40
0.3688271
50
203.9077269
51
215.1312379
0
ARC
8
DEFAULT_255_1_234
10
20.3725539
20
44.6910941
40
0.2522457
50
213.9071664
51
263.8849284
0
ARC
8
DEFAULT_255_1_234
10
20.3850868
20
44.7695518
40
0.3316174
50
263.1758525
51
270.1031083
0
ARC
8
DEFAULT_255_1_234
10
20.388296
20
44.8942365
40
0.4563091
50
269.6719807
51
279.0609165
0
ARC
8
DEFAULT_255_1_234
10
20.4149728
20
44.7329907
40
0.2928759
50
278.8750225
51
293.6346586
0
ARC
8
DEFAULT_255_1_234
10
20.4469936
20
44.65779
40
0.2111472
50
293.8553404
51
310.0518804
0
ARC
8
DEFAULT_255_1_234
10
20.447479
20
44.6515516
40
0.2060917
50
311.0646779
51
332.0108348
0
ARC
8
DEFAULT_255_1_234
10
20.3282517
20
44.7172978
40
0.3422352
50
331.6588543
51
343.2878891
0
ARC
8
DEFAULT_255_1_234
10
20.1220032
20
44.7806798
40
0.5580003
50
343.1446044
51
351.010618
0
ARC
8
DEFAULT_255_1_234
10
19.9678678
20
44.8087871
40
0.7146438
50
350.7157277
51
351.1602153
0
LINE
8
DEFAULT_255_1_234
10
21.9382186
20
45.4973211
11
21.9382186
21
44.3279
0
LINE
8
DEFAULT_255_1_234
10
21.9382186
20
44.3279
11
21.7832061
21
44.3279
0
LINE
8
DEFAULT_255_1_234
10
21.7832061
20
44.3279
11
21.7832061
21
44.868436
0
LINE
8
DEFAULT_255_1_234
10
21.7832061
20
44.868436
11
21.1936765
21
44.868436
0
LINE
8
DEFAULT_255_1_234
10
21.1936765
20
44.868436
11
21.1936765
21
44.3279
0
LINE
8
DEFAULT_255_1_234
10
21.1936765
20
44.3279
11
21.0394671
21
44.3279
0
LINE
8
DEFAULT_255_1_234
10
21.0394671
20
44.3279
11
21.0394671
21
45.4973211
0
LINE
8
DEFAULT_255_1_234
10
21.0394671
20
45.4973211
11
21.1936765
21
45.4973211
0
LINE
8
DEFAULT_255_1_234
10
21.1936765
20
45.4973211
11
21.1936765
21
44.9945343
0
LINE
8
DEFAULT_255_1_234
10
21.1936765
20
44.9945343
11
21.7832061
21
44.9945343
0
LINE
8
DEFAULT_255_1_234
10
21.7832061
20
44.9945343
11
21.7832061
21
45.4973211
0
LINE
8
DEFAULT_255_1_234
10
21.7832061
20
45.4973211
11
21.9382186
21
45.4973211
0
LINE
8
DEFAULT_255_1_234
10
22.9397764
20
44.4491792
11
22.9397764
21
44.3279
0
LINE
8
DEFAULT_255_1_234
10
22.9397764
20
44.3279
11
22.1735485
21
44.3279
0
LINE
8
DEFAULT_255_1_234
10
22.1735485
20
44.3279
11
22.1735485
21
44.4347221
0
LINE
8
DEFAULT_255_1_234
10
22.1735485
20
44.4347221
11
22.5783481
21
44.8844995
0
LINE
8
DEFAULT_255_1_234
10
22.2996468
20
45.1527595
11
22.1510597
21
45.1527595
0
LINE
8
DEFAULT_255_1_234
10
22.6658941
20
44.7889218
11
22.3526563
21
44.4491792
0
LINE
8
DEFAULT_255_1_234
10
22.3526563
20
44.4491792
11
22.9397764
21
44.4491792
0
ARC
8
DEFAULT_255_1_234
10
21.2293315
20
46.0774527
40
1.8008286
50
318.5132453
51
320.7828378
0
ARC
8
DEFAULT_255_1_234
10
21.7580289
20
45.6471426
40
1.1191493
50
320.7372736
51
323.9737074
0
ARC
8
DEFAULT_255_1_234
10
22.1500146
20
45.3631361
40
0.6350923
50
323.8961724
51
328.6421089
0
ARC
8
DEFAULT_255_1_234
10
22.3546741
20
45.2369031
40
0.3946393
50
328.8299013
51
331.789948
0
ARC
8
DEFAULT_255_1_234
10
22.4543919
20
45.1854509
40
0.2824501
50
331.4255242
51
352.9364833
0
ARC
8
DEFAULT_255_1_234
10
22.468042
20
45.1823976
40
0.2685315
50
353.2248685
51
0.0169286
0
ARC
8
DEFAULT_255_1_234
10
22.4890297
20
45.184695
40
0.2475536
50
359.4866256
51
15.9339782
0
ARC
8
DEFAULT_255_1_234
10
22.5397282
20
45.1983286
40
0.1950618
50
16.1714718
51
43.5284424
0
ARC
8
DEFAULT_255_1_234
10
22.5474591
20
45.2060573
40
0.184134
50
43.4415429
51
83.1661404
0
ARC
8
DEFAULT_255_1_234
10
22.5340509
20
45.1323771
40
0.258926
50
82.160215
51
90.1505798
0
ARC
8
DEFAULT_255_1_234
10
22.5308936
20
45.0786865
40
0.3126255
50
89.5460705
51
102.5418777
0
ARC
8
DEFAULT_255_1_234
10
22.5066022
20
45.1817665
40
0.2067346
50
102.1739365
51
129.2061916
0
ARC
8
DEFAULT_255_1_234
10
22.4987094
20
45.1942094
40
0.1921118
50
129.7279328
51
135.7542026
0
ARC
8
DEFAULT_255_1_234
10
22.5108622
20
45.1845045
40
0.2075944
50
136.175737
51
166.3674722
0
ARC
8
DEFAULT_255_1_234
10
22.6115541
20
45.1575182
40
0.3118201
50
165.9092917
51
178.8683903
0
ARC
8
DEFAULT_255_1_234
10
22.6980402
20
45.1528179
40
0.3983935
50
178.438168
51
180.0083905
0
ARC
8
DEFAULT_255_1_234
10
22.5579005
20
45.1567231
40
0.4068601
50
163.2878735
51
180.5581814
0
ARC
8
DEFAULT_255_1_234
10
22.4777266
20
45.178784
40
0.3237344
50
133.454115
51
162.9470031
0
ARC
8
DEFAULT_255_1_234
10
22.4955807
20
45.1598
40
0.349795
50
100.7869394
51
133.4384016
0
ARC
8
DEFAULT_255_1_234
10
22.5303579
20
45.0049319
40
0.5084616
50
89.6605301
51
101.3704185
0
ARC
8
DEFAULT_255_1_234
10
22.5369918
20
45.0110496
40
0.502348
50
78.2171172
51
90.4130393
0
ARC
8
DEFAULT_255_1_234
10
22.5724996
20
45.1734637
40
0.3361092
50
55.9268222
51
78.4888551
0
ARC
8
DEFAULT_255_1_234
10
22.5921436
20
45.2073324
40
0.2970617
50
47.9292255
51
55.4054003
0
ARC
8
DEFAULT_255_1_234
10
22.6022997
20
45.2176502
40
0.2825983
50
4.3347696
51
48.0560701
0
ARC
8
DEFAULT_255_1_234
10
22.492739
20
45.2006601
40
0.393225
50
359.925209
51
5.5967654
0
ARC
8
DEFAULT_255_1_234
10
22.5356282
20
45.2062816
40
0.3503892
50
337.8914096
51
358.9967724
0
ARC
8
DEFAULT_255_1_234
10
22.2642694
20
45.3109706
40
0.6412172
50
326.9135351
51
338.3505194
0
ARC
8
DEFAULT_255_1_234
10
21.8656998
20
45.5664284
40
1.1146189
50
319.6472867
51
327.095818
0
ARC
8
DEFAULT_255_1_234
10
21.4824001
20
45.8826
40
1.6114559
50
317.2586784
51
319.9046139
0
LINE
8
DEFAULT_255_1_234
10
23.8931437
20
44.3279
11
23.7815025
21
44.6331061
0
LINE
8
DEFAULT_255_1_234
10
23.7815025
20
44.6331061
11
23.2915665
21
44.6331061
0
LINE
8
DEFAULT_255_1_234
10
23.2915665
20
44.6331061
11
23.1815317
21
44.3279
0
LINE
8
DEFAULT_255_1_234
10
23.1815317
20
44.3279
11
23.0225033
21
44.3279
0
LINE
8
DEFAULT_255_1_234
10
23.0225033
20
44.3279
11
23.4690679
21
45.4973211
0
LINE
8
DEFAULT_255_1_234
10
23.4690679
20
45.4973211
11
23.6040011
21
45.4973211
0
LINE
8
DEFAULT_255_1_234
10
23.6040011
20
45.4973211
11
24.0513689
21
44.3279
0
LINE
8
DEFAULT_255_1_234
10
24.0513689
20
44.3279
11
23.8931437
21
44.3279
0
LINE
8
DEFAULT_255_1_234
10
23.5365345
20
45.3069689
11
23.3381506
21
44.7600075
0
LINE
8
DEFAULT_255_1_234
10
23.3381506
20
44.7600075
11
23.7357216
21
44.7600075
0
LINE
8
DEFAULT_255_1_234
10
23.7357216
20
44.7600075
11
23.5365345
21
45.3069689
0
LINE
8
DEFAULT_255_1_234
10
20.960023
20
52.6364663
11
21.1150355
21
52.6364663
0
LINE
8
DEFAULT_255_1_234
10
20.2146777
20
52.7954947
11
20.2146777
21
52.9079391
0
LINE
8
DEFAULT_255_1_234
10
21.1150355
20
53.0589357
11
20.960023
21
53.0589357
0
LINE
8
DEFAULT_255_1_234
10
20.3696902
20
52.9039232
11
20.3696902
21
52.7906757
0
ARC
8
DEFAULT_255_1_234
10
20.5669742
20
52.6961846
40
0.5513052
50
340.1774281
51
353.7814284
0
ARC
8
DEFAULT_255_1_234
10
20.7241095
20
52.6376582
40
0.3836379
50
311.4558989
51
340.4421614
0
ARC
8
DEFAULT_255_1_234
10
20.7207763
20
52.6487528
40
0.3941894
50
282.4333181
51
310.7513653
0
ARC
8
DEFAULT_255_1_234
10
20.6768502
20
52.8302679
40
0.5809175
50
269.9358511
51
282.809604
0
ARC
8
DEFAULT_255_1_234
10
20.6716568
20
52.9760212
40
0.7266847
50
270.0021091
51
270.3581957
0
ARC
8
DEFAULT_255_1_234
10
20.6663985
20
52.7159585
40
0.4666519
50
250.7884749
51
270.6489167
0
ARC
8
DEFAULT_255_1_234
10
20.649582
20
52.6522319
40
0.4009729
50
219.3627325
51
250.0611886
0
ARC
8
DEFAULT_255_1_234
10
20.7325031
20
52.7227042
40
0.5097822
50
193.5479632
51
219.5756669
0
ARC
8
DEFAULT_255_1_234
10
20.9696652
20
52.7842919
40
0.7547848
50
181.1218675
51
193.87563
0
ARC
8
DEFAULT_255_1_234
10
21.1766833
20
52.795358
40
0.9620055
50
179.9918545
51
181.5394234
0
ARC
8
DEFAULT_255_1_234
10
20.9915935
20
52.9116788
40
0.7769248
50
169.5837241
51
180.2757934
0
ARC
8
DEFAULT_255_1_234
10
20.8078873
20
52.9456229
40
0.590109
50
155.0365899
51
169.6003176
0
ARC
8
DEFAULT_255_1_234
10
20.6943337
20
53.0003677
40
0.4640625
50
136.783148
51
155.2472683
0
ARC
8
DEFAULT_255_1_234
10
20.6553814
20
53.0334562
40
0.4130255
50
121.7633186
51
136.428115
0
ARC
8
DEFAULT_255_1_234
10
20.6688776
20
53.0085227
40
0.4413323
50
95.6459699
51
121.5490577
0
ARC
8
DEFAULT_255_1_234
10
20.6846058
20
52.8976949
40
0.55319
50
89.924208
51
96.1377933
0
ARC
8
DEFAULT_255_1_234
10
20.6896491
20
52.9095542
40
0.5413475
50
76.6779277
51
90.4563316
0
ARC
8
DEFAULT_255_1_234
10
20.7290114
20
53.0686114
40
0.3775041
50
47.485847
51
76.9287264
0
ARC
8
DEFAULT_255_1_234
10
20.7143087
20
53.0586159
40
0.3948286
50
16.5424086
51
46.8933463
0
ARC
8
DEFAULT_255_1_234
10
20.5535244
20
53.0057861
40
0.564021
50
5.4072051
51
17.0365086
0
ARC
8
DEFAULT_255_1_234
10
20.4096261
20
52.9826679
40
0.5556559
50
7.8891745
51
15.9239216
0
ARC
8
DEFAULT_255_1_234
10
20.6083274
20
53.0403631
40
0.3487515
50
15.7653144
51
27.9410532
0
ARC
8
DEFAULT_255_1_234
10
20.7187492
20
53.099479
40
0.2235026
50
27.8166557
51
46.4008329
0
ARC
8
DEFAULT_255_1_234
10
20.7237135
20
53.0989082
40
0.2205286
50
47.4371857
51
75.0698205
0
ARC
8
DEFAULT_255_1_234
10
20.6928529
20
52.9914765
40
0.3322915
50
74.7008593
51
87.8124495
0
ARC
8
DEFAULT_255_1_234
10
20.6855217
20
52.8858844
40
0.4380987
50
87.3814673
51
90.0240855
0
ARC
8
DEFAULT_255_1_234
10
20.681676
20
53.0036291
40
0.3203749
50
89.3451631
51
108.5745436
0
ARC
8
DEFAULT_255_1_234
10
20.6679865
20
53.0549908
40
0.2673494
50
109.2998449
51
143.3037509
0
ARC
8
DEFAULT_255_1_234
10
20.7441938
20
52.9963881
40
0.3634757
50
143.0753173
51
163.1916937
0
ARC
8
DEFAULT_255_1_234
10
20.9393666
20
52.9347967
40
0.5681262
50
162.9373603
51
174.6208611
0
ARC
8
DEFAULT_255_1_234
10
21.2019708
20
52.906001
40
0.8322832
50
174.3419979
51
180.1430411
0
ARC
8
DEFAULT_255_1_234
10
21.1088864
20
52.7865698
40
0.7392076
50
179.6817502
51
189.150529
0
ARC
8
DEFAULT_255_1_234
10
20.8588112
20
52.744919
40
0.4856932
50
188.9910863
51
203.5773039
0
ARC
8
DEFAULT_255_1_234
10
20.7508445
20
52.7001211
40
0.3688271
50
203.9077269
51
215.1312379
0
ARC
8
DEFAULT_255_1_234
10
20.6585539
20
52.6285941
40
0.2522457
50
213.9071664
51
263.8849284
0
ARC
8
DEFAULT_255_1_234
10
20.6710868
20
52.7070518
40
0.3316174
50
263.1758525
51
270.1031083
0
ARC
8
DEFAULT_255_1_234
10
20.674296
20
52.8317365
40
0.4563091
50
269.6719807
51
279.0609165
0
ARC
8
DEFAULT_255_1_234
10
20.7009728
20
52.6704907
40
0.2928759
50
278.8750225
51
293.6346586
0
ARC
8
DEFAULT_255_1_234
10
20.7329936
20
52.59529
40
0.2111472
50
293.8553404
51
310.0518804
0
ARC
8
DEFAULT_255_1_234
10
20.733479
20
52.5890516
40
0.2060917
50
311.0646779
51
332.0108348
0
ARC
8
DEFAULT_255_1_234
10
20.6142517
20
52.6547978
40
0.3422352
50
331.6588543
51
343.2878891
0
ARC
8
DEFAULT_255_1_234
10
20.4080032
20
52.7181798
40
0.5580003
50
343.1446044
51
351.010618
0
ARC
8
DEFAULT_255_1_234
10
20.2538678
20
52.7462871
40
0.7146438
50
350.7157277
51
351.1602153
0
LINE
8
DEFAULT_255_1_234
10
22.2242186
20
53.4348211
11
22.2242186
21
52.2654
0
LINE
8
DEFAULT_255_1_234
10
22.2242186
20
52.2654
11
22.0692061
21
52.2654
0
LINE
8
DEFAULT_255_1_234
10
22.0692061
20
52.2654
11
22.0692061
21
52.805936
0
LINE
8
DEFAULT_255_1_234
10
22.0692061
20
52.805936
11
21.4796765
21
52.805936
0
LINE
8
DEFAULT_255_1_234
10
21.4796765
20
52.805936
11
21.4796765
21
52.2654
0
LINE
8
DEFAULT_255_1_234
10
21.4796765
20
52.2654
11
21.3254671
21
52.2654
0
LINE
8
DEFAULT_255_1_234
10
21.3254671
20
52.2654
11
21.3254671
21
53.4348211
0
LINE
8
DEFAULT_255_1_234
10
21.3254671
20
53.4348211
11
21.4796765
21
53.4348211
0
LINE
8
DEFAULT_255_1_234
10
21.4796765
20
53.4348211
11
21.4796765
21
52.9320343
0
LINE
8
DEFAULT_255_1_234
10
21.4796765
20
52.9320343
11
22.0692061
21
52.9320343
0
LINE
8
DEFAULT_255_1_234
10
22.0692061
20
52.9320343
11
22.0692061
21
53.4348211
0
LINE
8
DEFAULT_255_1_234
10
22.0692061
20
53.4348211
11
22.2242186
21
53.4348211
0
LINE
8
DEFAULT_255_1_234
10
22.9478782
20
53.4404433
11
22.9478782
21
52.2654
0
LINE
8
DEFAULT_255_1_234
10
22.9478782
20
52.2654
11
22.7984879
21
52.2654
0
LINE
8
DEFAULT_255_1_234
10
22.7984879
20
52.2654
11
22.7984879
21
53.2557133
0
LINE
8
DEFAULT_255_1_234
10
22.7984879
20
53.2557133
11
22.4989041
21
53.1456785
0
LINE
8
DEFAULT_255_1_234
10
22.4989041
20
53.1456785
11
22.4989041
21
53.2806117
0
LINE
8
DEFAULT_255_1_234
10
22.4989041
20
53.2806117
11
22.9245862
21
53.4404433
0
LINE
8
DEFAULT_255_1_234
10
22.9245862
20
53.4404433
11
22.9478782
21
53.4404433
0
LINE
8
DEFAULT_255_1_234
10
24.134166
20
52.7031297
11
24.134166
21
52.690279
0
LINE
8
DEFAULT_255_1_234
10
23.5422269
20
52.3657967
11
23.5349983
21
52.2654
0
LINE
8
DEFAULT_255_1_234
10
23.5349983
20
52.2654
11
23.3984587
21
52.2654
0
LINE
8
DEFAULT_255_1_234
10
23.3984587
20
52.2654
11
23.3984587
21
53.499075
0
LINE
8
DEFAULT_255_1_234
10
23.3984587
20
53.499075
11
23.5470459
21
53.499075
0
LINE
8
DEFAULT_255_1_234
10
23.5470459
20
53.499075
11
23.5470459
21
53.0388564
0
LINE
8
DEFAULT_255_1_234
10
23.5470459
20
52.8878597
11
23.5470459
21
52.5119744
0
ARC
8
DEFAULT_255_1_234
10
23.4294935
20
52.6858573
40
0.7046863
50
349.4825105
51
0.3595108
0
ARC
8
DEFAULT_255_1_234
10
23.6572176
20
52.6420022
40
0.4727857
50
331.8602128
51
349.6704139
0
ARC
8
DEFAULT_255_1_234
10
23.7304944
20
52.6063125
40
0.3913503
50
322.8939783
51
331.4081204
0
ARC
8
DEFAULT_255_1_234
10
23.8000342
20
52.5483707
40
0.300965
50
296.7249167
51
323.7044215
0
ARC
8
DEFAULT_255_1_234
10
23.8030239
20
52.5553043
40
0.3058683
50
270.6342811
51
295.6405548
0
ARC
8
DEFAULT_255_1_234
10
23.7968549
20
52.6355995
40
0.3862632
50
269.9967524
51
271.4174733
0
ARC
8
DEFAULT_255_1_234
10
23.7930213
20
52.6220686
40
0.3727515
50
253.657532
51
270.5859025
0
ARC
8
DEFAULT_255_1_234
10
23.7699319
20
52.5377235
40
0.2853216
50
217.0543181
51
253.3409865
0
ARC
8
DEFAULT_255_1_234
10
23.7765987
20
52.8561052
40
0.2934152
50
93.1931545
51
141.4760602
0
ARC
8
DEFAULT_255_1_234
10
23.7948203
20
52.7328453
40
0.4176524
50
89.9442578
51
94.747309
0
ARC
8
DEFAULT_255_1_234
10
23.799195
20
52.815141
40
0.3353801
50
70.6103515
51
90.6779749
0
ARC
8
DEFAULT_255_1_234
10
23.8106252
20
52.860689
40
0.2886533
50
36.1152635
51
69.7489296
0
ARC
8
DEFAULT_255_1_234
10
23.7119656
20
52.7853708
40
0.4127561
50
15.4648517
51
36.4891396
0
ARC
8
DEFAULT_255_1_234
10
23.5061342
20
52.7254524
40
0.6271187
50
3.9220813
51
15.7265815
0
ARC
8
DEFAULT_255_1_234
10
23.2702186
20
52.7042325
40
0.863948
50
359.9268643
51
4.2559037
0
ARC
8
DEFAULT_255_1_234
10
23.3516567
20
52.7102103
40
0.6339295
50
359.7230081
51
7.7115859
0
ARC
8
DEFAULT_255_1_234
10
23.5778132
20
52.7418172
40
0.4055784
50
7.5740023
51
19.4151451
0
ARC
8
DEFAULT_255_1_234
10
23.7045771
20
52.7864519
40
0.2711858
50
19.4238354
51
34.9161182
0
ARC
8
DEFAULT_255_1_234
10
23.7716509
20
52.8351172
40
0.1883373
50
34.4556322
51
84.4656458
0
ARC
8
DEFAULT_255_1_234
10
23.7587957
20
52.7596057
40
0.2647939
50
83.2727306
51
90.1114621
0
ARC
8
DEFAULT_255_1_234
10
23.7545814
20
52.7794509
40
0.2449763
50
89.1347934
51
111.4089923
0
ARC
8
DEFAULT_255_1_234
10
23.7466365
20
52.8122473
40
0.2115923
50
112.6478598
51
148.9260864
0
ARC
8
DEFAULT_255_1_234
10
23.8244163
20
52.7580985
40
0.3062228
50
147.7597608
51
154.928557
0
ARC
8
DEFAULT_255_1_234
10
23.7984224
20
52.6336379
40
0.2792708
50
205.8264786
51
224.5301003
0
ARC
8
DEFAULT_255_1_234
10
23.7506528
20
52.5909914
40
0.2153317
50
225.354483
51
269.2437579
0
ARC
8
DEFAULT_255_1_234
10
23.7598163
20
52.6716292
40
0.2961942
50
267.6770046
51
270.0136612
0
ARC
8
DEFAULT_255_1_234
10
23.7625514
20
52.5957938
40
0.2203751
50
269.3072485
51
289.499141
0
ARC
8
DEFAULT_255_1_234
10
23.7697578
20
52.5661394
40
0.1900415
50
290.4353973
51
325.3766314
0
ARC
8
DEFAULT_255_1_234
10
23.7068801
20
52.6115643
40
0.2675986
50
325.0223901
51
342.692398
0
ARC
8
DEFAULT_255_1_234
10
23.5371689
20
52.6667812
40
0.446058
50
342.4062876
51
352.8669243
0
ARC
8
DEFAULT_255_1_234
10
23.2651164
20
52.7024975
40
0.7204419
50
352.7350668
51
359.8556985
0
ARC
8
DEFAULT_255_1_234
10
23.074086
20
52.7071018
40
0.9114927
50
359.5965197
51
0.0027543
0
LINE
8
DEFAULT_255_1_234
10
20.804623
20
60.5739663
11
20.9596355
21
60.5739663
0
LINE
8
DEFAULT_255_1_234
10
20.0592777
20
60.7329947
11
20.0592777
21
60.8454391
0
LINE
8
DEFAULT_255_1_234
10
20.9596355
20
60.9964357
11
20.804623
21
60.9964357
0
LINE
8
DEFAULT_255_1_234
10
20.2142902
20
60.8414232
11
20.2142902
21
60.7281757
0
ARC
8
DEFAULT_255_1_234
10
20.4115742
20
60.6336846
40
0.5513052
50
340.1774281
51
353.7814284
0
ARC
8
DEFAULT_255_1_234
10
20.5687095
20
60.5751582
40
0.3836379
50
311.4558989
51
340.4421614
0
ARC
8
DEFAULT_255_1_234
10
20.5653763
20
60.5862528
40
0.3941894
50
282.4333181
51
310.7513653
0
ARC
8
DEFAULT_255_1_234
10
20.5214502
20
60.7677679
40
0.5809175
50
269.9358511
51
282.809604
0
ARC
8
DEFAULT_255_1_234
10
20.5162568
20
60.9135212
40
0.7266847
50
270.0021091
51
270.3581957
0
ARC
8
DEFAULT_255_1_234
10
20.5109985
20
60.6534585
40
0.4666519
50
250.7884749
51
270.6489167
0
ARC
8
DEFAULT_255_1_234
10
20.494182
20
60.5897319
40
0.4009729
50
219.3627325
51
250.0611886
0
ARC
8
DEFAULT_255_1_234
10
20.5771031
20
60.6602042
40
0.5097822
50
193.5479632
51
219.5756669
0
ARC
8
DEFAULT_255_1_234
10
20.8142652
20
60.7217919
40
0.7547848
50
181.1218675
51
193.87563
0
ARC
8
DEFAULT_255_1_234
10
21.0212833
20
60.732858
40
0.9620055
50
179.9918545
51
181.5394234
0
ARC
8
DEFAULT_255_1_234
10
20.8361935
20
60.8491788
40
0.7769248
50
169.5837241
51
180.2757934
0
ARC
8
DEFAULT_255_1_234
10
20.6524873
20
60.8831229
40
0.590109
50
155.0365899
51
169.6003176
0
ARC
8
DEFAULT_255_1_234
10
20.5389337
20
60.9378677
40
0.4640625
50
136.783148
51
155.2472683
0
ARC
8
DEFAULT_255_1_234
10
20.4999814
20
60.9709562
40
0.4130255
50
121.7633186
51
136.428115
0
ARC
8
DEFAULT_255_1_234
10
20.5134776
20
60.9460227
40
0.4413323
50
95.6459699
51
121.5490577
0
ARC
8
DEFAULT_255_1_234
10
20.5292058
20
60.8351949
40
0.55319
50
89.924208
51
96.1377933
0
ARC
8
DEFAULT_255_1_234
10
20.5342491
20
60.8470542
40
0.5413475
50
76.6779277
51
90.4563316
0
ARC
8
DEFAULT_255_1_234
10
20.5736114
20
61.0061114
40
0.3775041
50
47.485847
51
76.9287264
0
ARC
8
DEFAULT_255_1_234
10
20.5589087
20
60.9961159
40
0.3948286
50
16.5424086
51
46.8933463
0
ARC
8
DEFAULT_255_1_234
10
20.3981244
20
60.9432861
40
0.564021
50
5.4072051
51
17.0365086
0
ARC
8
DEFAULT_255_1_234
10
20.2542261
20
60.9201679
40
0.5556559
50
7.8891745
51
15.9239216
0
ARC
8
DEFAULT_255_1_234
10
20.4529274
20
60.9778631
40
0.3487515
50
15.7653144
51
27.9410532
0
ARC
8
DEFAULT_255_1_234
10
20.5633492
20
61.036979
40
0.2235026
50
27.8166557
51
46.4008329
0
ARC
8
DEFAULT_255_1_234
10
20.5683135
20
61.0364082
40
0.2205286
50
47.4371857
51
75.0698205
0
ARC
8
DEFAULT_255_1_234
10
20.5374529
20
60.9289765
40
0.3322915
50
74.7008593
51
87.8124495
0
ARC
8
DEFAULT_255_1_234
10
20.5301217
20
60.8233844
40
0.4380987
50
87.3814673
51
90.0240855
0
ARC
8
DEFAULT_255_1_234
10
20.526276
20
60.9411291
40
0.3203749
50
89.3451631
51
108.5745436
0
ARC
8
DEFAULT_255_1_234
10
20.5125865
20
60.9924908
40
0.2673494
50
109.2998449
51
143.3037509
0
ARC
8
DEFAULT_255_1_234
10
20.5887938
20
60.9338881
40
0.3634757
50
143.0753173
51
163.1916937
0
ARC
8
DEFAULT_255_1_234
10
20.7839666
20
60.8722967
40
0.5681262
50
162.9373603
51
174.6208611
0
ARC
8
DEFAULT_255_1_234
10
21.0465708
20
60.843501
40
0.8322832
50
174.3419979
51
180.1430411
0
ARC
8
DEFAULT_255_1_234
10
20.9534864
20
60.7240698
40
0.7392076
50
179.6817502
51
189.150529
0
ARC
8
DEFAULT_255_1_234
10
20.7034112
20
60.682419
40
0.4856932
50
188.9910863
51
203.5773039
0
ARC
8
DEFAULT_255_1_234
10
20.5954445
20
60.6376211
40
0.3688271
50
203.9077269
51
215.1312379
0
ARC
8
DEFAULT_255_1_234
10
20.5031539
20
60.5660941
40
0.2522457
50
213.9071664
51
263.8849284
0
ARC
8
DEFAULT_255_1_234
10
20.5156868
20
60.6445518
40
0.3316174
50
263.1758525
51
270.1031083
0
ARC
8
DEFAULT_255_1_234
10
20.518896
20
60.7692365
40
0.4563091
50
269.6719807
51
279.0609165
0
ARC
8
DEFAULT_255_1_234
10
20.5455728
20
60.6079907
40
0.2928759
50
278.8750225
51
293.6346586
0
ARC
8
DEFAULT_255_1_234
10
20.5775936
20
60.53279
40
0.2111472
50
293.8553404
51
310.0518804
0
ARC
8
DEFAULT_255_1_234
10
20.578079
20
60.5265516
40
0.2060917
50
311.0646779
51
332.0108348
0
ARC
8
DEFAULT_255_1_234
10
20.4588517
20
60.5922978
40
0.3422352
50
331.6588543
51
343.2878891
0
ARC
8
DEFAULT_255_1_234
10
20.2526032
20
60.6556798
40
0.5580003
50
343.1446044
51
351.010618
0
ARC
8
DEFAULT_255_1_234
10
20.0984678
20
60.6837871
40
0.7146438
50
350.7157277
51
351.1602153
0
LINE
8
DEFAULT_255_1_234
10
22.0688186
20
61.3723211
11
22.0688186
21
60.2029
0
LINE
8
DEFAULT_255_1_234
10
22.0688186
20
60.2029
11
21.9138061
21
60.2029
0
LINE
8
DEFAULT_255_1_234
10
21.9138061
20
60.2029
11
21.9138061
21
60.743436
0
LINE
8
DEFAULT_255_1_234
10
21.9138061
20
60.743436
11
21.3242765
21
60.743436
0
LINE
8
DEFAULT_255_1_234
10
21.3242765
20
60.743436
11
21.3242765
21
60.2029
0
LINE
8
DEFAULT_255_1_234
10
21.3242765
20
60.2029
11
21.1700671
21
60.2029
0
LINE
8
DEFAULT_255_1_234
10
21.1700671
20
60.2029
11
21.1700671
21
61.3723211
0
LINE
8
DEFAULT_255_1_234
10
21.1700671
20
61.3723211
11
21.3242765
21
61.3723211
0
LINE
8
DEFAULT_255_1_234
10
21.3242765
20
61.3723211
11
21.3242765
21
60.8695343
0
LINE
8
DEFAULT_255_1_234
10
21.3242765
20
60.8695343
11
21.9138061
21
60.8695343
0
LINE
8
DEFAULT_255_1_234
10
21.9138061
20
60.8695343
11
21.9138061
21
61.3723211
0
LINE
8
DEFAULT_255_1_234
10
21.9138061
20
61.3723211
11
22.0688186
21
61.3723211
0
LINE
8
DEFAULT_255_1_234
10
22.7924782
20
61.3779433
11
22.7924782
21
60.2029
0
LINE
8
DEFAULT_255_1_234
10
22.7924782
20
60.2029
11
22.6430879
21
60.2029
0
LINE
8
DEFAULT_255_1_234
10
22.6430879
20
60.2029
11
22.6430879
21
61.1932133
0
LINE
8
DEFAULT_255_1_234
10
22.6430879
20
61.1932133
11
22.3435041
21
61.0831785
0
LINE
8
DEFAULT_255_1_234
10
22.3435041
20
61.0831785
11
22.3435041
21
61.2181117
0
LINE
8
DEFAULT_255_1_234
10
22.3435041
20
61.2181117
11
22.7691862
21
61.3779433
0
LINE
8
DEFAULT_255_1_234
10
22.7691862
20
61.3779433
11
22.7924782
21
61.3779433
0
LINE
8
DEFAULT_255_1_234
10
23.6719536
20
60.2029
11
23.2663508
21
60.2029
0
LINE
8
DEFAULT_255_1_234
10
23.2663508
20
60.2029
11
23.2663508
21
61.3723211
0
LINE
8
DEFAULT_255_1_234
10
23.2663508
20
61.3723211
11
23.6486615
21
61.3723211
0
LINE
8
DEFAULT_255_1_234
10
23.6775758
20
60.7498614
11
23.4205602
21
60.7498614
0
LINE
8
DEFAULT_255_1_234
10
23.4205602
20
60.7498614
11
23.4205602
21
60.3289983
0
LINE
8
DEFAULT_255_1_234
10
23.4205602
20
60.3289983
11
23.6751663
21
60.3289983
0
LINE
8
DEFAULT_255_1_234
10
23.4205602
20
61.2454196
11
23.4205602
21
60.8735501
0
LINE
8
DEFAULT_255_1_234
10
23.4205602
20
60.8735501
11
23.6534806
21
60.8735501
0
LINE
8
DEFAULT_255_1_234
10
23.6486615
20
61.2454196
11
23.4205602
21
61.2454196
0
ARC
8
DEFAULT_255_1_234
10
23.6524324
20
60.6355901
40
0.7367406
50
82.1257326
51
90.2932599
0
ARC
8
DEFAULT_255_1_234
10
23.6913279
20
60.9074013
40
0.4621653
50
69.9044149
51
82.2857423
0
ARC
8
DEFAULT_255_1_234
10
23.7483957
20
61.0616637
40
0.2976871
50
51.1838526
51
70.0181538
0
ARC
8
DEFAULT_255_1_234
10
23.7738923
20
61.098724
40
0.2528517
50
12.1017251
51
50.4214761
0
ARC
8
DEFAULT_255_1_234
10
23.6354797
20
61.0639676
40
0.3955061
50
359.5251267
51
12.8211707
0
ARC
8
DEFAULT_255_1_234
10
23.7934723
20
61.0570344
40
0.2375281
50
323.4908128
51
0.8817314
0
ARC
8
DEFAULT_255_1_234
10
23.751641
20
61.089355
40
0.2903817
50
298.6825083
51
323.2756573
0
ARC
8
DEFAULT_255_1_234
10
23.7154773
20
61.1494649
40
0.3604842
50
293.1999386
51
299.1396394
0
ARC
8
DEFAULT_255_1_234
10
23.7827746
20
60.5409126
40
0.2871098
50
54.0011765
51
74.9167975
0
ARC
8
DEFAULT_255_1_234
10
23.7944105
20
60.5606332
40
0.2643248
50
36.3580696
51
53.5291921
0
ARC
8
DEFAULT_255_1_234
10
23.7817347
20
60.5515998
40
0.2798884
50
4.8189881
51
36.3089977
0
ARC
8
DEFAULT_255_1_234
10
23.7038182
20
60.540627
40
0.358478
50
359.9370252
51
5.5204067
0
ARC
8
DEFAULT_255_1_234
10
23.6713704
20
60.5365667
40
0.3909429
50
344.7478609
51
0.5373281
0
ARC
8
DEFAULT_255_1_234
10
23.7704675
20
60.5098544
40
0.2883093
50
311.1786488
51
344.6886812
0
ARC
8
DEFAULT_255_1_234
10
23.7412722
20
60.5461987
40
0.3348923
50
286.0418249
51
310.8441291
0
ARC
8
DEFAULT_255_1_234
10
23.6905554
20
60.7108807
40
0.5071869
50
274.1042341
51
286.4071509
0
ARC
8
DEFAULT_255_1_234
10
23.672881
20
60.8992229
40
0.6963234
50
269.9236873
51
274.445647
0
ARC
8
DEFAULT_255_1_234
10
23.6774811
20
60.6652537
40
0.3362634
50
269.6055768
51
281.3740047
0
ARC
8
DEFAULT_255_1_234
10
23.7005449
20
60.5559353
40
0.224546
50
281.1055983
51
302.5132223
0
ARC
8
DEFAULT_255_1_234
10
23.7152348
20
60.5295823
40
0.1944357
50
303.0368945
51
311.8811219
0
ARC
8
DEFAULT_255_1_234
10
23.7223755
20
60.521089
40
0.1833454
50
311.9916004
51
351.7143462
0
ARC
8
DEFAULT_255_1_234
10
23.6406985
20
60.537593
40
0.2665871
50
350.7339597
51
0.2221581
0
ARC
8
DEFAULT_255_1_234
10
23.6299431
20
60.5432467
40
0.2773789
50
359.0456241
51
17.2296242
0
ARC
8
DEFAULT_255_1_234
10
23.7338548
20
60.5741163
40
0.1689915
50
17.6685481
51
78.9940892
0
ARC
8
DEFAULT_255_1_234
10
23.6821712
20
60.3886224
40
0.3612658
50
76.5635957
51
90.6980921
0
LINE
8
DEFAULT_255_1_234
10
23.6777696
20
60.7498613
11
23.6775758
21
60.7498614
0
ARC
8
DEFAULT_255_1_234
10
23.6557372
20
61.2021036
40
0.3285612
50
269.6064736
51
281.4533503
0
ARC
8
DEFAULT_255_1_234
10
23.6780192
20
61.0969688
40
0.2210975
50
281.2041486
51
302.5148063
0
ARC
8
DEFAULT_255_1_234
10
23.6917042
20
61.0723241
40
0.1929674
50
303.021671
51
309.8369575
0
ARC
8
DEFAULT_255_1_234
10
23.7100503
20
61.0517488
40
0.1654181
50
309.5228395
51
356.9509836
0
ARC
8
DEFAULT_255_1_234
10
23.6437086
20
61.0612932
40
0.2322512
50
355.4701227
51
0.0492546
0
ARC
8
DEFAULT_255_1_234
10
23.6158177
20
61.0635094
40
0.2601498
50
359.5558597
51
11.2096359
0
ARC
8
DEFAULT_255_1_234
10
23.7115467
20
61.083323
40
0.1623975
50
10.9182341
51
31.3230275
0
ARC
8
DEFAULT_255_1_234
10
23.74012
20
61.0992214
40
0.1297302
50
31.8852677
51
52.1412565
0
ARC
8
DEFAULT_255_1_234
10
23.7126933
20
61.060475
40
0.1771663
50
52.8285564
51
71.9850297
0
ARC
8
DEFAULT_255_1_234
10
23.6751109
20
60.9498664
40
0.2939794
50
71.6863486
51
82.8455995
0
ARC
8
DEFAULT_255_1_234
10
23.6511645
20
60.7689149
40
0.476506
50
82.6984714
51
90.1729175
0
ARC
8
DEFAULT_255_1_234
10
23.648928
20
60.8912623
40
0.3541573
50
89.8708275
51
90.0431131
0
LINE
8
DEFAULT_255_1_234
10
20.674023
20
68.5114663
11
20.8290355
21
68.5114663
0
LINE
8
DEFAULT_255_1_234
10
19.9286777
20
68.6704947
11
19.9286777
21
68.7829391
0
LINE
8
DEFAULT_255_1_234
10
20.8290355
20
68.9339357
11
20.674023
21
68.9339357
0
LINE
8
DEFAULT_255_1_234
10
20.0836902
20
68.7789232
11
20.0836902
21
68.6656757
0
ARC
8
DEFAULT_255_1_234
10
20.2809742
20
68.5711846
40
0.5513052
50
340.1774281
51
353.7814284
0
ARC
8
DEFAULT_255_1_234
10
20.4381095
20
68.5126582
40
0.3836379
50
311.4558989
51
340.4421614
0
ARC
8
DEFAULT_255_1_234
10
20.4347763
20
68.5237528
40
0.3941894
50
282.4333181
51
310.7513653
0
ARC
8
DEFAULT_255_1_234
10
20.3908502
20
68.7052679
40
0.5809175
50
269.9358511
51
282.809604
0
ARC
8
DEFAULT_255_1_234
10
20.3856568
20
68.8510212
40
0.7266847
50
270.0021091
51
270.3581957
0
ARC
8
DEFAULT_255_1_234
10
20.3803985
20
68.5909585
40
0.4666519
50
250.7884749
51
270.6489167
0
ARC
8
DEFAULT_255_1_234
10
20.363582
20
68.5272319
40
0.4009729
50
219.3627325
51
250.0611886
0
ARC
8
DEFAULT_255_1_234
10
20.4465031
20
68.5977042
40
0.5097822
50
193.5479632
51
219.5756669
0
ARC
8
DEFAULT_255_1_234
10
20.6836652
20
68.6592919
40
0.7547848
50
181.1218675
51
193.87563
0
ARC
8
DEFAULT_255_1_234
10
20.8906833
20
68.670358
40
0.9620055
50
179.9918545
51
181.5394234
0
ARC
8
DEFAULT_255_1_234
10
20.7055935
20
68.7866788
40
0.7769248
50
169.5837241
51
180.2757934
0
ARC
8
DEFAULT_255_1_234
10
20.5218873
20
68.8206229
40
0.590109
50
155.0365899
51
169.6003176
0
ARC
8
DEFAULT_255_1_234
10
20.4083337
20
68.8753677
40
0.4640625
50
136.783148
51
155.2472683
0
ARC
8
DEFAULT_255_1_234
10
20.3693814
20
68.9084562
40
0.4130255
50
121.7633186
51
136.428115
0
ARC
8
DEFAULT_255_1_234
10
20.3828776
20
68.8835227
40
0.4413323
50
95.6459699
51
121.5490577
0
ARC
8
DEFAULT_255_1_234
10
20.3986058
20
68.7726949
40
0.55319
50
89.924208
51
96.1377933
0
ARC
8
DEFAULT_255_1_234
10
20.4036491
20
68.7845542
40
0.5413475
50
76.6779277
51
90.4563316
0
ARC
8
DEFAULT_255_1_234
10
20.4430114
20
68.9436114
40
0.3775041
50
47.485847
51
76.9287264
0
ARC
8
DEFAULT_255_1_234
10
20.4283087
20
68.9336159
40
0.3948286
50
16.5424086
51
46.8933463
0
ARC
8
DEFAULT_255_1_234
10
20.2675244
20
68.8807861
40
0.564021
50
5.4072051
51
17.0365086
0
ARC
8
DEFAULT_255_1_234
10
20.1236261
20
68.8576679
40
0.5556559
50
7.8891745
51
15.9239216
0
ARC
8
DEFAULT_255_1_234
10
20.3223274
20
68.9153631
40
0.3487515
50
15.7653144
51
27.9410532
0
ARC
8
DEFAULT_255_1_234
10
20.4327492
20
68.974479
40
0.2235026
50
27.8166557
51
46.4008329
0
ARC
8
DEFAULT_255_1_234
10
20.4377135
20
68.9739082
40
0.2205286
50
47.4371857
51
75.0698205
0
ARC
8
DEFAULT_255_1_234
10
20.4068529
20
68.8664765
40
0.3322915
50
74.7008593
51
87.8124495
0
ARC
8
DEFAULT_255_1_234
10
20.3995217
20
68.7608844
40
0.4380987
50
87.3814673
51
90.0240855
0
ARC
8
DEFAULT_255_1_234
10
20.395676
20
68.8786291
40
0.3203749
50
89.3451631
51
108.5745436
0
ARC
8
DEFAULT_255_1_234
10
20.3819865
20
68.9299908
40
0.2673494
50
109.2998449
51
143.3037509
0
ARC
8
DEFAULT_255_1_234
10
20.4581938
20
68.8713881
40
0.3634757
50
143.0753173
51
163.1916937
0
ARC
8
DEFAULT_255_1_234
10
20.6533666
20
68.8097967
40
0.5681262
50
162.9373603
51
174.6208611
0
ARC
8
DEFAULT_255_1_234
10
20.9159708
20
68.781001
40
0.8322832
50
174.3419979
51
180.1430411
0
ARC
8
DEFAULT_255_1_234
10
20.8228864
20
68.6615698
40
0.7392076
50
179.6817502
51
189.150529
0
ARC
8
DEFAULT_255_1_234
10
20.5728112
20
68.619919
40
0.4856932
50
188.9910863
51
203.5773039
0
ARC
8
DEFAULT_255_1_234
10
20.4648445
20
68.5751211
40
0.3688271
50
203.9077269
51
215.1312379
0
ARC
8
DEFAULT_255_1_234
10
20.3725539
20
68.5035941
40
0.2522457
50
213.9071664
51
263.8849284
0
ARC
8
DEFAULT_255_1_234
10
20.3850868
20
68.5820518
40
0.3316174
50
263.1758525
51
270.1031083
0
ARC
8
DEFAULT_255_1_234
10
20.388296
20
68.7067365
40
0.4563091
50
269.6719807
51
279.0609165
0
ARC
8
DEFAULT_255_1_234
10
20.4149728
20
68.5454907
40
0.2928759
50
278.8750225
51
293.6346586
0
ARC
8
DEFAULT_255_1_234
10
20.4469936
20
68.47029
40
0.2111472
50
293.8553404
51
310.0518804
0
ARC
8
DEFAULT_255_1_234
10
20.447479
20
68.4640516
40
0.2060917
50
311.0646779
51
332.0108348
0
ARC
8
DEFAULT_255_1_234
10
20.3282517
20
68.5297978
40
0.3422352
50
331.6588543
51
343.2878891
0
ARC
8
DEFAULT_255_1_234
10
20.1220032
20
68.5931798
40
0.5580003
50
343.1446044
51
351.010618
0
ARC
8
DEFAULT_255_1_234
10
19.9678678
20
68.6212871
40
0.7146438
50
350.7157277
51
351.1602153
0
LINE
8
DEFAULT_255_1_234
10
21.9382186
20
69.3098211
11
21.9382186
21
68.1404
0
LINE
8
DEFAULT_255_1_234
10
21.9382186
20
68.1404
11
21.7832061
21
68.1404
0
LINE
8
DEFAULT_255_1_234
10
21.7832061
20
68.1404
11
21.7832061
21
68.680936
0
LINE
8
DEFAULT_255_1_234
10
21.7832061
20
68.680936
11
21.1936765
21
68.680936
0
LINE
8
DEFAULT_255_1_234
10
21.1936765
20
68.680936
11
21.1936765
21
68.1404
0
LINE
8
DEFAULT_255_1_234
10
21.1936765
20
68.1404
11
21.0394671
21
68.1404
0
LINE
8
DEFAULT_255_1_234
10
21.0394671
20
68.1404
11
21.0394671
21
69.3098211
0
LINE
8
DEFAULT_255_1_234
10
21.0394671
20
69.3098211
11
21.1936765
21
69.3098211
0
LINE
8
DEFAULT_255_1_234
10
21.1936765
20
69.3098211
11
21.1936765
21
68.8070343
0
LINE
8
DEFAULT_255_1_234
10
21.1936765
20
68.8070343
11
21.7832061
21
68.8070343
0
LINE
8
DEFAULT_255_1_234
10
21.7832061
20
68.8070343
11
21.7832061
21
69.3098211
0
LINE
8
DEFAULT_255_1_234
10
21.7832061
20
69.3098211
11
21.9382186
21
69.3098211
0
LINE
8
DEFAULT_255_1_234
10
22.6618782
20
69.3154433
11
22.6618782
21
68.1404
0
LINE
8
DEFAULT_255_1_234
10
22.6618782
20
68.1404
11
22.5124879
21
68.1404
0
LINE
8
DEFAULT_255_1_234
10
22.5124879
20
68.1404
11
22.5124879
21
69.1307133
0
LINE
8
DEFAULT_255_1_234
10
22.5124879
20
69.1307133
11
22.2129041
21
69.0206785
0
LINE
8
DEFAULT_255_1_234
10
22.2129041
20
69.0206785
11
22.2129041
21
69.1556117
0
LINE
8
DEFAULT_255_1_234
10
22.2129041
20
69.1556117
11
22.6385862
21
69.3154433
0
LINE
8
DEFAULT_255_1_234
10
22.6385862
20
69.3154433
11
22.6618782
21
69.3154433
0
LINE
8
DEFAULT_255_1_234
10
23.8931437
20
68.1404
11
23.7815025
21
68.4456061
0
LINE
8
DEFAULT_255_1_234
10
23.7815025
20
68.4456061
11
23.2915665
21
68.4456061
0
LINE
8
DEFAULT_255_1_234
10
23.2915665
20
68.4456061
11
23.1815317
21
68.1404
0
LINE
8
DEFAULT_255_1_234
10
23.1815317
20
68.1404
11
23.0225033
21
68.1404
0
LINE
8
DEFAULT_255_1_234
10
23.0225033
20
68.1404
11
23.4690679
21
69.3098211
0
LINE
8
DEFAULT_255_1_234
10
23.4690679
20
69.3098211
11
23.6040011
21
69.3098211
0
LINE
8
DEFAULT_255_1_234
10
23.6040011
20
69.3098211
11
24.0513689
21
68.1404
0
LINE
8
DEFAULT_255_1_234
10
24.0513689
20
68.1404
11
23.8931437
21
68.1404
0
LINE
8
DEFAULT_255_1_234
10
23.5365345
20
69.1194689
11
23.3381506
21
68.5725075
0
LINE
8
DEFAULT_255_1_234
10
23.3381506
20
68.5725075
11
23.7357216
21
68.5725075
0
LINE
8
DEFAULT_255_1_234
10
23.7357216
20
68.5725075
11
23.5365345
21
69.1194689
0
LINE
8
DEFAULT_255_1_234
10
20.960023
20
76.4489663
11
21.1150355
21
76.4489663
0
LINE
8
DEFAULT_255_1_234
10
20.2146777
20
76.6079947
11
20.2146777
21
76.7204391
0
LINE
8
DEFAULT_255_1_234
10
21.1150355
20
76.8714357
11
20.960023
21
76.8714357
0
LINE
8
DEFAULT_255_1_234
10
20.3696902
20
76.7164232
11
20.3696902
21
76.6031757
0
ARC
8
DEFAULT_255_1_234
10
20.5669742
20
76.5086846
40
0.5513052
50
340.1774281
51
353.7814284
0
ARC
8
DEFAULT_255_1_234
10
20.7241095
20
76.4501582
40
0.3836379
50
311.4558989
51
340.4421614
0
ARC
8
DEFAULT_255_1_234
10
20.7207763
20
76.4612528
40
0.3941894
50
282.4333181
51
310.7513653
0
ARC
8
DEFAULT_255_1_234
10
20.6768502
20
76.6427679
40
0.5809175
50
269.9358511
51
282.809604
0
ARC
8
DEFAULT_255_1_234
10
20.6716568
20
76.7885212
40
0.7266847
50
270.0021091
51
270.3581957
0
ARC
8
DEFAULT_255_1_234
10
20.6663985
20
76.5284585
40
0.4666519
50
250.7884749
51
270.6489167
0
ARC
8
DEFAULT_255_1_234
10
20.649582
20
76.4647319
40
0.4009729
50
219.3627325
51
250.0611886
0
ARC
8
DEFAULT_255_1_234
10
20.7325031
20
76.5352042
40
0.5097822
50
193.5479632
51
219.5756669
0
ARC
8
DEFAULT_255_1_234
10
20.9696652
20
76.5967919
40
0.7547848
50
181.1218675
51
193.87563
0
ARC
8
DEFAULT_255_1_234
10
21.1766833
20
76.607858
40
0.9620055
50
179.9918545
51
181.5394234
0
ARC
8
DEFAULT_255_1_234
10
20.9915935
20
76.7241788
40
0.7769248
50
169.5837241
51
180.2757934
0
ARC
8
DEFAULT_255_1_234
10
20.8078873
20
76.7581229
40
0.590109
50
155.0365899
51
169.6003176
0
ARC
8
DEFAULT_255_1_234
10
20.6943337
20
76.8128677
40
0.4640625
50
136.783148
51
155.2472683
0
ARC
8
DEFAULT_255_1_234
10
20.6553814
20
76.8459562
40
0.4130255
50
121.7633186
51
136.428115
0
ARC
8
DEFAULT_255_1_234
10
20.6688776
20
76.8210227
40
0.4413323
50
95.6459699
51
121.5490577
0
ARC
8
DEFAULT_255_1_234
10
20.6846058
20
76.7101949
40
0.55319
50
89.924208
51
96.1377933
0
ARC
8
DEFAULT_255_1_234
10
20.6896491
20
76.7220542
40
0.5413475
50
76.6779277
51
90.4563316
0
ARC
8
DEFAULT_255_1_234
10
20.7290114
20
76.8811114
40
0.3775041
50
47.485847
51
76.9287264
0
ARC
8
DEFAULT_255_1_234
10
20.7143087
20
76.8711159
40
0.3948286
50
16.5424086
51
46.8933463
0
ARC
8
DEFAULT_255_1_234
10
20.5535244
20
76.8182861
40
0.564021
50
5.4072051
51
17.0365086
0
ARC
8
DEFAULT_255_1_234
10
20.4096261
20
76.7951679
40
0.5556559
50
7.8891745
51
15.9239216
0
ARC
8
DEFAULT_255_1_234
10
20.6083274
20
76.8528631
40
0.3487515
50
15.7653144
51
27.9410532
0
ARC
8
DEFAULT_255_1_234
10
20.7187492
20
76.911979
40
0.2235026
50
27.8166557
51
46.4008329
0
ARC
8
DEFAULT_255_1_234
10
20.7237135
20
76.9114082
40
0.2205286
50
47.4371857
51
75.0698205
0
ARC
8
DEFAULT_255_1_234
10
20.6928529
20
76.8039765
40
0.3322915
50
74.7008593
51
87.8124495
0
ARC
8
DEFAULT_255_1_234
10
20.6855217
20
76.6983844
40
0.4380987
50
87.3814673
51
90.0240855
0
ARC
8
DEFAULT_255_1_234
10
20.681676
20
76.8161291
40
0.3203749
50
89.3451631
51
108.5745436
0
ARC
8
DEFAULT_255_1_234
10
20.6679865
20
76.8674908
40
0.2673494
50
109.2998449
51
143.3037509
0
ARC
8
DEFAULT_255_1_234
10
20.7441938
20
76.8088881
40
0.3634757
50
143.0753173
51
163.1916937
0
ARC
8
DEFAULT_255_1_234
10
20.9393666
20
76.7472967
40
0.5681262
50
162.9373603
51
174.6208611
0
ARC
8
DEFAULT_255_1_234
10
21.2019708
20
76.718501
40
0.8322832
50
174.3419979
51
180.1430411
0
ARC
8
DEFAULT_255_1_234
10
21.1088864
20
76.5990698
40
0.7392076
50
179.6817502
51
189.150529
0
ARC
8
DEFAULT_255_1_234
10
20.8588112
20
76.557419
40
0.4856932
50
188.9910863
51
203.5773039
0
ARC
8
DEFAULT_255_1_234
10
20.7508445
20
76.5126211
40
0.3688271
50
203.9077269
51
215.1312379
0
ARC
8
DEFAULT_255_1_234
10
20.6585539
20
76.4410941
40
0.2522457
50
213.9071664
51
263.8849284
0
ARC
8
DEFAULT_255_1_234
10
20.6710868
20
76.5195518
40
0.3316174
50
263.1758525
51
270.1031083
0
ARC
8
DEFAULT_255_1_234
10
20.674296
20
76.6442365
40
0.4563091
50
269.6719807
51
279.0609165
0
ARC
8
DEFAULT_255_1_234
10
20.7009728
20
76.4829907
40
0.2928759
50
278.8750225
51
293.6346586
0
ARC
8
DEFAULT_255_1_234
10
20.7329936
20
76.40779
40
0.2111472
50
293.8553404
51
310.0518804
0
ARC
8
DEFAULT_255_1_234
10
20.733479
20
76.4015516
40
0.2060917
50
311.0646779
51
332.0108348
0
ARC
8
DEFAULT_255_1_234
10
20.6142517
20
76.4672978
40
0.3422352
50
331.6588543
51
343.2878891
0
ARC
8
DEFAULT_255_1_234
10
20.4080032
20
76.5306798
40
0.5580003
50
343.1446044
51
351.010618
0
ARC
8
DEFAULT_255_1_234
10
20.2538678
20
76.5587871
40
0.7146438
50
350.7157277
51
351.1602153
0
LINE
8
DEFAULT_255_1_234
10
22.2242186
20
77.2473211
11
22.2242186
21
76.0779
0
LINE
8
DEFAULT_255_1_234
10
22.2242186
20
76.0779
11
22.0692061
21
76.0779
0
LINE
8
DEFAULT_255_1_234
10
22.0692061
20
76.0779
11
22.0692061
21
76.618436
0
LINE
8
DEFAULT_255_1_234
10
22.0692061
20
76.618436
11
21.4796765
21
76.618436
0
LINE
8
DEFAULT_255_1_234
10
21.4796765
20
76.618436
11
21.4796765
21
76.0779
0
LINE
8
DEFAULT_255_1_234
10
21.4796765
20
76.0779
11
21.3254671
21
76.0779
0
LINE
8
DEFAULT_255_1_234
10
21.3254671
20
76.0779
11
21.3254671
21
77.2473211
0
LINE
8
DEFAULT_255_1_234
10
21.3254671
20
77.2473211
11
21.4796765
21
77.2473211
0
LINE
8
DEFAULT_255_1_234
10
21.4796765
20
77.2473211
11
21.4796765
21
76.7445343
0
LINE
8
DEFAULT_255_1_234
10
21.4796765
20
76.7445343
11
22.0692061
21
76.7445343
0
LINE
8
DEFAULT_255_1_234
10
22.0692061
20
76.7445343
11
22.0692061
21
77.2473211
0
LINE
8
DEFAULT_255_1_234
10
22.0692061
20
77.2473211
11
22.2242186
21
77.2473211
0
LINE
8
DEFAULT_255_1_234
10
23.1928462
20
76.7694327
11
23.1928462
21
76.5766709
0
LINE
8
DEFAULT_255_1_234
10
22.4547295
20
76.5565916
11
22.4547295
21
76.7549755
0
LINE
8
DEFAULT_255_1_234
10
23.0442591
20
76.5365123
11
23.0442591
21
76.7798739
0
LINE
8
DEFAULT_255_1_234
10
22.6033167
20
76.7911184
11
22.6033167
21
76.5533789
0
ARC
8
DEFAULT_255_1_234
10
21.9681352
20
76.5717805
40
1.2247208
50
353.8441951
51
0.2287902
0
ARC
8
DEFAULT_255_1_234
10
22.4320856
20
76.5199806
40
0.7578929
50
344.4934747
51
353.9765454
0
ARC
8
DEFAULT_255_1_234
10
22.7313446
20
76.4348981
40
0.4467846
50
329.2803592
51
344.7472793
0
ARC
8
DEFAULT_255_1_234
10
22.8306271
20
76.3804018
40
0.3336173
50
324.9352394
51
328.6160465
0
ARC
8
DEFAULT_255_1_234
10
22.8683379
20
76.3540427
40
0.2876076
50
280.580143
51
324.9173126
0
ARC
8
DEFAULT_255_1_234
10
22.8282172
20
76.5211099
40
0.4592847
50
269.5977311
51
281.6734359
0
ARC
8
DEFAULT_255_1_234
10
22.8210078
20
76.5091173
40
0.4472986
50
256.6228859
51
270.51044
0
ARC
8
DEFAULT_255_1_234
10
22.7808055
20
76.3542877
40
0.2873874
50
215.8618325
51
257.2788573
0
ARC
8
DEFAULT_255_1_234
10
22.8829087
20
76.4227977
40
0.4102928
50
197.9693508
51
215.2623606
0
ARC
8
DEFAULT_255_1_234
10
23.1314203
20
76.5066709
40
0.6725652
50
187.8816417
51
198.2346507
0
ARC
8
DEFAULT_255_1_234
10
23.5272411
20
76.5638079
40
1.0724845
50
180.8976217
51
188.0055519
0
ARC
8
DEFAULT_255_1_234
10
23.8072599
20
76.5741777
40
1.3526448
50
180.7449369
51
181.1510016
0
ARC
8
DEFAULT_255_1_234
10
23.6495328
20
76.7598042
40
1.1948131
50
173.7675579
51
180.231553
0
ARC
8
DEFAULT_255_1_234
10
23.1977475
20
76.8108666
40
0.7401564
50
164.3058563
51
173.9002247
0
ARC
8
DEFAULT_255_1_234
10
22.9065544
20
76.8947656
40
0.4371288
50
148.7922025
51
164.568378
0
ARC
8
DEFAULT_255_1_234
10
22.8113996
20
76.9478929
40
0.3282386
50
144.5883898
51
148.1176286
0
ARC
8
DEFAULT_255_1_234
10
22.7770894
20
76.9718315
40
0.2864044
50
101.6440918
51
144.514236
0
ARC
8
DEFAULT_255_1_234
10
22.819596
20
76.8029069
40
0.4604934
50
89.5284041
51
102.5819763
0
ARC
8
DEFAULT_255_1_234
10
22.8275048
20
76.7990018
40
0.464401
50
77.0437873
51
90.5081339
0
ARC
8
DEFAULT_255_1_234
10
22.867705
20
76.9632615
40
0.2953195
50
48.2778575
51
77.4994676
0
ARC
8
DEFAULT_255_1_234
10
22.8749681
20
76.9761746
40
0.2808655
50
36.3142134
51
47.6305865
0
ARC
8
DEFAULT_255_1_234
10
22.7880988
20
76.9176515
40
0.3855453
50
18.2931786
51
35.6769206
0
ARC
8
DEFAULT_255_1_234
10
22.5337747
20
76.8303593
40
0.654423
50
8.024666
51
18.5605216
0
ARC
8
DEFAULT_255_1_234
10
22.1174667
20
76.7688792
40
1.0752407
50
1.1274072
51
8.1718305
0
ARC
8
DEFAULT_255_1_234
10
21.7938858
20
76.7561885
40
1.3990231
50
0.5424119
51
1.3863029
0
ARC
8
DEFAULT_255_1_234
10
21.9760235
20
76.7834342
40
1.0682415
50
359.8090433
51
4.9407866
0
ARC
8
DEFAULT_255_1_234
10
22.3970249
20
76.8210113
40
0.6455691
50
4.8362157
51
12.2904523
0
ARC
8
DEFAULT_255_1_234
10
22.6725364
20
76.8823965
40
0.3633074
50
12.0805627
51
23.8173984
0
ARC
8
DEFAULT_255_1_234
10
22.789907
20
76.9320919
40
0.2358723
50
24.2871213
51
31.3935614
0
ARC
8
DEFAULT_255_1_234
10
22.8423767
20
76.9664233
40
0.1732111
50
30.7407893
51
82.4657128
0
ARC
8
DEFAULT_255_1_234
10
22.8243901
20
76.8780691
40
0.263235
50
81.1060089
51
90.2184952
0
ARC
8
DEFAULT_255_1_234
10
22.82082
20
76.9038924
40
0.2374236
50
89.3806855
51
105.6762551
0
ARC
8
DEFAULT_255_1_234
10
22.8024831
20
76.9705567
40
0.1682847
50
105.7981136
51
149.7388061
0
ARC
8
DEFAULT_255_1_234
10
22.9088909
20
76.906595
40
0.2924306
50
149.4208916
51
163.6286378
0
ARC
8
DEFAULT_255_1_234
10
23.1179797
20
76.842825
40
0.5110213
50
163.3763315
51
172.1410975
0
ARC
8
DEFAULT_255_1_234
10
23.4480516
20
76.7955518
40
0.8444586
50
172.0259487
51
178.0703232
0
ARC
8
DEFAULT_255_1_234
10
23.7510605
20
76.7811906
40
1.1477868
50
177.8631668
51
179.5044149
0
ARC
8
DEFAULT_255_1_234
10
23.643801
20
76.5497389
40
1.0404907
50
179.7995573
51
185.2460446
0
ARC
8
DEFAULT_255_1_234
10
23.2395049
20
76.5114513
40
0.6343885
50
185.1411642
51
193.0079639
0
ARC
8
DEFAULT_255_1_234
10
22.9751522
20
76.4489641
40
0.3627568
50
192.7897626
51
205.2507664
0
ARC
8
DEFAULT_255_1_234
10
22.8705069
20
76.4022415
40
0.2481908
50
205.8005384
51
211.2537509
0
ARC
8
DEFAULT_255_1_234
10
22.8181509
20
76.367158
40
0.1852521
50
210.3789793
51
238.4008143
0
ARC
8
DEFAULT_255_1_234
10
22.8162031
20
76.3718376
40
0.1882621
50
239.6520629
51
265.9793761
0
ARC
8
DEFAULT_255_1_234
10
22.8247231
20
76.4390427
40
0.2559272
50
265.1315437
51
270.060332
0
ARC
8
DEFAULT_255_1_234
10
22.827601
20
76.4066534
40
0.2235528
50
269.3314664
51
287.2178029
0
ARC
8
DEFAULT_255_1_234
10
22.8413862
20
76.3563279
40
0.1714108
50
287.7958004
51
329.080874
0
ARC
8
DEFAULT_255_1_234
10
22.7456319
20
76.416093
40
0.2842745
50
328.6634704
51
343.3325132
0
ARC
8
DEFAULT_255_1_234
10
22.5283339
20
76.4837863
40
0.5118644
50
343.0499468
51
351.9393422
0
ARC
8
DEFAULT_255_1_234
10
22.1816639
20
76.5348949
40
0.8622784
50
351.8069023
51
357.7959224
0
ARC
8
DEFAULT_255_1_234
10
21.8581195
20
76.5516721
40
1.1862365
50
357.5871873
51
359.2677531
0
LINE
8
DEFAULT_255_1_234
10
24.134166
20
76.5156297
11
24.134166
21
76.502779
0
LINE
8
DEFAULT_255_1_234
10
23.5422269
20
76.1782967
11
23.5349983
21
76.0779
0
LINE
8
DEFAULT_255_1_234
10
23.5349983
20
76.0779
11
23.3984587
21
76.0779
0
LINE
8
DEFAULT_255_1_234
10
23.3984587
20
76.0779
11
23.3984587
21
77.311575
0
LINE
8
DEFAULT_255_1_234
10
23.3984587
20
77.311575
11
23.5470459
21
77.311575
0
LINE
8
DEFAULT_255_1_234
10
23.5470459
20
77.311575
11
23.5470459
21
76.8513564
0
LINE
8
DEFAULT_255_1_234
10
23.5470459
20
76.7003597
11
23.5470459
21
76.3244744
0
ARC
8
DEFAULT_255_1_234
10
23.4294935
20
76.4983573
40
0.7046863
50
349.4825105
51
0.3595108
0
ARC
8
DEFAULT_255_1_234
10
23.6572176
20
76.4545022
40
0.4727857
50
331.8602128
51
349.6704139
0
ARC
8
DEFAULT_255_1_234
10
23.7304944
20
76.4188125
40
0.3913503
50
322.8939783
51
331.4081204
0
ARC
8
DEFAULT_255_1_234
10
23.8000342
20
76.3608707
40
0.300965
50
296.7249167
51
323.7044215
0
ARC
8
DEFAULT_255_1_234
10
23.8030239
20
76.3678043
40
0.3058683
50
270.6342811
51
295.6405548
0
ARC
8
DEFAULT_255_1_234
10
23.7968549
20
76.4480995
40
0.3862632
50
269.9967524
51
271.4174733
0
ARC
8
DEFAULT_255_1_234
10
23.7930213
20
76.4345686
40
0.3727515
50
253.657532
51
270.5859025
0
ARC
8
DEFAULT_255_1_234
10
23.7699319
20
76.3502235
40
0.2853216
50
217.0543181
51
253.3409865
0
ARC
8
DEFAULT_255_1_234
10
23.7765987
20
76.6686052
40
0.2934152
50
93.1931545
51
141.4760602
0
ARC
8
DEFAULT_255_1_234
10
23.7948203
20
76.5453453
40
0.4176524
50
89.9442578
51
94.747309
0
ARC
8
DEFAULT_255_1_234
10
23.799195
20
76.627641
40
0.3353801
50
70.6103515
51
90.6779749
0
ARC
8
DEFAULT_255_1_234
10
23.8106252
20
76.673189
40
0.2886533
50
36.1152635
51
69.7489296
0
ARC
8
DEFAULT_255_1_234
10
23.7119656
20
76.5978708
40
0.4127561
50
15.4648517
51
36.4891396
0
ARC
8
DEFAULT_255_1_234
10
23.5061342
20
76.5379524
40
0.6271187
50
3.9220813
51
15.7265815
0
ARC
8
DEFAULT_255_1_234
10
23.2702186
20
76.5167325
40
0.863948
50
359.9268643
51
4.2559037
0
ARC
8
DEFAULT_255_1_234
10
23.3516567
20
76.5227103
40
0.6339295
50
359.7230081
51
7.7115859
0
ARC
8
DEFAULT_255_1_234
10
23.5778132
20
76.5543172
40
0.4055784
50
7.5740023
51
19.4151451
0
ARC
8
DEFAULT_255_1_234
10
23.7045771
20
76.5989519
40
0.2711858
50
19.4238354
51
34.9161182
0
ARC
8
DEFAULT_255_1_234
10
23.7716509
20
76.6476172
40
0.1883373
50
34.4556322
51
84.4656458
0
ARC
8
DEFAULT_255_1_234
10
23.7587957
20
76.5721057
40
0.2647939
50
83.2727306
51
90.1114621
0
ARC
8
DEFAULT_255_1_234
10
23.7545814
20
76.5919509
40
0.2449763
50
89.1347934
51
111.4089923
0
ARC
8
DEFAULT_255_1_234
10
23.7466365
20
76.6247473
40
0.2115923
50
112.6478598
51
148.9260864
0
ARC
8
DEFAULT_255_1_234
10
23.8244163
20
76.5705985
40
0.3062228
50
147.7597608
51
154.928557
0
ARC
8
DEFAULT_255_1_234
10
23.7984224
20
76.4461379
40
0.2792708
50
205.8264786
51
224.5301003
0
ARC
8
DEFAULT_255_1_234
10
23.7506528
20
76.4034914
40
0.2153317
50
225.354483
51
269.2437579
0
ARC
8
DEFAULT_255_1_234
10
23.7598163
20
76.4841292
40
0.2961942
50
267.6770046
51
270.0136612
0
ARC
8
DEFAULT_255_1_234
10
23.7625514
20
76.4082938
40
0.2203751
50
269.3072485
51
289.499141
0
ARC
8
DEFAULT_255_1_234
10
23.7697578
20
76.3786394
40
0.1900415
50
290.4353973
51
325.3766314
0
ARC
8
DEFAULT_255_1_234
10
23.7068801
20
76.4240643
40
0.2675986
50
325.0223901
51
342.692398
0
ARC
8
DEFAULT_255_1_234
10
23.5371689
20
76.4792812
40
0.446058
50
342.4062876
51
352.8669243
0
ARC
8
DEFAULT_255_1_234
10
23.2651164
20
76.5149975
40
0.7204419
50
352.7350668
51
359.8556985
0
ARC
8
DEFAULT_255_1_234
10
23.074086
20
76.5196018
40
0.9114927
50
359.5965197
51
0.0027543
0
LINE
8
DEFAULT_255_1_234
10
20.804623
20
84.3864663
11
20.9596355
21
84.3864663
0
LINE
8
DEFAULT_255_1_234
10
20.0592777
20
84.5454947
11
20.0592777
21
84.6579391
0
LINE
8
DEFAULT_255_1_234
10
20.9596355
20
84.8089357
11
20.804623
21
84.8089357
0
LINE
8
DEFAULT_255_1_234
10
20.2142902
20
84.6539232
11
20.2142902
21
84.5406757
0
ARC
8
DEFAULT_255_1_234
10
20.4115742
20
84.4461846
40
0.5513052
50
340.1774281
51
353.7814284
0
ARC
8
DEFAULT_255_1_234
10
20.5687095
20
84.3876582
40
0.3836379
50
311.4558989
51
340.4421614
0
ARC
8
DEFAULT_255_1_234
10
20.5653763
20
84.3987528
40
0.3941894
50
282.4333181
51
310.7513653
0
ARC
8
DEFAULT_255_1_234
10
20.5214502
20
84.5802679
40
0.5809175
50
269.9358511
51
282.809604
0
ARC
8
DEFAULT_255_1_234
10
20.5162568
20
84.7260212
40
0.7266847
50
270.0021091
51
270.3581957
0
ARC
8
DEFAULT_255_1_234
10
20.5109985
20
84.4659585
40
0.4666519
50
250.7884749
51
270.6489167
0
ARC
8
DEFAULT_255_1_234
10
20.494182
20
84.4022319
40
0.4009729
50
219.3627325
51
250.0611886
0
ARC
8
DEFAULT_255_1_234
10
20.5771031
20
84.4727042
40
0.5097822
50
193.5479632
51
219.5756669
0
ARC
8
DEFAULT_255_1_234
10
20.8142652
20
84.5342919
40
0.7547848
50
181.1218675
51
193.87563
0
ARC
8
DEFAULT_255_1_234
10
21.0212833
20
84.545358
40
0.9620055
50
179.9918545
51
181.5394234
0
ARC
8
DEFAULT_255_1_234
10
20.8361935
20
84.6616788
40
0.7769248
50
169.5837241
51
180.2757934
0
ARC
8
DEFAULT_255_1_234
10
20.6524873
20
84.6956229
40
0.590109
50
155.0365899
51
169.6003176
0
ARC
8
DEFAULT_255_1_234
10
20.5389337
20
84.7503677
40
0.4640625
50
136.783148
51
155.2472683
0
ARC
8
DEFAULT_255_1_234
10
20.4999814
20
84.7834562
40
0.4130255
50
121.7633186
51
136.428115
0
ARC
8
DEFAULT_255_1_234
10
20.5134776
20
84.7585227
40
0.4413323
50
95.6459699
51
121.5490577
0
ARC
8
DEFAULT_255_1_234
10
20.5292058
20
84.6476949
40
0.55319
50
89.924208
51
96.1377933
0
ARC
8
DEFAULT_255_1_234
10
20.5342491
20
84.6595542
40
0.5413475
50
76.6779277
51
90.4563316
0
ARC
8
DEFAULT_255_1_234
10
20.5736114
20
84.8186114
40
0.3775041
50
47.485847
51
76.9287264
0
ARC
8
DEFAULT_255_1_234
10
20.5589087
20
84.8086159
40
0.3948286
50
16.5424086
51
46.8933463
0
ARC
8
DEFAULT_255_1_234
10
20.3981244
20
84.7557861
40
0.564021
50
5.4072051
51
17.0365086
0
ARC
8
DEFAULT_255_1_234
10
20.2542261
20
84.7326679
40
0.5556559
50
7.8891745
51
15.9239216
0
ARC
8
DEFAULT_255_1_234
10
20.4529274
20
84.7903631
40
0.3487515
50
15.7653144
51
27.9410532
0
ARC
8
DEFAULT_255_1_234
10
20.5633492
20
84.849479
40
0.2235026
50
27.8166557
51
46.4008329
0
ARC
8
DEFAULT_255_1_234
10
20.5683135
20
84.8489082
40
0.2205286
50
47.4371857
51
75.0698205
0
ARC
8
DEFAULT_255_1_234
10
20.5374529
20
84.7414765
40
0.3322915
50
74.7008593
51
87.8124495
0
ARC
8
DEFAULT_255_1_234
10
20.5301217
20
84.6358844
40
0.4380987
50
87.3814673
51
90.0240855
0
ARC
8
DEFAULT_255_1_234
10
20.526276
20
84.7536291
40
0.3203749
50
89.3451631
51
108.5745436
0
ARC
8
DEFAULT_255_1_234
10
20.5125865
20
84.8049908
40
0.2673494
50
109.2998449
51
143.3037509
0
ARC
8
DEFAULT_255_1_234
10
20.5887938
20
84.7463881
40
0.3634757
50
143.0753173
51
163.1916937
0
ARC
8
DEFAULT_255_1_234
10
20.7839666
20
84.6847967
40
0.5681262
50
162.9373603
51
174.6208611
0
ARC
8
DEFAULT_255_1_234
10
21.0465708
20
84.656001
40
0.8322832
50
174.3419979
51
180.1430411
0
ARC
8
DEFAULT_255_1_234
10
20.9534864
20
84.5365698
40
0.7392076
50
179.6817502
51
189.150529
0
ARC
8
DEFAULT_255_1_234
10
20.7034112
20
84.494919
40
0.4856932
50
188.9910863
51
203.5773039
0
ARC
8
DEFAULT_255_1_234
10
20.5954445
20
84.4501211
40
0.3688271
50
203.9077269
51
215.1312379
0
ARC
8
DEFAULT_255_1_234
10
20.5031539
20
84.3785941
40
0.2522457
50
213.9071664
51
263.8849284
0
ARC
8
DEFAULT_255_1_234
10
20.5156868
20
84.4570518
40
0.3316174
50
263.1758525
51
270.1031083
0
ARC
8
DEFAULT_255_1_234
10
20.518896
20
84.5817365
40
0.4563091
50
269.6719807
51
279.0609165
0
ARC
8
DEFAULT_255_1_234
10
20.5455728
20
84.4204907
40
0.2928759
50
278.8750225
51
293.6346586
0
ARC
8
DEFAULT_255_1_234
10
20.5775936
20
84.34529
40
0.2111472
50
293.8553404
51
310.0518804
0
ARC
8
DEFAULT_255_1_234
10
20.578079
20
84.3390516
40
0.2060917
50
311.0646779
51
332.0108348
0
ARC
8
DEFAULT_255_1_234
10
20.4588517
20
84.4047978
40
0.3422352
50
331.6588543
51
343.2878891
0
ARC
8
DEFAULT_255_1_234
10
20.2526032
20
84.4681798
40
0.5580003
50
343.1446044
51
351.010618
0
ARC
8
DEFAULT_255_1_234
10
20.0984678
20
84.4962871
40
0.7146438
50
350.7157277
51
351.1602153
0
LINE
8
DEFAULT_255_1_234
10
22.0688186
20
85.1848211
11
22.0688186
21
84.0154
0
LINE
8
DEFAULT_255_1_234
10
22.0688186
20
84.0154
11
21.9138061
21
84.0154
0
LINE
8
DEFAULT_255_1_234
10
21.9138061
20
84.0154
11
21.9138061
21
84.555936
0
LINE
8
DEFAULT_255_1_234
10
21.9138061
20
84.555936
11
21.3242765
21
84.555936
0
LINE
8
DEFAULT_255_1_234
10
21.3242765
20
84.555936
11
21.3242765
21
84.0154
0
LINE
8
DEFAULT_255_1_234
10
21.3242765
20
84.0154
11
21.1700671
21
84.0154
0
LINE
8
DEFAULT_255_1_234
10
21.1700671
20
84.0154
11
21.1700671
21
85.1848211
0
LINE
8
DEFAULT_255_1_234
10
21.1700671
20
85.1848211
11
21.3242765
21
85.1848211
0
LINE
8
DEFAULT_255_1_234
10
21.3242765
20
85.1848211
11
21.3242765
21
84.6820343
0
LINE
8
DEFAULT_255_1_234
10
21.3242765
20
84.6820343
11
21.9138061
21
84.6820343
0
LINE
8
DEFAULT_255_1_234
10
21.9138061
20
84.6820343
11
21.9138061
21
85.1848211
0
LINE
8
DEFAULT_255_1_234
10
21.9138061
20
85.1848211
11
22.0688186
21
85.1848211
0
LINE
8
DEFAULT_255_1_234
10
23.0374462
20
84.7069327
11
23.0374462
21
84.5141709
0
LINE
8
DEFAULT_255_1_234
10
22.2993295
20
84.4940916
11
22.2993295
21
84.6924755
0
LINE
8
DEFAULT_255_1_234
10
22.8888591
20
84.4740123
11
22.8888591
21
84.7173739
0
LINE
8
DEFAULT_255_1_234
10
22.4479167
20
84.7286184
11
22.4479167
21
84.4908789
0
ARC
8
DEFAULT_255_1_234
10
21.8127352
20
84.5092805
40
1.2247208
50
353.8441951
51
0.2287902
0
ARC
8
DEFAULT_255_1_234
10
22.2766856
20
84.4574806
40
0.7578929
50
344.4934747
51
353.9765454
0
ARC
8
DEFAULT_255_1_234
10
22.5759446
20
84.3723981
40
0.4467846
50
329.2803592
51
344.7472793
0
ARC
8
DEFAULT_255_1_234
10
22.6752271
20
84.3179018
40
0.3336173
50
324.9352394
51
328.6160465
0
ARC
8
DEFAULT_255_1_234
10
22.7129379
20
84.2915427
40
0.2876076
50
280.580143
51
324.9173126
0
ARC
8
DEFAULT_255_1_234
10
22.6728172
20
84.4586099
40
0.4592847
50
269.5977311
51
281.6734359
0
ARC
8
DEFAULT_255_1_234
10
22.6656078
20
84.4466173
40
0.4472986
50
256.6228859
51
270.51044
0
ARC
8
DEFAULT_255_1_234
10
22.6254055
20
84.2917877
40
0.2873874
50
215.8618325
51
257.2788573
0
ARC
8
DEFAULT_255_1_234
10
22.7275087
20
84.3602977
40
0.4102928
50
197.9693508
51
215.2623606
0
ARC
8
DEFAULT_255_1_234
10
22.9760203
20
84.4441709
40
0.6725652
50
187.8816417
51
198.2346507
0
ARC
8
DEFAULT_255_1_234
10
23.3718411
20
84.5013079
40
1.0724845
50
180.8976217
51
188.0055519
0
ARC
8
DEFAULT_255_1_234
10
23.6518599
20
84.5116777
40
1.3526448
50
180.7449369
51
181.1510016
0
ARC
8
DEFAULT_255_1_234
10
23.4941328
20
84.6973042
40
1.1948131
50
173.7675579
51
180.231553
0
ARC
8
DEFAULT_255_1_234
10
23.0423475
20
84.7483666
40
0.7401564
50
164.3058563
51
173.9002247
0
ARC
8
DEFAULT_255_1_234
10
22.7511544
20
84.8322656
40
0.4371288
50
148.7922025
51
164.568378
0
ARC
8
DEFAULT_255_1_234
10
22.6559996
20
84.8853929
40
0.3282386
50
144.5883898
51
148.1176286
0
ARC
8
DEFAULT_255_1_234
10
22.6216894
20
84.9093315
40
0.2864044
50
101.6440918
51
144.514236
0
ARC
8
DEFAULT_255_1_234
10
22.664196
20
84.7404069
40
0.4604934
50
89.5284041
51
102.5819763
0
ARC
8
DEFAULT_255_1_234
10
22.6721048
20
84.7365018
40
0.464401
50
77.0437873
51
90.5081339
0
ARC
8
DEFAULT_255_1_234
10
22.712305
20
84.9007615
40
0.2953195
50
48.2778575
51
77.4994676
0
ARC
8
DEFAULT_255_1_234
10
22.7195681
20
84.9136746
40
0.2808655
50
36.3142134
51
47.6305865
0
ARC
8
DEFAULT_255_1_234
10
22.6326988
20
84.8551515
40
0.3855453
50
18.2931786
51
35.6769206
0
ARC
8
DEFAULT_255_1_234
10
22.3783747
20
84.7678593
40
0.654423
50
8.024666
51
18.5605216
0
ARC
8
DEFAULT_255_1_234
10
21.9620667
20
84.7063792
40
1.0752407
50
1.1274072
51
8.1718305
0
ARC
8
DEFAULT_255_1_234
10
21.6384858
20
84.6936885
40
1.3990231
50
0.5424119
51
1.3863029
0
ARC
8
DEFAULT_255_1_234
10
21.8206235
20
84.7209342
40
1.0682415
50
359.8090433
51
4.9407866
0
ARC
8
DEFAULT_255_1_234
10
22.2416249
20
84.7585113
40
0.6455691
50
4.8362157
51
12.2904523
0
ARC
8
DEFAULT_255_1_234
10
22.5171364
20
84.8198965
40
0.3633074
50
12.0805627
51
23.8173984
0
ARC
8
DEFAULT_255_1_234
10
22.634507
20
84.8695919
40
0.2358723
50
24.2871213
51
31.3935614
0
ARC
8
DEFAULT_255_1_234
10
22.6869767
20
84.9039233
40
0.1732111
50
30.7407893
51
82.4657128
0
ARC
8
DEFAULT_255_1_234
10
22.6689901
20
84.8155691
40
0.263235
50
81.1060089
51
90.2184952
0
ARC
8
DEFAULT_255_1_234
10
22.66542
20
84.8413924
40
0.2374236
50
89.3806855
51
105.6762551
0
ARC
8
DEFAULT_255_1_234
10
22.6470831
20
84.9080567
40
0.1682847
50
105.7981136
51
149.7388061
0
ARC
8
DEFAULT_255_1_234
10
22.7534909
20
84.844095
40
0.2924306
50
149.4208916
51
163.6286378
0
ARC
8
DEFAULT_255_1_234
10
22.9625797
20
84.780325
40
0.5110213
50
163.3763315
51
172.1410975
0
ARC
8
DEFAULT_255_1_234
10
23.2926516
20
84.7330518
40
0.8444586
50
172.0259487
51
178.0703232
0
ARC
8
DEFAULT_255_1_234
10
23.5956605
20
84.7186906
40
1.1477868
50
177.8631668
51
179.5044149
0
ARC
8
DEFAULT_255_1_234
10
23.488401
20
84.4872389
40
1.0404907
50
179.7995573
51
185.2460446
0
ARC
8
DEFAULT_255_1_234
10
23.0841049
20
84.4489513
40
0.6343885
50
185.1411642
51
193.0079639
0
ARC
8
DEFAULT_255_1_234
10
22.8197522
20
84.3864641
40
0.3627568
50
192.7897626
51
205.2507664
0
ARC
8
DEFAULT_255_1_234
10
22.7151069
20
84.3397415
40
0.2481908
50
205.8005384
51
211.2537509
0
ARC
8
DEFAULT_255_1_234
10
22.6627509
20
84.304658
40
0.1852521
50
210.3789793
51
238.4008143
0
ARC
8
DEFAULT_255_1_234
10
22.6608031
20
84.3093376
40
0.1882621
50
239.6520629
51
265.9793761
0
ARC
8
DEFAULT_255_1_234
10
22.6693231
20
84.3765427
40
0.2559272
50
265.1315437
51
270.060332
0
ARC
8
DEFAULT_255_1_234
10
22.672201
20
84.3441534
40
0.2235528
50
269.3314664
51
287.2178029
0
ARC
8
DEFAULT_255_1_234
10
22.6859862
20
84.2938279
40
0.1714108
50
287.7958004
51
329.080874
0
ARC
8
DEFAULT_255_1_234
10
22.5902319
20
84.353593
40
0.2842745
50
328.6634704
51
343.3325132
0
ARC
8
DEFAULT_255_1_234
10
22.3729339
20
84.4212863
40
0.5118644
50
343.0499468
51
351.9393422
0
ARC
8
DEFAULT_255_1_234
10
22.0262639
20
84.4723949
40
0.8622784
50
351.8069023
51
357.7959224
0
ARC
8
DEFAULT_255_1_234
10
21.7027195
20
84.4891721
40
1.1862365
50
357.5871873
51
359.2677531
0
LINE
8
DEFAULT_255_1_234
10
23.6719536
20
84.0154
11
23.2663508
21
84.0154
0
LINE
8
DEFAULT_255_1_234
10
23.2663508
20
84.0154
11
23.2663508
21
85.1848211
0
LINE
8
DEFAULT_255_1_234
10
23.2663508
20
85.1848211
11
23.6486615
21
85.1848211
0
LINE
8
DEFAULT_255_1_234
10
23.6775758
20
84.5623614
11
23.4205602
21
84.5623614
0
LINE
8
DEFAULT_255_1_234
10
23.4205602
20
84.5623614
11
23.4205602
21
84.1414983
0
LINE
8
DEFAULT_255_1_234
10
23.4205602
20
84.1414983
11
23.6751663
21
84.1414983
0
LINE
8
DEFAULT_255_1_234
10
23.4205602
20
85.0579196
11
23.4205602
21
84.6860501
0
LINE
8
DEFAULT_255_1_234
10
23.4205602
20
84.6860501
11
23.6534806
21
84.6860501
0
LINE
8
DEFAULT_255_1_234
10
23.6486615
20
85.0579196
11
23.4205602
21
85.0579196
0
ARC
8
DEFAULT_255_1_234
10
23.6524324
20
84.4480901
40
0.7367406
50
82.1257326
51
90.2932599
0
ARC
8
DEFAULT_255_1_234
10
23.6913279
20
84.7199013
40
0.4621653
50
69.9044149
51
82.2857423
0
ARC
8
DEFAULT_255_1_234
10
23.7483957
20
84.8741637
40
0.2976871
50
51.1838526
51
70.0181538
0
ARC
8
DEFAULT_255_1_234
10
23.7738923
20
84.911224
40
0.2528517
50
12.1017251
51
50.4214761
0
ARC
8
DEFAULT_255_1_234
10
23.6354797
20
84.8764676
40
0.3955061
50
359.5251267
51
12.8211707
0
ARC
8
DEFAULT_255_1_234
10
23.7934723
20
84.8695344
40
0.2375281
50
323.4908128
51
0.8817314
0
ARC
8
DEFAULT_255_1_234
10
23.751641
20
84.901855
40
0.2903817
50
298.6825083
51
323.2756573
0
ARC
8
DEFAULT_255_1_234
10
23.7154773
20
84.9619649
40
0.3604842
50
293.1999386
51
299.1396394
0
ARC
8
DEFAULT_255_1_234
10
23.7827746
20
84.3534126
40
0.2871098
50
54.0011765
51
74.9167975
0
ARC
8
DEFAULT_255_1_234
10
23.7944105
20
84.3731332
40
0.2643248
50
36.3580696
51
53.5291921
0
ARC
8
DEFAULT_255_1_234
10
23.7817347
20
84.3640998
40
0.2798884
50
4.8189881
51
36.3089977
0
ARC
8
DEFAULT_255_1_234
10
23.7038182
20
84.353127
40
0.358478
50
359.9370252
51
5.5204067
0
ARC
8
DEFAULT_255_1_234
10
23.6713704
20
84.3490667
40
0.3909429
50
344.7478609
51
0.5373281
0
ARC
8
DEFAULT_255_1_234
10
23.7704675
20
84.3223544
40
0.2883093
50
311.1786488
51
344.6886812
0
ARC
8
DEFAULT_255_1_234
10
23.7412722
20
84.3586987
40
0.3348923
50
286.0418249
51
310.8441291
0
ARC
8
DEFAULT_255_1_234
10
23.6905554
20
84.5233807
40
0.5071869
50
274.1042341
51
286.4071509
0
ARC
8
DEFAULT_255_1_234
10
23.672881
20
84.7117229
40
0.6963234
50
269.9236873
51
274.445647
0
ARC
8
DEFAULT_255_1_234
10
23.6774811
20
84.4777537
40
0.3362634
50
269.6055768
51
281.3740047
0
ARC
8
DEFAULT_255_1_234
10
23.7005449
20
84.3684353
40
0.224546
50
281.1055983
51
302.5132223
0
ARC
8
DEFAULT_255_1_234
10
23.7152348
20
84.3420823
40
0.1944357
50
303.0368945
51
311.8811219
0
ARC
8
DEFAULT_255_1_234
10
23.7223755
20
84.333589
40
0.1833454
50
311.9916004
51
351.7143462
0
ARC
8
DEFAULT_255_1_234
10
23.6406985
20
84.350093
40
0.2665871
50
350.7339597
51
0.2221581
0
ARC
8
DEFAULT_255_1_234
10
23.6299431
20
84.3557467
40
0.2773789
50
359.0456241
51
17.2296242
0
ARC
8
DEFAULT_255_1_234
10
23.7338548
20
84.3866163
40
0.1689915
50
17.6685481
51
78.9940892
0
ARC
8
DEFAULT_255_1_234
10
23.6821712
20
84.2011224
40
0.3612658
50
76.5635957
51
90.6980921
0
LINE
8
DEFAULT_255_1_234
10
23.6777696
20
84.5623613
11
23.6775758
21
84.5623614
0
ARC
8
DEFAULT_255_1_234
10
23.6557372
20
85.0146036
40
0.3285612
50
269.6064736
51
281.4533503
0
ARC
8
DEFAULT_255_1_234
10
23.6780192
20
84.9094688
40
0.2210975
50
281.2041486
51
302.5148063
0
ARC
8
DEFAULT_255_1_234
10
23.6917042
20
84.8848241
40
0.1929674
50
303.021671
51
309.8369575
0
ARC
8
DEFAULT_255_1_234
10
23.7100503
20
84.8642488
40
0.1654181
50
309.5228395
51
356.9509836
0
ARC
8
DEFAULT_255_1_234
10
23.6437086
20
84.8737932
40
0.2322512
50
355.4701227
51
0.0492546
0
ARC
8
DEFAULT_255_1_234
10
23.6158177
20
84.8760094
40
0.2601498
50
359.5558597
51
11.2096359
0
ARC
8
DEFAULT_255_1_234
10
23.7115467
20
84.895823
40
0.1623975
50
10.9182341
51
31.3230275
0
ARC
8
DEFAULT_255_1_234
10
23.74012
20
84.9117214
40
0.1297302
50
31.8852677
51
52.1412565
0
ARC
8
DEFAULT_255_1_234
10
23.7126933
20
84.872975
40
0.1771663
50
52.8285564
51
71.9850297
0
ARC
8
DEFAULT_255_1_234
10
23.6751109
20
84.7623664
40
0.2939794
50
71.6863486
51
82.8455995
0
ARC
8
DEFAULT_255_1_234
10
23.6511645
20
84.5814149
40
0.476506
50
82.6984714
51
90.1729175
0
ARC
8
DEFAULT_255_1_234
10
23.648928
20
84.7037623
40
0.3541573
50
89.8708275
51
90.0431131
0
LINE
8
DEFAULT_255_1_234
10
20.674023
20
92.3239663
11
20.8290355
21
92.3239663
0
LINE
8
DEFAULT_255_1_234
10
19.9286777
20
92.4829947
11
19.9286777
21
92.5954391
0
LINE
8
DEFAULT_255_1_234
10
20.8290355
20
92.7464357
11
20.674023
21
92.7464357
0
LINE
8
DEFAULT_255_1_234
10
20.0836902
20
92.5914232
11
20.0836902
21
92.4781757
0
ARC
8
DEFAULT_255_1_234
10
20.2809742
20
92.3836846
40
0.5513052
50
340.1774281
51
353.7814284
0
ARC
8
DEFAULT_255_1_234
10
20.4381095
20
92.3251582
40
0.3836379
50
311.4558989
51
340.4421614
0
ARC
8
DEFAULT_255_1_234
10
20.4347763
20
92.3362528
40
0.3941894
50
282.4333181
51
310.7513653
0
ARC
8
DEFAULT_255_1_234
10
20.3908502
20
92.5177679
40
0.5809175
50
269.9358511
51
282.809604
0
ARC
8
DEFAULT_255_1_234
10
20.3856568
20
92.6635212
40
0.7266847
50
270.0021091
51
270.3581957
0
ARC
8
DEFAULT_255_1_234
10
20.3803985
20
92.4034585
40
0.4666519
50
250.7884749
51
270.6489167
0
ARC
8
DEFAULT_255_1_234
10
20.363582
20
92.3397319
40
0.4009729
50
219.3627325
51
250.0611886
0
ARC
8
DEFAULT_255_1_234
10
20.4465031
20
92.4102042
40
0.5097822
50
193.5479632
51
219.5756669
0
ARC
8
DEFAULT_255_1_234
10
20.6836652
20
92.4717919
40
0.7547848
50
181.1218675
51
193.87563
0
ARC
8
DEFAULT_255_1_234
10
20.8906833
20
92.482858
40
0.9620055
50
179.9918545
51
181.5394234
0
ARC
8
DEFAULT_255_1_234
10
20.7055935
20
92.5991788
40
0.7769248
50
169.5837241
51
180.2757934
0
ARC
8
DEFAULT_255_1_234
10
20.5218873
20
92.6331229
40
0.590109
50
155.0365899
51
169.6003176
0
ARC
8
DEFAULT_255_1_234
10
20.4083337
20
92.6878677
40
0.4640625
50
136.783148
51
155.2472683
0
ARC
8
DEFAULT_255_1_234
10
20.3693814
20
92.7209562
40
0.4130255
50
121.7633186
51
136.428115
0
ARC
8
DEFAULT_255_1_234
10
20.3828776
20
92.6960227
40
0.4413323
50
95.6459699
51
121.5490577
0
ARC
8
DEFAULT_255_1_234
10
20.3986058
20
92.5851949
40
0.55319
50
89.924208
51
96.1377933
0
ARC
8
DEFAULT_255_1_234
10
20.4036491
20
92.5970542
40
0.5413475
50
76.6779277
51
90.4563316
0
ARC
8
DEFAULT_255_1_234
10
20.4430114
20
92.7561114
40
0.3775041
50
47.485847
51
76.9287264
0
ARC
8
DEFAULT_255_1_234
10
20.4283087
20
92.7461159
40
0.3948286
50
16.5424086
51
46.8933463
0
ARC
8
DEFAULT_255_1_234
10
20.2675244
20
92.6932861
40
0.564021
50
5.4072051
51
17.0365086
0
ARC
8
DEFAULT_255_1_234
10
20.1236261
20
92.6701679
40
0.5556559
50
7.8891745
51
15.9239216
0
ARC
8
DEFAULT_255_1_234
10
20.3223274
20
92.7278631
40
0.3487515
50
15.7653144
51
27.9410532
0
ARC
8
DEFAULT_255_1_234
10
20.4327492
20
92.786979
40
0.2235026
50
27.8166557
51
46.4008329
0
ARC
8
DEFAULT_255_1_234
10
20.4377135
20
92.7864082
40
0.2205286
50
47.4371857
51
75.0698205
0
ARC
8
DEFAULT_255_1_234
10
20.4068529
20
92.6789765
40
0.3322915
50
74.7008593
51
87.8124495
0
ARC
8
DEFAULT_255_1_234
10
20.3995217
20
92.5733844
40
0.4380987
50
87.3814673
51
90.0240855
0
ARC
8
DEFAULT_255_1_234
10
20.395676
20
92.6911291
40
0.3203749
50
89.3451631
51
108.5745436
0
ARC
8
DEFAULT_255_1_234
10
20.3819865
20
92.7424908
40
0.2673494
50
109.2998449
51
143.3037509
0
ARC
8
DEFAULT_255_1_234
10
20.4581938
20
92.6838881
40
0.3634757
50
143.0753173
51
163.1916937
0
ARC
8
DEFAULT_255_1_234
10
20.6533666
20
92.6222967
40
0.5681262
50
162.9373603
51
174.6208611
0
ARC
8
DEFAULT_255_1_234
10
20.9159708
20
92.593501
40
0.8322832
50
174.3419979
51
180.1430411
0
ARC
8
DEFAULT_255_1_234
10
20.8228864
20
92.4740698
40
0.7392076
50
179.6817502
51
189.150529
0
ARC
8
DEFAULT_255_1_234
10
20.5728112
20
92.432419
40
0.4856932
50
188.9910863
51
203.5773039
0
ARC
8
DEFAULT_255_1_234
10
20.4648445
20
92.3876211
40
0.3688271
50
203.9077269
51
215.1312379
0
ARC
8
DEFAULT_255_1_234
10
20.3725539
20
92.3160941
40
0.2522457
50
213.9071664
51
263.8849284
0
ARC
8
DEFAULT_255_1_234
10
20.3850868
20
92.3945518
40
0.3316174
50
263.1758525
51
270.1031083
0
ARC
8
DEFAULT_255_1_234
10
20.388296
20
92.5192365
40
0.4563091
50
269.6719807
51
279.0609165
0
ARC
8
DEFAULT_255_1_234
10
20.4149728
20
92.3579907
40
0.2928759
50
278.8750225
51
293.6346586
0
ARC
8
DEFAULT_255_1_234
10
20.4469936
20
92.28279
40
0.2111472
50
293.8553404
51
310.0518804
0
ARC
8
DEFAULT_255_1_234
10
20.447479
20
92.2765516
40
0.2060917
50
311.0646779
51
332.0108348
0
ARC
8
DEFAULT_255_1_234
10
20.3282517
20
92.3422978
40
0.3422352
50
331.6588543
51
343.2878891
0
ARC
8
DEFAULT_255_1_234
10
20.1220032
20
92.4056798
40
0.5580003
50
343.1446044
51
351.010618
0
ARC
8
DEFAULT_255_1_234
10
19.9678678
20
92.4337871
40
0.7146438
50
350.7157277
51
351.1602153
0
LINE
8
DEFAULT_255_1_234
10
21.9382186
20
93.1223211
11
21.9382186
21
91.9529
0
LINE
8
DEFAULT_255_1_234
10
21.9382186
20
91.9529
11
21.7832061
21
91.9529
0
LINE
8
DEFAULT_255_1_234
10
21.7832061
20
91.9529
11
21.7832061
21
92.493436
0
LINE
8
DEFAULT_255_1_234
10
21.7832061
20
92.493436
11
21.1936765
21
92.493436
0
LINE
8
DEFAULT_255_1_234
10
21.1936765
20
92.493436
11
21.1936765
21
91.9529
0
LINE
8
DEFAULT_255_1_234
10
21.1936765
20
91.9529
11
21.0394671
21
91.9529
0
LINE
8
DEFAULT_255_1_234
10
21.0394671
20
91.9529
11
21.0394671
21
93.1223211
0
LINE
8
DEFAULT_255_1_234
10
21.0394671
20
93.1223211
11
21.1936765
21
93.1223211
0
LINE
8
DEFAULT_255_1_234
10
21.1936765
20
93.1223211
11
21.1936765
21
92.6195343
0
LINE
8
DEFAULT_255_1_234
10
21.1936765
20
92.6195343
11
21.7832061
21
92.6195343
0
LINE
8
DEFAULT_255_1_234
10
21.7832061
20
92.6195343
11
21.7832061
21
93.1223211
0
LINE
8
DEFAULT_255_1_234
10
21.7832061
20
93.1223211
11
21.9382186
21
93.1223211
0
LINE
8
DEFAULT_255_1_234
10
22.9068462
20
92.6444327
11
22.9068462
21
92.4516709
0
LINE
8
DEFAULT_255_1_234
10
22.1687295
20
92.4315916
11
22.1687295
21
92.6299755
0
LINE
8
DEFAULT_255_1_234
10
22.7582591
20
92.4115123
11
22.7582591
21
92.6548739
0
LINE
8
DEFAULT_255_1_234
10
22.3173167
20
92.6661184
11
22.3173167
21
92.4283789
0
ARC
8
DEFAULT_255_1_234
10
21.6821352
20
92.4467805
40
1.2247208
50
353.8441951
51
0.2287902
0
ARC
8
DEFAULT_255_1_234
10
22.1460856
20
92.3949806
40
0.7578929
50
344.4934747
51
353.9765454
0
ARC
8
DEFAULT_255_1_234
10
22.4453446
20
92.3098981
40
0.4467846
50
329.2803592
51
344.7472793
0
ARC
8
DEFAULT_255_1_234
10
22.5446271
20
92.2554018
40
0.3336173
50
324.9352394
51
328.6160465
0
ARC
8
DEFAULT_255_1_234
10
22.5823379
20
92.2290427
40
0.2876076
50
280.580143
51
324.9173126
0
ARC
8
DEFAULT_255_1_234
10
22.5422172
20
92.3961099
40
0.4592847
50
269.5977311
51
281.6734359
0
ARC
8
DEFAULT_255_1_234
10
22.5350078
20
92.3841173
40
0.4472986
50
256.6228859
51
270.51044
0
ARC
8
DEFAULT_255_1_234
10
22.4948055
20
92.2292877
40
0.2873874
50
215.8618325
51
257.2788573
0
ARC
8
DEFAULT_255_1_234
10
22.5969087
20
92.2977977
40
0.4102928
50
197.9693508
51
215.2623606
0
ARC
8
DEFAULT_255_1_234
10
22.8454203
20
92.3816709
40
0.6725652
50
187.8816417
51
198.2346507
0
ARC
8
DEFAULT_255_1_234
10
23.2412411
20
92.4388079
40
1.0724845
50
180.8976217
51
188.0055519
0
ARC
8
DEFAULT_255_1_234
10
23.5212599
20
92.4491777
40
1.3526448
50
180.7449369
51
181.1510016
0
ARC
8
DEFAULT_255_1_234
10
23.3635328
20
92.6348042
40
1.1948131
50
173.7675579
51
180.231553
0
ARC
8
DEFAULT_255_1_234
10
22.9117475
20
92.6858666
40
0.7401564
50
164.3058563
51
173.9002247
0
ARC
8
DEFAULT_255_1_234
10
22.6205544
20
92.7697656
40
0.4371288
50
148.7922025
51
164.568378
0
ARC
8
DEFAULT_255_1_234
10
22.5253996
20
92.8228929
40
0.3282386
50
144.5883898
51
148.1176286
0
ARC
8
DEFAULT_255_1_234
10
22.4910894
20
92.8468315
40
0.2864044
50
101.6440918
51
144.514236
0
ARC
8
DEFAULT_255_1_234
10
22.533596
20
92.6779069
40
0.4604934
50
89.5284041
51
102.5819763
0
ARC
8
DEFAULT_255_1_234
10
22.5415048
20
92.6740018
40
0.464401
50
77.0437873
51
90.5081339
0
ARC
8
DEFAULT_255_1_234
10
22.581705
20
92.8382615
40
0.2953195
50
48.2778575
51
77.4994676
0
ARC
8
DEFAULT_255_1_234
10
22.5889681
20
92.8511746
40
0.2808655
50
36.3142134
51
47.6305865
0
ARC
8
DEFAULT_255_1_234
10
22.5020988
20
92.7926515
40
0.3855453
50
18.2931786
51
35.6769206
0
ARC
8
DEFAULT_255_1_234
10
22.2477747
20
92.7053593
40
0.654423
50
8.024666
51
18.5605216
0
ARC
8
DEFAULT_255_1_234
10
21.8314667
20
92.6438792
40
1.0752407
50
1.1274072
51
8.1718305
0
ARC
8
DEFAULT_255_1_234
10
21.5078858
20
92.6311885
40
1.3990231
50
0.5424119
51
1.3863029
0
ARC
8
DEFAULT_255_1_234
10
21.6900235
20
92.6584342
40
1.0682415
50
359.8090433
51
4.9407866
0
ARC
8
DEFAULT_255_1_234
10
22.1110249
20
92.6960113
40
0.6455691
50
4.8362157
51
12.2904523
0
ARC
8
DEFAULT_255_1_234
10
22.3865364
20
92.7573965
40
0.3633074
50
12.0805627
51
23.8173984
0
ARC
8
DEFAULT_255_1_234
10
22.503907
20
92.8070919
40
0.2358723
50
24.2871213
51
31.3935614
0
ARC
8
DEFAULT_255_1_234
10
22.5563767
20
92.8414233
40
0.1732111
50
30.7407893
51
82.4657128
0
ARC
8
DEFAULT_255_1_234
10
22.5383901
20
92.7530691
40
0.263235
50
81.1060089
51
90.2184952
0
ARC
8
DEFAULT_255_1_234
10
22.53482
20
92.7788924
40
0.2374236
50
89.3806855
51
105.6762551
0
ARC
8
DEFAULT_255_1_234
10
22.5164831
20
92.8455567
40
0.1682847
50
105.7981136
51
149.7388061
0
ARC
8
DEFAULT_255_1_234
10
22.6228909
20
92.781595
40
0.2924306
50
149.4208916
51
163.6286378
0
ARC
8
DEFAULT_255_1_234
10
22.8319797
20
92.717825
40
0.5110213
50
163.3763315
51
172.1410975
0
ARC
8
DEFAULT_255_1_234
10
23.1620516
20
92.6705518
40
0.8444586
50
172.0259487
51
178.0703232
0
ARC
8
DEFAULT_255_1_234
10
23.4650605
20
92.6561906
40
1.1477868
50
177.8631668
51
179.5044149
0
ARC
8
DEFAULT_255_1_234
10
23.357801
20
92.4247389
40
1.0404907
50
179.7995573
51
185.2460446
0
ARC
8
DEFAULT_255_1_234
10
22.9535049
20
92.3864513
40
0.6343885
50
185.1411642
51
193.0079639
0
ARC
8
DEFAULT_255_1_234
10
22.6891522
20
92.3239641
40
0.3627568
50
192.7897626
51
205.2507664
0
ARC
8
DEFAULT_255_1_234
10
22.5845069
20
92.2772415
40
0.2481908
50
205.8005384
51
211.2537509
0
ARC
8
DEFAULT_255_1_234
10
22.5321509
20
92.242158
40
0.1852521
50
210.3789793
51
238.4008143
0
ARC
8
DEFAULT_255_1_234
10
22.5302031
20
92.2468376
40
0.1882621
50
239.6520629
51
265.9793761
0
ARC
8
DEFAULT_255_1_234
10
22.5387231
20
92.3140427
40
0.2559272
50
265.1315437
51
270.060332
0
ARC
8
DEFAULT_255_1_234
10
22.541601
20
92.2816534
40
0.2235528
50
269.3314664
51
287.2178029
0
ARC
8
DEFAULT_255_1_234
10
22.5553862
20
92.2313279
40
0.1714108
50
287.7958004
51
329.080874
0
ARC
8
DEFAULT_255_1_234
10
22.4596319
20
92.291093
40
0.2842745
50
328.6634704
51
343.3325132
0
ARC
8
DEFAULT_255_1_234
10
22.2423339
20
92.3587863
40
0.5118644
50
343.0499468
51
351.9393422
0
ARC
8
DEFAULT_255_1_234
10
21.8956639
20
92.4098949
40
0.8622784
50
351.8069023
51
357.7959224
0
ARC
8
DEFAULT_255_1_234
10
21.5721195
20
92.4266721
40
1.1862365
50
357.5871873
51
359.2677531
0
LINE
8
DEFAULT_255_1_234
10
23.8931437
20
91.9529
11
23.7815025
21
92.2581061
0
LINE
8
DEFAULT_255_1_234
10
23.7815025
20
92.2581061
11
23.2915665
21
92.2581061
0
LINE
8
DEFAULT_255_1_234
10
23.2915665
20
92.2581061
11
23.1815317
21
91.9529
0
LINE
8
DEFAULT_255_1_234
10
23.1815317
20
91.9529
11
23.0225033
21
91.9529
0
LINE
8
DEFAULT_255_1_234
10
23.0225033
20
91.9529
11
23.4690679
21
93.1223211
0
LINE
8
DEFAULT_255_1_234
10
23.4690679
20
93.1223211
11
23.6040011
21
93.1223211
0
LINE
8
DEFAULT_255_1_234
10
23.6040011
20
93.1223211
11
24.0513689
21
91.9529
0
LINE
8
DEFAULT_255_1_234
10
24.0513689
20
91.9529
11
23.8931437
21
91.9529
0
LINE
8
DEFAULT_255_1_234
10
23.5365345
20
92.9319689
11
23.3381506
21
92.3850075
0
LINE
8
DEFAULT_255_1_234
10
23.3381506
20
92.3850075
11
23.7357216
21
92.3850075
0
LINE
8
DEFAULT_255_1_234
10
23.7357216
20
92.3850075
11
23.5365345
21
92.9319689
0
ENDSEC
0
EOF