0
SECTION
2
HEADER
9
$MEASUREMENT
70
1
0
ENDSEC
0
SECTION
2
TABLES
0
TABLE
2
LTYPE
0
LTYPE
72
65
70
64
2
CONTINUOUS
3
______
73
0
40
0
0
ENDTAB
0
TABLE
2
LAYER
0
LAYER
2
DEFAULT_255_2_778
70
0
62
255
6
CONTINUOUS
0
ENDTAB
0
ENDSEC
0
SECTION
2
ENTITIES
0
ARC
8
DEFAULT_255_2_778
10
14.3461124
20
93.7462563
40
4.0247641
50
164.9589956
51
180.0541876
0
ARC
8
DEFAULT_255_2_778
10
14.2971289
20
93.7561086
40
3.9749033
50
139.8201989
51
164.912913
0
ARC
8
DEFAULT_255_2_778
10
14.3061321
20
93.752589
40
3.9840539
50
107.9350148
51
139.865065
0
ARC
8
DEFAULT_255_2_778
10
14.3086195
20
93.7313494
40
4.0050295
50
91.921068
51
107.8753027
0
ARC
8
DEFAULT_255_2_778
10
14.3153416
20
93.6318357
40
4.1047141
50
89.9984851
51
91.9682805
0
ARC
8
DEFAULT_255_2_778
10
14.31926
20
93.7114984
40
4.0250533
50
74.9595394
51
90.0542325
0
ARC
8
DEFAULT_255_2_778
10
14.3291677
20
93.7606726
40
3.974994
50
49.820851
51
74.9135232
0
ARC
8
DEFAULT_255_2_778
10
14.3257317
20
93.7517737
40
3.9840111
50
17.9351264
51
49.8656654
0
ARC
8
DEFAULT_255_2_778
10
14.3044694
20
93.7492811
40
4.0050098
50
1.9210682
51
17.8753838
0
ARC
8
DEFAULT_255_2_778
10
14.204936
20
93.7425584
40
4.1047141
50
359.9984851
51
1.9682805
0
ARC
8
DEFAULT_255_2_778
10
14.2846212
20
93.7386385
40
4.0250308
50
344.959475
51
0.0542539
0
ARC
8
DEFAULT_255_2_778
10
14.3338204
20
93.7287239
40
3.9749454
50
319.8204197
51
344.9134608
0
ARC
8
DEFAULT_255_2_778
10
14.3248546
20
93.7322274
40
3.9840572
50
287.9344168
51
319.8651142
0
ARC
8
DEFAULT_255_2_778
10
14.3222885
20
93.7536934
40
4.0052724
50
271.92093
51
287.8747845
0
ARC
8
DEFAULT_255_2_778
10
14.3155586
20
93.8533332
40
4.1050833
50
269.9984851
51
271.9681908
0
ARC
8
DEFAULT_255_2_778
10
14.3116422
20
93.7729896
40
4.0247416
50
254.9589312
51
270.054209
0
ARC
8
DEFAULT_255_2_778
10
14.3017829
20
93.723981
40
3.9748547
50
229.8197676
51
254.9128506
0
ARC
8
DEFAULT_255_2_778
10
14.30537
20
93.7330512
40
3.9841
50
197.9343053
51
229.8645138
0
ARC
8
DEFAULT_255_2_778
10
14.3268134
20
93.7356122
40
4.0052921
50
181.9209298
51
197.8747035
0
ARC
8
DEFAULT_255_2_778
10
14.4264334
20
93.7423414
40
4.1050833
50
179.9984851
51
181.9681908
0
LINE
8
DEFAULT_255_2_778
10
10.3213501
20
93.7424499
11
10.3213501
21
93.7424499
0
ARC
8
DEFAULT_255_2_778
10
14.445569
20
83.7369885
40
2.5479988
50
269.930756
51
291.3899256
0
ARC
8
DEFAULT_255_2_778
10
14.3894136
20
83.8339528
40
2.6588187
50
291.7546139
51
338.2747508
0
ARC
8
DEFAULT_255_2_778
10
14.2742716
20
83.891337
40
2.7870437
50
338.0550349
51
357.3104417
0
ARC
8
DEFAULT_255_2_778
10
14.1839689
20
83.8992529
40
2.8776207
50
357.2373736
51
0.002762
0
ARC
8
DEFAULT_255_2_778
10
14.2529133
20
83.9034516
40
2.8086793
50
359.9171786
51
17.9804751
0
ARC
8
DEFAULT_255_2_778
10
14.3439907
20
83.9339847
40
2.7126249
50
17.9608943
51
46.8306734
0
ARC
8
DEFAULT_255_2_778
10
14.4390312
20
84.0407275
40
2.5697539
50
46.7479003
51
81.5536682
0
ARC
8
DEFAULT_255_2_778
10
14.4433375
20
84.0350057
40
2.5747861
50
81.6671568
51
90.0188657
0
ARC
8
DEFAULT_255_2_778
10
14.4394103
20
84.0617947
40
2.5479988
50
89.930756
51
111.3899256
0
ARC
8
DEFAULT_255_2_778
10
14.4955657
20
83.9648304
40
2.6588187
50
111.7546139
51
158.2747508
0
ARC
8
DEFAULT_255_2_778
10
14.6107077
20
83.9074462
40
2.7870437
50
158.0550349
51
177.3104417
0
ARC
8
DEFAULT_255_2_778
10
14.7010104
20
83.8995303
40
2.8776207
50
177.2373736
51
180.002762
0
ARC
8
DEFAULT_255_2_778
10
14.632066
20
83.8953316
40
2.8086793
50
179.9171786
51
197.9804751
0
ARC
8
DEFAULT_255_2_778
10
14.5409886
20
83.8647985
40
2.7126249
50
197.9608943
51
226.8306734
0
ARC
8
DEFAULT_255_2_778
10
14.4459481
20
83.7580557
40
2.5697539
50
226.7479003
51
261.5536682
0
ARC
8
DEFAULT_255_2_778
10
14.4416419
20
83.7637775
40
2.5747861
50
261.6671568
51
270.0188657
0
LINE
8
DEFAULT_255_2_778
10
14.4424897
20
81.1889916
11
14.4424897
21
81.1889916
0
LINE
8
DEFAULT_255_2_778
10
13.8781897
20
85.4569916
11
14.4424897
21
84.3827916
0
LINE
8
DEFAULT_255_2_778
10
14.4424897
20
84.3827916
11
15.0068897
21
85.4569916
0
LINE
8
DEFAULT_255_2_778
10
15.0068897
20
85.4569916
11
15.7201897
21
85.4569916
0
LINE
8
DEFAULT_255_2_778
10
15.7201897
20
85.4569916
11
14.8433897
21
83.9120916
0
LINE
8
DEFAULT_255_2_778
10
14.8433897
20
83.9120916
11
15.7426897
21
82.3414916
0
LINE
8
DEFAULT_255_2_778
10
15.7426897
20
82.3414916
11
15.0211897
21
82.3414916
0
LINE
8
DEFAULT_255_2_778
10
15.0211897
20
82.3414916
11
14.4421897
21
83.4326916
0
LINE
8
DEFAULT_255_2_778
10
14.4421897
20
83.4326916
11
13.8632897
21
82.3414916
0
LINE
8
DEFAULT_255_2_778
10
13.8632897
20
82.3414916
11
13.1417897
21
82.3414916
0
LINE
8
DEFAULT_255_2_778
10
13.1417897
20
82.3414916
11
14.0410897
21
83.9120916
0
LINE
8
DEFAULT_255_2_778
10
14.0410897
20
83.9120916
11
13.1642897
21
85.4569916
0
LINE
8
DEFAULT_255_2_778
10
13.1642897
20
85.4569916
11
13.8775897
21
85.4569916
0
LINE
8
DEFAULT_255_2_778
10
13.8775897
20
85.4569916
11
13.8781897
21
85.4569916
0
ARC
8
DEFAULT_255_2_778
10
14.859169
20
74.8926885
40
2.5479988
50
269.930756
51
291.3899256
0
ARC
8
DEFAULT_255_2_778
10
14.8030136
20
74.9896528
40
2.6588187
50
291.7546139
51
338.2747508
0
ARC
8
DEFAULT_255_2_778
10
14.6878716
20
75.047037
40
2.7870437
50
338.0550349
51
357.3104417
0
ARC
8
DEFAULT_255_2_778
10
14.5975689
20
75.0549529
40
2.8776207
50
357.2373736
51
0.002762
0
ARC
8
DEFAULT_255_2_778
10
14.6665133
20
75.0591516
40
2.8086793
50
359.9171786
51
17.9804751
0
ARC
8
DEFAULT_255_2_778
10
14.7575907
20
75.0896847
40
2.7126249
50
17.9608943
51
46.8306734
0
ARC
8
DEFAULT_255_2_778
10
14.8526312
20
75.1964275
40
2.5697539
50
46.7479003
51
81.5536682
0
ARC
8
DEFAULT_255_2_778
10
14.8569375
20
75.1907057
40
2.5747861
50
81.6671568
51
90.0188657
0
ARC
8
DEFAULT_255_2_778
10
14.8530103
20
75.2174947
40
2.5479988
50
89.930756
51
111.3899256
0
ARC
8
DEFAULT_255_2_778
10
14.9091657
20
75.1205304
40
2.6588187
50
111.7546139
51
158.2747508
0
ARC
8
DEFAULT_255_2_778
10
15.0243077
20
75.0631462
40
2.7870437
50
158.0550349
51
177.3104417
0
ARC
8
DEFAULT_255_2_778
10
15.1146104
20
75.0552303
40
2.8776207
50
177.2373736
51
180.002762
0
ARC
8
DEFAULT_255_2_778
10
15.045666
20
75.0510316
40
2.8086793
50
179.9171786
51
197.9804751
0
ARC
8
DEFAULT_255_2_778
10
14.9545886
20
75.0204985
40
2.7126249
50
197.9608943
51
226.8306734
0
ARC
8
DEFAULT_255_2_778
10
14.8595481
20
74.9137557
40
2.5697539
50
226.7479003
51
261.5536682
0
ARC
8
DEFAULT_255_2_778
10
14.8552419
20
74.9194775
40
2.5747861
50
261.6671568
51
270.0188657
0
LINE
8
DEFAULT_255_2_778
10
14.8560897
20
72.3446916
11
14.8560897
21
72.3446916
0
LINE
8
DEFAULT_255_2_778
10
14.2917897
20
76.6126916
11
14.8560897
21
75.5384916
0
LINE
8
DEFAULT_255_2_778
10
14.8560897
20
75.5384916
11
15.4204897
21
76.6126916
0
LINE
8
DEFAULT_255_2_778
10
15.4204897
20
76.6126916
11
16.1337897
21
76.6126916
0
LINE
8
DEFAULT_255_2_778
10
16.1337897
20
76.6126916
11
15.2569897
21
75.0677916
0
LINE
8
DEFAULT_255_2_778
10
15.2569897
20
75.0677916
11
16.1562897
21
73.4971916
0
LINE
8
DEFAULT_255_2_778
10
16.1562897
20
73.4971916
11
15.4347897
21
73.4971916
0
LINE
8
DEFAULT_255_2_778
10
15.4347897
20
73.4971916
11
14.8557897
21
74.5883916
0
LINE
8
DEFAULT_255_2_778
10
14.8557897
20
74.5883916
11
14.2768897
21
73.4971916
0
LINE
8
DEFAULT_255_2_778
10
14.2768897
20
73.4971916
11
13.5553897
21
73.4971916
0
LINE
8
DEFAULT_255_2_778
10
13.5553897
20
73.4971916
11
14.4546897
21
75.0677916
0
LINE
8
DEFAULT_255_2_778
10
14.4546897
20
75.0677916
11
13.5778897
21
76.6126916
0
LINE
8
DEFAULT_255_2_778
10
13.5778897
20
76.6126916
11
14.2911897
21
76.6126916
0
LINE
8
DEFAULT_255_2_778
10
14.2911897
20
76.6126916
11
14.2917897
21
76.6126916
0
ARC
8
DEFAULT_255_2_778
10
14.859169
20
56.9184885
40
2.5479988
50
269.930756
51
291.3899256
0
ARC
8
DEFAULT_255_2_778
10
14.8030136
20
57.0154528
40
2.6588187
50
291.7546139
51
338.2747508
0
ARC
8
DEFAULT_255_2_778
10
14.6878716
20
57.072837
40
2.7870437
50
338.0550349
51
357.3104417
0
ARC
8
DEFAULT_255_2_778
10
14.5975689
20
57.0807529
40
2.8776207
50
357.2373736
51
0.002762
0
ARC
8
DEFAULT_255_2_778
10
14.6665133
20
57.0849516
40
2.8086793
50
359.9171786
51
17.9804751
0
ARC
8
DEFAULT_255_2_778
10
14.7575907
20
57.1154847
40
2.7126249
50
17.9608943
51
46.8306734
0
ARC
8
DEFAULT_255_2_778
10
14.8526312
20
57.2222275
40
2.5697539
50
46.7479003
51
81.5536682
0
ARC
8
DEFAULT_255_2_778
10
14.8569375
20
57.2165057
40
2.5747861
50
81.6671568
51
90.0188657
0
ARC
8
DEFAULT_255_2_778
10
14.8530103
20
57.2432947
40
2.5479988
50
89.930756
51
111.3899256
0
ARC
8
DEFAULT_255_2_778
10
14.9091657
20
57.1463304
40
2.6588187
50
111.7546139
51
158.2747508
0
ARC
8
DEFAULT_255_2_778
10
15.0243077
20
57.0889462
40
2.7870437
50
158.0550349
51
177.3104417
0
ARC
8
DEFAULT_255_2_778
10
15.1146104
20
57.0810303
40
2.8776207
50
177.2373736
51
180.002762
0
ARC
8
DEFAULT_255_2_778
10
15.045666
20
57.0768316
40
2.8086793
50
179.9171786
51
197.9804751
0
ARC
8
DEFAULT_255_2_778
10
14.9545886
20
57.0462985
40
2.7126249
50
197.9608943
51
226.8306734
0
ARC
8
DEFAULT_255_2_778
10
14.8595481
20
56.9395557
40
2.5697539
50
226.7479003
51
261.5536682
0
ARC
8
DEFAULT_255_2_778
10
14.8552419
20
56.9452775
40
2.5747861
50
261.6671568
51
270.0188657
0
LINE
8
DEFAULT_255_2_778
10
14.8560897
20
54.3704916
11
14.8560897
21
54.3704916
0
LINE
8
DEFAULT_255_2_778
10
14.2917897
20
58.6384916
11
14.8560897
21
57.5642916
0
LINE
8
DEFAULT_255_2_778
10
14.8560897
20
57.5642916
11
15.4204897
21
58.6384916
0
LINE
8
DEFAULT_255_2_778
10
15.4204897
20
58.6384916
11
16.1337897
21
58.6384916
0
LINE
8
DEFAULT_255_2_778
10
16.1337897
20
58.6384916
11
15.2569897
21
57.0935916
0
LINE
8
DEFAULT_255_2_778
10
15.2569897
20
57.0935916
11
16.1562897
21
55.5229916
0
LINE
8
DEFAULT_255_2_778
10
16.1562897
20
55.5229916
11
15.4347897
21
55.5229916
0
LINE
8
DEFAULT_255_2_778
10
15.4347897
20
55.5229916
11
14.8557897
21
56.6141916
0
LINE
8
DEFAULT_255_2_778
10
14.8557897
20
56.6141916
11
14.2768897
21
55.5229916
0
LINE
8
DEFAULT_255_2_778
10
14.2768897
20
55.5229916
11
13.5553897
21
55.5229916
0
LINE
8
DEFAULT_255_2_778
10
13.5553897
20
55.5229916
11
14.4546897
21
57.0935916
0
LINE
8
DEFAULT_255_2_778
10
14.4546897
20
57.0935916
11
13.5778897
21
58.6384916
0
LINE
8
DEFAULT_255_2_778
10
13.5778897
20
58.6384916
11
14.2911897
21
58.6384916
0
LINE
8
DEFAULT_255_2_778
10
14.2911897
20
58.6384916
11
14.2917897
21
58.6384916
0
ARC
8
DEFAULT_255_2_778
10
14.859169
20
65.9055885
40
2.5479988
50
269.930756
51
291.3899256
0
ARC
8
DEFAULT_255_2_778
10
14.8030136
20
66.0025528
40
2.6588187
50
291.7546139
51
338.2747508
0
ARC
8
DEFAULT_255_2_778
10
14.6878716
20
66.059937
40
2.7870437
50
338.0550349
51
357.3104417
0
ARC
8
DEFAULT_255_2_778
10
14.5975689
20
66.0678529
40
2.8776207
50
357.2373736
51
0.002762
0
ARC
8
DEFAULT_255_2_778
10
14.6665133
20
66.0720516
40
2.8086793
50
359.9171786
51
17.9804751
0
ARC
8
DEFAULT_255_2_778
10
14.7575907
20
66.1025847
40
2.7126249
50
17.9608943
51
46.8306734
0
ARC
8
DEFAULT_255_2_778
10
14.8526312
20
66.2093275
40
2.5697539
50
46.7479003
51
81.5536682
0
ARC
8
DEFAULT_255_2_778
10
14.8569375
20
66.2036057
40
2.5747861
50
81.6671568
51
90.0188657
0
ARC
8
DEFAULT_255_2_778
10
14.8530103
20
66.2303947
40
2.5479988
50
89.930756
51
111.3899256
0
ARC
8
DEFAULT_255_2_778
10
14.9091657
20
66.1334304
40
2.6588187
50
111.7546139
51
158.2747508
0
ARC
8
DEFAULT_255_2_778
10
15.0243077
20
66.0760462
40
2.7870437
50
158.0550349
51
177.3104417
0
ARC
8
DEFAULT_255_2_778
10
15.1146104
20
66.0681303
40
2.8776207
50
177.2373736
51
180.002762
0
ARC
8
DEFAULT_255_2_778
10
15.045666
20
66.0639316
40
2.8086793
50
179.9171786
51
197.9804751
0
ARC
8
DEFAULT_255_2_778
10
14.9545886
20
66.0333985
40
2.7126249
50
197.9608943
51
226.8306734
0
ARC
8
DEFAULT_255_2_778
10
14.8595481
20
65.9266557
40
2.5697539
50
226.7479003
51
261.5536682
0
ARC
8
DEFAULT_255_2_778
10
14.8552419
20
65.9323775
40
2.5747861
50
261.6671568
51
270.0188657
0
LINE
8
DEFAULT_255_2_778
10
14.8560897
20
63.3575916
11
14.8560897
21
63.3575916
0
LINE
8
DEFAULT_255_2_778
10
14.2917897
20
67.6255916
11
14.8560897
21
66.5513916
0
LINE
8
DEFAULT_255_2_778
10
14.8560897
20
66.5513916
11
15.4204897
21
67.6255916
0
LINE
8
DEFAULT_255_2_778
10
15.4204897
20
67.6255916
11
16.1337897
21
67.6255916
0
LINE
8
DEFAULT_255_2_778
10
16.1337897
20
67.6255916
11
15.2569897
21
66.0806916
0
LINE
8
DEFAULT_255_2_778
10
15.2569897
20
66.0806916
11
16.1562897
21
64.5100916
0
LINE
8
DEFAULT_255_2_778
10
16.1562897
20
64.5100916
11
15.4347897
21
64.5100916
0
LINE
8
DEFAULT_255_2_778
10
15.4347897
20
64.5100916
11
14.8557897
21
65.6012916
0
LINE
8
DEFAULT_255_2_778
10
14.8557897
20
65.6012916
11
14.2768897
21
64.5100916
0
LINE
8
DEFAULT_255_2_778
10
14.2768897
20
64.5100916
11
13.5553897
21
64.5100916
0
LINE
8
DEFAULT_255_2_778
10
13.5553897
20
64.5100916
11
14.4546897
21
66.0806916
0
LINE
8
DEFAULT_255_2_778
10
14.4546897
20
66.0806916
11
13.5778897
21
67.6255916
0
LINE
8
DEFAULT_255_2_778
10
13.5778897
20
67.6255916
11
14.2911897
21
67.6255916
0
LINE
8
DEFAULT_255_2_778
10
14.2911897
20
67.6255916
11
14.2917897
21
67.6255916
0
ARC
8
DEFAULT_255_2_778
10
14.445569
20
39.0871885
40
2.5479988
50
269.930756
51
291.3899256
0
ARC
8
DEFAULT_255_2_778
10
14.3894136
20
39.1841528
40
2.6588187
50
291.7546139
51
338.2747508
0
ARC
8
DEFAULT_255_2_778
10
14.2742716
20
39.241537
40
2.7870437
50
338.0550349
51
357.3104417
0
ARC
8
DEFAULT_255_2_778
10
14.1839689
20
39.2494529
40
2.8776207
50
357.2373736
51
0.002762
0
ARC
8
DEFAULT_255_2_778
10
14.2529133
20
39.2536516
40
2.8086793
50
359.9171786
51
17.9804751
0
ARC
8
DEFAULT_255_2_778
10
14.3439907
20
39.2841847
40
2.7126249
50
17.9608943
51
46.8306734
0
ARC
8
DEFAULT_255_2_778
10
14.4390312
20
39.3909275
40
2.5697539
50
46.7479003
51
81.5536682
0
ARC
8
DEFAULT_255_2_778
10
14.4433375
20
39.3852057
40
2.5747861
50
81.6671568
51
90.0188657
0
ARC
8
DEFAULT_255_2_778
10
14.4394103
20
39.4119947
40
2.5479988
50
89.930756
51
111.3899256
0
ARC
8
DEFAULT_255_2_778
10
14.4955657
20
39.3150304
40
2.6588187
50
111.7546139
51
158.2747508
0
ARC
8
DEFAULT_255_2_778
10
14.6107077
20
39.2576462
40
2.7870437
50
158.0550349
51
177.3104417
0
ARC
8
DEFAULT_255_2_778
10
14.7010104
20
39.2497303
40
2.8776207
50
177.2373736
51
180.002762
0
ARC
8
DEFAULT_255_2_778
10
14.632066
20
39.2455316
40
2.8086793
50
179.9171786
51
197.9804751
0
ARC
8
DEFAULT_255_2_778
10
14.5409886
20
39.2149985
40
2.7126249
50
197.9608943
51
226.8306734
0
ARC
8
DEFAULT_255_2_778
10
14.4459481
20
39.1082557
40
2.5697539
50
226.7479003
51
261.5536682
0
ARC
8
DEFAULT_255_2_778
10
14.4416419
20
39.1139775
40
2.5747861
50
261.6671568
51
270.0188657
0
LINE
8
DEFAULT_255_2_778
10
14.4424897
20
36.5391916
11
14.4424897
21
36.5391916
0
LINE
8
DEFAULT_255_2_778
10
13.8781897
20
40.8071916
11
14.4424897
21
39.7329916
0
LINE
8
DEFAULT_255_2_778
10
14.4424897
20
39.7329916
11
15.0068897
21
40.8071916
0
LINE
8
DEFAULT_255_2_778
10
15.0068897
20
40.8071916
11
15.7201897
21
40.8071916
0
LINE
8
DEFAULT_255_2_778
10
15.7201897
20
40.8071916
11
14.8433897
21
39.2622916
0
LINE
8
DEFAULT_255_2_778
10
14.8433897
20
39.2622916
11
15.7426897
21
37.6916916
0
LINE
8
DEFAULT_255_2_778
10
15.7426897
20
37.6916916
11
15.0211897
21
37.6916916
0
LINE
8
DEFAULT_255_2_778
10
15.0211897
20
37.6916916
11
14.4421897
21
38.7828916
0
LINE
8
DEFAULT_255_2_778
10
14.4421897
20
38.7828916
11
13.8632897
21
37.6916916
0
LINE
8
DEFAULT_255_2_778
10
13.8632897
20
37.6916916
11
13.1417897
21
37.6916916
0
LINE
8
DEFAULT_255_2_778
10
13.1417897
20
37.6916916
11
14.0410897
21
39.2622916
0
LINE
8
DEFAULT_255_2_778
10
14.0410897
20
39.2622916
11
13.1642897
21
40.8071916
0
LINE
8
DEFAULT_255_2_778
10
13.1642897
20
40.8071916
11
13.8775897
21
40.8071916
0
LINE
8
DEFAULT_255_2_778
10
13.8775897
20
40.8071916
11
13.8781897
21
40.8071916
0
ARC
8
DEFAULT_255_2_778
10
14.445569
20
48.2168885
40
2.5479988
50
269.930756
51
291.3899256
0
ARC
8
DEFAULT_255_2_778
10
14.3894136
20
48.3138528
40
2.6588187
50
291.7546139
51
338.2747508
0
ARC
8
DEFAULT_255_2_778
10
14.2742716
20
48.371237
40
2.7870437
50
338.0550349
51
357.3104417
0
ARC
8
DEFAULT_255_2_778
10
14.1839689
20
48.3791529
40
2.8776207
50
357.2373736
51
0.002762
0
ARC
8
DEFAULT_255_2_778
10
14.2529133
20
48.3833516
40
2.8086793
50
359.9171786
51
17.9804751
0
ARC
8
DEFAULT_255_2_778
10
14.3439907
20
48.4138847
40
2.7126249
50
17.9608943
51
46.8306734
0
ARC
8
DEFAULT_255_2_778
10
14.4390312
20
48.5206275
40
2.5697539
50
46.7479003
51
81.5536682
0
ARC
8
DEFAULT_255_2_778
10
14.4433375
20
48.5149057
40
2.5747861
50
81.6671568
51
90.0188657
0
ARC
8
DEFAULT_255_2_778
10
14.4394103
20
48.5416947
40
2.5479988
50
89.930756
51
111.3899256
0
ARC
8
DEFAULT_255_2_778
10
14.4955657
20
48.4447304
40
2.6588187
50
111.7546139
51
158.2747508
0
ARC
8
DEFAULT_255_2_778
10
14.6107077
20
48.3873462
40
2.7870437
50
158.0550349
51
177.3104417
0
ARC
8
DEFAULT_255_2_778
10
14.7010104
20
48.3794303
40
2.8776207
50
177.2373736
51
180.002762
0
ARC
8
DEFAULT_255_2_778
10
14.632066
20
48.3752316
40
2.8086793
50
179.9171786
51
197.9804751
0
ARC
8
DEFAULT_255_2_778
10
14.5409886
20
48.3446985
40
2.7126249
50
197.9608943
51
226.8306734
0
ARC
8
DEFAULT_255_2_778
10
14.4459481
20
48.2379557
40
2.5697539
50
226.7479003
51
261.5536682
0
ARC
8
DEFAULT_255_2_778
10
14.4416419
20
48.2436775
40
2.5747861
50
261.6671568
51
270.0188657
0
LINE
8
DEFAULT_255_2_778
10
14.4424897
20
45.6688916
11
14.4424897
21
45.6688916
0
LINE
8
DEFAULT_255_2_778
10
13.8781897
20
49.9368916
11
14.4424897
21
48.8626916
0
LINE
8
DEFAULT_255_2_778
10
14.4424897
20
48.8626916
11
15.0068897
21
49.9368916
0
LINE
8
DEFAULT_255_2_778
10
15.0068897
20
49.9368916
11
15.7201897
21
49.9368916
0
LINE
8
DEFAULT_255_2_778
10
15.7201897
20
49.9368916
11
14.8433897
21
48.3919916
0
LINE
8
DEFAULT_255_2_778
10
14.8433897
20
48.3919916
11
15.7426897
21
46.8213916
0
LINE
8
DEFAULT_255_2_778
10
15.7426897
20
46.8213916
11
15.0211897
21
46.8213916
0
LINE
8
DEFAULT_255_2_778
10
15.0211897
20
46.8213916
11
14.4421897
21
47.9125916
0
LINE
8
DEFAULT_255_2_778
10
14.4421897
20
47.9125916
11
13.8632897
21
46.8213916
0
LINE
8
DEFAULT_255_2_778
10
13.8632897
20
46.8213916
11
13.1417897
21
46.8213916
0
LINE
8
DEFAULT_255_2_778
10
13.1417897
20
46.8213916
11
14.0410897
21
48.3919916
0
LINE
8
DEFAULT_255_2_778
10
14.0410897
20
48.3919916
11
13.1642897
21
49.9368916
0
LINE
8
DEFAULT_255_2_778
10
13.1642897
20
49.9368916
11
13.8775897
21
49.9368916
0
LINE
8
DEFAULT_255_2_778
10
13.8775897
20
49.9368916
11
13.8781897
21
49.9368916
0
ARC
8
DEFAULT_255_2_778
10
15.134869
20
21.5410885
40
2.5479988
50
269.930756
51
291.3899256
0
ARC
8
DEFAULT_255_2_778
10
15.0787136
20
21.6380528
40
2.6588187
50
291.7546139
51
338.2747508
0
ARC
8
DEFAULT_255_2_778
10
14.9635716
20
21.695437
40
2.7870437
50
338.0550349
51
357.3104417
0
ARC
8
DEFAULT_255_2_778
10
14.8732689
20
21.7033529
40
2.8776207
50
357.2373736
51
0.002762
0
ARC
8
DEFAULT_255_2_778
10
14.9422133
20
21.7075516
40
2.8086793
50
359.9171786
51
17.9804751
0
ARC
8
DEFAULT_255_2_778
10
15.0332907
20
21.7380847
40
2.7126249
50
17.9608943
51
46.8306734
0
ARC
8
DEFAULT_255_2_778
10
15.1283312
20
21.8448275
40
2.5697539
50
46.7479003
51
81.5536682
0
ARC
8
DEFAULT_255_2_778
10
15.1326375
20
21.8391057
40
2.5747861
50
81.6671568
51
90.0188657
0
ARC
8
DEFAULT_255_2_778
10
15.1287103
20
21.8658947
40
2.5479988
50
89.930756
51
111.3899256
0
ARC
8
DEFAULT_255_2_778
10
15.1848657
20
21.7689304
40
2.6588187
50
111.7546139
51
158.2747508
0
ARC
8
DEFAULT_255_2_778
10
15.3000077
20
21.7115462
40
2.7870437
50
158.0550349
51
177.3104417
0
ARC
8
DEFAULT_255_2_778
10
15.3903104
20
21.7036303
40
2.8776207
50
177.2373736
51
180.002762
0
ARC
8
DEFAULT_255_2_778
10
15.321366
20
21.6994316
40
2.8086793
50
179.9171786
51
197.9804751
0
ARC
8
DEFAULT_255_2_778
10
15.2302886
20
21.6688985
40
2.7126249
50
197.9608943
51
226.8306734
0
ARC
8
DEFAULT_255_2_778
10
15.1352481
20
21.5621557
40
2.5697539
50
226.7479003
51
261.5536682
0
ARC
8
DEFAULT_255_2_778
10
15.1309419
20
21.5678775
40
2.5747861
50
261.6671568
51
270.0188657
0
LINE
8
DEFAULT_255_2_778
10
15.1317897
20
18.9930916
11
15.1317897
21
18.9930916
0
LINE
8
DEFAULT_255_2_778
10
14.5674897
20
23.2610916
11
15.1317897
21
22.1868916
0
LINE
8
DEFAULT_255_2_778
10
15.1317897
20
22.1868916
11
15.6961897
21
23.2610916
0
LINE
8
DEFAULT_255_2_778
10
15.6961897
20
23.2610916
11
16.4094897
21
23.2610916
0
LINE
8
DEFAULT_255_2_778
10
16.4094897
20
23.2610916
11
15.5326897
21
21.7161916
0
LINE
8
DEFAULT_255_2_778
10
15.5326897
20
21.7161916
11
16.4319897
21
20.1455916
0
LINE
8
DEFAULT_255_2_778
10
16.4319897
20
20.1455916
11
15.7104897
21
20.1455916
0
LINE
8
DEFAULT_255_2_778
10
15.7104897
20
20.1455916
11
15.1314897
21
21.2367916
0
LINE
8
DEFAULT_255_2_778
10
15.1314897
20
21.2367916
11
14.5525897
21
20.1455916
0
LINE
8
DEFAULT_255_2_778
10
14.5525897
20
20.1455916
11
13.8310897
21
20.1455916
0
LINE
8
DEFAULT_255_2_778
10
13.8310897
20
20.1455916
11
14.7303897
21
21.7161916
0
LINE
8
DEFAULT_255_2_778
10
14.7303897
20
21.7161916
11
13.8535897
21
23.2610916
0
LINE
8
DEFAULT_255_2_778
10
13.8535897
20
23.2610916
11
14.5668897
21
23.2610916
0
LINE
8
DEFAULT_255_2_778
10
14.5668897
20
23.2610916
11
14.5674897
21
23.2610916
0
ARC
8
DEFAULT_255_2_778
10
15.134869
20
30.2429885
40
2.5479988
50
269.930756
51
291.3899256
0
ARC
8
DEFAULT_255_2_778
10
15.0787136
20
30.3399528
40
2.6588187
50
291.7546139
51
338.2747508
0
ARC
8
DEFAULT_255_2_778
10
14.9635716
20
30.397337
40
2.7870437
50
338.0550349
51
357.3104417
0
ARC
8
DEFAULT_255_2_778
10
14.8732689
20
30.4052529
40
2.8776207
50
357.2373736
51
0.002762
0
ARC
8
DEFAULT_255_2_778
10
14.9422133
20
30.4094516
40
2.8086793
50
359.9171786
51
17.9804751
0
ARC
8
DEFAULT_255_2_778
10
15.0332907
20
30.4399847
40
2.7126249
50
17.9608943
51
46.8306734
0
ARC
8
DEFAULT_255_2_778
10
15.1283312
20
30.5467275
40
2.5697539
50
46.7479003
51
81.5536682
0
ARC
8
DEFAULT_255_2_778
10
15.1326375
20
30.5410057
40
2.5747861
50
81.6671568
51
90.0188657
0
ARC
8
DEFAULT_255_2_778
10
15.1287103
20
30.5677947
40
2.5479988
50
89.930756
51
111.3899256
0
ARC
8
DEFAULT_255_2_778
10
15.1848657
20
30.4708304
40
2.6588187
50
111.7546139
51
158.2747508
0
ARC
8
DEFAULT_255_2_778
10
15.3000077
20
30.4134462
40
2.7870437
50
158.0550349
51
177.3104417
0
ARC
8
DEFAULT_255_2_778
10
15.3903104
20
30.4055303
40
2.8776207
50
177.2373736
51
180.002762
0
ARC
8
DEFAULT_255_2_778
10
15.321366
20
30.4013316
40
2.8086793
50
179.9171786
51
197.9804751
0
ARC
8
DEFAULT_255_2_778
10
15.2302886
20
30.3707985
40
2.7126249
50
197.9608943
51
226.8306734
0
ARC
8
DEFAULT_255_2_778
10
15.1352481
20
30.2640557
40
2.5697539
50
226.7479003
51
261.5536682
0
ARC
8
DEFAULT_255_2_778
10
15.1309419
20
30.2697775
40
2.5747861
50
261.6671568
51
270.0188657
0
LINE
8
DEFAULT_255_2_778
10
15.1317897
20
27.6949916
11
15.1317897
21
27.6949916
0
LINE
8
DEFAULT_255_2_778
10
14.5674897
20
31.9629916
11
15.1317897
21
30.8887916
0
LINE
8
DEFAULT_255_2_778
10
15.1317897
20
30.8887916
11
15.6961897
21
31.9629916
0
LINE
8
DEFAULT_255_2_778
10
15.6961897
20
31.9629916
11
16.4094897
21
31.9629916
0
LINE
8
DEFAULT_255_2_778
10
16.4094897
20
31.9629916
11
15.5326897
21
30.4180916
0
LINE
8
DEFAULT_255_2_778
10
15.5326897
20
30.4180916
11
16.4319897
21
28.8474916
0
LINE
8
DEFAULT_255_2_778
10
16.4319897
20
28.8474916
11
15.7104897
21
28.8474916
0
LINE
8
DEFAULT_255_2_778
10
15.7104897
20
28.8474916
11
15.1314897
21
29.9386916
0
LINE
8
DEFAULT_255_2_778
10
15.1314897
20
29.9386916
11
14.5525897
21
28.8474916
0
LINE
8
DEFAULT_255_2_778
10
14.5525897
20
28.8474916
11
13.8310897
21
28.8474916
0
LINE
8
DEFAULT_255_2_778
10
13.8310897
20
28.8474916
11
14.7303897
21
30.4180916
0
LINE
8
DEFAULT_255_2_778
10
14.7303897
20
30.4180916
11
13.8535897
21
31.9629916
0
LINE
8
DEFAULT_255_2_778
10
13.8535897
20
31.9629916
11
14.5668897
21
31.9629916
0
LINE
8
DEFAULT_255_2_778
10
14.5668897
20
31.9629916
11
14.5674897
21
31.9629916
0
ARC
8
DEFAULT_255_2_778
10
15.272669
20
12.1261885
40
2.5479988
50
269.930756
51
291.3899256
0
ARC
8
DEFAULT_255_2_778
10
15.2165136
20
12.2231528
40
2.6588187
50
291.7546139
51
338.2747508
0
ARC
8
DEFAULT_255_2_778
10
15.1013716
20
12.280537
40
2.7870437
50
338.0550349
51
357.3104417
0
ARC
8
DEFAULT_255_2_778
10
15.0110689
20
12.2884529
40
2.8776207
50
357.2373736
51
0.002762
0
ARC
8
DEFAULT_255_2_778
10
15.0800133
20
12.2926516
40
2.8086793
50
359.9171786
51
17.9804751
0
ARC
8
DEFAULT_255_2_778
10
15.1710907
20
12.3231847
40
2.7126249
50
17.9608943
51
46.8306734
0
ARC
8
DEFAULT_255_2_778
10
15.2661312
20
12.4299275
40
2.5697539
50
46.7479003
51
81.5536682
0
ARC
8
DEFAULT_255_2_778
10
15.2704375
20
12.4242057
40
2.5747861
50
81.6671568
51
90.0188657
0
ARC
8
DEFAULT_255_2_778
10
15.2665103
20
12.4509947
40
2.5479988
50
89.930756
51
111.3899256
0
ARC
8
DEFAULT_255_2_778
10
15.3226657
20
12.3540304
40
2.6588187
50
111.7546139
51
158.2747508
0
ARC
8
DEFAULT_255_2_778
10
15.4378077
20
12.2966462
40
2.7870437
50
158.0550349
51
177.3104417
0
ARC
8
DEFAULT_255_2_778
10
15.5281104
20
12.2887303
40
2.8776207
50
177.2373736
51
180.002762
0
ARC
8
DEFAULT_255_2_778
10
15.459166
20
12.2845316
40
2.8086793
50
179.9171786
51
197.9804751
0
ARC
8
DEFAULT_255_2_778
10
15.3680886
20
12.2539985
40
2.7126249
50
197.9608943
51
226.8306734
0
ARC
8
DEFAULT_255_2_778
10
15.2730481
20
12.1472557
40
2.5697539
50
226.7479003
51
261.5536682
0
ARC
8
DEFAULT_255_2_778
10
15.2687419
20
12.1529775
40
2.5747861
50
261.6671568
51
270.0188657
0
LINE
8
DEFAULT_255_2_778
10
15.2695897
20
9.5781916
11
15.2695897
21
9.5781916
0
LINE
8
DEFAULT_255_2_778
10
14.7052897
20
13.8461916
11
15.2695897
21
12.7719916
0
LINE
8
DEFAULT_255_2_778
10
15.2695897
20
12.7719916
11
15.8339897
21
13.8461916
0
LINE
8
DEFAULT_255_2_778
10
15.8339897
20
13.8461916
11
16.5472897
21
13.8461916
0
LINE
8
DEFAULT_255_2_778
10
16.5472897
20
13.8461916
11
15.6704897
21
12.3012916
0
LINE
8
DEFAULT_255_2_778
10
15.6704897
20
12.3012916
11
16.5697897
21
10.7306916
0
LINE
8
DEFAULT_255_2_778
10
16.5697897
20
10.7306916
11
15.8484897
21
10.7306916
0
LINE
8
DEFAULT_255_2_778
10
15.8484897
20
10.7306916
11
15.2695897
21
11.8218916
0
LINE
8
DEFAULT_255_2_778
10
15.2695897
20
11.8218916
11
14.6906897
21
10.7306916
0
LINE
8
DEFAULT_255_2_778
10
14.6906897
20
10.7306916
11
13.9691897
21
10.7306916
0
LINE
8
DEFAULT_255_2_778
10
13.9691897
20
10.7306916
11
14.8684897
21
12.3012916
0
LINE
8
DEFAULT_255_2_778
10
14.8684897
20
12.3012916
11
13.9916897
21
13.8461916
0
LINE
8
DEFAULT_255_2_778
10
13.9916897
20
13.8461916
11
14.7049897
21
13.8461916
0
LINE
8
DEFAULT_255_2_778
10
14.7049897
20
13.8461916
11
14.7052897
21
13.8461916
0
ARC
8
DEFAULT_255_2_778
10
26.806019
20
1.5034111
40
2.562828
50
350.9099173
51
0.2769387
0
ARC
8
DEFAULT_255_2_778
10
27.5748373
20
1.3761908
40
1.7835708
50
336.6827074
51
351.0435267
0
ARC
8
DEFAULT_255_2_778
10
27.9390645
20
1.2247235
40
1.3891461
50
293.9033282
51
336.4734756
0
ARC
8
DEFAULT_255_2_778
10
27.6338891
20
1.8404838
40
2.0759579
50
282.8903135
51
294.7174849
0
ARC
8
DEFAULT_255_2_778
10
27.4241275
20
2.7323783
40
2.9921755
50
274.8660255
51
282.9957612
0
ARC
8
DEFAULT_255_2_778
10
27.3192741
20
3.8670255
40
4.1316357
50
269.8827215
51
274.9801253
0
ARC
8
DEFAULT_255_2_778
10
27.2979516
20
7216.3586652
40
7216.6232668
50
269.9847862
51
270.0001021
0
ARC
8
DEFAULT_255_2_778
10
27.1471113
20
6650.5168097
40
6650.7813911
50
269.9685536
51
269.9847913
0
ARC
8
DEFAULT_255_2_778
10
26.8642344
20
6131.1589366
40
6131.4234409
50
269.9524658
51
269.9685333
0
ARC
8
DEFAULT_255_2_778
10
26.4793927
20
5664.0012066
40
5664.2655525
50
269.9365559
51
269.9524383
0
ARC
8
DEFAULT_255_2_778
10
26.0231504
20
5250.6003645
40
5250.8644586
50
269.9208786
51
269.9365393
0
ARC
8
DEFAULT_255_2_778
10
25.5035786
20
4873.6938588
40
4873.9575949
50
269.9054305
51
269.9208679
0
ARC
8
DEFAULT_255_2_778
10
24.951482
20
4539.8089805
40
4540.0722602
50
269.8902647
51
269.9054431
0
ARC
8
DEFAULT_255_2_778
10
24.3897171
20
4247.3583067
40
4247.6210469
50
269.8754143
51
269.890287
0
ARC
8
DEFAULT_255_2_778
10
23.6757646
20
3922.0388228
40
3922.3007795
50
269.8534578
51
269.8755102
0
ARC
8
DEFAULT_255_2_778
10
22.8026906
20
3580.4899338
40
3580.7507748
50
269.8322191
51
269.85345
0
ARC
8
DEFAULT_255_2_778
10
21.8380953
20
3252.0191722
40
3252.2785966
50
269.8066225
51
269.832267
0
ARC
8
DEFAULT_255_2_778
10
20.7587342
20
2932.2298327
40
2932.4874357
50
269.7807406
51
269.8066233
0
ARC
8
DEFAULT_255_2_778
10
19.7438052
20
2666.6422711
40
2666.8979348
50
269.7565941
51
269.78071
0
ARC
8
DEFAULT_255_2_778
10
18.8036038
20
2444.8376041
40
2445.0912751
50
269.7341869
51
269.7565453
0
ARC
8
DEFAULT_255_2_778
10
17.7431771
20
2217.3394564
40
2217.590656
50
269.7029858
51
269.7343156
0
ARC
8
DEFAULT_255_2_778
10
16.4640294
20
1971.1386325
40
1971.3865093
50
269.6663683
51
269.703069
0
ARC
8
DEFAULT_255_2_778
10
15.2511887
20
1762.0378749
40
1762.2822344
50
269.6365508
51
269.6662135
0
ARC
8
DEFAULT_255_2_778
10
14.0275852
20
1570.0021019
40
1570.2425632
50
269.5947035
51
269.636749
0
ARC
8
DEFAULT_255_2_778
10
12.6242425
20
1371.6713948
40
1371.9068912
50
269.5503418
51
269.5947192
0
ARC
8
DEFAULT_255_2_778
10
11.6878439
20
1251.2079592
40
1251.4398166
50
269.5341975
51
269.5499289
0
ARC
8
DEFAULT_255_2_778
10
1.5014733
20
1.5503568
40
1.7409035
50
259.2008422
51
270.4128382
0
ARC
8
DEFAULT_255_2_778
10
1.3767272
20
0.9238039
40
1.1020857
50
240.1923298
51
259.4681478
0
ARC
8
DEFAULT_255_2_778
10
1.2903869
20
0.7448961
40
0.9040373
50
200.2939755
51
239.3039956
0
ARC
8
DEFAULT_255_2_778
10
1.7913225
20
0.9505178
40
1.4453212
50
187.4405153
51
201.0517511
0
ARC
8
DEFAULT_255_2_778
10
2.5624232
20
1.060777
40
2.2242274
50
179.7495755
51
187.6846085
0
LINE
8
DEFAULT_255_2_778
10
0.3382171
20
1.0704985
11
0.3336889
21
6.4669018
0
LINE
8
DEFAULT_255_2_778
10
0.3336889
20
6.4669018
11
0.3294394
21
11.5693571
0
LINE
8
DEFAULT_255_2_778
10
0.3294394
20
11.5693571
11
0.3254513
21
16.3947599
0
LINE
8
DEFAULT_255_2_778
10
0.3254513
20
16.3947599
11
0.3217086
21
20.9590032
0
LINE
8
DEFAULT_255_2_778
10
0.3217086
20
20.9590032
11
0.3181961
21
25.2770383
0
LINE
8
DEFAULT_255_2_778
10
0.3181961
20
25.2770383
11
0.3148997
21
29.3629316
0
LINE
8
DEFAULT_255_2_778
10
0.3148997
20
29.3629316
11
0.3118062
21
33.2299177
0
LINE
8
DEFAULT_255_2_778
10
0.3118062
20
33.2299177
11
0.3089029
21
36.89045
0
LINE
8
DEFAULT_255_2_778
10
0.3089029
20
36.89045
11
0.3061783
21
40.356247
0
LINE
8
DEFAULT_255_2_778
10
0.3061783
20
40.356247
11
0.3036213
21
43.6383373
0
LINE
8
DEFAULT_255_2_778
10
0.3036213
20
43.6383373
11
0.3012217
21
46.7471007
0
LINE
8
DEFAULT_255_2_778
10
0.3012217
20
46.7471007
11
0.2989696
21
49.6923071
0
LINE
8
DEFAULT_255_2_778
10
0.2989696
20
49.6923071
11
0.2968561
21
52.4831533
0
LINE
8
DEFAULT_255_2_778
10
0.2968561
20
52.4831533
11
0.2948727
21
55.1282973
0
LINE
8
DEFAULT_255_2_778
10
0.2948727
20
55.1282973
11
0.2930112
21
57.6358908
0
LINE
8
DEFAULT_255_2_778
10
0.2930112
20
57.6358908
11
0.2912643
21
60.0136093
0
LINE
8
DEFAULT_255_2_778
10
0.2912643
20
60.0136093
11
0.2896249
21
62.2686804
0
LINE
8
DEFAULT_255_2_778
10
0.2896249
20
62.2686804
11
0.2880863
21
64.4079114
0
LINE
8
DEFAULT_255_2_778
10
0.2880863
20
64.4079114
11
0.2866424
21
66.4377133
0
LINE
8
DEFAULT_255_2_778
10
0.2866424
20
66.4377133
11
0.2852874
21
68.3641255
0
LINE
8
DEFAULT_255_2_778
10
0.2852874
20
68.3641255
11
0.2840156
21
70.1928372
0
LINE
8
DEFAULT_255_2_778
10
0.2840156
20
70.1928372
11
0.2828222
21
71.9292087
0
LINE
8
DEFAULT_255_2_778
10
0.2828222
20
71.9292087
11
0.2817021
21
73.5782909
0
LINE
8
DEFAULT_255_2_778
10
0.2817021
20
73.5782909
11
0.280651
21
75.1448434
0
LINE
8
DEFAULT_255_2_778
10
0.280651
20
75.1448434
11
0.2796645
21
76.6333524
0
LINE
8
DEFAULT_255_2_778
10
0.2796645
20
76.6333524
11
0.2787388
21
78.0480463
0
LINE
8
DEFAULT_255_2_778
10
0.2787388
20
78.0480463
11
0.27787
21
79.3929114
0
LINE
8
DEFAULT_255_2_778
10
0.27787
20
79.3929114
11
0.2770546
21
80.6717061
0
LINE
8
DEFAULT_255_2_778
10
0.2770546
20
80.6717061
11
0.2762894
21
81.8879742
0
LINE
8
DEFAULT_255_2_778
10
0.2762894
20
81.8879742
11
0.2755713
21
83.045058
0
LINE
8
DEFAULT_255_2_778
10
0.2755713
20
83.045058
11
0.2748973
21
84.1461098
0
LINE
8
DEFAULT_255_2_778
10
0.2748973
20
84.1461098
11
0.2742649
21
85.1941032
0
LINE
8
DEFAULT_255_2_778
10
0.2742649
20
85.1941032
11
0.2736713
21
86.1918438
0
LINE
8
DEFAULT_255_2_778
10
0.2736713
20
86.1918438
11
0.2731142
21
87.1419788
0
LINE
8
DEFAULT_255_2_778
10
0.2731142
20
87.1419788
11
0.2725915
21
88.0470065
0
LINE
8
DEFAULT_255_2_778
10
0.2725915
20
88.0470065
11
0.2721009
21
88.909285
0
LINE
8
DEFAULT_255_2_778
10
0.2721009
20
88.909285
11
0.2716404
21
89.7310401
0
ARC
8
DEFAULT_255_2_778
10
87039.4752749
20
138.1461205
40
87039.2170997
50
180.0308474
51
180.0318705
0
ARC
8
DEFAULT_255_2_778
10
80813.5435817
20
134.7953835
40
80813.2845048
50
180.0298476
51
180.0308483
0
ARC
8
DEFAULT_255_2_778
10
72975.926432
20
130.7021788
40
72975.6662862
50
180.028832
51
180.0298395
0
ARC
8
DEFAULT_255_2_778
10
65680.9020334
20
127.0384438
40
65680.6409675
50
180.0278196
51
180.0288383
0
ARC
8
DEFAULT_255_2_778
10
61094.9344272
20
124.817515
40
61094.6728236
50
180.0268273
51
180.027825
0
ARC
8
DEFAULT_255_2_778
10
56338.1057913
20
122.5948093
40
56337.8436685
50
180.0258452
51
180.0268319
0
ARC
8
DEFAULT_255_2_778
10
51238.2497118
20
120.3035012
40
51237.9870743
50
180.0243796
51
180.0258555
0
ARC
8
DEFAULT_255_2_778
10
46068.5738914
20
118.0938624
40
46068.3107817
50
180.0229355
51
180.0243672
0
ARC
8
DEFAULT_255_2_778
10
39862.9032039
20
115.6155968
40
39862.6395993
50
180.0212613
51
180.0229439
0
ARC
8
DEFAULT_255_2_778
10
35451.6452243
20
113.9924243
40
35451.3813211
50
180.019437
51
180.0212835
0
ARC
8
DEFAULT_255_2_778
10
31367.9032294
20
112.6100771
40
31367.6390921
50
180.0176906
51
180.0194425
0
ARC
8
DEFAULT_255_2_778
10
27839.5270436
20
111.5277386
40
27839.2627403
50
180.0160419
51
180.0177052
0
ARC
8
DEFAULT_255_2_778
10
24481.3495142
20
110.6032916
40
24481.0850838
50
180.0136994
51
180.0160789
0
ARC
8
DEFAULT_255_2_778
10
21474.4469012
20
109.8880117
40
21474.1823856
50
180.0110907
51
180.0137092
0
ARC
8
DEFAULT_255_2_778
10
18396.3097002
20
109.2895277
40
18396.0451265
50
180.0087052
51
180.0110824
0
ARC
8
DEFAULT_255_2_778
10
15722.4561407
20
108.8878766
40
15722.1915366
50
180.0057424
51
180.0087219
0
ARC
8
DEFAULT_255_2_778
10
13422.8053126
20
108.663439
40
13422.5406974
50
180.0030018
51
180.0057682
0
ARC
8
DEFAULT_255_2_778
10
11933.2403958
20
108.5897526
40
11932.9757788
50
180.000056
51
180.0030227
0
ARC
8
DEFAULT_255_2_778
10
3.7092348
20
108.5904801
40
3.44464
50
172.3329902
51
180.2059477
0
ARC
8
DEFAULT_255_2_778
10
2.7684159
20
108.7207178
40
2.4948586
50
161.2319219
51
172.4145992
0
ARC
8
DEFAULT_255_2_778
10
2.1525948
20
108.9359094
40
1.8425547
50
141.1149122
51
161.4065689
0
ARC
8
DEFAULT_255_2_778
10
2.0996607
20
108.9532663
40
1.7905633
50
116.69822
51
140.4839107
0
ARC
8
DEFAULT_255_2_778
10
2.3896164
20
108.3988172
40
2.4161949
50
105.4247296
51
116.9337648
0
ARC
8
DEFAULT_255_2_778
10
2.6389779
20
107.5100422
40
3.3392826
50
97.1953948
51
105.4931945
0
ARC
8
DEFAULT_255_2_778
10
2.8028832
20
106.2486173
40
4.6113055
50
91.0924729
51
97.2527568
0
ARC
8
DEFAULT_255_2_778
10
2.8361795
20
105.2680358
40
5.5923627
50
89.9924435
51
91.2419979
0
ARC
8
DEFAULT_255_2_778
10
26.7403298
20
106.2808285
40
4.5879148
50
80.4277486
51
86.5437678
0
ARC
8
DEFAULT_255_2_778
10
26.9514849
20
107.5140329
40
3.3367689
50
72.3014675
51
80.481735
0
ARC
8
DEFAULT_255_2_778
10
27.2377964
20
108.3980148
40
2.4075887
50
60.461139
51
72.3971854
0
ARC
8
DEFAULT_255_2_778
10
27.5722268
20
108.9618028
40
1.7522504
50
19.9862457
51
60.8864286
0
ARC
8
DEFAULT_255_2_778
10
27.0498468
20
108.7645721
40
2.3105923
50
7.6019904
51
20.1550101
0
ARC
8
DEFAULT_255_2_778
10
26.2139475
20
108.6456363
40
3.1548874
50
359.8068056
51
7.7347217
0
LINE
8
DEFAULT_255_2_778
10
29.3688171
20
108.6349985
11
29.3688171
21
1.5154985
0
LINE
8
DEFAULT_255_2_778
10
2.8369171
20
110.8603985
11
27.0169171
21
110.8603985
0
LINE
8
DEFAULT_255_2_778
10
29.3688171
20
1.5154985
11
29.3688171
21
1.5157985
0
LINE
8
DEFAULT_255_2_778
10
18.7854171
20
98.4249246
11
18.7854171
21
6.3499246
0
LINE
8
DEFAULT_255_2_778
10
18.7854171
20
-0.2645754
11
18.7854171
21
6.8685246
0
LINE
8
DEFAULT_255_2_778
10
10.4582171
20
17.0674246
11
10.4582171
21
3.2302246
0
ARC
8
DEFAULT_255_2_778
10
11.2901775
20
3.2173055
40
0.8320607
50
179.1103559
51
196.8411996
0
ARC
8
DEFAULT_255_2_778
10
10.9869638
20
3.1288381
40
0.5162305
50
197.1934675
51
257.240045
0
ARC
8
DEFAULT_255_2_778
10
11.1490162
20
3.6540414
40
1.0650859
50
254.9773811
51
268.8912122
0
ARC
8
DEFAULT_255_2_778
10
11.175618
20
4.1145428
40
1.5261183
50
268.2272135
51
270.0149838
0
LINE
8
DEFAULT_255_2_778
10
11.1760171
20
2.5884246
11
15.4109171
21
2.5884246
0
ARC
8
DEFAULT_255_2_778
10
15.4234951
20
5.5050077
40
2.9166102
50
269.7529079
51
276.1908194
0
ARC
8
DEFAULT_255_2_778
10
15.5522995
20
4.3506282
40
1.755076
50
276.0744411
51
285.3604419
0
ARC
8
DEFAULT_255_2_778
10
15.7566987
20
3.6259683
40
1.0021717
50
285.066451
51
300.6131202
0
ARC
8
DEFAULT_255_2_778
10
15.9770868
20
3.2673781
40
0.5813727
50
299.9169571
51
359.0206768
0
ARC
8
DEFAULT_255_2_778
10
15.7138343
20
3.3013849
40
0.8456828
50
357.0214514
51
0.0230158
0
LINE
8
DEFAULT_255_2_778
10
16.5595171
20
3.3017246
11
16.5595171
21
8.1517246
0
ARC
8
DEFAULT_255_2_778
10
16.5721212
20
1.2463872
40
6.9053489
50
86.2842037
51
90.10458
0
ARC
8
DEFAULT_255_2_778
10
16.709233
20
3.3127655
40
4.8344296
50
81.3861587
51
86.3186551
0
ARC
8
DEFAULT_255_2_778
10
16.946599
20
4.8575053
40
3.2715646
50
74.7939369
51
81.4444156
0
ARC
8
DEFAULT_255_2_778
10
17.2481802
20
5.9524084
40
2.1358969
50
65.3879951
51
74.896917
0
ARC
8
DEFAULT_255_2_778
10
17.5732152
20
6.6518645
40
1.364626
50
50.7977005
51
65.5644128
0
ARC
8
DEFAULT_255_2_778
10
17.8406699
20
6.9775474
40
0.9432015
50
0.3808814
51
50.8830205
0
ARC
8
DEFAULT_255_2_778
10
17.4993711
20
6.9394328
40
1.2852461
50
359.9907196
51
1.9790418
0
LINE
8
DEFAULT_255_2_778
10
0.2646171
20
92.3395246
11
8.2021171
21
92.3395246
0
ARC
8
DEFAULT_255_2_778
10
7.121024
20
-0.2438171
40
1.0812923
50
358.8999881
51
359.8774414
0
ARC
8
DEFAULT_255_2_778
10
-7.8193343
20
-0.1542474
40
16.0219118
50
359.6714176
51
359.8239096
0
ARC
8
DEFAULT_255_2_778
10
-53.877344
20
-0.000306
40
62.0801782
50
359.8124762
51
359.8725869
0
ARC
8
DEFAULT_255_2_778
10
-145.553019
20
0.2096404
40
153.7560936
50
359.8703214
51
359.9023697
0
ARC
8
DEFAULT_255_2_778
10
-293.7878891
20
0.4675694
40
301.9911882
50
359.9013564
51
359.921344
0
ARC
8
DEFAULT_255_2_778
10
-507.9789735
20
0.7654359
40
516.1824796
50
359.9209196
51
359.9346005
0
ARC
8
DEFAULT_255_2_778
10
-837.8958716
20
1.1429983
40
846.0995937
50
359.934534
51
359.9457045
0
ARC
8
DEFAULT_255_2_778
10
-1286.7445888
20
1.5731393
40
1294.948517
50
359.9454923
51
359.9537006
0
ARC
8
DEFAULT_255_2_778
10
-1843.8484639
20
2.0294511
40
1852.0525789
50
359.953511
51
359.9598269
0
ARC
8
DEFAULT_255_2_778
10
-2614.7806587
20
2.5759303
40
2622.9849674
50
359.9596972
51
359.9648884
0
ARC
8
DEFAULT_255_2_778
10
-3593.7727448
20
3.1751067
40
3601.9772367
50
359.9649005
51
359.9691692
0
ARC
8
DEFAULT_255_2_778
10
-4709.4564642
20
3.7829125
40
4717.6611218
50
359.9690786
51
359.9726008
0
ARC
8
DEFAULT_255_2_778
10
-5934.9676336
20
4.3733599
40
5943.1724332
50
359.9725584
51
359.9755021
0
ARC
8
DEFAULT_255_2_778
10
-7697.6053872
20
5.1300404
40
7705.8103492
50
359.9754796
51
359.9778492
0
ARC
8
DEFAULT_255_2_778
10
-9231.7117203
20
5.7241141
40
9239.9167975
50
359.9778431
51
359.9798908
0
ARC
8
DEFAULT_255_2_778
10
-11699.6018771
20
6.5897471
40
11707.8071061
50
359.9798934
51
359.9815576
0
ARC
8
DEFAULT_255_2_778
10
-13577.9859111
20
7.1762166
40
13586.1912315
50
359.9816341
51
359.9831033
0
ARC
8
DEFAULT_255_2_778
10
-15455.9362377
20
7.7352387
40
15464.1416415
50
359.983084
51
359.9844001
0
ARC
8
DEFAULT_255_2_778
10
-17366.7343463
20
8.2512079
40
17374.9398196
50
359.9844143
51
359.985604
0
ARC
8
DEFAULT_255_2_778
10
-19195.2586753
20
8.7380389
40
19203.4642135
50
359.9855223
51
359.9866118
0
ARC
8
DEFAULT_255_2_778
10
-20995.9821535
20
9.1781871
40
21004.1877452
50
359.986559
51
359.987564
0
ARC
8
DEFAULT_255_2_778
10
-26115.0442136
20
10.3153928
40
26123.2499316
50
359.9875067
51
359.9883197
0
ARC
8
DEFAULT_255_2_778
10
-28179.0971579
20
10.7370341
40
28187.302919
50
359.988318
51
359.9890742
0
ARC
8
DEFAULT_255_2_778
10
-36463.9633801
20
12.2837325
40
36472.1692854
50
359.9891263
51
359.9897116
0
ARC
8
DEFAULT_255_2_778
10
-34767.220907
20
11.9493808
40
34775.4267797
50
359.9897604
51
359.9906874
0
LINE
8
DEFAULT_255_2_778
10
8.2054134
20
6.2971627
11
8.2054721
21
6.667773
0
LINE
8
DEFAULT_255_2_778
10
8.2054721
20
6.667773
11
8.2055272
21
7.0365093
0
LINE
8
DEFAULT_255_2_778
10
8.2055272
20
7.0365093
11
8.2055788
21
7.4028327
0
LINE
8
DEFAULT_255_2_778
10
8.2055788
20
7.4028327
11
8.2056273
21
7.7662583
0
LINE
8
DEFAULT_255_2_778
10
8.2056273
20
7.7662583
11
8.2056728
21
8.1263505
0
LINE
8
DEFAULT_255_2_778
10
8.2056728
20
8.1263505
11
8.2057156
21
8.4827199
0
LINE
8
DEFAULT_255_2_778
10
8.2057156
20
8.4827199
11
8.2057556
21
8.8350195
0
ARC
8
DEFAULT_255_2_778
10
-65322.9453124
20
16.0693231
40
65331.1514685
50
359.9936555
51
359.9942715
0
LINE
8
DEFAULT_255_2_778
10
8.2058297
20
9.5373909
11
8.2058948
21
10.2195744
0
LINE
8
DEFAULT_255_2_778
10
8.2058948
20
10.2195744
11
8.2059519
21
10.8799608
0
LINE
8
DEFAULT_255_2_778
10
8.2059519
20
10.8799608
11
8.2060022
21
11.5173888
0
LINE
8
DEFAULT_255_2_778
10
8.2060022
20
11.5173888
11
8.2060464
21
12.1310754
0
LINE
8
DEFAULT_255_2_778
10
8.2060464
20
12.1310754
11
8.2060852
21
12.720555
0
LINE
8
DEFAULT_255_2_778
10
8.2060852
20
12.720555
11
8.2061194
21
13.2856274
0
LINE
8
DEFAULT_255_2_778
10
8.2061194
20
13.2856274
11
8.2061774
21
14.3775736
0
LINE
8
DEFAULT_255_2_778
10
8.2061774
20
14.3775736
11
8.2062219
21
15.3677317
0
LINE
8
DEFAULT_255_2_778
10
8.2062219
20
15.3677317
11
8.2062559
21
16.2606911
0
LINE
8
DEFAULT_255_2_778
10
8.2062559
20
16.2606911
11
8.2063045
21
17.8830445
0
LINE
8
DEFAULT_255_2_778
10
8.2063045
20
17.8830445
11
8.2063319
21
19.1496512
0
LINE
8
DEFAULT_255_2_778
10
8.2063319
20
19.1496512
11
8.2063583
21
21.1296638
0
LINE
8
DEFAULT_255_2_778
10
8.2063583
20
21.1296638
11
8.2063671
21
23.2057996
0
LINE
8
DEFAULT_255_2_778
10
8.2063671
20
23.2057996
11
8.2063629
21
24.6878002
0
LINE
8
DEFAULT_255_2_778
10
8.2063629
20
24.6878002
11
8.2063313
21
27.6882766
0
LINE
8
DEFAULT_255_2_778
10
8.2063313
20
27.6882766
11
8.2062733
21
30.6558925
0
LINE
8
DEFAULT_255_2_778
10
8.2062733
20
30.6558925
11
8.206194
21
33.5739721
0
LINE
8
DEFAULT_255_2_778
10
8.206194
20
33.5739721
11
8.2060979
21
36.4291502
0
LINE
8
DEFAULT_255_2_778
10
8.2060979
20
36.4291502
11
8.2059886
21
39.2108899
0
LINE
8
DEFAULT_255_2_778
10
8.2059886
20
39.2108899
11
8.2057334
21
44.7005571
0
LINE
8
DEFAULT_255_2_778
10
8.2057334
20
44.7005571
11
8.2054565
21
49.7970871
0
LINE
8
DEFAULT_255_2_778
10
8.2054565
20
49.7970871
11
8.2051732
21
54.4809334
0
LINE
8
DEFAULT_255_2_778
10
8.2051732
20
54.4809334
11
8.2045852
21
63.1815906
0
LINE
8
DEFAULT_255_2_778
10
8.2045852
20
63.1815906
11
8.2040672
21
70.1279763
0
LINE
8
DEFAULT_255_2_778
10
8.2040672
20
70.1279763
11
8.2031664
21
81.2239896
0
LINE
8
DEFAULT_255_2_778
10
8.2031664
20
81.2239896
11
8.2021171
21
93.1317246
0
LINE
8
DEFAULT_255_2_778
10
29.3688171
20
102.4040246
11
20.7063171
21
102.4040246
0
ARC
8
DEFAULT_255_2_778
10
20.6937249
20
100.1818188
40
2.2222415
50
89.6753365
51
98.4525047
0
ARC
8
DEFAULT_255_2_778
10
20.5647749
20
101.0186878
40
1.3755158
50
98.2634596
51
111.9320194
0
ARC
8
DEFAULT_255_2_778
10
20.3625045
20
101.5008144
40
0.8527659
50
111.4244504
51
141.5158268
0
ARC
8
DEFAULT_255_2_778
10
20.406758
20
101.4922823
40
0.8929599
50
142.8544208
51
168.6399775
0
ARC
8
DEFAULT_255_2_778
10
20.9216937
20
101.3767149
40
1.4206208
50
168.1610445
51
180.4513243
0
LINE
8
DEFAULT_255_2_778
10
19.5011171
20
101.3655246
11
19.5011171
21
99.1401246
0
ARC
8
DEFAULT_255_2_778
10
18.7263917
20
99.1223933
40
0.7749283
50
309.4560735
51
1.3111123
0
ARC
8
DEFAULT_255_2_778
10
18.446391
20
99.4439073
40
1.2011684
50
295.9512756
51
310.0224791
0
ARC
8
DEFAULT_255_2_778
10
18.1333247
20
100.074332
40
1.9050335
50
286.9306704
51
296.1203219
0
ARC
8
DEFAULT_255_2_778
10
17.8238688
20
101.073727
40
2.9512349
50
280.5314109
51
287.0278439
0
ARC
8
DEFAULT_255_2_778
10
17.5534289
20
102.5036709
40
4.4065228
50
275.7826762
51
280.5902727
0
ARC
8
DEFAULT_255_2_778
10
17.3571095
20
104.3968764
40
6.3098762
50
272.2171844
51
275.8241692
0
ARC
8
DEFAULT_255_2_778
10
17.2678299
20
106.5157201
40
8.4305908
50
269.9541604
51
272.2663886
0
ARC
8
DEFAULT_255_2_778
10
17.2621808
20
108.0506964
40
9.9655645
50
269.1759601
51
269.9936997
0
ARC
8
DEFAULT_255_2_778
10
17.2770722
20
109.0693144
40
10.984291
50
268.3125915
51
269.1747065
0
ARC
8
DEFAULT_255_2_778
10
17.3076514
20
110.1247896
40
12.040209
50
267.639215
51
268.3150383
0
ARC
8
DEFAULT_255_2_778
10
17.349788
20
111.1482859
40
13.0645722
50
266.9994551
51
267.6394728
0
LINE
8
DEFAULT_255_2_778
10
16.6659171
20
98.1016246
11
9.2086171
21
98.1016246
0
ARC
8
DEFAULT_255_2_778
10
9.1960132
20
96.3343722
40
1.7672973
50
89.5913788
51
99.6786044
0
ARC
8
DEFAULT_255_2_778
10
9.0702314
20
97.043199
40
1.0474245
50
99.4147982
51
116.0314386
0
ARC
8
DEFAULT_255_2_778
10
8.9234974
20
97.3511027
40
0.7063677
50
116.2974618
51
170.1016653
0
ARC
8
DEFAULT_255_2_778
10
9.4485198
20
97.2213748
40
1.2464407
50
168.3755427
51
180.4481958
0
LINE
8
DEFAULT_255_2_778
10
8.2021171
20
97.2116246
11
8.2021171
21
93.2060246
0
ARC
8
DEFAULT_255_2_778
10
9.370937
20
10.4115761
40
6.7417748
50
82.5060705
51
86.2486801
0
ARC
8
DEFAULT_255_2_778
10
9.628341
20
12.3484861
40
4.7878385
50
77.7507917
51
82.5370818
0
ARC
8
DEFAULT_255_2_778
10
9.9560769
20
13.8380041
40
3.2626997
50
71.06366
51
77.825466
0
ARC
8
DEFAULT_255_2_778
10
10.3284026
20
14.9112604
40
2.1267057
50
61.4887321
51
71.1683255
0
ARC
8
DEFAULT_255_2_778
10
10.6991059
20
15.5845244
40
1.3581515
50
46.4942575
51
61.6733163
0
ARC
8
DEFAULT_255_2_778
10
10.9777007
20
15.8778705
40
0.9535938
50
358.6381028
51
46.5013981
0
LINE
8
DEFAULT_255_2_778
10
11.9310251
20
15.8552061
11
18.7845251
21
15.8552061
0
LINE
8
DEFAULT_255_2_778
10
10.4581251
20
18.4227061
11
10.4581251
21
25.9120061
0
LINE
8
DEFAULT_255_2_778
10
18.7502251
20
18.4227061
11
9.8120251
21
18.4227061
0
LINE
8
DEFAULT_255_2_778
10
9.8120251
20
18.4227061
11
9.8120251
21
17.1389061
0
ARC
8
DEFAULT_255_2_778
10
9.6807243
20
19.2237629
40
6.759301
50
86.3565382
51
90.1025511
0
ARC
8
DEFAULT_255_2_778
10
9.8125332
20
21.2495227
40
4.7292605
50
81.552114
51
86.3905864
0
ARC
8
DEFAULT_255_2_778
10
10.0443897
20
22.7840856
40
3.1772882
50
74.8943302
51
81.6224153
0
ARC
8
DEFAULT_255_2_778
10
10.3396474
20
23.8655562
40
2.056244
50
65.5996184
51
74.9841747
0
ARC
8
DEFAULT_255_2_778
10
10.6577046
20
24.5549082
40
1.2970808
50
50.6826676
51
65.8147453
0
ARC
8
DEFAULT_255_2_778
10
10.9201672
20
24.8738264
40
0.8840504
50
359.2799291
51
50.7463389
0
ARC
8
DEFAULT_255_2_778
10
10.6014206
20
24.842
40
1.2029056
50
359.9977671
51
0.9867922
0
LINE
8
DEFAULT_255_2_778
10
11.8043262
20
24.8419531
11
18.7846262
21
24.8419531
0
LINE
8
DEFAULT_255_2_778
10
18.7853262
20
27.2668531
11
9.6686262
21
27.2668531
0
LINE
8
DEFAULT_255_2_778
10
9.6686262
20
27.2668531
11
9.6686262
21
25.9830531
0
LINE
8
DEFAULT_255_2_778
10
10.4581908
20
27.2669591
11
10.4581908
21
34.7562591
0
LINE
8
DEFAULT_255_2_778
10
18.7396908
20
33.4698591
11
11.9035908
21
33.4698591
0
ARC
8
DEFAULT_255_2_778
10
10.725671
20
33.4836858
40
1.1780009
50
359.3274805
51
18.6513649
0
ARC
8
DEFAULT_255_2_778
10
10.9114456
20
33.5306338
40
0.9870813
50
19.5180159
51
56.572278
0
ARC
8
DEFAULT_255_2_778
10
10.59383
20
33.081668
40
1.5368518
50
55.9106065
51
69.3264876
0
ARC
8
DEFAULT_255_2_778
10
10.2920836
20
32.3018253
40
2.3730179
50
69.1575074
51
77.8278275
0
ARC
8
DEFAULT_255_2_778
10
10.0334885
20
31.1249563
40
3.5779569
50
77.7535469
51
84.0985325
0
ARC
8
DEFAULT_255_2_778
10
9.8577948
20
29.4726051
40
5.2396177
50
84.0452673
51
88.7890068
0
ARC
8
DEFAULT_255_2_778
10
9.8135898
20
28.068469
40
6.6443901
50
88.6638003
51
90.0129269
0
LINE
8
DEFAULT_255_2_778
10
10.4581908
20
36.1111591
11
10.4581908
21
43.6004591
0
ARC
8
DEFAULT_255_2_778
10
9.6806919
20
37.0176826
40
6.6541873
50
86.3278638
51
90.1033357
0
ARC
8
DEFAULT_255_2_778
10
9.8113894
20
39.0107458
40
4.6568464
50
81.4863248
51
86.3620611
0
ARC
8
DEFAULT_255_2_778
10
10.0426696
20
40.5275561
40
3.1225133
50
74.6870196
51
81.5629281
0
ARC
8
DEFAULT_255_2_778
10
10.3424967
20
41.6077939
40
2.0014485
50
64.8934617
51
74.7986888
0
ARC
8
DEFAULT_255_2_778
10
10.664617
20
42.2841534
40
1.2523237
50
49.1857385
51
65.1087385
0
ARC
8
DEFAULT_255_2_778
10
10.8999059
20
42.5624809
40
0.887898
50
358.8226908
51
48.9377415
0
ARC
8
DEFAULT_255_2_778
10
10.5703587
20
42.5307791
40
1.2173321
50
359.9990607
51
0.6334666
0
LINE
8
DEFAULT_255_2_778
10
11.7876908
20
42.5307591
11
18.7848908
21
42.5307591
0
LINE
8
DEFAULT_255_2_778
10
9.8120908
20
34.7128591
11
9.8120908
21
36.1114591
0
LINE
8
DEFAULT_255_2_778
10
9.8120908
20
36.1114591
11
18.6351908
21
36.1114591
0
LINE
8
DEFAULT_255_2_778
10
18.7504908
20
44.9556591
11
9.6686908
21
44.9556591
0
LINE
8
DEFAULT_255_2_778
10
9.6686908
20
44.9556591
11
9.6686908
21
43.6718591
0
LINE
8
DEFAULT_255_2_778
10
10.4581251
20
44.9556457
11
10.4581251
21
52.4449457
0
ARC
8
DEFAULT_255_2_778
10
9.8240263
20
45.8621692
40
6.6541873
50
86.3278638
51
90.1033357
0
ARC
8
DEFAULT_255_2_778
10
9.9547238
20
47.8552324
40
4.6568464
50
81.4863248
51
86.3620611
0
ARC
8
DEFAULT_255_2_778
10
10.186004
20
49.3720426
40
3.1225133
50
74.6870196
51
81.5629281
0
ARC
8
DEFAULT_255_2_778
10
10.4858311
20
50.4522805
40
2.0014485
50
64.8934617
51
74.7986888
0
ARC
8
DEFAULT_255_2_778
10
10.8079514
20
51.12864
40
1.2523237
50
49.1857385
51
65.1087385
0
ARC
8
DEFAULT_255_2_778
10
11.0432402
20
51.4069675
40
0.887898
50
358.8226908
51
48.9377415
0
ARC
8
DEFAULT_255_2_778
10
10.713693
20
51.3752657
40
1.2173321
50
359.9990607
51
0.6334666
0
LINE
8
DEFAULT_255_2_778
10
11.9310251
20
51.3752457
11
18.7845251
21
51.3752457
0
LINE
8
DEFAULT_255_2_778
10
18.7502251
20
53.8001457
11
9.8120251
21
53.8001457
0
LINE
8
DEFAULT_255_2_778
10
9.8120251
20
53.8001457
11
9.8120251
21
52.5163457
0
LINE
8
DEFAULT_255_2_778
10
10.4582
20
53.7998478
11
10.4582
21
61.2891478
0
ARC
8
DEFAULT_255_2_778
10
9.6807243
20
54.6012629
40
6.759301
50
86.3565382
51
90.1025511
0
ARC
8
DEFAULT_255_2_778
10
9.8125332
20
56.6270227
40
4.7292605
50
81.552114
51
86.3905864
0
ARC
8
DEFAULT_255_2_778
10
10.0443897
20
58.1615856
40
3.1772882
50
74.8943302
51
81.6224153
0
ARC
8
DEFAULT_255_2_778
10
10.3396474
20
59.2430562
40
2.056244
50
65.5996184
51
74.9841747
0
ARC
8
DEFAULT_255_2_778
10
10.6577046
20
59.9324082
40
1.2970808
50
50.6826676
51
65.8147453
0
ARC
8
DEFAULT_255_2_778
10
10.9201672
20
60.2513264
40
0.8840504
50
359.2799291
51
50.7463389
0
ARC
8
DEFAULT_255_2_778
10
10.6014206
20
60.2195
40
1.2029056
50
359.9977671
51
0.9867922
0
LINE
8
DEFAULT_255_2_778
10
11.8043262
20
60.2194531
11
18.7846262
21
60.2194531
0
LINE
8
DEFAULT_255_2_778
10
18.7853262
20
62.6443531
11
9.6686262
21
62.6443531
0
LINE
8
DEFAULT_255_2_778
10
9.6686262
20
62.6443531
11
9.6686262
21
61.3605531
0
LINE
8
DEFAULT_255_2_778
10
10.4582253
20
62.6473237
11
10.4582253
21
70.3503237
0
ARC
8
DEFAULT_255_2_778
10
9.8240156
20
64.1904827
40
6.2371524
50
86.1131193
51
90.1092268
0
ARC
8
DEFAULT_255_2_778
10
9.9530524
20
66.0499787
40
4.3731874
50
80.9941277
51
86.1483714
0
ARC
8
DEFAULT_255_2_778
10
10.1814456
20
67.4635379
40
2.9413055
50
73.7321781
51
81.0779914
0
ARC
8
DEFAULT_255_2_778
10
10.4783063
20
68.4665547
40
1.8952921
50
63.1518835
51
73.8531753
0
ARC
8
DEFAULT_255_2_778
10
10.7933937
20
69.0787806
40
1.2067669
50
45.8574835
51
63.3714908
0
ARC
8
DEFAULT_255_2_778
10
10.9701747
20
69.276222
40
0.9420229
50
2.4548241
51
45.209875
0
ARC
8
DEFAULT_255_2_778
10
10.6203734
20
69.2301043
40
1.2938522
50
359.9654354
51
3.8318443
0
LINE
8
DEFAULT_255_2_778
10
11.9142253
20
69.2293237
11
18.7846253
21
69.2293237
0
LINE
8
DEFAULT_255_2_778
10
10.4582253
20
71.8098237
11
10.4582253
21
79.2634237
0
ARC
8
DEFAULT_255_2_778
10
9.5373214
20
72.3621589
40
6.9726757
50
86.4126032
51
90.1010394
0
ARC
8
DEFAULT_255_2_778
10
9.6713731
20
74.4543907
40
4.8761566
50
81.6807031
51
86.446397
0
ARC
8
DEFAULT_255_2_778
10
9.9042627
20
76.0240321
40
3.2893373
50
75.2995352
51
81.7386793
0
ARC
8
DEFAULT_255_2_778
10
10.2019387
20
77.1432065
40
2.1312619
50
66.1514695
51
75.4050146
0
ARC
8
DEFAULT_255_2_778
10
10.5264573
20
77.8661666
40
1.338828
50
51.8109739
51
66.344184
0
ARC
8
DEFAULT_255_2_778
10
10.8170674
20
78.2257344
40
0.8765659
50
0.6444928
51
52.2101365
0
ARC
8
DEFAULT_255_2_778
10
10.5265093
20
78.1938195
40
1.1678161
50
359.9903939
51
2.0500034
0
LINE
8
DEFAULT_255_2_778
10
11.6943253
20
78.1936237
11
18.7846253
21
78.1936237
0
LINE
8
DEFAULT_255_2_778
10
29.2886253
20
75.8031237
11
29.3687253
21
75.8031237
0
LINE
8
DEFAULT_255_2_778
10
18.7510253
20
71.7741237
11
9.8121253
21
71.7741237
0
LINE
8
DEFAULT_255_2_778
10
9.8121253
20
71.7741237
11
9.8121253
21
70.4276237
0
LINE
8
DEFAULT_255_2_778
10
18.7748253
20
80.6186237
11
9.5250253
21
80.6186237
0
LINE
8
DEFAULT_255_2_778
10
9.5250253
20
80.6186237
11
9.5250253
21
79.3348237
0
LINE
8
DEFAULT_255_2_778
10
29.3687253
20
10.9802237
11
18.8656253
21
10.9802237
0
LINE
8
DEFAULT_255_2_778
10
29.3687253
20
5.6886237
11
18.8656253
21
5.6886237
0
LINE
8
DEFAULT_255_2_778
10
29.3687253
20
22.8865237
11
18.8656253
21
22.8865237
0
LINE
8
DEFAULT_255_2_778
10
29.3687253
20
16.9333237
11
18.8656253
21
16.9333237
0
LINE
8
DEFAULT_255_2_778
10
29.3687253
20
28.1781237
11
18.8656253
21
28.1781237
0
LINE
8
DEFAULT_255_2_778
10
29.3687253
20
44.0531237
11
18.8656253
21
44.0531237
0
LINE
8
DEFAULT_255_2_778
10
29.3687253
20
38.7615237
11
18.8656253
21
38.7615237
0
LINE
8
DEFAULT_255_2_778
10
29.3687253
20
54.6365237
11
18.8656253
21
54.6365237
0
LINE
8
DEFAULT_255_2_778
10
29.3687253
20
49.3448237
11
18.8656253
21
49.3448237
0
LINE
8
DEFAULT_255_2_778
10
29.3687253
20
65.8813237
11
18.7854253
21
65.8813237
0
LINE
8
DEFAULT_255_2_778
10
29.3687253
20
59.9281237
11
18.8656253
21
59.9281237
0
LINE
8
DEFAULT_255_2_778
10
29.3687253
20
75.8031237
11
18.7854253
21
75.8031237
0
LINE
8
DEFAULT_255_2_778
10
29.3687253
20
70.5115237
11
18.8256253
21
70.5115237
0
LINE
8
DEFAULT_255_2_778
10
29.3687253
20
86.3865237
11
18.8656253
21
86.3865237
0
LINE
8
DEFAULT_255_2_778
10
29.3687253
20
81.0948237
11
18.8656253
21
81.0948237
0
LINE
8
DEFAULT_255_2_778
10
29.3687253
20
91.6781237
11
18.8656253
21
91.6781237
0
LINE
8
DEFAULT_255_2_778
10
29.3560253
20
96.9698237
11
18.8529253
21
96.9698237
0
LINE
8
DEFAULT_255_2_778
10
29.3687253
20
33.4698237
11
18.8656253
21
33.4698237
0
ARC
8
DEFAULT_255_2_778
10
0.2393544
20
109.2282255
40
3.375552
50
319.9861958
51
323.8069704
0
ARC
8
DEFAULT_255_2_778
10
1.7246397
20
108.148254
40
1.5391574
50
323.6022165
51
330.2160572
0
ARC
8
DEFAULT_255_2_778
10
2.3259099
20
107.7957137
40
0.8422263
50
330.7128072
51
333.2279521
0
ARC
8
DEFAULT_255_2_778
10
2.5204387
20
107.7034616
40
0.6270178
50
332.7472324
51
359.8517818
0
ARC
8
DEFAULT_255_2_778
10
2.6606954
20
107.7168564
40
0.4869906
50
358.2329479
51
33.1206116
0
ARC
8
DEFAULT_255_2_778
10
2.7160529
20
107.7423486
40
0.4267912
50
34.3151312
51
41.7317198
0
ARC
8
DEFAULT_255_2_778
10
2.7490344
20
107.7694141
40
0.3841664
50
41.993581
51
92.4138438
0
ARC
8
DEFAULT_255_2_778
10
2.7194855
20
107.6306052
40
0.5228053
50
88.5347051
51
115.463167
0
ARC
8
DEFAULT_255_2_778
10
2.6710374
20
107.7522029
40
0.392283
50
116.7101058
51
137.5566065
0
ARC
8
DEFAULT_255_2_778
10
2.7419857
20
107.6981899
40
0.481157
50
138.5118606
51
173.5247284
0
ARC
8
DEFAULT_255_2_778
10
3.0575496
20
107.6405544
40
0.8015009
50
171.9747102
51
180.2155162
0
ARC
8
DEFAULT_255_2_778
10
2.8328014
20
107.6513268
40
0.8797551
50
158.7176424
51
180.897961
0
ARC
8
DEFAULT_255_2_778
10
2.6648461
20
107.7072169
40
0.7030239
50
135.2748316
51
157.9936434
0
ARC
8
DEFAULT_255_2_778
10
2.6759017
20
107.6912363
40
0.7221331
50
95.0313754
51
134.9912522
0
ARC
8
DEFAULT_255_2_778
10
2.7311323
20
107.3577099
40
1.0595317
50
89.8906528
51
96.4249098
0
ARC
8
DEFAULT_255_2_778
10
2.746414
20
107.519003
40
0.8983344
50
71.8106565
51
90.84573
0
ARC
8
DEFAULT_255_2_778
10
2.8267404
20
107.7780014
40
0.62722
50
46.4162917
51
71.3962871
0
ARC
8
DEFAULT_255_2_778
10
2.8209706
20
107.7799546
40
0.6298073
50
2.3662038
51
45.9135679
0
ARC
8
DEFAULT_255_2_778
10
2.5376055
20
107.740928
40
0.9149491
50
359.9568881
51
4.0756711
0
ARC
8
DEFAULT_255_2_778
10
2.654369
20
107.753166
40
0.79829
50
338.9723035
51
359.0721902
0
ARC
8
DEFAULT_255_2_778
10
2.0566168
20
107.9723582
40
1.4349208
50
328.0819594
51
339.3671869
0
ARC
8
DEFAULT_255_2_778
10
1.1803289
20
108.5089927
40
2.4624527
50
320.9343047
51
328.2634508
0
ARC
8
DEFAULT_255_2_778
10
0.385032
20
109.1343283
40
3.4740689
50
318.914839
51
321.1928979
0
ARC
8
DEFAULT_255_2_778
10
14.2049837
20
106.7760119
40
1.205257
50
338.5957751
51
354.3350402
0
ARC
8
DEFAULT_255_2_778
10
14.5662687
20
106.6346943
40
0.8173171
50
313.1225033
51
338.5762494
0
ARC
8
DEFAULT_255_2_778
10
14.5788481
20
106.639604
40
0.8123987
50
277.8969967
51
312.2382257
0
ARC
8
DEFAULT_255_2_778
10
14.5042092
20
107.0257117
40
1.2052806
50
269.7834767
51
278.8897527
0
ARC
8
DEFAULT_255_2_778
10
14.4846839
20
106.6899209
40
0.8696102
50
243.5866773
51
270.9864075
0
ARC
8
DEFAULT_255_2_778
10
14.4858575
20
106.6554718
40
0.8394391
50
217.7424983
51
242.4688967
0
ARC
8
DEFAULT_255_2_778
10
14.7068335
20
106.8298158
40
1.1209017
50
193.4993522
51
217.875577
0
ARC
8
DEFAULT_255_2_778
10
15.266477
20
106.9737608
40
1.698711
50
181.1862408
51
193.8139834
0
ARC
8
DEFAULT_255_2_778
10
15.7613356
20
107.0005816
40
2.1940813
50
179.9906522
51
181.6189578
0
ARC
8
DEFAULT_255_2_778
10
15.2638574
20
107.2573846
40
1.6966546
50
166.8980759
51
180.4472866
0
ARC
8
DEFAULT_255_2_778
10
14.8623107
20
107.3441275
40
1.2859144
50
156.1665231
51
166.6067069
0
ARC
8
DEFAULT_255_2_778
10
14.5683095
20
107.4880038
40
0.9589325
50
131.0589941
51
156.9317645
0
ARC
8
DEFAULT_255_2_778
10
14.4913342
20
107.5617923
40
0.8527871
50
123.3144921
51
130.4156661
0
ARC
8
DEFAULT_255_2_778
10
14.509549
20
107.519668
40
0.898028
50
88.9289238
51
122.809519
0
LINE
8
DEFAULT_255_2_778
10
14.5263355
20
108.417539
11
14.5274544
21
108.4175395
0
ARC
8
DEFAULT_255_2_778
10
14.5410239
20
107.4263662
40
0.9912662
50
71.2141929
51
90.7843507
0
ARC
8
DEFAULT_255_2_778
10
14.6136959
20
107.6598759
40
0.7468206
50
45.5102254
51
70.7234345
0
ARC
8
DEFAULT_255_2_778
10
14.5226288
20
107.578976
40
0.8683903
50
14.5059702
51
44.9644465
0
ARC
8
DEFAULT_255_2_778
10
14.1110501
20
107.4542792
40
1.2982025
50
5.1291378
51
15.2840505
0
ARC
8
DEFAULT_255_2_778
10
13.9585941
20
107.4297174
40
1.1379821
50
7.0982699
51
19.0445497
0
ARC
8
DEFAULT_255_2_778
10
14.5027538
20
107.6239473
40
0.5602616
50
18.4270828
51
41.5603644
0
ARC
8
DEFAULT_255_2_778
10
14.6245808
20
107.7195895
40
0.4057596
50
42.8674941
51
45.2872006
0
ARC
8
DEFAULT_255_2_778
10
14.5822897
20
107.6648449
40
0.4744931
50
46.3090493
51
84.2563252
0
ARC
8
DEFAULT_255_2_778
10
14.5298209
20
107.3701926
40
0.7732507
50
82.5728092
51
90.1753515
0
ARC
8
DEFAULT_255_2_778
10
14.507451
20
107.5919129
40
0.5518893
50
87.9228365
51
145.1296818
0
ARC
8
DEFAULT_255_2_778
10
14.7289544
20
107.4334063
40
0.82425
50
144.8927584
51
166.0625123
0
ARC
8
DEFAULT_255_2_778
10
15.3049216
20
107.2807438
40
1.4200622
50
165.6816826
51
177.4197036
0
ARC
8
DEFAULT_255_2_778
10
15.9132248
20
107.2372358
40
2.029771
50
176.9658413
51
180.0450572
0
ARC
8
DEFAULT_255_2_778
10
15.5120836
20
106.9787143
40
1.6286751
50
179.5699176
51
190.4114039
0
ARC
8
DEFAULT_255_2_778
10
14.874565
20
106.8561348
40
0.9795156
50
190.0983326
51
208.8904283
0
ARC
8
DEFAULT_255_2_778
10
14.6843454
20
106.7621883
40
0.7676414
50
209.6105326
51
213.6934715
0
ARC
8
DEFAULT_255_2_778
10
14.4836522
20
106.6086253
40
0.515734
50
211.8675629
51
271.7780586
0
ARC
8
DEFAULT_255_2_778
10
14.5121754
20
106.8685836
40
0.7755451
50
269.0749316
51
286.4123562
0
ARC
8
DEFAULT_255_2_778
10
14.6018422
20
106.5594393
40
0.4536643
50
286.5809756
51
311.3997768
0
ARC
8
DEFAULT_255_2_778
10
14.5707412
20
106.5688266
40
0.4815776
50
313.4372183
51
338.8573703
0
ARC
8
DEFAULT_255_2_778
10
14.0669278
20
106.7782397
40
1.0271005
50
338.0989317
51
350.6051174
0
ARC
8
DEFAULT_255_2_778
10
13.5490491
20
106.8825677
40
1.5551719
50
349.9275293
51
351.6802869
0
ARC
8
DEFAULT_255_2_778
10
16.5894563
20
107.7124485
40
0.6124846
50
327.7855821
51
0.9627397
0
ARC
8
DEFAULT_255_2_778
10
16.557007
20
107.7372942
40
0.6531942
50
296.9314449
51
327.4590444
0
ARC
8
DEFAULT_255_2_778
10
16.5724352
20
106.5203769
40
0.6937613
50
33.8423776
51
66.1589116
0
ARC
8
DEFAULT_255_2_778
10
16.607453
20
106.5460759
40
0.650367
50
359.1862733
51
33.6800028
0
ARC
8
DEFAULT_255_2_778
10
16.4836886
20
106.5229543
40
0.7741904
50
337.1248924
51
1.0276657
0
ARC
8
DEFAULT_255_2_778
10
16.6247613
20
106.4739403
40
0.6252345
50
312.6855715
51
336.237881
0
ARC
8
DEFAULT_255_2_778
10
16.5582294
20
106.5514661
40
0.7273387
50
275.8106774
51
312.3977371
0
ARC
8
DEFAULT_255_2_778
10
16.5013204
20
106.8852941
40
1.0654574
50
269.8673882
51
277.0378926
0
ARC
8
DEFAULT_255_2_778
10
16.4856042
20
106.7439472
40
0.9242026
50
251.2745768
51
270.8214739
0
ARC
8
DEFAULT_255_2_778
10
16.4118608
20
106.508428
40
0.6775004
50
226.7273994
51
250.7866514
0
ARC
8
DEFAULT_255_2_778
10
16.404037
20
106.4940515
40
0.6616829
50
182.5552497
51
226.3673335
0
ARC
8
DEFAULT_255_2_778
10
16.7032601
20
106.5360473
40
0.9629059
50
179.9528604
51
184.258115
0
ARC
8
DEFAULT_255_2_778
10
16.4127588
20
106.5450565
40
0.6724546
50
147.4622677
51
180.700138
0
ARC
8
DEFAULT_255_2_778
10
16.4072727
20
106.5463445
40
0.6671395
50
113.7809704
51
147.3020979
0
ARC
8
DEFAULT_255_2_778
10
16.4289792
20
107.7242778
40
0.6375791
50
211.8594735
51
242.8718448
0
ARC
8
DEFAULT_255_2_778
10
16.4170613
20
107.7129456
40
0.6214841
50
179.0970422
51
211.55208
0
ARC
8
DEFAULT_255_2_778
10
16.5842545
20
107.7363615
40
0.7887177
50
158.6951438
51
180.9896032
0
ARC
8
DEFAULT_255_2_778
10
16.4068127
20
107.7969727
40
0.6014337
50
133.9956706
51
157.9329187
0
ARC
8
DEFAULT_255_2_778
10
16.4506436
20
107.7453123
40
0.6690572
50
94.0972368
51
133.6229859
0
ARC
8
DEFAULT_255_2_778
10
16.4972691
20
107.4417002
40
0.9755402
50
89.9186389
51
95.5547453
0
ARC
8
DEFAULT_255_2_778
10
16.5124317
20
107.6206366
40
0.7967221
50
67.7208815
51
90.9908313
0
ARC
8
DEFAULT_255_2_778
10
16.565673
20
107.7741822
40
0.6345172
50
45.8732496
51
66.9131131
0
ARC
8
DEFAULT_255_2_778
10
16.5602688
20
107.7744754
40
0.6380826
50
4.4507893
51
45.5065967
0
ARC
8
DEFAULT_255_2_778
10
16.2500072
20
107.7243719
40
0.9516487
50
359.9017234
51
6.0088478
0
ARC
8
DEFAULT_255_2_778
10
16.4551201
20
106.5593196
40
0.4995681
50
358.247249
51
33.7254626
0
ARC
8
DEFAULT_255_2_778
10
16.502729
20
106.5803175
40
0.4484027
50
34.8715812
51
43.5990985
0
ARC
8
DEFAULT_255_2_778
10
16.5127252
20
106.5867046
40
0.4367648
50
43.8966237
51
92.2268282
0
ARC
8
DEFAULT_255_2_778
10
16.4772485
20
106.5939656
40
0.4295727
50
87.5309461
51
136.2280657
0
ARC
8
DEFAULT_255_2_778
10
16.5173315
20
106.5729504
40
0.4732213
50
137.7482225
51
179.0984589
0
ARC
8
DEFAULT_255_2_778
10
16.7547647
20
106.5443342
40
0.7115105
50
177.0947968
51
180.0237281
0
ARC
8
DEFAULT_255_2_778
10
16.5782675
20
106.5306675
40
0.5351802
50
178.5682583
51
204.5501746
0
ARC
8
DEFAULT_255_2_778
10
16.4425053
20
106.4776178
40
0.3897349
50
205.7489871
51
224.3167346
0
ARC
8
DEFAULT_255_2_778
10
16.4591955
20
106.5051843
40
0.4210123
50
225.4141493
51
266.9808147
0
ARC
8
DEFAULT_255_2_778
10
16.4976854
20
106.7605327
40
0.6784939
50
264.8702774
51
270.0818273
0
ARC
8
DEFAULT_255_2_778
10
16.5122513
20
106.5871333
40
0.5052768
50
268.457993
51
296.315497
0
ARC
8
DEFAULT_255_2_778
10
16.5591616
20
106.4725561
40
0.3818779
50
297.6276681
51
315.7613686
0
ARC
8
DEFAULT_255_2_778
10
16.5124967
20
106.507457
40
0.4397241
50
316.7453405
51
357.5429091
0
ARC
8
DEFAULT_255_2_778
10
16.2611232
20
106.5429954
40
0.6928315
50
355.4974396
51
0.0615436
0
ARC
8
DEFAULT_255_2_778
10
16.4841292
20
107.7743636
40
0.3793618
50
87.7754566
51
136.3456258
0
ARC
8
DEFAULT_255_2_778
10
16.5218472
20
107.7537439
40
0.4210322
50
137.8588233
51
177.4205845
0
ARC
8
DEFAULT_255_2_778
10
16.7708392
20
107.7185211
40
0.6717853
50
175.3748031
51
180.0666602
0
ARC
8
DEFAULT_255_2_778
10
16.5693696
20
107.7033426
40
0.4705355
50
178.2466556
51
210.9057296
0
ARC
8
DEFAULT_255_2_778
10
16.4961385
20
107.6701898
40
0.3907815
50
212.2500305
51
222.5282618
0
ARC
8
DEFAULT_255_2_778
10
16.4825224
20
107.6623426
40
0.3754584
50
223.0503081
51
272.4930932
0
ARC
8
DEFAULT_255_2_778
10
16.5152325
20
107.6624609
40
0.3755787
50
267.5006809
51
316.942118
0
ARC
8
DEFAULT_255_2_778
10
16.4656474
20
107.6924838
40
0.4324706
50
318.5211309
51
359.8006809
0
ARC
8
DEFAULT_255_2_778
10
16.2426452
20
107.7175672
40
0.6560094
50
357.6771812
51
0.0150521
0
ARC
8
DEFAULT_255_2_778
10
16.444075
20
107.7332746
40
0.4548448
50
358.0427081
51
35.9814668
0
ARC
8
DEFAULT_255_2_778
10
16.4846305
20
107.752321
40
0.4109232
50
37.1548435
51
42.8989643
0
ARC
8
DEFAULT_255_2_778
10
16.5094519
20
107.7790017
40
0.3745878
50
42.4937779
51
91.6211679
0
LINE
8
DEFAULT_255_2_778
10
3.5623544
20
106.1169395
11
3.5623544
21
105.8547395
0
LINE
8
DEFAULT_255_2_778
10
3.5623544
20
105.8547395
11
1.9989544
21
105.8547395
0
LINE
8
DEFAULT_255_2_778
10
1.9989544
20
105.8547395
11
1.9989544
21
106.0857395
0
LINE
8
DEFAULT_255_2_778
10
1.9989544
20
106.0857395
11
2.8246544
21
107.0578395
0
LINE
8
DEFAULT_255_2_778
10
2.2560544
20
107.6375395
11
1.9531544
21
107.6375395
0
LINE
8
DEFAULT_255_2_778
10
3.0035544
20
106.8512395
11
2.3645544
21
106.1167395
0
LINE
8
DEFAULT_255_2_778
10
2.3645544
20
106.1167395
11
3.5623544
21
106.1167395
0
LINE
8
DEFAULT_255_2_778
10
3.5623544
20
106.1167395
11
3.5623544
21
106.1169395
0
LINE
8
DEFAULT_255_2_778
10
3.9621544
20
108.3826395
11
4.3685544
21
108.3826395
0
LINE
8
DEFAULT_255_2_778
10
4.3685544
20
108.3826395
11
5.1485544
21
106.3201395
0
LINE
8
DEFAULT_255_2_778
10
5.1485544
20
106.3201395
11
5.9285544
21
108.3826395
0
LINE
8
DEFAULT_255_2_778
10
5.9285544
20
108.3826395
11
6.3365544
21
108.3826395
0
LINE
8
DEFAULT_255_2_778
10
6.3365544
20
108.3826395
11
6.3365544
21
105.8547395
0
LINE
8
DEFAULT_255_2_778
10
6.3365544
20
105.8547395
11
6.0219544
21
105.8547395
0
LINE
8
DEFAULT_255_2_778
10
6.0219544
20
105.8547395
11
6.0219544
21
106.8390395
0
LINE
8
DEFAULT_255_2_778
10
6.0219544
20
106.8390395
11
6.0512544
21
107.9016395
0
LINE
8
DEFAULT_255_2_778
10
6.0512544
20
107.9016395
11
5.2681544
21
105.8547395
0
LINE
8
DEFAULT_255_2_778
10
5.2681544
20
105.8547395
11
5.0273544
21
105.8547395
0
LINE
8
DEFAULT_255_2_778
10
5.0273544
20
105.8547395
11
4.2457544
21
107.8963395
0
LINE
8
DEFAULT_255_2_778
10
4.2457544
20
107.8963395
11
4.2769544
21
106.8390395
0
LINE
8
DEFAULT_255_2_778
10
4.2769544
20
106.8390395
11
4.2769544
21
105.8547395
0
LINE
8
DEFAULT_255_2_778
10
4.2769544
20
105.8547395
11
3.9623544
21
105.8547395
0
LINE
8
DEFAULT_255_2_778
10
3.9623544
20
105.8547395
11
3.9623544
21
108.3826395
0
LINE
8
DEFAULT_255_2_778
10
3.9623544
20
108.3826395
11
3.9621544
21
108.3826395
0
LINE
8
DEFAULT_255_2_778
10
7.2080544
20
108.3826395
11
7.2080544
21
106.1275395
0
LINE
8
DEFAULT_255_2_778
10
7.2080544
20
106.1275395
11
8.3386544
21
106.1275395
0
LINE
8
DEFAULT_255_2_778
10
8.3386544
20
106.1275395
11
8.3386544
21
105.8550395
0
LINE
8
DEFAULT_255_2_778
10
8.3386544
20
105.8550395
11
6.8915544
21
105.8550395
0
LINE
8
DEFAULT_255_2_778
10
6.8915544
20
105.8550395
11
6.8915544
21
108.3826395
0
LINE
8
DEFAULT_255_2_778
10
6.8915544
20
108.3826395
11
7.2077544
21
108.3826395
0
LINE
8
DEFAULT_255_2_778
10
7.2077544
20
108.3826395
11
7.2080544
21
108.3826395
0
LINE
8
DEFAULT_255_2_778
10
10.0134544
20
107.2438395
11
10.0134544
21
106.9713395
0
LINE
8
DEFAULT_255_2_778
10
10.0134544
20
106.9713395
11
9.0122544
21
106.9713395
0
LINE
8
DEFAULT_255_2_778
10
9.0122544
20
106.9713395
11
9.0122544
21
105.8550395
0
LINE
8
DEFAULT_255_2_778
10
9.0122544
20
105.8550395
11
8.6976544
21
105.8550395
0
LINE
8
DEFAULT_255_2_778
10
8.6976544
20
105.8550395
11
8.6976544
21
108.3826395
0
LINE
8
DEFAULT_255_2_778
10
8.6976544
20
108.3826395
11
10.1756544
21
108.3826395
0
LINE
8
DEFAULT_255_2_778
10
10.1756544
20
108.3826395
11
10.1756544
21
108.1082395
0
LINE
8
DEFAULT_255_2_778
10
10.1756544
20
108.1082395
11
9.0122544
21
108.1082395
0
LINE
8
DEFAULT_255_2_778
10
9.0122544
20
108.1082395
11
9.0122544
21
107.2435395
0
LINE
8
DEFAULT_255_2_778
10
9.0122544
20
107.2435395
11
10.0134544
21
107.2435395
0
LINE
8
DEFAULT_255_2_778
10
10.0134544
20
107.2435395
11
10.0134544
21
107.2438395
0
LINE
8
DEFAULT_255_2_778
10
11.1357544
20
107.0597395
11
11.1357544
21
106.7975395
0
LINE
8
DEFAULT_255_2_778
10
11.1357544
20
106.7975395
11
10.3362544
21
106.7975395
0
LINE
8
DEFAULT_255_2_778
10
10.3362544
20
106.7975395
11
10.3362544
21
107.0597395
0
LINE
8
DEFAULT_255_2_778
10
10.3362544
20
107.0597395
11
11.1357544
21
107.0597395
0
LINE
8
DEFAULT_255_2_778
10
11.1357544
20
107.0597395
11
11.1357544
21
107.0597395
0
LINE
8
DEFAULT_255_2_778
10
13.0235544
20
105.8547395
11
12.7957544
21
106.5144395
0
LINE
8
DEFAULT_255_2_778
10
12.7957544
20
106.5144395
11
11.7961544
21
106.5144395
0
LINE
8
DEFAULT_255_2_778
10
11.7961544
20
106.5144395
11
11.5718544
21
105.8547395
0
LINE
8
DEFAULT_255_2_778
10
11.5718544
20
105.8547395
11
11.2474544
21
105.8547395
0
LINE
8
DEFAULT_255_2_778
10
11.2474544
20
105.8547395
11
12.1583544
21
108.3826395
0
LINE
8
DEFAULT_255_2_778
10
12.1583544
20
108.3826395
11
12.4335544
21
108.3826395
0
LINE
8
DEFAULT_255_2_778
10
12.4335544
20
108.3826395
11
13.3463544
21
105.8547395
0
LINE
8
DEFAULT_255_2_778
10
13.3463544
20
105.8547395
11
13.0235544
21
105.8547395
0
LINE
8
DEFAULT_255_2_778
10
13.0235544
20
105.8547395
11
13.0235544
21
105.8547395
0
LINE
8
DEFAULT_255_2_778
10
12.2959544
20
107.9711395
11
11.8911544
21
106.7890395
0
LINE
8
DEFAULT_255_2_778
10
11.8911544
20
106.7890395
11
12.7023544
21
106.7890395
0
LINE
8
DEFAULT_255_2_778
10
12.7023544
20
106.7890395
11
12.2959544
21
107.9711395
0
LINE
8
DEFAULT_255_2_778
10
12.2959544
20
107.9711395
11
12.2959544
21
107.9711395
0
LINE
8
DEFAULT_255_2_778
10
15.0881544
20
106.6570395
11
15.4043544
21
106.6570395
0
LINE
8
DEFAULT_255_2_778
10
13.5672544
20
107.0009395
11
13.5672544
21
107.2441395
0
LINE
8
DEFAULT_255_2_778
10
15.4040544
20
107.5703395
11
15.0878544
21
107.5703395
0
LINE
8
DEFAULT_255_2_778
10
13.8834544
20
107.2356395
11
13.8834544
21
106.9909395
0
LINE
8
DEFAULT_255_2_778
10
15.0878544
20
106.6575395
11
15.0881544
21
106.6570395
0
LINE
8
DEFAULT_255_2_778
10
17.2016544
20
107.7227395
11
17.2018544
21
107.7227395
0
LINE
8
DEFAULT_255_2_778
10
16.9539544
20
106.5437395
11
16.9544544
21
106.5440395
0
LINE
8
DEFAULT_255_2_778
10
16.4988544
20
108.1534395
11
16.4988544
21
108.1534395
0
LINE
8
DEFAULT_255_2_778
10
19.2632544
20
105.8547395
11
19.0354544
21
106.5144395
0
LINE
8
DEFAULT_255_2_778
10
19.0354544
20
106.5144395
11
18.0358544
21
106.5144395
0
LINE
8
DEFAULT_255_2_778
10
18.0358544
20
106.5144395
11
17.8114544
21
105.8547395
0
LINE
8
DEFAULT_255_2_778
10
17.8114544
20
105.8547395
11
17.4871544
21
105.8547395
0
LINE
8
DEFAULT_255_2_778
10
17.4871544
20
105.8547395
11
18.3980544
21
108.3826395
0
LINE
8
DEFAULT_255_2_778
10
18.3980544
20
108.3826395
11
18.6732544
21
108.3826395
0
LINE
8
DEFAULT_255_2_778
10
18.6732544
20
108.3826395
11
19.5860544
21
105.8547395
0
LINE
8
DEFAULT_255_2_778
10
19.5860544
20
105.8547395
11
19.2632544
21
105.8547395
0
LINE
8
DEFAULT_255_2_778
10
19.2632544
20
105.8547395
11
19.2632544
21
105.8547395
0
LINE
8
DEFAULT_255_2_778
10
18.5356544
20
107.9711395
11
18.1308544
21
106.7890395
0
LINE
8
DEFAULT_255_2_778
10
18.1308544
20
106.7890395
11
18.9420544
21
106.7890395
0
LINE
8
DEFAULT_255_2_778
10
18.9420544
20
106.7890395
11
18.5356544
21
107.9711395
0
LINE
8
DEFAULT_255_2_778
10
18.5356544
20
107.9711395
11
18.5356544
21
107.9711395
0
ENDSEC
0
EOF