0
SECTION
2
HEADER
9
$MEASUREMENT
70
1
0
ENDSEC
0
SECTION
2
TABLES
0
TABLE
2
LTYPE
0
LTYPE
72
65
70
64
2
CONTINUOUS
3
______
73
0
40
0
0
ENDTAB
0
TABLE
2
LAYER
0
LAYER
2
DEFAULT_255_2_778
70
0
62
255
6
CONTINUOUS
0
LAYER
2
DEFAULT_255_1_388
70
0
62
255
6
CONTINUOUS
0
LAYER
2
DEFAULT_255_2_778_1
70
0
62
255
6
CONTINUOUS
0
ENDTAB
0
ENDSEC
0
SECTION
2
ENTITIES
0
ARC
8
DEFAULT_255_2_778
10
3.5700693
20
75.805203
40
0.7914215
50
129.1312896
51
180.1450914
0
ARC
8
DEFAULT_255_2_778
10
3.5703345
20
75.8056901
40
0.7912112
50
89.854026
51
129.1684493
0
ARC
8
DEFAULT_255_2_778
10
25.7993937
20
75.8053767
40
0.7915249
50
39.4792447
51
90.147911
0
ARC
8
DEFAULT_255_2_778
10
25.7999935
20
75.8052233
40
0.7911595
50
359.8533901
51
39.5154338
0
ARC
8
DEFAULT_255_2_778
10
25.7996693
20
-1.9863492
40
0.7914836
50
309.4761667
51
0.1482649
0
ARC
8
DEFAULT_255_2_778
10
25.799398
20
-1.9867803
40
0.7913235
50
269.8517415
51
309.511178
0
ARC
8
DEFAULT_255_2_778
10
3.570342
20
-1.9867221
40
0.7913815
50
219.1282118
51
270.1454017
0
ARC
8
DEFAULT_255_2_778
10
3.5700247
20
-1.9863397
40
0.7913769
50
179.8524075
51
219.1641908
0
LINE
8
DEFAULT_255_2_778
10
3.5723503
20
76.5968989
11
25.7973503
21
76.5968989
0
LINE
8
DEFAULT_255_2_778
10
26.5911503
20
75.8031989
11
26.5911503
21
-1.9843011
0
LINE
8
DEFAULT_255_2_778
10
25.7973503
20
-2.7781011
11
3.5723503
21
-2.7781011
0
LINE
8
DEFAULT_255_2_778
10
2.7786503
20
-1.9843011
11
2.7786503
21
75.8031989
0
LINE
8
DEFAULT_255_1_388
10
10.2591318
20
-0.5033618
11
10.2591318
21
-0.6398
0
LINE
8
DEFAULT_255_1_388
10
10.2591318
20
-0.6398
11
9.3971313
21
-0.6398
0
LINE
8
DEFAULT_255_1_388
10
9.3971313
20
-0.6398
11
9.3971313
21
-0.5196259
0
LINE
8
DEFAULT_255_1_388
10
9.3971313
20
-0.5196259
11
9.8525278
21
-0.0136298
0
LINE
8
DEFAULT_255_1_388
10
9.5389909
20
0.2881607
11
9.3718315
21
0.2881607
0
LINE
8
DEFAULT_255_1_388
10
9.9510163
20
-0.121154
11
9.5986262
21
-0.5033618
0
LINE
8
DEFAULT_255_1_388
10
9.5986262
20
-0.5033618
11
10.2591318
21
-0.5033618
0
ARC
8
DEFAULT_255_1_388
10
8.3349337
20
1.3283983
40
2.0258655
50
318.5132526
51
320.7829045
0
ARC
8
DEFAULT_255_1_388
10
8.9297294
20
0.8442929
40
1.2589638
50
320.7372878
51
323.9739031
0
ARC
8
DEFAULT_255_1_388
10
9.3706226
20
0.5248554
40
0.7145141
50
323.8962701
51
328.64194
0
ARC
8
DEFAULT_255_1_388
10
9.6008484
20
0.3828545
40
0.4440242
50
328.8294576
51
331.7891185
0
ARC
8
DEFAULT_255_1_388
10
9.7130804
20
0.3249374
40
0.3177517
50
331.4254512
51
352.9365785
0
ARC
8
DEFAULT_255_1_388
10
9.7283804
20
0.321505
40
0.3021496
50
353.2257659
51
0.0166158
0
ARC
8
DEFAULT_255_1_388
10
9.7520564
20
0.3240894
40
0.2784847
50
359.486299
51
15.9343185
0
ARC
8
DEFAULT_255_1_388
10
9.8090831
20
0.3394269
40
0.2194403
50
16.1712913
51
43.5286088
0
ARC
8
DEFAULT_255_1_388
10
9.8177776
20
0.3481191
40
0.2071504
50
43.4417391
51
83.1661095
0
ARC
8
DEFAULT_255_1_388
10
9.8026937
20
0.2652316
40
0.2912888
50
82.160179
51
90.1505708
0
ARC
8
DEFAULT_255_1_388
10
9.7991418
20
0.2048279
40
0.3517025
50
89.5460741
51
102.5418361
0
ARC
8
DEFAULT_255_1_388
10
9.7718138
20
0.3207933
40
0.2325748
50
102.1738499
51
129.206123
0
ARC
8
DEFAULT_255_1_388
10
9.7629592
20
0.3347664
40
0.2161591
50
129.72865
51
135.753947
0
ARC
8
DEFAULT_255_1_388
10
9.7766074
20
0.3238728
40
0.2335433
50
136.1757367
51
166.3673339
0
ARC
8
DEFAULT_255_1_388
10
9.8898762
20
0.2935148
40
0.3507873
50
165.9090694
51
178.8684636
0
ARC
8
DEFAULT_255_1_388
10
9.9874534
20
0.2882263
40
0.4484624
50
178.4391136
51
180.0083808
0
ARC
8
DEFAULT_255_1_388
10
9.8295235
20
0.2926197
40
0.4577138
50
163.2878482
51
180.5581842
0
ARC
8
DEFAULT_255_1_388
10
9.7393276
20
0.3174393
40
0.3641968
50
133.4540601
51
162.947111
0
ARC
8
DEFAULT_255_1_388
10
9.7594158
20
0.2960789
40
0.3935189
50
100.7869829
51
133.4382499
0
ARC
8
DEFAULT_255_1_388
10
9.7985403
20
0.1218399
40
0.5720313
50
89.660664
51
101.3702276
0
ARC
8
DEFAULT_255_1_388
10
9.8060012
20
0.1287263
40
0.5651495
50
78.2172678
51
90.412935
0
ARC
8
DEFAULT_255_1_388
10
9.8459478
20
0.3114511
40
0.378122
50
55.9269121
51
78.4888449
0
ARC
8
DEFAULT_255_1_388
10
9.8680193
20
0.3495187
40
0.3342379
50
47.929771
51
55.4049217
0
ARC
8
DEFAULT_255_1_388
10
9.8794723
20
0.3611618
40
0.3179217
50
4.334829
51
48.0560205
0
ARC
8
DEFAULT_255_1_388
10
9.7562525
20
0.3420487
40
0.442341
50
359.9251713
51
5.5971671
0
ARC
8
DEFAULT_255_1_388
10
9.804468
20
0.3483728
40
0.3941854
50
337.8914027
51
358.9967534
0
ARC
8
DEFAULT_255_1_388
10
9.499225
20
0.4661295
40
0.7213271
50
326.9132501
51
338.3508308
0
ARC
8
DEFAULT_255_1_388
10
9.0508362
20
0.7535105
40
1.2538973
50
319.6471833
51
327.0959558
0
ARC
8
DEFAULT_255_1_388
10
8.619502
20
1.109305
40
1.8129975
50
317.2588228
51
319.9045804
0
LINE
8
DEFAULT_255_1_388
10
10.4796015
20
0.6757898
11
10.7036855
21
0.6757898
0
LINE
8
DEFAULT_255_1_388
10
10.7036855
20
0.6757898
11
11.1337822
21
-0.3976447
0
LINE
8
DEFAULT_255_1_388
10
11.1337822
20
-0.3976447
11
11.5638789
21
0.6757898
0
LINE
8
DEFAULT_255_1_388
10
11.5638789
20
0.6757898
11
11.7888664
21
0.6757898
0
LINE
8
DEFAULT_255_1_388
10
11.7888664
20
0.6757898
11
11.7888664
21
-0.6398
0
LINE
8
DEFAULT_255_1_388
10
11.7888664
20
-0.6398
11
11.615382
21
-0.6398
0
LINE
8
DEFAULT_255_1_388
10
11.615382
20
-0.6398
11
11.615382
21
-0.127479
0
LINE
8
DEFAULT_255_1_388
10
11.615382
20
-0.127479
11
11.6316462
21
0.4255025
0
LINE
8
DEFAULT_255_1_388
10
11.6316462
20
0.4255025
11
11.1997424
21
-0.6398
0
LINE
8
DEFAULT_255_1_388
10
11.1997424
20
-0.6398
11
11.0669184
21
-0.6398
0
LINE
8
DEFAULT_255_1_388
10
11.0669184
20
-0.6398
11
10.6359182
21
0.4227918
0
LINE
8
DEFAULT_255_1_388
10
10.6359182
20
0.4227918
11
10.6530859
21
-0.127479
0
LINE
8
DEFAULT_255_1_388
10
10.6530859
20
-0.127479
11
10.6530859
21
-0.6398
0
LINE
8
DEFAULT_255_1_388
10
10.6530859
20
-0.6398
11
10.4796015
21
-0.6398
0
LINE
8
DEFAULT_255_1_388
10
10.4796015
20
-0.6398
11
10.4796015
21
0.6757898
0
LINE
8
DEFAULT_255_1_388
10
12.2695627
20
0.6757898
11
12.2695627
21
-0.4979404
0
LINE
8
DEFAULT_255_1_388
10
12.2695627
20
-0.4979404
11
12.8930222
21
-0.4979404
0
LINE
8
DEFAULT_255_1_388
10
12.8930222
20
-0.4979404
11
12.8930222
21
-0.6398
0
LINE
8
DEFAULT_255_1_388
10
12.8930222
20
-0.6398
11
12.0951748
21
-0.6398
0
LINE
8
DEFAULT_255_1_388
10
12.0951748
20
-0.6398
11
12.0951748
21
0.6757898
0
LINE
8
DEFAULT_255_1_388
10
12.0951748
20
0.6757898
11
12.2695627
21
0.6757898
0
LINE
8
DEFAULT_255_1_388
10
13.816465
20
0.0830516
11
13.816465
21
-0.0588081
0
LINE
8
DEFAULT_255_1_388
10
13.816465
20
-0.0588081
11
13.2643872
21
-0.0588081
0
LINE
8
DEFAULT_255_1_388
10
13.2643872
20
-0.0588081
11
13.2643872
21
-0.6398
0
LINE
8
DEFAULT_255_1_388
10
13.2643872
20
-0.6398
11
13.0909028
21
-0.6398
0
LINE
8
DEFAULT_255_1_388
10
13.0909028
20
-0.6398
11
13.0909028
21
0.6757898
0
LINE
8
DEFAULT_255_1_388
10
13.0909028
20
0.6757898
11
13.9059179
21
0.6757898
0
LINE
8
DEFAULT_255_1_388
10
13.9059179
20
0.6757898
11
13.9059179
21
0.5330267
0
LINE
8
DEFAULT_255_1_388
10
13.9059179
20
0.5330267
11
13.2643872
21
0.5330267
0
LINE
8
DEFAULT_255_1_388
10
13.2643872
20
0.5330267
11
13.2643872
21
0.0830516
0
LINE
8
DEFAULT_255_1_388
10
13.2643872
20
0.0830516
11
13.816465
21
0.0830516
0
LINE
8
DEFAULT_255_1_388
10
14.4354067
20
-0.0127263
11
14.4354067
21
-0.1491645
0
LINE
8
DEFAULT_255_1_388
10
14.4354067
20
-0.1491645
11
13.9944672
21
-0.1491645
0
LINE
8
DEFAULT_255_1_388
10
13.9944672
20
-0.1491645
11
13.9944672
21
-0.0127263
0
LINE
8
DEFAULT_255_1_388
10
13.9944672
20
-0.0127263
11
14.4354067
21
-0.0127263
0
LINE
8
DEFAULT_255_1_388
10
15.4763129
20
-0.6398
11
15.3507175
21
-0.2964455
0
LINE
8
DEFAULT_255_1_388
10
15.3507175
20
-0.2964455
11
14.7995432
21
-0.2964455
0
LINE
8
DEFAULT_255_1_388
10
14.7995432
20
-0.2964455
11
14.6757548
21
-0.6398
0
LINE
8
DEFAULT_255_1_388
10
14.6757548
20
-0.6398
11
14.4968491
21
-0.6398
0
LINE
8
DEFAULT_255_1_388
10
14.4968491
20
-0.6398
11
14.9992309
21
0.6757898
0
LINE
8
DEFAULT_255_1_388
10
14.9992309
20
0.6757898
11
15.1510297
21
0.6757898
0
LINE
8
DEFAULT_255_1_388
10
15.1510297
20
0.6757898
11
15.6543151
21
-0.6398
0
LINE
8
DEFAULT_255_1_388
10
15.6543151
20
-0.6398
11
15.4763129
21
-0.6398
0
LINE
8
DEFAULT_255_1_388
10
15.0751303
20
0.4616451
11
14.8519499
21
-0.1536823
0
LINE
8
DEFAULT_255_1_388
10
14.8519499
20
-0.1536823
11
15.2992143
21
-0.1536823
0
LINE
8
DEFAULT_255_1_388
10
15.2992143
20
-0.1536823
11
15.0751303
21
0.4616451
0
LINE
8
DEFAULT_255_1_388
10
15.814246
20
0.6757898
11
16.1883217
21
-0.4093911
0
LINE
8
DEFAULT_255_1_388
10
16.1883217
20
-0.4093911
11
16.5642045
21
0.6757898
0
LINE
8
DEFAULT_255_1_388
10
16.5642045
20
0.6757898
11
16.7539531
21
0.6757898
0
LINE
8
DEFAULT_255_1_388
10
16.7539531
20
0.6757898
11
16.2660283
21
-0.6398
0
LINE
8
DEFAULT_255_1_388
10
16.2660283
20
-0.6398
11
16.1124223
21
-0.6398
0
LINE
8
DEFAULT_255_1_388
10
16.1124223
20
-0.6398
11
15.6254011
21
0.6757898
0
LINE
8
DEFAULT_255_1_388
10
15.6254011
20
0.6757898
11
15.814246
21
0.6757898
0
ARC
8
DEFAULT_255_1_388
10
17.3671276
20
0.329572
40
0.3175098
50
338.8762533
51
0.5167111
0
ARC
8
DEFAULT_255_1_388
10
17.386087
20
0.32446
40
0.2979894
50
325.8415285
51
338.4793574
0
ARC
8
DEFAULT_255_1_388
10
17.3421503
20
0.3549242
40
0.351452
50
296.7587686
51
325.7536481
0
ARC
8
DEFAULT_255_1_388
10
17.3093131
20
0.4103363
40
0.4157374
50
296.0927901
51
297.3613472
0
ARC
8
DEFAULT_255_1_388
10
17.3387326
20
-0.3279407
40
0.395855
50
47.9007294
51
67.1948823
0
ARC
8
DEFAULT_255_1_388
10
17.3607968
20
-0.3002401
40
0.360516
50
35.2363914
51
47.551141
0
ARC
8
DEFAULT_255_1_388
10
17.3902372
20
-0.2805907
40
0.3251343
50
359.2759765
51
35.4014143
0
ARC
8
DEFAULT_255_1_388
10
17.3064299
20
-0.2888213
40
0.4089365
50
343.1293083
51
0.5775513
0
ARC
8
DEFAULT_255_1_388
10
17.3879412
20
-0.3112664
40
0.3244269
50
310.8496669
51
342.7449331
0
ARC
8
DEFAULT_255_1_388
10
17.3409287
20
-0.2576087
40
0.3957651
50
281.5472888
51
310.9170406
0
ARC
8
DEFAULT_255_1_388
10
17.3008161
20
-0.0829186
40
0.5749654
50
269.619248
51
281.9789564
0
ARC
8
DEFAULT_255_1_388
10
17.2926939
20
-0.0828224
40
0.5750649
50
257.4585678
51
270.4285689
0
ARC
8
DEFAULT_255_1_388
10
17.2498459
20
-0.2632259
40
0.389671
50
228.7554326
51
257.8484789
0
ARC
8
DEFAULT_255_1_388
10
17.2149945
20
-0.3051772
40
0.335154
50
184.0104975
51
228.5071184
0
ARC
8
DEFAULT_255_1_388
10
17.3458337
20
-0.285257
40
0.4671891
50
179.9315832
51
185.3253753
0
ARC
8
DEFAULT_255_1_388
10
17.213485
20
-0.2810408
40
0.33486
50
145.6796023
51
180.6259786
0
ARC
8
DEFAULT_255_1_388
10
17.2318616
20
-0.2938729
40
0.3572723
50
115.5537685
51
145.6415986
0
ARC
8
DEFAULT_255_1_388
10
17.270166
20
-0.3624913
40
0.4357296
50
113.243307
51
116.2057839
0
ARC
8
DEFAULT_255_1_388
10
17.2530311
20
0.3572379
40
0.3549126
50
222.9549744
51
244.1370481
0
ARC
8
DEFAULT_255_1_388
10
17.2392955
20
0.3418378
40
0.3343711
50
213.3436887
51
222.6274467
0
ARC
8
DEFAULT_255_1_388
10
17.2177024
20
0.3271653
40
0.3082678
50
180.431584
51
213.271499
0
ARC
8
DEFAULT_255_1_388
10
17.2812023
20
0.3324296
40
0.3718363
50
179.9991191
51
181.1690594
0
ARC
8
DEFAULT_255_1_388
10
17.3284479
20
0.3363072
40
0.4190996
50
164.6186169
51
180.529336
0
ARC
8
DEFAULT_255_1_388
10
17.2274128
20
0.363478
40
0.3144772
50
132.2455553
51
164.5090724
0
ARC
8
DEFAULT_255_1_388
10
17.2597106
20
0.326907
40
0.3632644
50
100.7053914
51
132.1386381
0
ARC
8
DEFAULT_255_1_388
10
17.2940167
20
0.1719118
40
0.5219578
50
89.6730358
51
101.2451698
0
ARC
8
DEFAULT_255_1_388
10
17.3010158
20
0.1915648
40
0.5023124
50
76.287748
51
90.4586006
0
ARC
8
DEFAULT_255_1_388
10
17.335466
20
0.3290671
40
0.3605639
50
47.8240511
51
76.4266241
0
ARC
8
DEFAULT_255_1_388
10
17.3605045
20
0.3583599
40
0.3220463
50
6.9168387
51
47.6262497
0
ARC
8
DEFAULT_255_1_388
10
17.2270498
20
0.3337004
40
0.4575765
50
359.8415968
51
7.9697453
0
ARC
8
DEFAULT_255_1_388
10
17.2654767
20
-0.2783481
40
0.2827228
50
359.445363
51
16.9256873
0
ARC
8
DEFAULT_255_1_388
10
17.3182201
20
-0.2638219
40
0.2280396
50
17.2920767
51
45.4630727
0
ARC
8
DEFAULT_255_1_388
10
17.3121337
20
-0.2690676
40
0.2360485
50
45.30305
51
83.1920945
0
ARC
8
DEFAULT_255_1_388
10
17.2960081
20
-0.3592527
40
0.3275527
50
82.2612665
51
90.1434275
0
ARC
8
DEFAULT_255_1_388
10
17.2925358
20
-0.3330131
40
0.3013237
50
89.4956434
51
104.8580688
0
ARC
8
DEFAULT_255_1_388
10
17.2726547
20
-0.2576545
40
0.2233867
50
104.8856641
51
135.244616
0
ARC
8
DEFAULT_255_1_388
10
17.2782536
20
-0.2626648
40
0.2308906
50
135.3399546
51
172.1044062
0
ARC
8
DEFAULT_255_1_388
10
17.3690061
20
-0.2800333
40
0.3232034
50
171.2645637
51
180.186429
0
ARC
8
DEFAULT_255_1_388
10
17.3500065
20
-0.2836574
40
0.304213
50
179.5154935
51
193.6464289
0
ARC
8
DEFAULT_255_1_388
10
17.2581741
20
-0.3070527
40
0.209456
50
193.3540274
51
225.8258581
0
ARC
8
DEFAULT_255_1_388
10
17.2627613
20
-0.2990924
40
0.2183738
50
226.4180634
51
255.8552336
0
ARC
8
DEFAULT_255_1_388
10
17.291608
20
-0.1937479
40
0.3275812
50
255.4654104
51
268.7987425
0
ARC
8
DEFAULT_255_1_388
10
17.2969257
20
-0.0995455
40
0.4218877
50
268.3449238
51
270.0094605
0
ARC
8
DEFAULT_255_1_388
10
17.299549
20
-0.1763906
40
0.3450519
50
269.5759586
51
282.0820163
0
ARC
8
DEFAULT_255_1_388
10
17.3248526
20
-0.2882637
40
0.2303642
50
281.752014
51
306.6056188
0
ARC
8
DEFAULT_255_1_388
10
17.3359334
20
-0.3064198
40
0.2091906
50
307.1346085
51
314.027845
0
ARC
8
DEFAULT_255_1_388
10
17.3318846
20
-0.3034541
40
0.2141385
50
314.2552483
51
350.1694025
0
ARC
8
DEFAULT_255_1_388
10
17.2361083
20
-0.2826825
40
0.312082
50
349.4140529
51
0.2933014
0
ARC
8
DEFAULT_255_1_388
10
17.294636
20
0.2976924
40
0.2588377
50
89.477747
51
105.729729
0
ARC
8
DEFAULT_255_1_388
10
17.279328
20
0.3545367
40
0.1999733
50
105.9233417
51
135.1660906
0
ARC
8
DEFAULT_255_1_388
10
17.2816311
20
0.3529412
40
0.2027322
50
135.3052302
51
168.9883645
0
ARC
8
DEFAULT_255_1_388
10
17.3747328
20
0.3315996
40
0.2982129
50
168.3801673
51
180.3602268
0
ARC
8
DEFAULT_255_1_388
10
17.3490444
20
0.3273622
40
0.2725291
50
179.5033122
51
194.9125571
0
ARC
8
DEFAULT_255_1_388
10
17.2831851
20
0.3100427
40
0.204431
50
194.9720816
51
224.194444
0
ARC
8
DEFAULT_255_1_388
10
17.2800217
20
0.3074635
40
0.2003651
50
224.2962453
51
262.015664
0
ARC
8
DEFAULT_255_1_388
10
17.296022
20
0.3897315
40
0.2840925
50
261.1245923
51
270.1962896
0
ARC
8
DEFAULT_255_1_388
10
17.2993702
20
0.3686859
40
0.2630559
50
269.4827276
51
285.0987215
0
ARC
8
DEFAULT_255_1_388
10
17.3167138
20
0.3036175
40
0.1957162
50
285.1585357
51
315.9484501
0
ARC
8
DEFAULT_255_1_388
10
17.3067011
20
0.3128315
40
0.2093195
50
316.0413965
51
351.916092
0
ARC
8
DEFAULT_255_1_388
10
17.2242386
20
0.3287323
40
0.2932279
50
351.105835
51
0.1939062
0
ARC
8
DEFAULT_255_1_388
10
17.253802
20
0.3321224
40
0.2636739
50
359.4789618
51
16.0678224
0
ARC
8
DEFAULT_255_1_388
10
17.3073492
20
0.3465721
40
0.2082215
50
16.3252067
51
44.7913869
0
ARC
8
DEFAULT_255_1_388
10
17.3053554
20
0.346632
40
0.2095992
50
44.3957814
51
88.2499162
0
ARC
8
DEFAULT_255_1_388
10
17.2970888
20
0.2778006
40
0.2787189
50
86.9833854
51
90.0192215
0
LINE
8
DEFAULT_255_1_388
10
18.8213085
20
-0.6398
11
18.6957131
21
-0.2964455
0
LINE
8
DEFAULT_255_1_388
10
18.6957131
20
-0.2964455
11
18.1445388
21
-0.2964455
0
LINE
8
DEFAULT_255_1_388
10
18.1445388
20
-0.2964455
11
18.0207504
21
-0.6398
0
LINE
8
DEFAULT_255_1_388
10
18.0207504
20
-0.6398
11
17.8418447
21
-0.6398
0
LINE
8
DEFAULT_255_1_388
10
17.8418447
20
-0.6398
11
18.3442265
21
0.6757898
0
LINE
8
DEFAULT_255_1_388
10
18.3442265
20
0.6757898
11
18.4960253
21
0.6757898
0
LINE
8
DEFAULT_255_1_388
10
18.4960253
20
0.6757898
11
18.9993107
21
-0.6398
0
LINE
8
DEFAULT_255_1_388
10
18.9993107
20
-0.6398
11
18.8213085
21
-0.6398
0
LINE
8
DEFAULT_255_1_388
10
18.4201259
20
0.4616451
11
18.1969455
21
-0.1536823
0
LINE
8
DEFAULT_255_1_388
10
18.1969455
20
-0.1536823
11
18.6442099
21
-0.1536823
0
LINE
8
DEFAULT_255_1_388
10
18.6442099
20
-0.1536823
11
18.4201259
21
0.4616451
0
ARC
8
DEFAULT_255_2_778
10
12.6050348
20
74.1038041
40
0.3813723
50
156.9728279
51
180.9672924
0
ARC
8
DEFAULT_255_2_778
10
12.4650905
20
74.1664556
40
0.2280903
50
120.6143155
51
157.7057572
0
ARC
8
DEFAULT_255_2_778
10
12.423185
20
74.2283889
40
0.1535155
50
105.6024085
51
118.9253865
0
ARC
8
DEFAULT_255_2_778
10
12.4163051
20
74.253158
40
0.1278087
50
90.2188612
51
105.6183161
0
ARC
8
DEFAULT_255_2_778
10
12.4186564
20
74.0860412
40
0.2949385
50
82.1187511
51
90.5516271
0
ARC
8
DEFAULT_255_2_778
10
12.4470429
20
74.2507036
40
0.128059
50
23.164146
51
84.5981403
0
ARC
8
DEFAULT_255_2_778
10
12.3195078
20
74.1989267
40
0.2656921
50
1.2065942
51
22.6109196
0
ARC
8
DEFAULT_255_2_778
10
12.1068205
20
74.1810377
40
0.4788966
50
359.9555286
51
2.8107684
0
ARC
8
DEFAULT_255_2_778
10
12.4802764
20
74.1696207
40
0.6523641
50
359.5121336
51
18.1513483
0
ARC
8
DEFAULT_255_2_778
10
12.6313291
20
74.2206245
40
0.4929411
50
17.987628
51
47.7515239
0
ARC
8
DEFAULT_255_2_778
10
12.6654537
20
74.2523389
40
0.4465388
50
48.2567149
51
90.320171
0
ARC
8
DEFAULT_255_2_778
10
12.6638541
20
74.2042874
40
0.4945841
50
90.103751
51
104.0317339
0
ARC
8
DEFAULT_255_2_778
10
12.6706581
20
74.1729342
40
0.5266526
50
103.9228462
51
106.737064
0
ARC
8
DEFAULT_255_2_778
10
12.6850928
20
74.1302316
40
0.5717052
50
106.8899656
51
120.2615348
0
ARC
8
DEFAULT_255_2_778
10
12.7341581
20
74.0457122
40
0.6694339
50
120.2432243
51
131.2854864
0
ARC
8
DEFAULT_255_2_778
10
12.785036
20
73.984952
40
0.7486631
50
131.143212
51
134.0802792
0
ARC
8
DEFAULT_255_2_778
10
15.2709404
20
73.0119131
40
0.1197666
50
309.5218924
51
339.9060311
0
ARC
8
DEFAULT_255_2_778
10
15.3039085
20
72.9744254
40
0.0698871
50
287.710739
51
308.230668
0
ARC
8
DEFAULT_255_2_778
10
15.3092212
20
72.9587982
40
0.0533853
50
270.2503717
51
287.3813074
0
ARC
8
DEFAULT_255_2_778
10
15.3118783
20
72.9596536
40
0.0542942
50
194.7346052
51
267.4414086
0
ARC
8
DEFAULT_255_2_778
10
15.3603123
20
72.982672
40
0.107451
50
190.9475811
51
200.0439116
0
ARC
8
DEFAULT_255_2_778
10
14.9941035
20
72.9697621
40
0.2608211
50
358.353068
51
64.1268931
0
ARC
8
DEFAULT_255_2_778
10
15.0249058
20
73.0154249
40
0.206441
50
66.2890109
51
89.9969258
0
ARC
8
DEFAULT_255_2_778
10
15.0382115
20
72.9801645
40
0.2420668
50
93.1483498
51
177.0819403
0
ARC
8
DEFAULT_255_2_778
10
15.0906424
20
72.9623292
40
0.2957256
50
174.1467469
51
180.0122521
0
ARC
8
DEFAULT_255_2_778
10
15.0902349
20
72.965793
40
0.2953391
50
180.6842551
51
197.2976119
0
ARC
8
DEFAULT_255_2_778
10
15.1427344
20
72.9819135
40
0.3502574
50
197.2618666
51
237.3003567
0
ARC
8
DEFAULT_255_2_778
10
15.1574152
20
73.010555
40
0.3823034
50
237.7678185
51
267.0989043
0
ARC
8
DEFAULT_255_2_778
10
15.1676437
20
73.095885
40
0.468079
50
266.3770992
51
270.0209723
0
ARC
8
DEFAULT_255_2_778
10
15.1676985
20
73.1261308
40
0.4983248
50
270.0133909
51
272.716577
0
ARC
8
DEFAULT_255_2_778
10
15.1758148
20
73.0115424
40
0.3834899
50
272.3167324
51
299.1303886
0
ARC
8
DEFAULT_255_2_778
10
15.1234049
20
73.0850329
40
0.4733038
50
300.3417229
51
327.7658215
0
ARC
8
DEFAULT_255_2_778
10
14.9406676
20
73.2135134
40
0.6964958
50
326.843622
51
335.4998036
0
ARC
8
DEFAULT_255_2_778
10
14.8514976
20
73.2557766
40
0.7951648
50
335.3932154
51
340.0324022
0
ARC
8
DEFAULT_255_2_778
10
14.8370312
20
73.2613094
40
0.8106509
50
340.0140149
51
340.5492811
0
ARC
8
DEFAULT_255_2_778
10
10.7612214
20
73.9594581
40
0.768197
50
90.8730151
51
175.0627552
0
ARC
8
DEFAULT_255_2_778
10
10.8136126
20
73.9430058
40
0.8218958
50
174.2343992
51
180.0097514
0
ARC
8
DEFAULT_255_2_778
10
10.7889867
20
73.9397729
40
0.7972759
50
179.7777162
51
222.1414196
0
ARC
8
DEFAULT_255_2_778
10
10.7511509
20
73.901835
40
0.7437709
50
221.9300285
51
269.8741254
0
ARC
8
DEFAULT_255_2_778
10
10.7376549
20
73.9262244
40
0.7682501
50
270.8846918
51
355.0667038
0
ARC
8
DEFAULT_255_2_778
10
10.6852873
20
73.9427267
40
0.8219296
50
354.2345114
51
0.0097094
0
ARC
8
DEFAULT_255_2_778
10
10.7100678
20
73.9459703
40
0.7971551
50
359.7768758
51
42.1436072
0
ARC
8
DEFAULT_255_2_778
10
10.7478782
20
73.9838788
40
0.7436889
50
41.9327014
51
89.8737509
0
ARC
8
DEFAULT_255_2_778
10
10.7319112
20
73.5666045
40
0.2064136
50
282.3154686
51
2.5716381
0
ARC
8
DEFAULT_255_2_778
10
10.749558
20
73.5315913
40
0.1687253
50
269.98603
51
278.995025
0
ARC
8
DEFAULT_255_2_778
10
10.7617107
20
73.5630042
40
0.2005094
50
178.6786273
51
266.5134562
0
ARC
8
DEFAULT_255_2_778
10
10.8074017
20
73.5758655
40
0.2462849
50
179.9999044
51
181.9167359
0
ARC
8
DEFAULT_255_2_778
10
10.7673954
20
74.3191548
40
0.2064787
50
103.0315545
51
182.5228891
0
ARC
8
DEFAULT_255_2_778
10
10.7494718
20
74.3542048
40
0.1685611
50
89.9846994
51
99.7807169
0
ARC
8
DEFAULT_255_2_778
10
10.7371616
20
74.3222176
40
0.2009286
50
358.490526
51
86.4746259
0
ARC
8
DEFAULT_255_2_778
10
10.6939639
20
74.3100644
40
0.244153
50
0.0003602
51
1.6101146
0
ARC
8
DEFAULT_255_2_778
10
13.7769085
20
73.9423122
40
1.0339085
50
353.7729731
51
0.0306848
0
ARC
8
DEFAULT_255_2_778
10
14.0136678
20
73.9459703
40
0.7971551
50
359.7768758
51
42.1436072
0
ARC
8
DEFAULT_255_2_778
10
14.0514782
20
73.9838788
40
0.7436889
50
41.9327014
51
89.8737509
0
ARC
8
DEFAULT_255_2_778
10
14.0648214
20
73.9594581
40
0.768197
50
90.8730151
51
175.0627552
0
ARC
8
DEFAULT_255_2_778
10
14.1172126
20
73.9430058
40
0.8218958
50
174.2343992
51
180.0097514
0
ARC
8
DEFAULT_255_2_778
10
14.0925867
20
73.9397729
40
0.7972759
50
179.7777162
51
222.1414196
0
ARC
8
DEFAULT_255_2_778
10
14.0547509
20
73.901835
40
0.7437709
50
221.9300285
51
269.8741254
0
ARC
8
DEFAULT_255_2_778
10
14.0479775
20
73.9118375
40
0.753789
50
270.3906469
51
332.9011285
0
ARC
8
DEFAULT_255_2_778
10
14.0503073
20
73.9233988
40
0.5766383
50
270.2493497
51
330.3649047
0
ARC
8
DEFAULT_255_2_778
10
14.0738266
20
73.5517117
40
0.2060198
50
188.4673322
51
264.146848
0
ARC
8
DEFAULT_255_2_778
10
14.1170452
20
73.5758502
40
0.2529285
50
180.0643852
51
192.4374066
0
ARC
8
DEFAULT_255_2_778
10
14.070552
20
74.3193297
40
0.2060435
50
102.2220352
51
182.5768883
0
ARC
8
DEFAULT_255_2_778
10
14.0532765
20
74.3535306
40
0.1692354
50
89.9863487
51
98.9553742
0
ARC
8
DEFAULT_255_2_778
10
14.0410627
20
74.3224487
40
0.2006917
50
358.1298546
51
86.4993767
0
ARC
8
DEFAULT_255_2_778
10
13.9951604
20
74.3100582
40
0.2465564
50
0.0018041
51
1.3574921
0
ARC
8
DEFAULT_255_2_778
10
18.8395085
20
73.9423122
40
1.0339085
50
353.7729731
51
0.0306848
0
ARC
8
DEFAULT_255_2_778
10
19.0763127
20
73.9459756
40
0.7971102
50
359.7764759
51
42.1460177
0
ARC
8
DEFAULT_255_2_778
10
19.1140101
20
73.9837511
40
0.7438166
50
41.9370909
51
89.8762358
0
ARC
8
DEFAULT_255_2_778
10
19.1273214
20
73.9594581
40
0.768197
50
90.8730151
51
175.0627552
0
ARC
8
DEFAULT_255_2_778
10
19.1797126
20
73.9430058
40
0.8218958
50
174.2343992
51
180.0097514
0
ARC
8
DEFAULT_255_2_778
10
19.1550867
20
73.9397729
40
0.7972759
50
179.7777162
51
222.1414196
0
ARC
8
DEFAULT_255_2_778
10
19.1172509
20
73.901835
40
0.7437709
50
221.9300285
51
269.8741254
0
ARC
8
DEFAULT_255_2_778
10
19.1104966
20
73.9122973
40
0.7542487
50
270.3889576
51
332.8797533
0
ARC
8
DEFAULT_255_2_778
10
19.1131073
20
73.9233988
40
0.5766383
50
270.2493497
51
330.3649047
0
ARC
8
DEFAULT_255_2_778
10
19.1366787
20
73.551307
40
0.2056225
50
188.7424888
51
264.120891
0
ARC
8
DEFAULT_255_2_778
10
19.180402
20
73.5758673
40
0.2531853
50
180.0682018
51
192.7352383
0
ARC
8
DEFAULT_255_2_778
10
19.1332623
20
74.319031
40
0.2062492
50
102.479692
51
182.5468765
0
ARC
8
DEFAULT_255_2_778
10
19.1155784
20
74.3540755
40
0.1684904
50
89.986931
51
99.1816697
0
ARC
8
DEFAULT_255_2_778
10
19.1031384
20
74.3218685
40
0.201085
50
358.3379179
51
86.4421934
0
ARC
8
DEFAULT_255_2_778
10
19.0609425
20
74.3098683
40
0.2432745
50
359.9994511
51
1.4527903
0
LINE
8
DEFAULT_255_2_778
10
20.0578169
20
73.2543659
11
20.5605169
21
73.2543659
0
LINE
8
DEFAULT_255_2_778
10
20.5605169
20
73.2543659
11
20.5605169
21
75.2739659
0
LINE
8
DEFAULT_255_2_778
10
20.5605169
20
75.2739659
11
20.0578169
21
75.2739659
0
LINE
8
DEFAULT_255_2_778
10
20.0578169
20
75.2739659
11
20.0578169
21
73.2543659
0
LINE
8
DEFAULT_255_2_778
10
20.0578169
20
73.2543659
11
20.0578169
21
73.2543659
0
LINE
8
DEFAULT_255_2_778
10
20.0578169
20
73.2543659
11
20.0578169
21
73.2543659
0
LINE
8
DEFAULT_255_2_778
10
21.2995169
20
75.2739659
11
21.2995169
21
73.2543659
0
LINE
8
DEFAULT_255_2_778
10
21.2995169
20
73.2543659
11
20.7970169
21
73.2543659
0
LINE
8
DEFAULT_255_2_778
10
20.7970169
20
73.2543659
11
20.7970169
21
75.2739659
0
LINE
8
DEFAULT_255_2_778
10
20.7970169
20
75.2739659
11
21.2995169
21
75.2739659
0
LINE
8
DEFAULT_255_2_778
10
21.2995169
20
75.2739659
11
21.2995169
21
75.2739659
0
LINE
8
DEFAULT_255_2_778
10
21.2995169
20
75.2739659
11
21.2995169
21
75.2739659
0
LINE
8
DEFAULT_255_2_778
10
9.1419169
20
74.4894659
11
8.7355169
21
74.4894659
0
LINE
8
DEFAULT_255_2_778
10
8.7355169
20
74.4894659
11
8.7355169
21
75.2739659
0
LINE
8
DEFAULT_255_2_778
10
8.7355169
20
75.2739659
11
8.0703169
21
75.2739659
0
LINE
8
DEFAULT_255_2_778
10
8.0703169
20
75.2739659
11
8.0703169
21
73.2543659
0
LINE
8
DEFAULT_255_2_778
10
8.0703169
20
73.2543659
11
8.7355169
21
73.2543659
0
LINE
8
DEFAULT_255_2_778
10
8.7355169
20
73.2543659
11
8.7355169
21
74.2558659
0
LINE
8
DEFAULT_255_2_778
10
8.7355169
20
74.2558659
11
9.1419169
21
74.2558659
0
LINE
8
DEFAULT_255_2_778
10
9.1419169
20
74.2558659
11
9.1419169
21
73.2543659
0
LINE
8
DEFAULT_255_2_778
10
9.1419169
20
73.2543659
11
9.8070169
21
73.2543659
0
LINE
8
DEFAULT_255_2_778
10
9.8070169
20
73.2543659
11
9.8070169
21
75.2739659
0
LINE
8
DEFAULT_255_2_778
10
9.8070169
20
75.2739659
11
9.1419169
21
75.2739659
0
LINE
8
DEFAULT_255_2_778
10
9.1419169
20
75.2739659
11
9.1419169
21
74.4894659
0
LINE
8
DEFAULT_255_2_778
10
9.1419169
20
74.4894659
11
9.1419169
21
74.4894659
0
LINE
8
DEFAULT_255_2_778
10
9.1419169
20
74.4894659
11
9.1419169
21
74.4894659
0
LINE
8
DEFAULT_255_2_778
10
12.2645169
20
74.5230659
11
12.2237169
21
74.6566659
0
LINE
8
DEFAULT_255_2_778
10
12.2237169
20
74.6566659
11
11.6768169
21
74.6566659
0
LINE
8
DEFAULT_255_2_778
10
11.6768169
20
74.6566659
11
11.6768169
21
73.2546659
0
LINE
8
DEFAULT_255_2_778
10
11.6768169
20
73.2546659
11
12.2237169
21
73.2546659
0
LINE
8
DEFAULT_255_2_778
10
12.2237169
20
73.2546659
11
12.2237169
21
74.0973659
0
LINE
8
DEFAULT_255_2_778
10
12.2237169
20
74.0973659
11
12.2237169
21
74.0973659
0
LINE
8
DEFAULT_255_2_778
10
12.5857169
20
74.1806659
11
12.5857169
21
74.1806659
0
LINE
8
DEFAULT_255_2_778
10
12.5857169
20
74.1806659
11
12.5857169
21
73.2543659
0
LINE
8
DEFAULT_255_2_778
10
12.5857169
20
73.2543659
11
13.1326169
21
73.2543659
0
LINE
8
DEFAULT_255_2_778
10
13.1326169
20
73.2543659
11
13.1326169
21
74.1640659
0
LINE
8
DEFAULT_255_2_778
10
13.1326169
20
74.1640659
11
13.1326169
21
74.1640659
0
LINE
8
DEFAULT_255_2_778
10
12.2642169
20
74.5227659
11
12.2642169
21
74.5227659
0
LINE
8
DEFAULT_255_2_778
10
12.2642169
20
74.5227659
11
12.2642169
21
74.5227659
0
LINE
8
DEFAULT_255_2_778
10
12.2642169
20
74.5227659
11
12.2642169
21
74.5227659
0
LINE
8
DEFAULT_255_2_778
10
12.2642169
20
74.5227659
11
12.2645169
21
74.5230659
0
LINE
8
DEFAULT_255_2_778
10
17.8816169
20
73.8428659
11
17.6265169
21
74.6564659
0
LINE
8
DEFAULT_255_2_778
10
17.6265169
20
74.6564659
11
17.2532169
21
74.6564659
0
LINE
8
DEFAULT_255_2_778
10
17.2532169
20
74.6564659
11
16.9981169
21
73.8094659
0
LINE
8
DEFAULT_255_2_778
10
16.9981169
20
73.8094659
11
16.7322169
21
74.6564659
0
LINE
8
DEFAULT_255_2_778
10
16.7322169
20
74.6564659
11
16.2113169
21
74.6564659
0
LINE
8
DEFAULT_255_2_778
10
16.2113169
20
74.6564659
11
16.2076169
21
74.6564659
0
LINE
8
DEFAULT_255_2_778
10
16.2076169
20
74.6564659
11
16.0007169
21
74.6564659
0
LINE
8
DEFAULT_255_2_778
10
16.0007169
20
74.6564659
11
15.7382169
21
73.9430659
0
LINE
8
DEFAULT_255_2_778
10
15.7382169
20
73.9430659
11
15.3688169
21
74.6564659
0
LINE
8
DEFAULT_255_2_778
10
15.3688169
20
74.6564659
11
14.7441169
21
74.6564659
0
LINE
8
DEFAULT_255_2_778
10
14.7441169
20
74.6564659
11
15.4794169
21
73.2377659
0
LINE
8
DEFAULT_255_2_778
10
15.4794169
20
73.2377659
11
15.3834169
21
72.9707659
0
LINE
8
DEFAULT_255_2_778
10
15.3834169
20
72.9707659
11
15.3834169
21
72.9707659
0
LINE
8
DEFAULT_255_2_778
10
15.6014169
20
72.9913659
11
15.6014169
21
72.9913659
0
LINE
8
DEFAULT_255_2_778
10
15.6014169
20
72.9913659
11
16.2091169
21
74.6505659
0
LINE
8
DEFAULT_255_2_778
10
16.2091169
20
74.6505659
11
16.6473169
21
73.2541659
0
LINE
8
DEFAULT_255_2_778
10
16.6473169
20
73.2541659
11
17.0463169
21
73.2541659
0
LINE
8
DEFAULT_255_2_778
10
17.0463169
20
73.2541659
11
17.2902169
21
74.0595659
0
LINE
8
DEFAULT_255_2_778
10
17.2902169
20
74.0595659
11
17.5416169
21
73.2541659
0
LINE
8
DEFAULT_255_2_778
10
17.5416169
20
73.2541659
11
17.9186169
21
73.2541659
0
LINE
8
DEFAULT_255_2_778
10
17.9186169
20
73.2541659
11
18.3435169
21
74.6561659
0
LINE
8
DEFAULT_255_2_778
10
18.3435169
20
74.6561659
11
18.1255169
21
74.6561659
0
LINE
8
DEFAULT_255_2_778
10
18.1255169
20
74.6561659
11
17.8816169
21
73.8425659
0
LINE
8
DEFAULT_255_2_778
10
17.8816169
20
73.8425659
11
17.8816169
21
73.8425659
0
LINE
8
DEFAULT_255_2_778
10
17.8816169
20
73.8425659
11
17.8816169
21
73.8425659
0
LINE
8
DEFAULT_255_2_778
10
17.8816169
20
73.8425659
11
17.8816169
21
73.8428659
0
LINE
8
DEFAULT_255_2_778
10
10.7495169
20
74.7275659
11
10.7495169
21
74.7275659
0
LINE
8
DEFAULT_255_2_778
10
10.7495169
20
74.7275659
11
10.7495169
21
74.7275659
0
LINE
8
DEFAULT_255_2_778
10
10.7495169
20
74.7275659
11
10.7495169
21
74.7275659
0
LINE
8
DEFAULT_255_2_778
10
10.7495169
20
74.7275659
11
10.7495169
21
74.7275659
0
LINE
8
DEFAULT_255_2_778
10
10.5611169
20
73.5758659
11
10.5611169
21
73.5758659
0
LINE
8
DEFAULT_255_2_778
10
10.5611169
20
73.5758659
11
10.5611169
21
74.3100659
0
LINE
8
DEFAULT_255_2_778
10
10.5611169
20
74.3100659
11
10.5611169
21
74.3100659
0
LINE
8
DEFAULT_255_2_778
10
10.9381169
20
74.3100659
11
10.9381169
21
74.3100659
0
LINE
8
DEFAULT_255_2_778
10
10.9381169
20
74.3100659
11
10.9381169
21
73.5758659
0
LINE
8
DEFAULT_255_2_778
10
10.9381169
20
73.5758659
11
10.9381169
21
73.5758659
0
LINE
8
DEFAULT_255_2_778
10
10.9381169
20
73.5758659
11
10.9381169
21
73.5758659
0
LINE
8
DEFAULT_255_2_778
10
10.9381169
20
73.5758659
11
10.9381169
21
73.5758659
0
LINE
8
DEFAULT_255_2_778
10
14.7190169
20
73.5684659
11
14.7190169
21
73.5684659
0
LINE
8
DEFAULT_255_2_778
10
14.7190169
20
73.5684659
11
14.5515169
21
73.6382659
0
LINE
8
DEFAULT_255_2_778
10
14.5515169
20
73.6382659
11
14.5515169
21
73.6382659
0
LINE
8
DEFAULT_255_2_778
10
13.8641169
20
73.5755659
11
13.8641169
21
73.5755659
0
LINE
8
DEFAULT_255_2_778
10
13.8641169
20
73.5755659
11
13.8641169
21
73.8301659
0
LINE
8
DEFAULT_255_2_778
10
13.8641169
20
73.8301659
11
14.8042169
21
73.8301659
0
LINE
8
DEFAULT_255_2_778
10
14.8042169
20
73.8301659
11
14.8042169
21
73.8301659
0
LINE
8
DEFAULT_255_2_778
10
14.8042169
20
73.8301659
11
14.8042169
21
73.8301659
0
LINE
8
DEFAULT_255_2_778
10
14.8042169
20
73.8301659
11
14.8047169
21
73.8301659
0
LINE
8
DEFAULT_255_2_778
10
14.2417169
20
74.3100659
11
14.2417169
21
74.3100659
0
LINE
8
DEFAULT_255_2_778
10
14.2417169
20
74.3100659
11
14.2417169
21
74.0304659
0
LINE
8
DEFAULT_255_2_778
10
14.2417169
20
74.0304659
11
13.8647169
21
74.0304659
0
LINE
8
DEFAULT_255_2_778
10
13.8647169
20
74.0304659
11
13.8647169
21
74.3100659
0
LINE
8
DEFAULT_255_2_778
10
13.8647169
20
74.3100659
11
13.8647169
21
74.3100659
0
LINE
8
DEFAULT_255_2_778
10
13.8647169
20
74.3100659
11
13.8647169
21
74.3100659
0
LINE
8
DEFAULT_255_2_778
10
13.8647169
20
74.3100659
11
13.8647169
21
74.3100659
0
LINE
8
DEFAULT_255_2_778
10
19.7818169
20
73.5684659
11
19.7818169
21
73.5684659
0
LINE
8
DEFAULT_255_2_778
10
19.7818169
20
73.5684659
11
19.6143169
21
73.6382659
0
LINE
8
DEFAULT_255_2_778
10
19.6143169
20
73.6382659
11
19.6143169
21
73.6382659
0
LINE
8
DEFAULT_255_2_778
10
18.9272169
20
73.5755659
11
18.9272169
21
73.5755659
0
LINE
8
DEFAULT_255_2_778
10
18.9272169
20
73.5755659
11
18.9272169
21
73.8301659
0
LINE
8
DEFAULT_255_2_778
10
18.9272169
20
73.8301659
11
19.8673169
21
73.8301659
0
LINE
8
DEFAULT_255_2_778
10
19.8673169
20
73.8301659
11
19.8673169
21
73.8301659
0
LINE
8
DEFAULT_255_2_778
10
19.8673169
20
73.8301659
11
19.8673169
21
73.8301659
0
LINE
8
DEFAULT_255_2_778
10
19.8673169
20
73.8301659
11
19.8673169
21
73.8301659
0
LINE
8
DEFAULT_255_2_778
10
19.3042169
20
74.3098659
11
19.3042169
21
74.3098659
0
LINE
8
DEFAULT_255_2_778
10
19.3042169
20
74.3098659
11
19.3042169
21
74.0304659
0
LINE
8
DEFAULT_255_2_778
10
19.3042169
20
74.0304659
11
18.9272169
21
74.0304659
0
LINE
8
DEFAULT_255_2_778
10
18.9272169
20
74.0304659
11
18.9272169
21
74.3100659
0
LINE
8
DEFAULT_255_2_778
10
18.9272169
20
74.3100659
11
18.9272169
21
74.3100659
0
LINE
8
DEFAULT_255_2_778
10
18.9272169
20
74.3100659
11
18.9272169
21
74.3100659
0
LINE
8
DEFAULT_255_2_778
10
18.9272169
20
74.3100659
11
18.9272169
21
74.3098659
0
LINE
8
DEFAULT_255_1_388
10
9.1615024
20
71.4518898
11
9.3855864
21
71.4518898
0
LINE
8
DEFAULT_255_1_388
10
9.3855864
20
71.4518898
11
9.8156831
21
70.3784553
0
LINE
8
DEFAULT_255_1_388
10
9.8156831
20
70.3784553
11
10.2457797
21
71.4518898
0
LINE
8
DEFAULT_255_1_388
10
10.2457797
20
71.4518898
11
10.4707673
21
71.4518898
0
LINE
8
DEFAULT_255_1_388
10
10.4707673
20
71.4518898
11
10.4707673
21
70.1363
0
LINE
8
DEFAULT_255_1_388
10
10.4707673
20
70.1363
11
10.2972829
21
70.1363
0
LINE
8
DEFAULT_255_1_388
10
10.2972829
20
70.1363
11
10.2972829
21
70.648621
0
LINE
8
DEFAULT_255_1_388
10
10.2972829
20
70.648621
11
10.3135471
21
71.2016025
0
LINE
8
DEFAULT_255_1_388
10
10.3135471
20
71.2016025
11
9.8816433
21
70.1363
0
LINE
8
DEFAULT_255_1_388
10
9.8816433
20
70.1363
11
9.7488193
21
70.1363
0
LINE
8
DEFAULT_255_1_388
10
9.7488193
20
70.1363
11
9.317819
21
71.1988918
0
LINE
8
DEFAULT_255_1_388
10
9.317819
20
71.1988918
11
9.3349868
21
70.648621
0
LINE
8
DEFAULT_255_1_388
10
9.3349868
20
70.648621
11
9.3349868
21
70.1363
0
LINE
8
DEFAULT_255_1_388
10
9.3349868
20
70.1363
11
9.1615024
21
70.1363
0
LINE
8
DEFAULT_255_1_388
10
9.1615024
20
70.1363
11
9.1615024
21
71.4518898
0
LINE
8
DEFAULT_255_1_388
10
11.5297448
20
70.1363
11
11.3544533
21
70.1363
0
LINE
8
DEFAULT_255_1_388
10
11.1656083
20
70.7290383
11
11.32825
21
70.7290383
0
LINE
8
DEFAULT_255_1_388
10
11.32825
20
70.7290383
11
11.32825
21
70.8058413
0
LINE
8
DEFAULT_255_1_388
10
10.9108032
20
70.8428874
11
10.7427402
21
70.8428874
0
LINE
8
DEFAULT_255_1_388
10
11.4954094
20
70.8148769
11
11.4954094
21
70.3649018
0
LINE
8
DEFAULT_255_1_388
10
11.5297448
20
70.150757
11
11.5297448
21
70.1363
0
LINE
8
DEFAULT_255_1_388
10
11.32825
20
70.41008
11
11.32825
21
70.6106713
0
LINE
8
DEFAULT_255_1_388
10
11.32825
20
70.6106713
11
11.1972331
21
70.6106713
0
ARC
8
DEFAULT_255_1_388
10
11.4713683
20
70.19301
40
0.1299428
50
197.0784902
51
205.8758668
0
ARC
8
DEFAULT_255_1_388
10
11.6108269
20
70.2371959
40
0.2762313
50
192.2927663
51
197.3441989
0
ARC
8
DEFAULT_255_1_388
10
11.8303774
20
70.285976
40
0.5011345
50
189.1573793
51
192.3977084
0
ARC
8
DEFAULT_255_1_388
10
12.1468621
20
70.3375878
40
0.8217995
50
186.8686098
51
189.1982636
0
ARC
8
DEFAULT_255_1_388
10
11.0413712
20
70.511626
40
0.3975173
50
294.0079259
51
316.7603918
0
ARC
8
DEFAULT_255_1_388
10
11.0558894
20
70.4911902
40
0.3729755
50
269.5043226
51
293.2478373
0
ARC
8
DEFAULT_255_1_388
10
11.0491946
20
70.5362915
40
0.4180772
50
255.4034155
51
270.4753052
0
ARC
8
DEFAULT_255_1_388
10
11.0233159
20
70.4358652
40
0.3143705
50
228.6141063
51
255.3550831
0
ARC
8
DEFAULT_255_1_388
10
10.9859141
20
70.400054
40
0.2628114
50
181.8954381
51
229.5703134
0
ARC
8
DEFAULT_255_1_388
10
11.0524077
20
70.4072824
40
0.329546
50
179.9848815
51
182.7691528
0
ARC
8
DEFAULT_255_1_388
10
11.0431144
20
70.4111827
40
0.3202753
50
161.0342928
51
180.6822077
0
ARC
8
DEFAULT_255_1_388
10
10.9936758
20
70.4240422
40
0.2693695
50
125.0525065
51
160.2034058
0
ARC
8
DEFAULT_255_1_388
10
11.068148
20
70.3224275
40
0.3953338
50
106.2670809
51
125.4300189
0
ARC
8
DEFAULT_255_1_388
10
11.1325521
20
70.1119795
40
0.6154041
50
95.4857579
51
106.5348562
0
ARC
8
DEFAULT_255_1_388
10
11.1632809
20
69.8307993
40
0.8982419
50
89.8515405
51
95.7222579
0
ARC
8
DEFAULT_255_1_388
10
11.091339
20
70.8078925
40
0.2369198
50
359.5039339
51
14.3181205
0
ARC
8
DEFAULT_255_1_388
10
11.1559395
20
70.8246862
40
0.170173
50
14.2184556
51
45.2028524
0
ARC
8
DEFAULT_255_1_388
10
11.1600091
20
70.8262862
40
0.1661795
50
45.8098216
51
73.0032926
0
ARC
8
DEFAULT_255_1_388
10
11.1319917
20
70.740626
40
0.2562942
50
72.6112517
51
85.7231489
0
ARC
8
DEFAULT_255_1_388
10
11.1218701
20
70.6379339
40
0.3594635
50
85.335019
51
90.0855069
0
ARC
8
DEFAULT_255_1_388
10
11.1192135
20
70.7043472
40
0.2930574
50
89.5854741
51
103.459124
0
ARC
8
DEFAULT_255_1_388
10
11.1020674
20
70.7758134
40
0.2195632
50
103.448332
51
126.5403399
0
ARC
8
DEFAULT_255_1_388
10
11.075165
20
70.8102224
40
0.1759039
50
126.1730306
51
141.5008224
0
ARC
8
DEFAULT_255_1_388
10
11.0325965
20
70.8436266
40
0.1217955
50
141.3332087
51
180.3477313
0
ARC
8
DEFAULT_255_1_388
10
10.9567388
20
70.8416904
40
0.214002
50
151.6373605
51
179.6795088
0
ARC
8
DEFAULT_255_1_388
10
11.0244624
20
70.8079768
40
0.2896224
50
142.4981529
51
152.1330509
0
ARC
8
DEFAULT_255_1_388
10
11.0602629
20
70.7798781
40
0.3351307
50
120.8284906
51
142.4132156
0
ARC
8
DEFAULT_255_1_388
10
11.1070604
20
70.7066185
40
0.4220297
50
113.9634885
51
121.1871733
0
ARC
8
DEFAULT_255_1_388
10
11.1223913
20
70.6692705
40
0.4623867
50
93.3784336
51
113.8197902
0
ARC
8
DEFAULT_255_1_388
10
11.1310296
20
70.5831549
40
0.5488732
50
89.9745993
51
93.7488475
0
ARC
8
DEFAULT_255_1_388
10
11.1349542
20
70.5872587
40
0.5447818
50
79.1327128
51
90.3871707
0
ARC
8
DEFAULT_255_1_388
10
11.1715306
20
70.7700597
40
0.3583662
50
60.1434453
51
79.365517
0
ARC
8
DEFAULT_255_1_388
10
11.2004072
20
70.8255195
40
0.2959028
50
48.6191018
51
59.6466565
0
ARC
8
DEFAULT_255_1_388
10
11.2057784
20
70.8326356
40
0.2870136
50
9.0349502
51
48.4845487
0
ARC
8
DEFAULT_255_1_388
10
11.0847082
20
70.8062084
40
0.4107927
50
1.2091359
51
10.0234369
0
ARC
8
DEFAULT_255_1_388
10
12.354453
20
70.3621422
40
0.8590481
50
179.8159449
51
185.3205667
0
ARC
8
DEFAULT_255_1_388
10
12.0512376
20
70.3331945
40
0.5544553
50
185.2475628
51
192.7952551
0
ARC
8
DEFAULT_255_1_388
10
11.85302
20
70.2877024
40
0.3510853
50
192.7195981
51
202.9584216
0
ARC
8
DEFAULT_255_1_388
10
11.0770236
20
70.5574895
40
0.2937869
50
270.006916
51
300.503478
0
ARC
8
DEFAULT_255_1_388
10
11.0908171
20
70.5430888
40
0.2744162
50
299.5482616
51
315.609538
0
ARC
8
DEFAULT_255_1_388
10
11.1234467
20
70.5097072
40
0.2277499
50
315.8682065
51
334.0592465
0
ARC
8
DEFAULT_255_1_388
10
11.192344
20
69.82609
40
0.7845965
50
89.64297
51
97.2867877
0
ARC
8
DEFAULT_255_1_388
10
11.1427038
20
70.1977936
40
0.4096042
50
96.9938706
51
109.7783917
0
ARC
8
DEFAULT_255_1_388
10
11.06785
20
70.3981851
40
0.1957225
50
109.0087985
51
135.3265591
0
ARC
8
DEFAULT_255_1_388
10
11.037092
20
70.4362764
40
0.1471704
50
137.4537784
51
182.1083946
0
ARC
8
DEFAULT_255_1_388
10
11.0791619
20
70.4290101
40
0.1891498
50
179.4390335
51
195.7201623
0
ARC
8
DEFAULT_255_1_388
10
11.0328654
20
70.4163585
40
0.1411576
50
195.8683556
51
230.157074
0
ARC
8
DEFAULT_255_1_388
10
11.0601377
20
70.4490228
40
0.1837102
50
230.1532486
51
259.7486257
0
ARC
8
DEFAULT_255_1_388
10
11.075742
20
70.5225472
40
0.258848
50
259.2461118
51
270.2915316
0
LINE
8
DEFAULT_255_1_388
10
12.4848125
20
70.8266232
11
12.3167495
21
70.8266232
0
LINE
8
DEFAULT_255_1_388
10
11.7167827
20
70.437187
11
11.8839421
21
70.437187
0
ARC
8
DEFAULT_255_1_388
10
12.1830785
20
70.3972935
40
0.1436198
50
359.3335374
51
18.5869869
0
ARC
8
DEFAULT_255_1_388
10
12.2065525
20
70.4035015
40
0.1194022
50
19.3538149
51
54.6486387
0
ARC
8
DEFAULT_255_1_388
10
12.1498512
20
70.3253077
40
0.2159877
50
54.3821575
51
65.0627557
0
ARC
8
DEFAULT_255_1_388
10
12.0633859
20
70.1434032
40
0.4173927
50
64.8282172
51
71.4204388
0
ARC
8
DEFAULT_255_1_388
10
11.9618755
20
69.8455782
40
0.7320403
50
71.3166092
51
75.8005927
0
ARC
8
DEFAULT_255_1_388
10
11.8672641
20
69.4810881
40
1.108605
50
75.6810806
51
78.0063886
0
ARC
8
DEFAULT_255_1_388
10
12.3677229
20
71.841253
40
1.3040363
50
254.69024
51
258.0465557
0
ARC
8
DEFAULT_255_1_388
10
12.2509098
20
71.4182742
40
0.8652254
50
249.9010634
51
254.7555005
0
ARC
8
DEFAULT_255_1_388
10
12.138015
20
71.111668
40
0.5384962
50
243.3097375
51
249.970939
0
ARC
8
DEFAULT_255_1_388
10
12.0672565
20
70.9705721
40
0.380652
50
234.4047808
51
243.2861752
0
ARC
8
DEFAULT_255_1_388
10
11.9972201
20
70.8738645
40
0.2612502
50
220.8665526
51
234.5497192
0
ARC
8
DEFAULT_255_1_388
10
11.9587199
20
70.8388203
40
0.2092097
50
214.3063391
51
220.5075055
0
ARC
8
DEFAULT_255_1_388
10
11.9558313
20
70.8353577
40
0.2048755
50
186.9131438
51
213.9617385
0
ARC
8
DEFAULT_255_1_388
10
12.0156703
20
70.8450431
40
0.2654563
50
179.8802037
51
187.4338578
0
ARC
8
DEFAULT_255_1_388
10
11.9982667
20
70.8473049
40
0.2480581
50
132.0053393
51
180.3942351
0
ARC
8
DEFAULT_255_1_388
10
12.0721581
20
70.7790997
40
0.3483116
50
129.2317021
51
133.5294826
0
ARC
8
DEFAULT_255_1_388
10
12.0781549
20
70.7685383
40
0.360291
50
100.440976
51
128.9081567
0
ARC
8
DEFAULT_255_1_388
10
12.1089667
20
70.6239357
40
0.5080996
50
89.6985063
51
100.9029043
0
ARC
8
DEFAULT_255_1_388
10
12.1153822
20
70.6058739
40
0.5261675
50
77.6967144
51
90.4074623
0
ARC
8
DEFAULT_255_1_388
10
12.1526174
20
70.7664503
40
0.3613511
50
50.7278431
51
78.0397473
0
ARC
8
DEFAULT_255_1_388
10
12.2026217
20
70.8247173
40
0.2845966
50
25.754382
51
51.0957456
0
ARC
8
DEFAULT_255_1_388
10
12.2027584
20
70.8303311
40
0.2820785
50
359.2468358
51
24.7393861
0
ARC
8
DEFAULT_255_1_388
10
12.1707471
20
70.8271204
40
0.1460032
50
359.8048924
51
45.1543866
0
ARC
8
DEFAULT_255_1_388
10
12.1249205
20
70.7879291
40
0.2061641
50
43.8053172
51
49.625485
0
ARC
8
DEFAULT_255_1_388
10
12.1258648
20
70.7880849
40
0.2054344
50
49.7979696
51
82.121802
0
ARC
8
DEFAULT_255_1_388
10
12.112473
20
70.7153473
40
0.2793404
50
81.4458692
51
90.1707936
0
ARC
8
DEFAULT_255_1_388
10
12.1097307
20
70.6561478
40
0.3385438
50
89.6768097
51
99.1267111
0
ARC
8
DEFAULT_255_1_388
10
12.0904289
20
70.7724405
40
0.2206627
50
98.9679878
51
113.4573418
0
ARC
8
DEFAULT_255_1_388
10
12.0683969
20
70.8251193
40
0.1635691
50
113.7230234
51
127.4758155
0
ARC
8
DEFAULT_255_1_388
10
12.0494552
20
70.8476433
40
0.1341757
50
126.9086647
51
150.3160891
0
ARC
8
DEFAULT_255_1_388
10
12.0440883
20
70.853368
40
0.1266992
50
151.363328
51
180.0701537
0
ARC
8
DEFAULT_255_1_388
10
12.0751103
20
70.851023
40
0.1577364
50
179.2045432
51
180.0012892
0
ARC
8
DEFAULT_255_1_388
10
12.0382215
20
70.8495515
40
0.1208564
50
179.3040542
51
198.4225767
0
ARC
8
DEFAULT_255_1_388
10
12.0166356
20
70.8439337
40
0.0986126
50
199.2893055
51
238.6036855
0
ARC
8
DEFAULT_255_1_388
10
12.0844449
20
70.9503752
40
0.2248082
50
237.9844191
51
246.8751643
0
ARC
8
DEFAULT_255_1_388
10
12.1809309
20
71.1710861
40
0.4656832
50
246.6226408
51
251.8174794
0
ARC
8
DEFAULT_255_1_388
10
12.2969777
20
71.5195909
40
0.8329993
50
251.7140983
51
255.0775146
0
ARC
8
DEFAULT_255_1_388
10
12.4319301
20
72.0222708
40
1.3534786
50
255.0370864
51
257.4701577
0
ARC
8
DEFAULT_255_1_388
10
11.8571846
20
69.4328535
40
1.298957
50
73.6835762
51
77.5015749
0
ARC
8
DEFAULT_255_1_388
10
11.979676
20
69.8490699
40
0.8650912
50
68.7042835
51
73.7249997
0
ARC
8
DEFAULT_255_1_388
10
12.0812324
20
70.1107853
40
0.584363
50
63.5907059
51
68.6622978
0
ARC
8
DEFAULT_255_1_388
10
12.1680065
20
70.2838157
40
0.3907955
50
54.7106507
51
63.7018033
0
ARC
8
DEFAULT_255_1_388
10
12.2382453
20
70.3819287
40
0.2701345
50
41.0624597
51
54.8488532
0
ARC
8
DEFAULT_255_1_388
10
12.2766231
20
70.4171439
40
0.2180695
50
34.4952722
51
40.7097584
0
ARC
8
DEFAULT_255_1_388
10
12.2819196
20
70.4226204
40
0.2106083
50
9.3761233
51
34.0834046
0
ARC
8
DEFAULT_255_1_388
10
12.2084325
20
70.4085174
40
0.2854177
50
359.7695264
51
9.7660556
0
ARC
8
DEFAULT_255_1_388
10
12.2306618
20
70.4036841
40
0.2632121
50
335.8653103
51
0.8022272
0
ARC
8
DEFAULT_255_1_388
10
12.2391023
20
70.4051951
40
0.2561728
50
307.7357819
51
334.7849324
0
ARC
8
DEFAULT_255_1_388
10
12.1945664
20
70.4551553
40
0.3229737
50
307.0217048
51
308.5596894
0
ARC
8
DEFAULT_255_1_388
10
12.1650249
20
70.4993063
40
0.3760237
50
282.9361285
51
306.5649033
0
ARC
8
DEFAULT_255_1_388
10
12.1243311
20
70.6643871
40
0.5460314
50
271.1026197
51
283.2199962
0
ARC
8
DEFAULT_255_1_388
10
12.1171499
20
70.8044744
40
0.6862456
50
269.9926344
51
271.4770056
0
ARC
8
DEFAULT_255_1_388
10
12.114207
20
70.6827633
40
0.5645418
50
259.0723633
51
270.2897324
0
ARC
8
DEFAULT_255_1_388
10
12.0903294
20
70.5570887
40
0.4366198
50
245.4965026
51
259.0225745
0
ARC
8
DEFAULT_255_1_388
10
12.0590511
20
70.4916491
40
0.3641037
50
228.9686619
51
245.7042678
0
ARC
8
DEFAULT_255_1_388
10
12.0291786
20
70.4548573
40
0.3167435
50
214.4015391
51
228.6759028
0
ARC
8
DEFAULT_255_1_388
10
11.9966283
20
70.4370429
40
0.2798456
50
179.9704983
51
215.1574389
0
ARC
8
DEFAULT_255_1_388
10
12.0754495
20
70.4453148
40
0.1916798
50
182.430239
51
203.0329751
0
ARC
8
DEFAULT_255_1_388
10
12.0547091
20
70.4389675
40
0.1701248
50
203.7987464
51
232.5483345
0
ARC
8
DEFAULT_255_1_388
10
12.0858175
20
70.4785049
40
0.2204299
50
232.3784541
51
256.3934343
0
ARC
8
DEFAULT_255_1_388
10
12.1117323
20
70.5786359
40
0.3238512
50
256.1048329
51
268.4627478
0
ARC
8
DEFAULT_255_1_388
10
12.1169742
20
70.6690297
40
0.4143627
50
268.0734924
51
270.0121004
0
ARC
8
DEFAULT_255_1_388
10
12.119046
20
70.6376191
40
0.3829573
50
269.7031202
51
278.8338867
0
ARC
8
DEFAULT_255_1_388
10
12.1395325
20
70.5104553
40
0.2541568
50
278.6727378
51
292.82331
0
ARC
8
DEFAULT_255_1_388
10
12.1620871
20
70.4540546
40
0.1934264
50
293.1457581
51
303.6656964
0
ARC
8
DEFAULT_255_1_388
10
12.1918944
20
70.4117159
40
0.1416713
50
303.1245849
51
321.7434683
0
ARC
8
DEFAULT_255_1_388
10
12.2128026
20
70.393378
40
0.1139081
50
322.4747616
51
1.1293039
0
LINE
8
DEFAULT_255_1_388
10
12.7712424
20
71.3506906
11
12.9384018
21
71.3506906
0
LINE
8
DEFAULT_255_1_388
10
12.9384018
20
71.3506906
11
12.9384018
21
71.1139567
0
LINE
8
DEFAULT_255_1_388
10
12.9384018
20
71.1139567
11
13.1209218
21
71.1139567
0
LINE
8
DEFAULT_255_1_388
10
13.1209218
20
71.1139567
11
13.1209218
21
70.984747
0
LINE
8
DEFAULT_255_1_388
10
13.1209218
20
70.984747
11
12.9384018
21
70.984747
0
LINE
8
DEFAULT_255_1_388
10
12.9384018
20
70.984747
11
12.9384018
21
70.3784553
0
LINE
8
DEFAULT_255_1_388
10
13.1254396
20
70.2718347
11
13.1254396
21
70.1363
0
LINE
8
DEFAULT_255_1_388
10
12.7712424
20
70.3784553
11
12.7712424
21
70.984747
0
LINE
8
DEFAULT_255_1_388
10
12.7712424
20
70.984747
11
12.5932402
21
70.984747
0
LINE
8
DEFAULT_255_1_388
10
12.5932402
20
70.984747
11
12.5932402
21
71.1139567
0
LINE
8
DEFAULT_255_1_388
10
12.5932402
20
71.1139567
11
12.7712424
21
71.1139567
0
LINE
8
DEFAULT_255_1_388
10
12.7712424
20
71.1139567
11
12.7712424
21
71.3506906
0
ARC
8
DEFAULT_255_1_388
10
13.1642526
20
70.3772842
40
0.2258538
50
179.7029045
51
187.9180047
0
ARC
8
DEFAULT_255_1_388
10
13.0803099
20
70.3652019
40
0.1410477
50
187.7540838
51
200.2454047
0
ARC
8
DEFAULT_255_1_388
10
13.0330005
20
70.3475591
40
0.0905561
50
200.1304287
51
219.1733455
0
ARC
8
DEFAULT_255_1_388
10
13.0177172
20
70.3371695
40
0.0721626
50
220.4434631
51
249.6169985
0
ARC
8
DEFAULT_255_1_388
10
13.0351398
20
70.3809919
40
0.1193141
50
249.1038184
51
262.7745376
0
ARC
8
DEFAULT_255_1_388
10
13.045058
20
70.4517481
40
0.1907583
50
262.4921618
51
270.2607019
0
ARC
8
DEFAULT_255_1_388
10
13.0447662
20
70.4759817
40
0.2149929
50
270.309081
51
275.6615459
0
ARC
8
DEFAULT_255_1_388
10
13.028707
20
70.6448342
40
0.3846066
50
275.5607354
51
279.087751
0
ARC
8
DEFAULT_255_1_388
10
12.9915002
20
70.8809428
40
0.6236283
50
279.0369545
51
281.5000133
0
ARC
8
DEFAULT_255_1_388
10
12.952427
20
71.0786499
40
0.825157
50
281.4217093
51
282.1031556
0
ARC
8
DEFAULT_255_1_388
10
12.9900245
20
70.6243229
40
0.5064619
50
275.2597791
51
285.5081125
0
ARC
8
DEFAULT_255_1_388
10
12.9969259
20
70.5617452
40
0.4435166
50
270.0268175
51
275.1130565
0
ARC
8
DEFAULT_255_1_388
10
12.994671
20
70.4124367
40
0.2942182
50
257.3572424
51
270.4795428
0
ARC
8
DEFAULT_255_1_388
10
12.9706981
20
70.3113952
40
0.1903838
50
230.8036715
51
257.7414447
0
ARC
8
DEFAULT_255_1_388
10
12.9630477
20
70.2990723
40
0.1760087
50
219.9745381
51
230.1985446
0
ARC
8
DEFAULT_255_1_388
10
13.0003764
20
70.3276116
40
0.2229598
50
196.5081334
51
219.4319996
0
ARC
8
DEFAULT_255_1_388
10
13.1146375
20
70.3634617
40
0.3427033
50
184.6408645
51
196.8266009
0
ARC
8
DEFAULT_255_1_388
10
13.2547281
20
70.377601
40
0.4834863
50
179.8987586
51
184.9677262
0
LINE
8
DEFAULT_255_1_388
10
13.2736242
20
70.5980214
11
13.2736242
21
70.6287426
0
LINE
8
DEFAULT_255_1_388
10
14.1030964
20
70.6468139
11
14.1030964
21
70.5772395
0
LINE
8
DEFAULT_255_1_388
10
14.1030964
20
70.5772395
11
13.4407836
21
70.5772395
0
LINE
8
DEFAULT_255_1_388
10
13.9883437
20
70.3865874
11
14.0904465
21
70.3070737
0
LINE
8
DEFAULT_255_1_388
10
13.446205
20
70.7145813
11
13.935937
21
70.7145813
0
LINE
8
DEFAULT_255_1_388
10
13.935937
20
70.7145813
11
13.935937
21
70.7272312
0
ARC
8
DEFAULT_255_1_388
10
13.7168003
20
70.610521
40
0.4923176
50
252.326534
51
270.5809615
0
ARC
8
DEFAULT_255_1_388
10
13.6937468
20
70.527194
40
0.4059384
50
223.3000488
51
251.8562489
0
ARC
8
DEFAULT_255_1_388
10
13.7175248
20
70.5502898
40
0.4390832
50
190.9374369
51
223.3654369
0
ARC
8
DEFAULT_255_1_388
10
13.9115925
20
70.5941598
40
0.63798
50
179.6531919
51
191.4988561
0
ARC
8
DEFAULT_255_1_388
10
13.9252953
20
70.6323571
40
0.6516811
50
167.4005523
51
180.3177836
0
ARC
8
DEFAULT_255_1_388
10
13.8069624
20
70.6573853
40
0.5307402
50
154.1835149
51
167.2508278
0
ARC
8
DEFAULT_255_1_388
10
13.7359215
20
70.6947925
40
0.4505076
50
134.3150225
51
154.5315008
0
ARC
8
DEFAULT_255_1_388
10
13.711455
20
70.716255
40
0.4180662
50
122.8617482
51
133.9707159
0
ARC
8
DEFAULT_255_1_388
10
13.6998157
20
70.7412882
40
0.3907416
50
89.8248474
51
123.4199325
0
ARC
8
DEFAULT_255_1_388
10
13.7054455
20
70.6685352
40
0.4635141
50
74.7874349
51
90.5482648
0
ARC
8
DEFAULT_255_1_388
10
13.7384919
20
70.7905987
40
0.3370565
50
39.8178888
51
74.7634383
0
ARC
8
DEFAULT_255_1_388
10
13.6808161
20
70.7456356
40
0.4101553
50
16.8990848
51
39.4830125
0
ARC
8
DEFAULT_255_1_388
10
13.4676775
20
70.6773711
40
0.6339427
50
4.9634768
51
17.2027767
0
ARC
8
DEFAULT_255_1_388
10
13.195618
20
70.64866
40
0.9074803
50
359.8834402
51
5.2832409
0
ARC
8
DEFAULT_255_1_388
10
13.8748538
20
70.5846981
40
0.4341343
50
180.9844233
51
194.9402766
0
ARC
8
DEFAULT_255_1_388
10
13.7567704
20
70.552417
40
0.3117211
50
194.8030557
51
222.0412897
0
ARC
8
DEFAULT_255_1_388
10
13.7225576
20
70.5184715
40
0.2635903
50
221.541578
51
268.8616004
0
ARC
8
DEFAULT_255_1_388
10
13.7307697
20
70.594528
40
0.3398611
50
267.7321071
51
270.009808
0
ARC
8
DEFAULT_255_1_388
10
13.732776
20
70.6172178
40
0.3625561
50
269.6921218
51
280.4122297
0
ARC
8
DEFAULT_255_1_388
10
13.7526172
20
70.5138767
40
0.2573323
50
280.2257165
51
298.633539
0
ARC
8
DEFAULT_255_1_388
10
13.7651585
20
70.4874578
40
0.2281403
50
299.0485543
51
300.4624141
0
ARC
8
DEFAULT_255_1_388
10
13.6892566
20
70.6139796
40
0.3756797
50
300.6578578
51
322.037749
0
ARC
8
DEFAULT_255_1_388
10
13.6522087
20
70.6463266
40
0.4247956
50
321.671786
51
322.3059078
0
ARC
8
DEFAULT_255_1_388
10
13.754565
20
70.5169267
40
0.3960488
50
276.9729088
51
328.0035579
0
ARC
8
DEFAULT_255_1_388
10
13.723412
20
70.6834609
40
0.5652345
50
269.8358003
51
278.0581296
0
ARC
8
DEFAULT_255_1_388
10
13.697842
20
70.767282
40
0.2274263
50
89.2017936
51
117.2852353
0
ARC
8
DEFAULT_255_1_388
10
13.703817
20
70.7625637
40
0.2343798
50
118.0546404
51
137.4544511
0
ARC
8
DEFAULT_255_1_388
10
13.7459814
20
70.7242556
40
0.2913471
50
137.5109688
51
158.8516701
0
ARC
8
DEFAULT_255_1_388
10
13.8739914
20
70.6725902
40
0.4293804
50
158.5845496
51
170.1719753
0
ARC
8
DEFAULT_255_1_388
10
14.005625
20
70.6464519
40
0.5635533
50
169.8378964
51
173.0563877
0
ARC
8
DEFAULT_255_1_388
10
13.4771534
20
70.7039187
40
0.4593755
50
2.9089079
51
12.88469
0
ARC
8
DEFAULT_255_1_388
10
13.6313453
20
70.7402082
40
0.3009753
50
12.6957404
51
28.6405841
0
ARC
8
DEFAULT_255_1_388
10
13.692295
20
70.7717577
40
0.232366
50
29.016559
51
41.1492981
0
ARC
8
DEFAULT_255_1_388
10
13.7150929
20
70.791608
40
0.2021373
50
41.1646967
51
85.001362
0
ARC
8
DEFAULT_255_1_388
10
13.7014933
20
70.7089775
40
0.2857091
50
83.728216
51
90.0968824
0
LINE
8
DEFAULT_255_1_388
10
14.7690234
20
71.1193781
11
14.7690234
21
70.963965
0
LINE
8
DEFAULT_255_1_388
10
14.4636186
20
70.8302375
11
14.4636186
21
70.1363
0
LINE
8
DEFAULT_255_1_388
10
14.4636186
20
70.1363
11
14.2964592
21
70.1363
0
LINE
8
DEFAULT_255_1_388
10
14.2964592
20
70.1363
11
14.2964592
21
71.1139567
0
LINE
8
DEFAULT_255_1_388
10
14.2964592
20
71.1139567
11
14.4591008
21
71.1139567
0
LINE
8
DEFAULT_255_1_388
10
14.4591008
20
71.1139567
11
14.4618115
21
71.0010112
0
ARC
8
DEFAULT_255_1_388
10
14.6940394
20
70.5073068
40
0.4627735
50
80.6751522
51
86.893806
0
ARC
8
DEFAULT_255_1_388
10
14.6872223
20
70.3981103
40
0.5721798
50
86.8046851
51
90.0423898
0
ARC
8
DEFAULT_255_1_388
10
14.6830643
20
70.6748197
40
0.2954939
50
89.2758283
51
106.6212906
0
ARC
8
DEFAULT_255_1_388
10
14.6600668
20
70.7584009
40
0.2088351
50
107.1347109
51
157.6456887
0
ARC
8
DEFAULT_255_1_388
10
14.736873
20
70.7156908
40
0.296292
50
155.6557383
51
157.256838
0
ARC
8
DEFAULT_255_1_388
10
14.7148344
20
70.8467472
40
0.296341
50
127.8167201
51
148.6300223
0
ARC
8
DEFAULT_255_1_388
10
14.6863091
20
70.8760066
40
0.2557782
50
91.3329934
51
126.7875218
0
ARC
8
DEFAULT_255_1_388
10
14.6948479
20
70.7956718
40
0.3363561
50
89.9858247
51
92.4688453
0
ARC
8
DEFAULT_255_1_388
10
14.6957972
20
70.8265114
40
0.3055179
50
85.3587643
51
90.1624243
0
ARC
8
DEFAULT_255_1_388
10
14.7053037
20
70.9394458
40
0.1921848
50
78.4019195
51
85.4592653
0
ARC
8
DEFAULT_255_1_388
10
14.7216098
20
71.0172142
40
0.1127267
50
67.7849217
51
78.573798
0
ARC
8
DEFAULT_255_1_388
10
14.7337732
20
71.0487374
40
0.0789473
50
63.4805074
51
67.3074739
0
LINE
8
DEFAULT_255_1_388
10
15.1232207
20
71.4518898
11
15.1232207
21
70.2781596
0
LINE
8
DEFAULT_255_1_388
10
15.1232207
20
70.2781596
11
15.7466801
21
70.2781596
0
LINE
8
DEFAULT_255_1_388
10
15.7466801
20
70.2781596
11
15.7466801
21
70.1363
0
LINE
8
DEFAULT_255_1_388
10
15.7466801
20
70.1363
11
14.9488327
21
70.1363
0
LINE
8
DEFAULT_255_1_388
10
14.9488327
20
70.1363
11
14.9488327
21
71.4518898
0
LINE
8
DEFAULT_255_1_388
10
14.9488327
20
71.4518898
11
15.1232207
21
71.4518898
0
LINE
8
DEFAULT_255_1_388
10
15.8740827
20
70.6224177
11
15.8740827
21
70.634164
0
LINE
8
DEFAULT_255_1_388
10
16.7640937
20
70.6260319
11
16.7640937
21
70.6142856
0
ARC
8
DEFAULT_255_1_388
10
16.5025272
20
70.637804
40
0.628455
50
166.3005265
51
180.3318609
0
ARC
8
DEFAULT_255_1_388
10
16.4054621
20
70.6595267
40
0.52901
50
153.8608648
51
166.0965672
0
ARC
8
DEFAULT_255_1_388
10
16.3305787
20
70.6996652
40
0.4441126
50
135.1317053
51
154.2534962
0
ARC
8
DEFAULT_255_1_388
10
16.2992438
20
70.7273431
40
0.4023863
50
121.7042632
51
134.7771455
0
ARC
8
DEFAULT_255_1_388
10
16.306787
20
70.7128469
40
0.4186852
50
93.4001111
51
121.5399523
0
ARC
8
DEFAULT_255_1_388
10
16.3174704
20
70.6198759
40
0.5121521
50
89.9706387
51
93.9763381
0
ARC
8
DEFAULT_255_1_388
10
16.3227689
20
70.6638563
40
0.4681988
50
71.3321659
51
90.6162917
0
ARC
8
DEFAULT_255_1_388
10
16.3410722
20
70.7316003
40
0.3981841
50
41.1813875
51
70.7072086
0
ARC
8
DEFAULT_255_1_388
10
16.2873439
20
70.682813
40
0.4707474
50
12.1971434
51
41.3446641
0
ARC
8
DEFAULT_255_1_388
10
16.0706702
20
70.6312328
40
0.6934429
50
359.5702713
51
12.5803533
0
ARC
8
DEFAULT_255_1_388
10
16.1239018
20
70.6107207
40
0.6402018
50
347.0196754
51
0.3190452
0
ARC
8
DEFAULT_255_1_388
10
16.2317072
20
70.5875189
40
0.5299421
50
334.350439
51
346.8460534
0
ARC
8
DEFAULT_255_1_388
10
16.3268318
20
70.5381244
40
0.4228234
50
310.4228125
51
334.8045131
0
ARC
8
DEFAULT_255_1_388
10
16.3360296
20
70.5309301
40
0.4113892
50
301.8488154
51
310.0972985
0
ARC
8
DEFAULT_255_1_388
10
16.3324037
20
70.5394573
40
0.4205483
50
274.3078723
51
301.6554173
0
ARC
8
DEFAULT_255_1_388
10
16.3199492
20
70.6381943
40
0.5199658
50
269.954904
51
274.859116
0
ARC
8
DEFAULT_255_1_388
10
16.3144316
20
70.5818239
40
0.4636233
50
250.8887647
51
270.6313164
0
ARC
8
DEFAULT_255_1_388
10
16.2975477
20
70.5189405
40
0.398705
50
221.1701369
51
250.2227012
0
ARC
8
DEFAULT_255_1_388
10
16.3520142
20
70.5685716
40
0.4723796
50
191.6263861
51
221.3526879
0
ARC
8
DEFAULT_255_1_388
10
16.5643988
20
70.6177203
40
0.6903321
50
179.6101251
51
192.0694841
0
ARC
8
DEFAULT_255_1_388
10
16.6120335
20
70.6106681
40
0.5698993
50
179.636304
51
190.6161344
0
ARC
8
DEFAULT_255_1_388
10
16.4272667
20
70.5746635
40
0.3816643
50
190.4136062
51
208.7168709
0
ARC
8
DEFAULT_255_1_388
10
16.3698701
20
70.5461905
40
0.3176572
50
209.187109
51
217.4221816
0
ARC
8
DEFAULT_255_1_388
10
16.3103172
20
70.4937729
40
0.2385702
50
216.1156863
51
265.2575395
0
ARC
8
DEFAULT_255_1_388
10
16.3192208
20
70.5582608
40
0.3035941
50
264.5891546
51
270.0602378
0
ARC
8
DEFAULT_255_1_388
10
16.3229405
20
70.5155539
40
0.2609091
50
269.2532353
51
291.8793864
0
ARC
8
DEFAULT_255_1_388
10
16.3262284
20
70.4955359
40
0.241148
50
292.9269367
51
323.1777736
0
ARC
8
DEFAULT_255_1_388
10
16.2791569
20
70.5368762
40
0.3036446
50
322.25666
51
323.087958
0
ARC
8
DEFAULT_255_1_388
10
16.2488827
20
70.5551332
40
0.3388345
50
323.6941379
51
343.8493587
0
ARC
8
DEFAULT_255_1_388
10
16.0713263
20
70.6091698
40
0.5244204
50
343.5746655
51
355.008149
0
ARC
8
DEFAULT_255_1_388
10
15.8454955
20
70.6325797
40
0.7514406
50
354.728272
51
0.1208026
0
ARC
8
DEFAULT_255_1_388
10
16.044398
20
70.6377947
40
0.5525482
50
359.6235211
51
11.2016685
0
ARC
8
DEFAULT_255_1_388
10
16.2169807
20
70.6733284
40
0.3763527
50
10.9991302
51
30.8317616
0
ARC
8
DEFAULT_255_1_388
10
16.2615111
20
70.6967988
40
0.3260975
50
31.3007463
51
37.395541
0
ARC
8
DEFAULT_255_1_388
10
16.317383
20
70.7439773
40
0.253082
50
36.5918894
51
62.2439906
0
ARC
8
DEFAULT_255_1_388
10
16.3226122
20
70.7436378
40
0.2509927
50
63.3364883
51
89.7193846
0
ARC
8
DEFAULT_255_1_388
10
16.3177575
20
70.6788375
40
0.3158485
50
88.8962924
51
90.004475
0
ARC
8
DEFAULT_255_1_388
10
16.3142003
20
70.7441071
40
0.250604
50
89.1923115
51
114.7099029
0
ARC
8
DEFAULT_255_1_388
10
16.3174344
20
70.7483675
40
0.2481307
50
115.7996284
51
142.2901353
0
ARC
8
DEFAULT_255_1_388
10
16.3642615
20
70.7064752
40
0.310833
50
141.4607507
51
142.383894
0
ARC
8
DEFAULT_255_1_388
10
16.3790467
20
70.6996449
40
0.3267335
50
143.0176473
51
163.2340089
0
ARC
8
DEFAULT_255_1_388
10
16.5565755
20
70.6434553
40
0.5129308
50
162.9446504
51
174.3733893
0
ARC
8
DEFAULT_255_1_388
10
16.7979728
20
70.6163483
40
0.75583
50
174.1225809
51
180.1563667
0
LINE
8
DEFAULT_255_1_388
10
17.5989873
20
71.005529
11
17.6071193
21
71.1139567
0
LINE
8
DEFAULT_255_1_388
10
17.6071193
20
71.1139567
11
17.7598217
21
71.1139567
0
LINE
8
DEFAULT_255_1_388
10
17.7598217
20
71.1139567
11
17.7598217
21
70.1597927
0
LINE
8
DEFAULT_255_1_388
10
16.9836599
20
69.9203481
11
17.0704021
21
70.0206438
0
LINE
8
DEFAULT_255_1_388
10
17.5917587
20
70.1498535
11
17.5917587
21
70.233885
0
LINE
8
DEFAULT_255_1_388
10
17.5917587
20
70.4037551
11
17.5917587
21
70.8501159
0
ARC
8
DEFAULT_255_1_388
10
17.7378565
20
70.638122
40
0.8039074
50
169.8802333
51
180.3464902
0
ARC
8
DEFAULT_255_1_388
10
17.4731371
20
70.687287
40
0.5346711
50
152.8534324
51
170.0824729
0
ARC
8
DEFAULT_255_1_388
10
17.3793766
20
70.7316868
40
0.4309932
50
142.0147746
51
152.418569
0
ARC
8
DEFAULT_255_1_388
10
17.3077215
20
70.7969169
40
0.3344504
50
94.3317494
51
143.2674518
0
ARC
8
DEFAULT_255_1_388
10
17.3194074
20
70.7088903
40
0.423138
50
89.9487512
51
95.0093077
0
ARC
8
DEFAULT_255_1_388
10
17.3240871
20
70.7268021
40
0.4052487
50
72.9496911
51
90.6081488
0
ARC
8
DEFAULT_255_1_388
10
17.3471595
20
70.8103718
40
0.3185963
50
37.7743532
51
72.5099202
0
ARC
8
DEFAULT_255_1_388
10
17.2436461
20
70.1554774
40
0.5161937
50
346.3655403
51
0.4789834
0
ARC
8
DEFAULT_255_1_388
10
17.3975294
20
70.1163644
40
0.3574311
50
314.3365584
51
346.6438898
0
ARC
8
DEFAULT_255_1_388
10
17.3860439
20
70.13249
40
0.3770042
50
280.7144
51
313.872307
0
ARC
8
DEFAULT_255_1_388
10
17.3483174
20
70.3006099
40
0.5492378
50
269.6628653
51
281.3208129
0
ARC
8
DEFAULT_255_1_388
10
17.3464834
20
70.2542105
40
0.5028309
50
245.5258654
51
269.8407328
0
ARC
8
DEFAULT_255_1_388
10
17.303568
20
70.1737065
40
0.4118207
50
232.6664457
51
246.3200328
0
ARC
8
DEFAULT_255_1_388
10
17.2490923
20
70.1014386
40
0.3213227
50
214.3036526
51
232.5750527
0
ARC
8
DEFAULT_255_1_388
10
17.3748956
20
70.2618259
40
0.3884393
50
218.381912
51
236.3657409
0
ARC
8
DEFAULT_255_1_388
10
17.3298725
20
70.1990326
40
0.3112322
50
236.8637655
51
270.6382272
0
ARC
8
DEFAULT_255_1_388
10
17.3360408
20
70.2362587
40
0.3484494
50
269.5557858
51
282.3972101
0
ARC
8
DEFAULT_255_1_388
10
17.3625994
20
70.1220767
40
0.2312324
50
282.043923
51
308.3079272
0
ARC
8
DEFAULT_255_1_388
10
17.3722108
20
70.106747
40
0.2132542
50
308.8347234
51
315.2037678
0
ARC
8
DEFAULT_255_1_388
10
17.3633817
20
70.1132123
40
0.2240808
50
315.6213011
51
345.6795376
0
ARC
8
DEFAULT_255_1_388
10
17.2532242
20
70.1438736
40
0.3384084
50
345.2627538
51
358.6311244
0
ARC
8
DEFAULT_255_1_388
10
17.1533748
20
70.1497581
40
0.4383839
50
358.1739988
51
0.0124651
0
ARC
8
DEFAULT_255_1_388
10
17.3427924
20
70.4491381
40
0.3291173
50
275.6950404
51
319.1537182
0
ARC
8
DEFAULT_255_1_388
10
17.3189555
20
70.5869049
40
0.4686772
50
269.8805882
51
276.9235205
0
ARC
8
DEFAULT_255_1_388
10
17.3129855
20
70.46199
40
0.3437976
50
244.0748846
51
270.8321697
0
ARC
8
DEFAULT_255_1_388
10
17.3214363
20
70.4642423
40
0.3495805
50
217.781776
51
242.9905232
0
ARC
8
DEFAULT_255_1_388
10
17.3889794
20
70.5243567
40
0.4398355
50
217.5209891
51
218.58043
0
ARC
8
DEFAULT_255_1_388
10
17.4205633
20
70.542913
40
0.4762087
50
195.3497149
51
216.9773048
0
ARC
8
DEFAULT_255_1_388
10
17.6481522
20
70.6090667
40
0.7131994
50
183.9387193
51
195.6348167
0
ARC
8
DEFAULT_255_1_388
10
17.9041717
20
70.6320646
40
0.9702086
50
179.929381
51
184.2551265
0
ARC
8
DEFAULT_255_1_388
10
17.7555383
20
70.6108515
40
0.6535206
50
179.6989243
51
188.5749266
0
ARC
8
DEFAULT_255_1_388
10
17.5290574
20
70.5754789
40
0.4242988
50
188.4117627
51
202.0559679
0
ARC
8
DEFAULT_255_1_388
10
17.4200834
20
70.5326952
40
0.3072368
50
202.2924994
51
215.4475859
0
ARC
8
DEFAULT_255_1_388
10
17.3475905
20
70.4765576
40
0.2156547
50
214.4673097
51
264.3362727
0
ARC
8
DEFAULT_255_1_388
10
17.3590573
20
70.5481673
40
0.2880794
50
263.4723224
51
270.0965288
0
ARC
8
DEFAULT_255_1_388
10
17.3635808
20
70.5313896
40
0.2713313
50
269.1472473
51
291.7978484
0
ARC
8
DEFAULT_255_1_388
10
17.3706069
20
70.5000081
40
0.2396396
50
293.0243185
51
327.6232391
0
ARC
8
DEFAULT_255_1_388
10
17.2909502
20
70.5582435
40
0.3381603
50
326.5171836
51
332.8160011
0
ARC
8
DEFAULT_255_1_388
10
17.3304684
20
70.7112272
40
0.29591
50
27.9928465
51
47.6314088
0
ARC
8
DEFAULT_255_1_388
10
17.3711389
20
70.7499256
40
0.2399437
50
48.5793547
51
88.6245273
0
ARC
8
DEFAULT_255_1_388
10
17.3614507
20
70.6659448
40
0.3242237
50
87.2690754
51
90.0178312
0
ARC
8
DEFAULT_255_1_388
10
17.3582206
20
70.7397957
40
0.2503923
50
89.2839515
51
110.1847982
0
ARC
8
DEFAULT_255_1_388
10
17.3513007
20
70.7697002
40
0.2199699
50
111.180781
51
145.0423499
0
ARC
8
DEFAULT_255_1_388
10
17.3873868
20
70.7384759
40
0.2674811
50
143.9895932
51
144.106678
0
ARC
8
DEFAULT_255_1_388
10
17.4243939
20
70.716319
40
0.3104736
50
144.7981654
51
162.8715843
0
ARC
8
DEFAULT_255_1_388
10
17.6150538
20
70.6550138
40
0.5107383
50
162.598526
51
173.3417416
0
ARC
8
DEFAULT_255_1_388
10
17.9151911
20
70.6177767
40
0.8131718
50
173.1877249
51
180.2459848
0
LINE
8
DEFAULT_255_1_388
10
18.1935327
20
71.1139567
11
18.1935327
21
70.1363
0
LINE
8
DEFAULT_255_1_388
10
18.1935327
20
70.1363
11
18.0263732
21
70.1363
0
LINE
8
DEFAULT_255_1_388
10
18.0263732
20
70.1363
11
18.0263732
21
71.1139567
0
LINE
8
DEFAULT_255_1_388
10
18.0263732
20
71.1139567
11
18.1935327
21
71.1139567
0
ARC
8
DEFAULT_255_1_388
10
18.1229095
20
71.3743428
40
0.1100948
50
161.4148232
51
180.5532607
0
ARC
8
DEFAULT_255_1_388
10
18.1089404
20
71.3781875
40
0.0956324
50
138.1830164
51
160.9307633
0
ARC
8
DEFAULT_255_1_388
10
18.0965592
20
71.3889313
40
0.0792417
50
104.6371663
51
138.0036136
0
ARC
8
DEFAULT_255_1_388
10
18.108613
20
71.3476963
40
0.1221906
50
92.0601206
51
105.2198859
0
ARC
8
DEFAULT_255_1_388
10
18.1112494
20
71.3088583
40
0.161103
50
89.9790681
51
92.5006086
0
ARC
8
DEFAULT_255_1_388
10
18.1123671
20
71.3344998
40
0.1354654
50
78.0234649
51
90.4478111
0
ARC
8
DEFAULT_255_1_388
10
18.1227255
20
71.3810203
40
0.0878096
50
55.0521508
51
78.336297
0
ARC
8
DEFAULT_255_1_388
10
18.1283789
20
71.3905168
40
0.0767913
50
42.0506198
51
54.4508489
0
ARC
8
DEFAULT_255_1_388
10
18.1131822
20
71.3765821
40
0.0974091
50
1.7493657
51
42.1498724
0
ARC
8
DEFAULT_255_1_388
10
18.0845728
20
71.3733166
40
0.1261276
50
359.9832635
51
2.8353994
0
ARC
8
DEFAULT_255_1_388
10
18.1032138
20
71.3722412
40
0.1074916
50
342.1062453
51
0.5535864
0
ARC
8
DEFAULT_255_1_388
10
18.1192562
20
71.3678197
40
0.0908695
50
316.7110111
51
341.6513114
0
ARC
8
DEFAULT_255_1_388
10
18.1267994
20
71.3610607
40
0.0807447
50
285.4398289
51
316.5320129
0
ARC
8
DEFAULT_255_1_388
10
18.1144164
20
71.4022023
40
0.1237022
50
272.3543902
51
285.8951677
0
ARC
8
DEFAULT_255_1_388
10
18.1113875
20
71.4437742
40
0.1653687
50
269.9725761
51
272.8112722
0
ARC
8
DEFAULT_255_1_388
10
18.1102927
20
71.4186727
40
0.1402709
50
258.8433431
51
270.4148607
0
ARC
8
DEFAULT_255_1_388
10
18.1001706
20
71.3696739
40
0.0902407
50
238.54281
51
259.1289544
0
ARC
8
DEFAULT_255_1_388
10
18.0925028
20
71.3557694
40
0.0743817
50
222.5056676
51
237.9918132
0
ARC
8
DEFAULT_255_1_388
10
18.1068622
20
71.3688295
40
0.0937918
50
184.1070774
51
222.4604165
0
ARC
8
DEFAULT_255_1_388
10
18.1371035
20
71.3731538
40
0.1242838
50
179.9419581
51
185.0970785
0
LINE
8
DEFAULT_255_1_388
10
19.0835437
20
70.4444155
11
19.2416674
21
70.4444155
0
LINE
8
DEFAULT_255_1_388
10
18.4176167
20
70.6160927
11
18.4176167
21
70.6441032
0
LINE
8
DEFAULT_255_1_388
10
19.2416674
20
70.7778308
11
19.0835437
21
70.7778308
0
LINE
8
DEFAULT_255_1_388
10
18.5847761
20
70.6377783
11
18.5847761
21
70.6061535
0
ARC
8
DEFAULT_255_1_388
10
18.8571993
20
70.4954109
40
0.2407783
50
269.0327343
51
309.2224588
0
ARC
8
DEFAULT_255_1_388
10
18.8807997
20
70.471219
40
0.207135
50
308.3965377
51
329.6987678
0
ARC
8
DEFAULT_255_1_388
10
18.8963055
20
70.4594899
40
0.1878439
50
330.4013397
51
355.3970937
0
ARC
8
DEFAULT_255_1_388
10
18.947704
20
70.4614312
40
0.2944555
50
329.2357424
51
356.6872018
0
ARC
8
DEFAULT_255_1_388
10
18.8858935
20
70.4941153
40
0.3643032
50
324.8702872
51
329.7911998
0
ARC
8
DEFAULT_255_1_388
10
18.8770217
20
70.5017113
40
0.3759315
50
298.8769973
51
324.7015261
0
ARC
8
DEFAULT_255_1_388
10
18.8396761
20
70.561229
40
0.4461015
50
296.902888
51
299.3854973
0
ARC
8
DEFAULT_255_1_388
10
18.8542758
20
70.5288595
40
0.4106323
50
269.8407861
51
297.1298875
0
ARC
8
DEFAULT_255_1_388
10
18.8482754
20
70.6006354
40
0.4824312
50
253.3156606
51
270.5771301
0
ARC
8
DEFAULT_255_1_388
10
18.8204932
20
70.5000943
40
0.3781531
50
221.1002518
51
252.9743523
0
ARC
8
DEFAULT_255_1_388
10
18.8722402
20
70.5445131
40
0.4463481
50
194.5394284
51
221.0302764
0
ARC
8
DEFAULT_255_1_388
10
19.0802222
20
70.6024897
40
0.6622359
50
182.0498004
51
194.8774376
0
ARC
8
DEFAULT_255_1_388
10
19.2795312
20
70.6157778
40
0.8619146
50
179.9790673
51
182.4586753
0
ARC
8
DEFAULT_255_1_388
10
19.0838626
20
70.6474412
40
0.6662543
50
168.615001
51
180.2870547
0
ARC
8
DEFAULT_255_1_388
10
18.9486534
20
70.6739636
40
0.5284705
50
154.9162417
51
168.5402053
0
ARC
8
DEFAULT_255_1_388
10
18.844981
20
70.7251942
40
0.4128641
50
133.5745308
51
155.2559538
0
ARC
8
DEFAULT_255_1_388
10
18.8266653
20
70.7408116
40
0.3889328
50
122.0165845
51
133.2056002
0
ARC
8
DEFAULT_255_1_388
10
18.8306977
20
70.7308977
40
0.3994808
50
97.8732516
51
121.753124
0
ARC
8
DEFAULT_255_1_388
10
18.8508436
20
70.611959
40
0.5200708
50
89.8471322
51
98.2768545
0
ARC
8
DEFAULT_255_1_388
10
18.8563284
20
70.6805809
40
0.4514657
50
73.3760755
51
90.5199878
0
ARC
8
DEFAULT_255_1_388
10
18.87842
20
70.761855
40
0.3672743
50
47.7085939
51
73.0510707
0
ARC
8
DEFAULT_255_1_388
10
18.8930302
20
70.7745231
40
0.3480795
50
3.7442743
51
48.0844373
0
ARC
8
DEFAULT_255_1_388
10
18.7818296
20
70.7567946
40
0.4603187
50
2.6192831
51
5.0424684
0
ARC
8
DEFAULT_255_1_388
10
18.8333768
20
70.7612986
40
0.2507126
50
3.78087
51
23.9354314
0
ARC
8
DEFAULT_255_1_388
10
18.8591027
20
70.7703644
40
0.2235311
50
24.4867863
51
46.9439952
0
ARC
8
DEFAULT_255_1_388
10
18.8591973
20
70.7729874
40
0.2215567
50
46.4987715
51
89.3298168
0
ARC
8
DEFAULT_255_1_388
10
18.8522631
20
70.7063742
40
0.2883121
50
88.1066411
51
90.0063536
0
ARC
8
DEFAULT_255_1_388
10
18.8491607
20
70.7121548
40
0.2825481
50
89.3773571
51
107.2070287
0
ARC
8
DEFAULT_255_1_388
10
18.8330876
20
70.7703667
40
0.2221946
50
107.688418
51
143.3582986
0
ARC
8
DEFAULT_255_1_388
10
18.896917
20
70.7224064
40
0.3020337
50
143.2845866
51
162.9352432
0
ARC
8
DEFAULT_255_1_388
10
19.0663186
20
70.6680401
40
0.4799362
50
162.6652705
51
174.0802646
0
ARC
8
DEFAULT_255_1_388
10
19.3073667
20
70.6400287
40
0.7225942
50
173.8422673
51
180.1784414
0
ARC
8
DEFAULT_255_1_388
10
19.2457337
20
70.6027276
40
0.6609665
50
179.7030218
51
188.2277356
0
ARC
8
DEFAULT_255_1_388
10
19.0092945
20
70.5673143
40
0.4218948
50
188.0630838
51
201.115837
0
ARC
8
DEFAULT_255_1_388
10
18.8857829
20
70.520173
40
0.2896941
50
201.2186162
51
216.9761863
0
ARC
8
DEFAULT_255_1_388
10
18.8349987
20
70.4821225
40
0.2262366
50
217.0136373
51
265.2055518
0
ARC
8
DEFAULT_255_1_388
10
18.8525324
20
70.5858503
40
0.3311837
50
263.6824874
51
270.1042034
0
LINE
8
DEFAULT_255_2_778
10
9.3932417
20
60.721908
11
10.7161417
21
60.721908
0
LINE
8
DEFAULT_255_2_778
10
10.7161417
20
60.721908
11
10.7161417
21
35.586508
0
LINE
8
DEFAULT_255_2_778
10
9.3932834
20
35.5864333
11
12.0390834
21
35.5864333
0
LINE
8
DEFAULT_255_2_778
10
12.0390834
20
35.5864333
11
12.0390834
21
30.2947333
0
LINE
8
DEFAULT_255_2_778
10
12.0390834
20
30.2947333
11
9.3932834
21
30.2947333
0
LINE
8
DEFAULT_255_2_778
10
9.3932834
20
30.2947333
11
9.3932834
21
35.5864333
0
ARC
8
DEFAULT_255_2_778_1
10
13.1928591
20
30.397177
40
4.816461
50
120.9442904
51
122.351755
0
ARC
8
DEFAULT_255_2_778_1
10
12.7462523
20
31.1008039
40
3.9830657
50
122.3407904
51
124.1946752
0
ARC
8
DEFAULT_255_2_778_1
10
12.3063464
20
31.7473306
40
3.2010724
50
124.1855758
51
126.4338849
0
ARC
8
DEFAULT_255_2_778_1
10
11.9204129
20
32.2700611
40
2.5513094
50
126.4326926
51
128.8877368
0
ARC
8
DEFAULT_255_2_778_1
10
11.5855968
20
32.6844658
40
2.0185498
50
128.8749205
51
131.8726567
0
ARC
8
DEFAULT_255_2_778_1
10
11.2884677
20
33.0154854
40
1.5737356
50
131.8616166
51
135.4168838
0
ARC
8
DEFAULT_255_2_778_1
10
11.025668
20
33.2736765
40
1.2053256
50
135.3893975
51
139.9687014
0
ARC
8
DEFAULT_255_2_778_1
10
10.7927889
20
33.4685102
40
0.9016937
50
139.9301659
51
145.9260426
0
ARC
8
DEFAULT_255_2_778_1
10
10.596654
20
33.6005104
40
0.6652776
50
145.8787362
51
153.8146208
0
ARC
8
DEFAULT_255_2_778_1
10
10.4445553
20
33.6748797
40
0.4959714
50
153.770634
51
164.3484794
0
ARC
8
DEFAULT_255_2_778_1
10
10.3432387
20
33.7030786
40
0.3908039
50
164.3220276
51
179.8083066
0
ARC
8
DEFAULT_255_2_778_1
10
10.3642789
20
33.711215
40
0.4118985
50
180.9499449
51
213.8111542
0
ARC
8
DEFAULT_255_2_778_1
10
10.6401828
20
33.8807896
40
0.73561
50
212.8271214
51
224.258472
0
ARC
8
DEFAULT_255_2_778_1
10
11.0230335
20
34.2501236
40
1.267567
50
224.1376218
51
231.4508261
0
ARC
8
DEFAULT_255_2_778_1
10
11.6657195
20
35.0531168
40
2.2960809
50
231.3955893
51
236.1256478
0
ARC
8
DEFAULT_255_2_778_1
10
13.4980223
20
37.7996293
40
5.5976905
50
236.2233172
51
239.1314682
0
ARC
8
DEFAULT_255_2_778_1
10
25.447927
20
57.5273568
40
28.6623793
50
238.8606853
51
239.0711101
0
ARC
8
DEFAULT_255_2_778_1
10
6.2757281
20
25.4302653
40
8.7248518
50
57.2420924
51
59.4062964
0
ARC
8
DEFAULT_255_2_778_1
10
9.5034241
20
30.4612102
40
2.747542
50
52.8289294
51
57.079028
0
ARC
8
DEFAULT_255_2_778_1
10
10.2780783
20
31.4815488
40
1.466457
50
46.3041868
51
52.8596521
0
ARC
8
DEFAULT_255_2_778_1
10
10.7103073
20
31.9316842
40
0.8424061
50
36.2174211
51
46.4090895
0
ARC
8
DEFAULT_255_2_778_1
10
10.9948088
20
32.1365128
40
0.4918609
50
17.400375
51
36.5489745
0
ARC
8
DEFAULT_255_2_778_1
10
11.1088994
20
32.1763754
40
0.3710912
50
0.0676858
51
16.7951297
0
ARC
8
DEFAULT_255_2_778_1
10
11.0878613
20
32.1782428
40
0.3921317
50
343.8035191
51
359.7912046
0
ARC
8
DEFAULT_255_2_778_1
10
10.9815912
20
32.2087167
40
0.5026844
50
333.2506233
51
343.8465691
0
ARC
8
DEFAULT_255_2_778_1
10
10.8277757
20
32.2854313
40
0.6745679
50
325.6600948
51
333.3122657
0
ARC
8
DEFAULT_255_2_778_1
10
10.6323344
20
32.4182296
40
0.9108568
50
319.7560915
51
325.6976089
0
ARC
8
DEFAULT_255_2_778_1
10
10.404199
20
32.6100002
40
1.2088854
50
315.4577584
51
319.8037947
0
ARC
8
DEFAULT_255_2_778_1
10
10.1408127
20
32.8688507
40
1.5781764
50
311.7298824
51
315.4670864
0
ARC
8
DEFAULT_255_2_778_1
10
9.8317879
20
33.2144074
40
2.0417554
50
308.723055
51
311.7470879
0
ARC
8
DEFAULT_255_2_778_1
10
9.477589
20
33.6556492
40
2.6075745
50
306.1165163
51
308.7300151
0
ARC
8
DEFAULT_255_2_778_1
10
9.0746091
20
34.2069523
40
3.2904564
50
303.9559446
51
306.1266333
0
ARC
8
DEFAULT_255_2_778_1
10
8.6630432
20
34.816215
40
4.0257023
50
302.3733397
51
303.9712246
0
ARC
8
DEFAULT_255_2_778_1
10
8.2434347
20
35.4777058
40
4.8090549
50
300.9434827
51
302.3758078
0
LINE
8
DEFAULT_255_2_778
10
10.7161417
20
30.294808
11
10.7161417
21
5.159408
0
LINE
8
DEFAULT_255_2_778
10
10.7161417
20
5.159408
11
9.3932417
21
5.159408
0
LINE
8
DEFAULT_255_1_388
10
4.1640903
20
69.4674898
11
4.1640903
21
68.2937596
0
LINE
8
DEFAULT_255_1_388
10
4.1640903
20
68.2937596
11
4.7875498
21
68.2937596
0
LINE
8
DEFAULT_255_1_388
10
4.7875498
20
68.2937596
11
4.7875498
21
68.1519
0
LINE
8
DEFAULT_255_1_388
10
4.7875498
20
68.1519
11
3.9897024
21
68.1519
0
LINE
8
DEFAULT_255_1_388
10
3.9897024
20
68.1519
11
3.9897024
21
69.4674898
0
LINE
8
DEFAULT_255_1_388
10
3.9897024
20
69.4674898
11
4.1640903
21
69.4674898
0
LINE
8
DEFAULT_255_1_388
10
5.4914265
20
69.4738148
11
5.4914265
21
68.1519
0
LINE
8
DEFAULT_255_1_388
10
5.4914265
20
68.1519
11
5.3233635
21
68.1519
0
LINE
8
DEFAULT_255_1_388
10
5.3233635
20
68.1519
11
5.3233635
21
69.265995
0
LINE
8
DEFAULT_255_1_388
10
5.3233635
20
69.265995
11
4.986334
21
69.1422066
0
LINE
8
DEFAULT_255_1_388
10
4.986334
20
69.1422066
11
4.986334
21
69.2940055
0
LINE
8
DEFAULT_255_1_388
10
4.986334
20
69.2940055
11
5.4652231
21
69.4738148
0
LINE
8
DEFAULT_255_1_388
10
5.4652231
20
69.4738148
11
5.4914265
21
69.4738148
0
LINE
8
DEFAULT_255_1_388
10
4.9834637
20
4.6519
11
4.8578682
21
4.9952545
0
LINE
8
DEFAULT_255_1_388
10
4.8578682
20
4.9952545
11
4.3066939
21
4.9952545
0
LINE
8
DEFAULT_255_1_388
10
4.3066939
20
4.9952545
11
4.1829056
21
4.6519
0
LINE
8
DEFAULT_255_1_388
10
4.1829056
20
4.6519
11
4.0039998
21
4.6519
0
LINE
8
DEFAULT_255_1_388
10
4.0039998
20
4.6519
11
4.5063816
21
5.9674898
0
LINE
8
DEFAULT_255_1_388
10
4.5063816
20
5.9674898
11
4.6581805
21
5.9674898
0
LINE
8
DEFAULT_255_1_388
10
4.6581805
20
5.9674898
11
5.1614659
21
4.6519
0
LINE
8
DEFAULT_255_1_388
10
5.1614659
20
4.6519
11
4.9834637
21
4.6519
0
LINE
8
DEFAULT_255_1_388
10
4.5822811
20
5.7533451
11
4.3591006
21
5.1380177
0
LINE
8
DEFAULT_255_1_388
10
4.3591006
20
5.1380177
11
4.806365
21
5.1380177
0
LINE
8
DEFAULT_255_1_388
10
4.806365
20
5.1380177
11
4.5822811
21
5.7533451
0
LINE
8
DEFAULT_255_1_388
10
5.5246988
20
5.9674898
11
5.5246988
21
4.6519
0
LINE
8
DEFAULT_255_1_388
10
5.5246988
20
4.6519
11
5.3512144
21
4.6519
0
LINE
8
DEFAULT_255_1_388
10
5.3512144
20
4.6519
11
5.3512144
21
5.9674898
0
LINE
8
DEFAULT_255_1_388
10
5.3512144
20
5.9674898
11
5.5246988
21
5.9674898
0
LINE
8
DEFAULT_255_1_388
10
6.6478294
20
5.9674898
11
6.6478294
21
5.8735191
0
LINE
8
DEFAULT_255_1_388
10
6.6478294
20
5.8735191
11
6.10298
21
4.6519
0
LINE
8
DEFAULT_255_1_388
10
6.10298
20
4.6519
11
5.9276885
21
4.6519
0
LINE
8
DEFAULT_255_1_388
10
5.9276885
20
4.6519
11
6.4707308
21
5.830148
0
LINE
8
DEFAULT_255_1_388
10
6.4707308
20
5.830148
11
5.758722
21
5.830148
0
LINE
8
DEFAULT_255_1_388
10
5.758722
20
5.830148
11
5.758722
21
5.9674898
0
LINE
8
DEFAULT_255_1_388
10
5.758722
20
5.9674898
11
6.6478294
21
5.9674898
0
LINE
8
DEFAULT_255_1_388
10
4.9834637
20
12.5894
11
4.8578682
21
12.9327545
0
LINE
8
DEFAULT_255_1_388
10
4.8578682
20
12.9327545
11
4.3066939
21
12.9327545
0
LINE
8
DEFAULT_255_1_388
10
4.3066939
20
12.9327545
11
4.1829056
21
12.5894
0
LINE
8
DEFAULT_255_1_388
10
4.1829056
20
12.5894
11
4.0039998
21
12.5894
0
LINE
8
DEFAULT_255_1_388
10
4.0039998
20
12.5894
11
4.5063816
21
13.9049898
0
LINE
8
DEFAULT_255_1_388
10
4.5063816
20
13.9049898
11
4.6581805
21
13.9049898
0
LINE
8
DEFAULT_255_1_388
10
4.6581805
20
13.9049898
11
5.1614659
21
12.5894
0
LINE
8
DEFAULT_255_1_388
10
5.1614659
20
12.5894
11
4.9834637
21
12.5894
0
LINE
8
DEFAULT_255_1_388
10
4.5822811
20
13.6908451
11
4.3591006
21
13.0755177
0
LINE
8
DEFAULT_255_1_388
10
4.3591006
20
13.0755177
11
4.806365
21
13.0755177
0
LINE
8
DEFAULT_255_1_388
10
4.806365
20
13.0755177
11
4.5822811
21
13.6908451
0
LINE
8
DEFAULT_255_1_388
10
5.5246988
20
13.9049898
11
5.5246988
21
12.5894
0
LINE
8
DEFAULT_255_1_388
10
5.5246988
20
12.5894
11
5.3512144
21
12.5894
0
LINE
8
DEFAULT_255_1_388
10
5.3512144
20
12.5894
11
5.3512144
21
13.9049898
0
LINE
8
DEFAULT_255_1_388
10
5.3512144
20
13.9049898
11
5.5246988
21
13.9049898
0
LINE
8
DEFAULT_255_1_388
10
6.424649
20
13.9058934
11
6.4544666
21
13.9058934
0
LINE
8
DEFAULT_255_1_388
10
6.4544666
20
13.9058934
11
6.4544666
21
13.7640338
0
LINE
8
DEFAULT_255_1_388
10
6.4544666
20
13.7640338
11
6.4237454
21
13.7640338
0
LINE
8
DEFAULT_255_1_388
10
5.808418
20
13.0899747
11
5.808418
21
13.1541278
0
LINE
8
DEFAULT_255_1_388
10
5.976481
20
13.1324422
11
5.976481
21
13.0709999
0
ARC
8
DEFAULT_255_1_388
10
6.4296346
20
13.2017826
40
0.562282
50
90.6001079
51
104.5146616
0
ARC
8
DEFAULT_255_1_388
10
6.3859305
20
13.36431
40
0.3939917
50
104.2855758
51
133.8630124
0
ARC
8
DEFAULT_255_1_388
10
6.4043558
20
13.3521243
40
0.4155734
50
134.5304124
51
161.6210222
0
ARC
8
DEFAULT_255_1_388
10
6.590349
20
13.2865421
40
0.6127682
50
161.2850533
51
174.2074364
0
ARC
8
DEFAULT_255_1_388
10
6.7493057
20
13.2646437
40
0.7731446
50
173.7817938
51
174.9251711
0
ARC
8
DEFAULT_255_1_388
10
6.236725
20
13.109127
40
0.3412588
50
95.8332067
51
138.995412
0
ARC
8
DEFAULT_255_1_388
10
6.2618531
20
12.9652695
40
0.4870358
50
89.8755506
51
97.0540979
0
ARC
8
DEFAULT_255_1_388
10
6.267192
20
13.0592841
40
0.3930432
50
71.6407016
51
90.6240821
0
ARC
8
DEFAULT_255_1_388
10
6.2841313
20
13.1216433
40
0.3285421
50
39.6368051
51
71.0190743
0
ARC
8
DEFAULT_255_1_388
10
6.2125221
20
13.0597586
40
0.4231706
50
10.6588054
51
39.9044509
0
ARC
8
DEFAULT_255_1_388
10
6.0383767
20
13.0219223
40
0.60133
50
359.6827842
51
11.1326896
0
ARC
8
DEFAULT_255_1_388
10
6.0339102
20
13.0139715
40
0.6058047
50
347.2485908
51
0.4371098
0
ARC
8
DEFAULT_255_1_388
10
6.2214888
20
12.9688379
40
0.4128987
50
318.1408565
51
347.6118497
0
ARC
8
DEFAULT_255_1_388
10
6.2580484
20
12.9387903
40
0.3656244
50
275.6342406
51
317.824739
0
ARC
8
DEFAULT_255_1_388
10
6.2332005
20
13.0849827
40
0.513655
50
269.8872513
51
276.7916069
0
ARC
8
DEFAULT_255_1_388
10
6.2270198
20
12.9696181
40
0.398323
50
246.9139443
51
270.7436787
0
ARC
8
DEFAULT_255_1_388
10
6.2277394
20
12.9536044
40
0.3839368
50
218.1665534
51
245.8780431
0
ARC
8
DEFAULT_255_1_388
10
6.3266766
20
13.0363903
40
0.5128958
50
191.4115343
51
218.6077624
0
ARC
8
DEFAULT_255_1_388
10
6.5447082
20
13.0852777
40
0.7363054
50
179.6344971
51
191.7836758
0
ARC
8
DEFAULT_255_1_388
10
7.1726957
20
13.1616495
40
1.3642984
50
171.4523743
51
180.3158856
0
ARC
8
DEFAULT_255_1_388
10
6.6782684
20
13.2385895
40
0.8639311
50
157.9802296
51
171.6246761
0
ARC
8
DEFAULT_255_1_388
10
6.4292034
20
13.3379038
40
0.5958004
50
141.4299236
51
157.8541251
0
ARC
8
DEFAULT_255_1_388
10
6.3570118
20
13.3889746
40
0.5075416
50
102.871586
51
140.8564533
0
ARC
8
DEFAULT_255_1_388
10
6.429867
20
13.1144943
40
0.7914163
50
90.377773
51
103.5868422
0
ARC
8
DEFAULT_255_1_388
10
6.2343192
20
13.0464543
40
0.2667015
50
89.8751238
51
126.2072139
0
ARC
8
DEFAULT_255_1_388
10
6.2394663
20
13.0290847
40
0.2838229
50
124.9742447
51
144.8960197
0
ARC
8
DEFAULT_255_1_388
10
6.2196908
20
13.0451981
40
0.2583845
50
145.2974778
51
160.2660922
0
ARC
8
DEFAULT_255_1_388
10
6.5653396
20
13.0674151
40
0.5888695
50
179.6512124
51
190.285571
0
ARC
8
DEFAULT_255_1_388
10
6.3747876
20
13.0314968
40
0.3949683
50
190.0944895
51
207.5099647
0
ARC
8
DEFAULT_255_1_388
10
6.3111457
20
13.0012177
40
0.3245464
50
207.9585471
51
216.325377
0
ARC
8
DEFAULT_255_1_388
10
6.2729095
20
12.9697712
40
0.2751259
50
215.7661336
51
232.5457193
0
ARC
8
DEFAULT_255_1_388
10
6.229821
20
12.9150273
40
0.2054668
50
232.8005815
51
270.6605497
0
ARC
8
DEFAULT_255_1_388
10
6.2349635
20
12.9559853
40
0.2464268
50
269.3550767
51
288.474612
0
ARC
8
DEFAULT_255_1_388
10
6.2454142
20
12.9166721
40
0.2058436
50
289.1831976
51
322.9685307
0
ARC
8
DEFAULT_255_1_388
10
6.1766243
20
12.9709279
40
0.2934408
50
322.6007085
51
346.5183319
0
ARC
8
DEFAULT_255_1_388
10
6.0463999
20
13.0041434
40
0.4278249
50
346.2584622
51
358.7739592
0
ARC
8
DEFAULT_255_1_388
10
5.9312575
20
13.0103829
40
0.5430876
50
358.3757628
51
0.0082477
0
ARC
8
DEFAULT_255_1_388
10
6.0169393
20
13.0134856
40
0.4574157
50
359.6211417
51
11.28403
0
ARC
8
DEFAULT_255_1_388
10
6.1605999
20
13.0434535
40
0.3106708
50
11.0483152
51
31.8145585
0
ARC
8
DEFAULT_255_1_388
10
6.1953705
20
13.0623045
40
0.2711963
50
32.3028554
51
38.0820598
0
ARC
8
DEFAULT_255_1_388
10
6.2426938
20
13.1051717
40
0.2075566
50
36.8249851
51
85.741667
0
ARC
8
DEFAULT_255_1_388
10
6.235135
20
13.0488065
40
0.2643487
50
85.0150021
51
90.050843
0
LINE
8
DEFAULT_255_1_388
10
4.9834637
20
20.5269
11
4.8578682
21
20.8702545
0
LINE
8
DEFAULT_255_1_388
10
4.8578682
20
20.8702545
11
4.3066939
21
20.8702545
0
LINE
8
DEFAULT_255_1_388
10
4.3066939
20
20.8702545
11
4.1829056
21
20.5269
0
LINE
8
DEFAULT_255_1_388
10
4.1829056
20
20.5269
11
4.0039998
21
20.5269
0
LINE
8
DEFAULT_255_1_388
10
4.0039998
20
20.5269
11
4.5063816
21
21.8424898
0
LINE
8
DEFAULT_255_1_388
10
4.5063816
20
21.8424898
11
4.6581805
21
21.8424898
0
LINE
8
DEFAULT_255_1_388
10
4.6581805
20
21.8424898
11
5.1614659
21
20.5269
0
LINE
8
DEFAULT_255_1_388
10
5.1614659
20
20.5269
11
4.9834637
21
20.5269
0
LINE
8
DEFAULT_255_1_388
10
4.5822811
20
21.6283451
11
4.3591006
21
21.0130177
0
LINE
8
DEFAULT_255_1_388
10
4.3591006
20
21.0130177
11
4.806365
21
21.0130177
0
LINE
8
DEFAULT_255_1_388
10
4.806365
20
21.0130177
11
4.5822811
21
21.6283451
0
LINE
8
DEFAULT_255_1_388
10
5.5246988
20
21.8424898
11
5.5246988
21
20.5269
0
LINE
8
DEFAULT_255_1_388
10
5.5246988
20
20.5269
11
5.3512144
21
20.5269
0
LINE
8
DEFAULT_255_1_388
10
5.3512144
20
20.5269
11
5.3512144
21
21.8424898
0
LINE
8
DEFAULT_255_1_388
10
5.3512144
20
21.8424898
11
5.5246988
21
21.8424898
0
LINE
8
DEFAULT_255_1_388
10
6.0090093
20
21.1521666
11
5.8752818
21
21.1865021
0
LINE
8
DEFAULT_255_1_388
10
5.8752818
20
21.1865021
11
5.9421456
21
21.8424898
0
LINE
8
DEFAULT_255_1_388
10
5.9421456
20
21.8424898
11
6.6162046
21
21.8424898
0
LINE
8
DEFAULT_255_1_388
10
6.6162046
20
21.8424898
11
6.6162046
21
21.6879803
0
LINE
8
DEFAULT_255_1_388
10
6.6162046
20
21.6879803
11
6.0840052
21
21.6879803
0
LINE
8
DEFAULT_255_1_388
10
6.0840052
20
21.6879803
11
6.0442483
21
21.3292652
0
LINE
8
DEFAULT_255_1_388
10
5.8282964
20
20.8729652
11
5.9864202
21
20.8729652
0
LINE
8
DEFAULT_255_1_388
10
6.053284
20
21.1883092
11
6.0090093
21
21.1521666
0
ARC
8
DEFAULT_255_1_388
10
6.2529097
20
20.9715241
40
0.4141476
50
93.7181681
51
120.253934
0
ARC
8
DEFAULT_255_1_388
10
6.2635149
20
20.8806284
40
0.5055616
50
89.9660471
51
94.2495185
0
ARC
8
DEFAULT_255_1_388
10
6.2680971
20
20.9469154
40
0.4392953
50
73.8045384
51
90.5585736
0
ARC
8
DEFAULT_255_1_388
10
6.2945229
20
21.043452
40
0.3392225
50
41.3071072
51
73.543002
0
ARC
8
DEFAULT_255_1_388
10
6.2477049
20
21.0031461
40
0.4009977
50
13.5075837
51
41.2174839
0
ARC
8
DEFAULT_255_1_388
10
6.0630146
20
20.9547907
40
0.5918864
50
1.1330171
51
13.8830737
0
ARC
8
DEFAULT_255_1_388
10
5.9033792
20
20.9462522
40
0.7516787
50
359.9925091
51
1.5431298
0
ARC
8
DEFAULT_255_1_388
10
6.0478407
20
20.9416027
40
0.6072343
50
347.8572712
51
0.4294349
0
ARC
8
DEFAULT_255_1_388
10
6.2447542
20
20.8969898
40
0.4053482
50
323.6727442
51
348.1674594
0
ARC
8
DEFAULT_255_1_388
10
6.2778506
20
20.8768175
40
0.3667495
50
316.8171818
51
323.1486802
0
ARC
8
DEFAULT_255_1_388
10
6.284763
20
20.8726612
40
0.358869
50
281.839603
51
316.5458142
0
ARC
8
DEFAULT_255_1_388
10
6.2424917
20
21.0476363
40
0.5388223
50
269.5770964
51
282.4214641
0
ARC
8
DEFAULT_255_1_388
10
6.2344838
20
21.023593
40
0.5147801
50
256.2425863
51
270.4486481
0
ARC
8
DEFAULT_255_1_388
10
6.2008366
20
20.8886124
40
0.3756708
50
228.9024379
51
256.33135
0
ARC
8
DEFAULT_255_1_388
10
6.1925346
20
20.8755054
40
0.360344
50
193.7536029
51
228.5272638
0
ARC
8
DEFAULT_255_1_388
10
6.3317911
20
20.9163463
40
0.5053599
50
184.9244437
51
194.4976052
0
ARC
8
DEFAULT_255_1_388
10
6.3534552
20
20.9203722
40
0.3700839
50
187.3596909
51
198.6733728
0
ARC
8
DEFAULT_255_1_388
10
6.2353796
20
20.8794373
40
0.2451195
50
198.4453795
51
217.7945479
0
ARC
8
DEFAULT_255_1_388
10
6.2020968
20
20.8558563
40
0.2043754
50
218.2887146
51
228.5613203
0
ARC
8
DEFAULT_255_1_388
10
6.2130975
20
20.8706902
40
0.2227819
50
228.9652423
51
258.1237049
0
ARC
8
DEFAULT_255_1_388
10
6.2362412
20
20.9697964
40
0.3245374
50
257.7260585
51
270.4013717
0
ARC
8
DEFAULT_255_1_388
10
6.241291
20
20.9197255
40
0.2744726
50
269.4204315
51
286.420998
0
ARC
8
DEFAULT_255_1_388
10
6.2579966
20
20.8590705
40
0.2115721
50
286.7250065
51
320.6004665
0
ARC
8
DEFAULT_255_1_388
10
6.2148882
20
20.8940527
40
0.2670878
50
320.6712228
51
344.5440474
0
ARC
8
DEFAULT_255_1_388
10
6.0847596
20
20.9322394
40
0.4026927
50
344.241448
51
356.735803
0
ARC
8
DEFAULT_255_1_388
10
5.9443903
20
20.9438656
40
0.5435085
50
356.3547471
51
0.0507222
0
ARC
8
DEFAULT_255_1_388
10
6.0946168
20
20.9473812
40
0.3932934
50
359.5579289
51
12.9534322
0
ARC
8
DEFAULT_255_1_388
10
6.2133008
20
20.9761586
40
0.2711827
50
12.6489751
51
41.608121
0
ARC
8
DEFAULT_255_1_388
10
6.2392168
20
20.9981946
40
0.2371737
50
41.7851122
51
85.9892156
0
ARC
8
DEFAULT_255_1_388
10
6.2253478
20
20.9066738
40
0.3295244
50
84.6965848
51
90.0672125
0
ARC
8
DEFAULT_255_1_388
10
6.2227045
20
20.8315118
40
0.4046926
50
89.6804991
51
99.161352
0
ARC
8
DEFAULT_255_1_388
10
6.1996055
20
20.9695848
40
0.2647044
50
98.9836248
51
113.8905702
0
ARC
8
DEFAULT_255_1_388
10
6.1737729
20
21.0305118
40
0.1985386
50
114.195234
51
127.3641866
0
LINE
8
DEFAULT_255_1_388
10
5.1157637
20
28.4644
11
4.9901682
21
28.8077545
0
LINE
8
DEFAULT_255_1_388
10
4.9901682
20
28.8077545
11
4.4389939
21
28.8077545
0
LINE
8
DEFAULT_255_1_388
10
4.4389939
20
28.8077545
11
4.3152056
21
28.4644
0
LINE
8
DEFAULT_255_1_388
10
4.3152056
20
28.4644
11
4.1362998
21
28.4644
0
LINE
8
DEFAULT_255_1_388
10
4.1362998
20
28.4644
11
4.6386816
21
29.7799898
0
LINE
8
DEFAULT_255_1_388
10
4.6386816
20
29.7799898
11
4.7904805
21
29.7799898
0
LINE
8
DEFAULT_255_1_388
10
4.7904805
20
29.7799898
11
5.2937659
21
28.4644
0
LINE
8
DEFAULT_255_1_388
10
5.2937659
20
28.4644
11
5.1157637
21
28.4644
0
LINE
8
DEFAULT_255_1_388
10
4.7145811
20
29.5658451
11
4.4914006
21
28.9505177
0
LINE
8
DEFAULT_255_1_388
10
4.4914006
20
28.9505177
11
4.938665
21
28.9505177
0
LINE
8
DEFAULT_255_1_388
10
4.938665
20
28.9505177
11
4.7145811
21
29.5658451
0
LINE
8
DEFAULT_255_1_388
10
5.6569988
20
29.7799898
11
5.6569988
21
28.4644
0
LINE
8
DEFAULT_255_1_388
10
5.6569988
20
28.4644
11
5.4835144
21
28.4644
0
LINE
8
DEFAULT_255_1_388
10
5.4835144
20
28.4644
11
5.4835144
21
29.7799898
0
LINE
8
DEFAULT_255_1_388
10
5.4835144
20
29.7799898
11
5.6569988
21
29.7799898
0
LINE
8
DEFAULT_255_1_388
10
6.6364626
20
29.7799898
11
6.6364626
21
28.906243
0
LINE
8
DEFAULT_255_1_388
10
6.6364626
20
28.906243
11
6.8189827
21
28.906243
0
LINE
8
DEFAULT_255_1_388
10
6.8189827
20
28.906243
11
6.8189827
21
28.7698048
0
LINE
8
DEFAULT_255_1_388
10
6.8189827
20
28.7698048
11
6.6364626
21
28.7698048
0
LINE
8
DEFAULT_255_1_388
10
6.6364626
20
28.7698048
11
6.6364626
21
28.4644
0
LINE
8
DEFAULT_255_1_388
10
6.6364626
20
28.4644
11
6.4683997
21
28.4644
0
LINE
8
DEFAULT_255_1_388
10
6.4683997
20
28.4644
11
6.4683997
21
28.7698048
0
LINE
8
DEFAULT_255_1_388
10
6.4683997
20
28.7698048
11
5.8693364
21
28.7698048
0
LINE
8
DEFAULT_255_1_388
10
5.8693364
20
28.7698048
11
5.8693364
21
28.8682933
0
LINE
8
DEFAULT_255_1_388
10
5.8693364
20
28.8682933
11
6.4584604
21
29.7799898
0
LINE
8
DEFAULT_255_1_388
10
6.4584604
20
29.7799898
11
6.6364626
21
29.7799898
0
LINE
8
DEFAULT_255_1_388
10
6.4485212
20
29.5152455
11
6.059085
21
28.906243
0
LINE
8
DEFAULT_255_1_388
10
6.059085
20
28.906243
11
6.4683997
21
28.906243
0
LINE
8
DEFAULT_255_1_388
10
6.4683997
20
28.906243
11
6.4683997
21
29.551388
0
LINE
8
DEFAULT_255_1_388
10
6.4683997
20
29.551388
11
6.4485212
21
29.5152455
0
LINE
8
DEFAULT_255_1_388
10
4.9834637
20
36.4019
11
4.8578682
21
36.7452545
0
LINE
8
DEFAULT_255_1_388
10
4.8578682
20
36.7452545
11
4.3066939
21
36.7452545
0
LINE
8
DEFAULT_255_1_388
10
4.3066939
20
36.7452545
11
4.1829056
21
36.4019
0
LINE
8
DEFAULT_255_1_388
10
4.1829056
20
36.4019
11
4.0039998
21
36.4019
0
LINE
8
DEFAULT_255_1_388
10
4.0039998
20
36.4019
11
4.5063816
21
37.7174898
0
LINE
8
DEFAULT_255_1_388
10
4.5063816
20
37.7174898
11
4.6581805
21
37.7174898
0
LINE
8
DEFAULT_255_1_388
10
4.6581805
20
37.7174898
11
5.1614659
21
36.4019
0
LINE
8
DEFAULT_255_1_388
10
5.1614659
20
36.4019
11
4.9834637
21
36.4019
0
LINE
8
DEFAULT_255_1_388
10
4.5822811
20
37.5033451
11
4.3591006
21
36.8880177
0
LINE
8
DEFAULT_255_1_388
10
4.3591006
20
36.8880177
11
4.806365
21
36.8880177
0
LINE
8
DEFAULT_255_1_388
10
4.806365
20
36.8880177
11
4.5822811
21
37.5033451
0
LINE
8
DEFAULT_255_1_388
10
5.5246988
20
37.7174898
11
5.5246988
21
36.4019
0
LINE
8
DEFAULT_255_1_388
10
5.5246988
20
36.4019
11
5.3512144
21
36.4019
0
LINE
8
DEFAULT_255_1_388
10
5.3512144
20
36.4019
11
5.3512144
21
37.7174898
0
LINE
8
DEFAULT_255_1_388
10
5.3512144
20
37.7174898
11
5.5246988
21
37.7174898
0
LINE
8
DEFAULT_255_1_388
10
6.0415376
20
37.0045775
11
6.0415376
21
37.1410157
0
LINE
8
DEFAULT_255_1_388
10
6.0415376
20
37.1410157
11
6.1671331
21
37.1410157
0
LINE
8
DEFAULT_255_1_388
10
5.9529883
20
37.3723282
11
5.7858289
21
37.3723282
0
LINE
8
DEFAULT_255_1_388
10
5.7740826
20
36.7488688
11
5.9421456
21
36.7488688
0
LINE
8
DEFAULT_255_1_388
10
6.1671331
20
37.0045775
11
6.0415376
21
37.0045775
0
ARC
8
DEFAULT_255_1_388
10
6.1638558
20
37.5226922
40
0.3816905
50
270.491971
51
281.8953028
0
ARC
8
DEFAULT_255_1_388
10
6.1909985
20
37.3987199
40
0.2547877
50
281.6690378
51
301.2943765
0
ARC
8
DEFAULT_255_1_388
10
6.2101436
20
37.3636926
40
0.2149197
50
301.7834992
51
311.754567
0
ARC
8
DEFAULT_255_1_388
10
6.2204477
20
37.352265
40
0.1995326
50
311.7325027
51
354.2803031
0
ARC
8
DEFAULT_255_1_388
10
6.1386893
20
37.366328
40
0.2823461
50
353.0941646
51
0.1174696
0
ARC
8
DEFAULT_255_1_388
10
6.0868451
20
37.3716874
40
0.3342238
50
359.1804452
51
15.0452323
0
ARC
8
DEFAULT_255_1_388
10
6.2382509
20
37.4158546
40
0.1765747
50
13.957816
51
77.6713812
0
ARC
8
DEFAULT_255_1_388
10
6.1947745
20
37.2600464
40
0.3381982
50
76.111571
51
90.7028736
0
ARC
8
DEFAULT_255_1_388
10
6.1881157
20
37.290825
40
0.3074046
50
89.5321574
51
103.5319393
0
ARC
8
DEFAULT_255_1_388
10
6.1655541
20
37.3807443
40
0.2147041
50
103.2930114
51
133.5619756
0
ARC
8
DEFAULT_255_1_388
10
6.1605482
20
37.3874351
40
0.2064084
50
133.8349761
51
173.5343225
0
ARC
8
DEFAULT_255_1_388
10
6.241914
20
37.3730144
40
0.2889266
50
172.5097183
51
180.1360699
0
ARC
8
DEFAULT_255_1_388
10
6.1348904
20
37.376888
40
0.3490913
50
155.3483706
51
180.7484035
0
ARC
8
DEFAULT_255_1_388
10
6.129388
20
37.3736519
40
0.3454798
50
131.5745177
51
154.4799474
0
ARC
8
DEFAULT_255_1_388
10
6.1646162
20
37.3380422
40
0.3955058
50
96.9874487
51
131.9690874
0
ARC
8
DEFAULT_255_1_388
10
6.1893055
20
37.1979407
40
0.537622
50
89.8592909
51
97.7827481
0
ARC
8
DEFAULT_255_1_388
10
6.1947164
20
37.168436
40
0.5671399
50
78.3654493
51
90.4132586
0
ARC
8
DEFAULT_255_1_388
10
6.2349805
20
37.3550918
40
0.3762034
50
56.6229818
51
78.6387103
0
ARC
8
DEFAULT_255_1_388
10
6.2591634
20
37.3973846
40
0.3275964
50
47.0254604
51
56.085558
0
ARC
8
DEFAULT_255_1_388
10
6.2613885
20
37.4018189
40
0.3228382
50
10.9207523
51
46.777927
0
ARC
8
DEFAULT_255_1_388
10
6.1079479
20
37.3663401
40
0.4802559
50
359.6364235
51
11.6087615
0
ARC
8
DEFAULT_255_1_388
10
6.3143645
20
37.3646404
40
0.273833
50
332.3549969
51
359.7179765
0
ARC
8
DEFAULT_255_1_388
10
6.2412045
20
37.3993285
40
0.3547505
50
325.2332381
51
332.8746682
0
ARC
8
DEFAULT_255_1_388
10
6.2583628
20
37.3873763
40
0.3338396
50
292.9803892
51
325.2391113
0
ARC
8
DEFAULT_255_1_388
10
6.2272824
20
37.4478679
40
0.4016959
50
292.542178
51
293.6931461
0
ARC
8
DEFAULT_255_1_388
10
6.2716396
20
36.7213036
40
0.372079
50
57.643292
51
72.8626085
0
ARC
8
DEFAULT_255_1_388
10
6.3115231
20
36.7859273
40
0.2961455
50
36.7246661
51
57.4701329
0
ARC
8
DEFAULT_255_1_388
10
6.3102387
20
36.787347
40
0.2963321
50
8.054535
51
36.3561529
0
ARC
8
DEFAULT_255_1_388
10
6.213206
20
36.7699073
40
0.3948682
50
359.8316595
51
8.5873361
0
ARC
8
DEFAULT_255_1_388
10
6.1709534
20
36.764497
40
0.4371398
50
343.9831631
51
0.557075
0
ARC
8
DEFAULT_255_1_388
10
6.2706584
20
36.7371963
40
0.3337749
50
311.6358204
51
343.7652116
0
ARC
8
DEFAULT_255_1_388
10
6.2280837
20
36.7851955
40
0.3979351
50
279.7829743
51
311.625622
0
ARC
8
DEFAULT_255_1_388
10
6.1941973
20
36.9468642
40
0.5630417
50
269.7285092
51
280.3857694
0
ARC
8
DEFAULT_255_1_388
10
6.1872286
20
36.9422241
40
0.5584119
50
256.6827433
51
270.4412869
0
ARC
8
DEFAULT_255_1_388
10
6.1491272
20
36.7864698
40
0.3980715
50
229.4223821
51
256.8554507
0
ARC
8
DEFAULT_255_1_388
10
6.1024825
20
36.7339683
40
0.3278564
50
181.8183354
51
229.6455015
0
ARC
8
DEFAULT_255_1_388
10
6.2194435
20
36.7486825
40
0.4453611
50
179.9760419
51
183.2330638
0
ARC
8
DEFAULT_255_1_388
10
6.2000987
20
36.7463781
40
0.2579652
50
179.4467996
51
196.2871626
0
ARC
8
DEFAULT_255_1_388
10
6.1452441
20
36.7313709
40
0.2011057
50
196.5661293
51
227.7059371
0
ARC
8
DEFAULT_255_1_388
10
6.1637048
20
36.7520155
40
0.2287994
50
227.7653015
51
257.8763321
0
ARC
8
DEFAULT_255_1_388
10
6.1890131
20
36.8580961
40
0.3378385
50
257.4583525
51
270.4267406
0
ARC
8
DEFAULT_255_1_388
10
6.1941381
20
36.890723
40
0.3704652
50
269.5965319
51
280.8788143
0
ARC
8
DEFAULT_255_1_388
10
6.2199609
20
36.7617529
40
0.2389415
50
280.6347277
51
299.8594068
0
ARC
8
DEFAULT_255_1_388
10
6.2414379
20
36.7209736
40
0.19289
50
300.3575552
51
314.5515667
0
ARC
8
DEFAULT_255_1_388
10
6.2321054
20
36.7278025
40
0.204312
50
315.0730962
51
345.0429362
0
ARC
8
DEFAULT_255_1_388
10
6.1282562
20
36.7580539
40
0.31246
50
344.598526
51
357.9270698
0
ARC
8
DEFAULT_255_1_388
10
6.0272867
20
36.7649705
40
0.4136265
50
357.4755098
51
0.0224936
0
ARC
8
DEFAULT_255_1_388
10
6.1425744
20
36.7677099
40
0.2983498
50
359.5051035
51
13.4236939
0
ARC
8
DEFAULT_255_1_388
10
6.2400834
20
36.7926637
40
0.1977186
50
12.9497905
51
48.7550905
0
ARC
8
DEFAULT_255_1_388
10
6.2195756
20
36.7646373
40
0.2323321
50
49.509109
51
72.1832965
0
ARC
8
DEFAULT_255_1_388
10
6.1793224
20
36.6451632
40
0.358397
50
71.9008458
51
84.3555134
0
ARC
8
DEFAULT_255_1_388
10
6.1611619
20
36.4919712
40
0.512641
50
84.019632
51
89.3326067
0
LINE
8
DEFAULT_255_1_388
10
4.9834637
20
44.3394
11
4.8578682
21
44.6827545
0
LINE
8
DEFAULT_255_1_388
10
4.8578682
20
44.6827545
11
4.3066939
21
44.6827545
0
LINE
8
DEFAULT_255_1_388
10
4.3066939
20
44.6827545
11
4.1829056
21
44.3394
0
LINE
8
DEFAULT_255_1_388
10
4.1829056
20
44.3394
11
4.0039998
21
44.3394
0
LINE
8
DEFAULT_255_1_388
10
4.0039998
20
44.3394
11
4.5063816
21
45.6549898
0
LINE
8
DEFAULT_255_1_388
10
4.5063816
20
45.6549898
11
4.6581805
21
45.6549898
0
LINE
8
DEFAULT_255_1_388
10
4.6581805
20
45.6549898
11
5.1614659
21
44.3394
0
LINE
8
DEFAULT_255_1_388
10
5.1614659
20
44.3394
11
4.9834637
21
44.3394
0
LINE
8
DEFAULT_255_1_388
10
4.5822811
20
45.4408451
11
4.3591006
21
44.8255177
0
LINE
8
DEFAULT_255_1_388
10
4.3591006
20
44.8255177
11
4.806365
21
44.8255177
0
LINE
8
DEFAULT_255_1_388
10
4.806365
20
44.8255177
11
4.5822811
21
45.4408451
0
LINE
8
DEFAULT_255_1_388
10
5.5246988
20
45.6549898
11
5.5246988
21
44.3394
0
LINE
8
DEFAULT_255_1_388
10
5.5246988
20
44.3394
11
5.3512144
21
44.3394
0
LINE
8
DEFAULT_255_1_388
10
5.3512144
20
44.3394
11
5.3512144
21
45.6549898
0
LINE
8
DEFAULT_255_1_388
10
5.3512144
20
45.6549898
11
5.5246988
21
45.6549898
0
LINE
8
DEFAULT_255_1_388
10
6.6604793
20
44.4758382
11
6.6604793
21
44.3394
0
LINE
8
DEFAULT_255_1_388
10
6.6604793
20
44.3394
11
5.7984788
21
44.3394
0
LINE
8
DEFAULT_255_1_388
10
5.7984788
20
44.3394
11
5.7984788
21
44.4595741
0
LINE
8
DEFAULT_255_1_388
10
5.7984788
20
44.4595741
11
6.2538753
21
44.9655702
0
LINE
8
DEFAULT_255_1_388
10
5.9403384
20
45.2673607
11
5.773179
21
45.2673607
0
LINE
8
DEFAULT_255_1_388
10
6.3523638
20
44.858046
11
5.9999737
21
44.4758382
0
LINE
8
DEFAULT_255_1_388
10
5.9999737
20
44.4758382
11
6.6604793
21
44.4758382
0
ARC
8
DEFAULT_255_1_388
10
4.7362812
20
46.3075983
40
2.0258655
50
318.5132526
51
320.7829045
0
ARC
8
DEFAULT_255_1_388
10
5.3310769
20
45.8234929
40
1.2589638
50
320.7372878
51
323.9739031
0
ARC
8
DEFAULT_255_1_388
10
5.7719701
20
45.5040554
40
0.7145141
50
323.8962701
51
328.64194
0
ARC
8
DEFAULT_255_1_388
10
6.0021959
20
45.3620545
40
0.4440242
50
328.8294576
51
331.7891185
0
ARC
8
DEFAULT_255_1_388
10
6.1144279
20
45.3041374
40
0.3177517
50
331.4254512
51
352.9365785
0
ARC
8
DEFAULT_255_1_388
10
6.1297279
20
45.300705
40
0.3021496
50
353.2257659
51
0.0166158
0
ARC
8
DEFAULT_255_1_388
10
6.1534039
20
45.3032894
40
0.2784847
50
359.486299
51
15.9343185
0
ARC
8
DEFAULT_255_1_388
10
6.2104306
20
45.3186269
40
0.2194403
50
16.1712913
51
43.5286088
0
ARC
8
DEFAULT_255_1_388
10
6.2191251
20
45.3273191
40
0.2071504
50
43.4417391
51
83.1661095
0
ARC
8
DEFAULT_255_1_388
10
6.2040412
20
45.2444316
40
0.2912888
50
82.160179
51
90.1505708
0
ARC
8
DEFAULT_255_1_388
10
6.2004893
20
45.1840279
40
0.3517025
50
89.5460741
51
102.5418361
0
ARC
8
DEFAULT_255_1_388
10
6.1731613
20
45.2999933
40
0.2325748
50
102.1738499
51
129.206123
0
ARC
8
DEFAULT_255_1_388
10
6.1643067
20
45.3139664
40
0.2161591
50
129.72865
51
135.753947
0
ARC
8
DEFAULT_255_1_388
10
6.1779549
20
45.3030728
40
0.2335433
50
136.1757367
51
166.3673339
0
ARC
8
DEFAULT_255_1_388
10
6.2912237
20
45.2727148
40
0.3507873
50
165.9090694
51
178.8684636
0
ARC
8
DEFAULT_255_1_388
10
6.3888009
20
45.2674263
40
0.4484624
50
178.4391136
51
180.0083808
0
ARC
8
DEFAULT_255_1_388
10
6.230871
20
45.2718197
40
0.4577138
50
163.2878482
51
180.5581842
0
ARC
8
DEFAULT_255_1_388
10
6.1406752
20
45.2966393
40
0.3641968
50
133.4540601
51
162.947111
0
ARC
8
DEFAULT_255_1_388
10
6.1607633
20
45.2752789
40
0.3935189
50
100.7869829
51
133.4382499
0
ARC
8
DEFAULT_255_1_388
10
6.1998878
20
45.1010399
40
0.5720313
50
89.660664
51
101.3702276
0
ARC
8
DEFAULT_255_1_388
10
6.2073487
20
45.1079263
40
0.5651495
50
78.2172678
51
90.412935
0
ARC
8
DEFAULT_255_1_388
10
6.2472953
20
45.2906511
40
0.378122
50
55.9269121
51
78.4888449
0
ARC
8
DEFAULT_255_1_388
10
6.2693668
20
45.3287187
40
0.3342379
50
47.929771
51
55.4049217
0
ARC
8
DEFAULT_255_1_388
10
6.2808198
20
45.3403618
40
0.3179217
50
4.334829
51
48.0560205
0
ARC
8
DEFAULT_255_1_388
10
6.1576
20
45.3212487
40
0.442341
50
359.9251713
51
5.5971671
0
ARC
8
DEFAULT_255_1_388
10
6.2058155
20
45.3275728
40
0.3941854
50
337.8914027
51
358.9967534
0
ARC
8
DEFAULT_255_1_388
10
5.9005725
20
45.4453295
40
0.7213271
50
326.9132501
51
338.3508308
0
ARC
8
DEFAULT_255_1_388
10
5.4521837
20
45.7327105
40
1.2538973
50
319.6471833
51
327.0959558
0
ARC
8
DEFAULT_255_1_388
10
5.0208495
20
46.088505
40
1.8129975
50
317.2588228
51
319.9045804
0
LINE
8
DEFAULT_255_1_388
10
4.9750637
20
52.2769
11
4.8494682
21
52.6202545
0
LINE
8
DEFAULT_255_1_388
10
4.8494682
20
52.6202545
11
4.2982939
21
52.6202545
0
LINE
8
DEFAULT_255_1_388
10
4.2982939
20
52.6202545
11
4.1745056
21
52.2769
0
LINE
8
DEFAULT_255_1_388
10
4.1745056
20
52.2769
11
3.9955998
21
52.2769
0
LINE
8
DEFAULT_255_1_388
10
3.9955998
20
52.2769
11
4.4979816
21
53.5924898
0
LINE
8
DEFAULT_255_1_388
10
4.4979816
20
53.5924898
11
4.6497805
21
53.5924898
0
LINE
8
DEFAULT_255_1_388
10
4.6497805
20
53.5924898
11
5.1530659
21
52.2769
0
LINE
8
DEFAULT_255_1_388
10
5.1530659
20
52.2769
11
4.9750637
21
52.2769
0
LINE
8
DEFAULT_255_1_388
10
4.5738811
20
53.3783451
11
4.3507006
21
52.7630177
0
LINE
8
DEFAULT_255_1_388
10
4.3507006
20
52.7630177
11
4.797965
21
52.7630177
0
LINE
8
DEFAULT_255_1_388
10
4.797965
20
52.7630177
11
4.5738811
21
53.3783451
0
LINE
8
DEFAULT_255_1_388
10
5.5162988
20
53.5924898
11
5.5162988
21
52.2769
0
LINE
8
DEFAULT_255_1_388
10
5.5162988
20
52.2769
11
5.3428144
21
52.2769
0
LINE
8
DEFAULT_255_1_388
10
5.3428144
20
52.2769
11
5.3428144
21
53.5924898
0
LINE
8
DEFAULT_255_1_388
10
5.3428144
20
53.5924898
11
5.5162988
21
53.5924898
0
LINE
8
DEFAULT_255_1_388
10
6.339446
20
53.5988148
11
6.339446
21
52.2769
0
LINE
8
DEFAULT_255_1_388
10
6.339446
20
52.2769
11
6.171383
21
52.2769
0
LINE
8
DEFAULT_255_1_388
10
6.171383
20
52.2769
11
6.171383
21
53.390995
0
LINE
8
DEFAULT_255_1_388
10
6.171383
20
53.390995
11
5.8343535
21
53.2672066
0
LINE
8
DEFAULT_255_1_388
10
5.8343535
20
53.2672066
11
5.8343535
21
53.4190055
0
LINE
8
DEFAULT_255_1_388
10
5.8343535
20
53.4190055
11
6.3132426
21
53.5988148
0
LINE
8
DEFAULT_255_1_388
10
6.3132426
20
53.5988148
11
6.339446
21
53.5988148
0
LINE
8
DEFAULT_255_1_388
10
4.9834637
20
60.2144
11
4.8578682
21
60.5577545
0
LINE
8
DEFAULT_255_1_388
10
4.8578682
20
60.5577545
11
4.3066939
21
60.5577545
0
LINE
8
DEFAULT_255_1_388
10
4.3066939
20
60.5577545
11
4.1829056
21
60.2144
0
LINE
8
DEFAULT_255_1_388
10
4.1829056
20
60.2144
11
4.0039998
21
60.2144
0
LINE
8
DEFAULT_255_1_388
10
4.0039998
20
60.2144
11
4.5063816
21
61.5299898
0
LINE
8
DEFAULT_255_1_388
10
4.5063816
20
61.5299898
11
4.6581805
21
61.5299898
0
LINE
8
DEFAULT_255_1_388
10
4.6581805
20
61.5299898
11
5.1614659
21
60.2144
0
LINE
8
DEFAULT_255_1_388
10
5.1614659
20
60.2144
11
4.9834637
21
60.2144
0
LINE
8
DEFAULT_255_1_388
10
4.5822811
20
61.3158451
11
4.3591006
21
60.7005177
0
LINE
8
DEFAULT_255_1_388
10
4.3591006
20
60.7005177
11
4.806365
21
60.7005177
0
LINE
8
DEFAULT_255_1_388
10
4.806365
20
60.7005177
11
4.5822811
21
61.3158451
0
LINE
8
DEFAULT_255_1_388
10
5.5246988
20
61.5299898
11
5.5246988
21
60.2144
0
LINE
8
DEFAULT_255_1_388
10
5.5246988
20
60.2144
11
5.3512144
21
60.2144
0
LINE
8
DEFAULT_255_1_388
10
5.3512144
20
60.2144
11
5.3512144
21
61.5299898
0
LINE
8
DEFAULT_255_1_388
10
5.3512144
20
61.5299898
11
5.5246988
21
61.5299898
0
LINE
8
DEFAULT_255_1_388
10
6.6234332
20
60.992369
11
6.6234332
21
60.7755135
0
LINE
8
DEFAULT_255_1_388
10
5.7930574
20
60.7529244
11
5.7930574
21
60.9761048
0
LINE
8
DEFAULT_255_1_388
10
6.4562737
20
60.7303353
11
6.4562737
21
61.0041153
0
LINE
8
DEFAULT_255_1_388
10
5.9602168
20
61.0167652
11
5.9602168
21
60.7493102
0
ARC
8
DEFAULT_255_1_388
10
5.2456666
20
60.7700118
40
1.3777776
50
353.8440855
51
0.2287917
0
ARC
8
DEFAULT_255_1_388
10
5.7675683
20
60.7117414
40
0.852639
50
344.4934746
51
353.9763743
0
ARC
8
DEFAULT_255_1_388
10
6.104249
20
60.6160191
40
0.5026273
50
329.2803599
51
344.7473406
0
ARC
8
DEFAULT_255_1_388
10
6.2157986
20
60.5548038
40
0.3754848
50
324.9361395
51
328.6153007
0
ARC
8
DEFAULT_255_1_388
10
6.2583636
20
60.5250586
40
0.3235566
50
280.5801797
51
324.9173226
0
ARC
8
DEFAULT_255_1_388
10
6.2132264
20
60.7130236
40
0.5167077
50
269.5979457
51
281.6732777
0
ARC
8
DEFAULT_255_1_388
10
6.2051168
20
60.6995113
40
0.5032026
50
256.6228565
51
270.5105488
0
ARC
8
DEFAULT_255_1_388
10
6.1598911
20
60.5253345
40
0.3233092
50
215.8618351
51
257.2787793
0
ARC
8
DEFAULT_255_1_388
10
6.2747618
20
60.6024106
40
0.4615831
50
197.9695203
51
215.2622745
0
ARC
8
DEFAULT_255_1_388
10
6.5543293
20
60.6967641
40
0.7566307
50
187.8816486
51
198.2346584
0
ARC
8
DEFAULT_255_1_388
10
6.9996531
20
60.7610453
40
1.2065653
50
180.8977266
51
188.0054894
0
ARC
8
DEFAULT_255_1_388
10
7.3046745
20
60.77254
40
1.5117443
50
180.7434591
51
181.152202
0
ARC
8
DEFAULT_255_1_388
10
7.1371741
20
60.9815371
40
1.3441277
50
173.7674302
51
180.2315596
0
ARC
8
DEFAULT_255_1_388
10
6.628961
20
61.0389779
40
0.8326847
50
164.3058537
51
173.9000553
0
ARC
8
DEFAULT_255_1_388
10
6.301361
20
61.1333652
40
0.4917711
50
148.7922028
51
164.5682288
0
ARC
8
DEFAULT_255_1_388
10
6.1944347
20
61.1930457
40
0.3694204
50
144.5883979
51
148.1161588
0
ARC
8
DEFAULT_255_1_388
10
6.1557093
20
61.2200667
40
0.322202
50
101.6440149
51
144.5142619
0
ARC
8
DEFAULT_255_1_388
10
6.2035285
20
61.0300337
40
0.5180451
50
89.528284
51
102.5820197
0
ARC
8
DEFAULT_255_1_388
10
6.2124277
20
61.0256376
40
0.5224441
50
77.0437914
51
90.508231
0
ARC
8
DEFAULT_255_1_388
10
6.2576531
20
61.2104272
40
0.3322297
50
48.2777708
51
77.4996087
0
ARC
8
DEFAULT_255_1_388
10
6.265827
20
61.2249557
40
0.315966
50
36.3141586
51
47.6307332
0
ARC
8
DEFAULT_255_1_388
10
6.1680993
20
61.1591159
40
0.4337313
50
18.2931065
51
35.6770203
0
ARC
8
DEFAULT_255_1_388
10
5.8819834
20
61.0609107
40
0.7362203
50
8.0246996
51
18.5605636
0
ARC
8
DEFAULT_255_1_388
10
5.4136189
20
60.9917432
40
1.2096583
50
1.127539
51
8.1718423
0
ARC
8
DEFAULT_255_1_388
10
5.0487322
20
60.9774374
40
1.5747719
50
0.5432713
51
1.38669
0
ARC
8
DEFAULT_255_1_388
10
5.2544701
20
61.0081163
40
1.2018103
50
359.8092569
51
4.9408001
0
ARC
8
DEFAULT_255_1_388
10
5.7281282
20
61.05039
40
0.7262727
50
4.8364937
51
12.2906017
0
ARC
8
DEFAULT_255_1_388
10
6.0380747
20
61.1194485
40
0.4087324
50
12.0806994
51
23.8171225
0
ARC
8
DEFAULT_255_1_388
10
6.1701143
20
61.1753508
40
0.2653719
50
24.2874621
51
31.3934353
0
ARC
8
DEFAULT_255_1_388
10
6.2291579
20
61.2139822
40
0.1948607
50
30.7407708
51
82.4658033
0
ARC
8
DEFAULT_255_1_388
10
6.208924
20
61.1146017
40
0.2961198
50
81.1057101
51
90.2187368
0
ARC
8
DEFAULT_255_1_388
10
6.2049052
20
61.1436421
40
0.2670929
50
89.380395
51
105.6763916
0
ARC
8
DEFAULT_255_1_388
10
6.1842774
20
61.218632
40
0.1893189
50
105.7980655
51
149.7387869
0
ARC
8
DEFAULT_255_1_388
10
6.3039914
20
61.1466719
40
0.3289892
50
149.4208441
51
163.628295
0
ARC
8
DEFAULT_255_1_388
10
6.5392144
20
61.0749345
40
0.5749004
50
163.3764549
51
172.141138
0
ARC
8
DEFAULT_255_1_388
10
6.9104865
20
61.0217582
40
0.9499585
50
172.0258462
51
178.0705453
0
ARC
8
DEFAULT_255_1_388
10
7.2526418
20
61.0055682
40
1.2924734
50
177.8639301
51
179.5036263
0
ARC
8
DEFAULT_255_1_388
10
7.1307436
20
60.7452151
40
1.170534
50
179.7995545
51
185.246089
0
ARC
8
DEFAULT_255_1_388
10
6.675903
20
60.7021404
40
0.7136613
50
185.1411911
51
193.0082205
0
ARC
8
DEFAULT_255_1_388
10
6.378529
20
60.6318441
40
0.4080987
50
192.7897338
51
205.2507384
0
ARC
8
DEFAULT_255_1_388
10
6.26075
20
60.5792538
40
0.2791522
50
205.8001921
51
211.2545876
0
ARC
8
DEFAULT_255_1_388
10
6.2019039
20
60.5398132
40
0.2084074
50
210.3789935
51
238.4007996
0
ARC
8
DEFAULT_255_1_388
10
6.1997125
20
60.5450786
40
0.2117943
50
239.6521916
51
265.9793852
0
ARC
8
DEFAULT_255_1_388
10
6.2092974
20
60.6207358
40
0.2879689
50
265.1324455
51
270.0603288
0
ARC
8
DEFAULT_255_1_388
10
6.2125351
20
60.5842418
40
0.2514919
50
269.3314378
51
287.2180039
0
ARC
8
DEFAULT_255_1_388
10
6.2280433
20
60.5276291
40
0.1928357
50
287.7957942
51
329.0808983
0
ARC
8
DEFAULT_255_1_388
10
6.1203191
20
60.5948651
40
0.319808
50
328.6635261
51
343.3325043
0
ARC
8
DEFAULT_255_1_388
10
5.8758649
20
60.6710195
40
0.5758408
50
343.0498092
51
351.9392499
0
ARC
8
DEFAULT_255_1_388
10
5.4857971
20
60.7285205
40
0.9701202
50
351.8071632
51
357.7957897
0
ARC
8
DEFAULT_255_1_388
10
5.1223448
20
60.7473724
40
1.3340376
50
357.5870923
51
359.2682493
0
LINE
8
DEFAULT_255_1_388
10
24.318191
20
69.4674898
11
24.318191
21
68.1519
0
LINE
8
DEFAULT_255_1_388
10
24.318191
20
68.1519
11
24.1438031
21
68.1519
0
LINE
8
DEFAULT_255_1_388
10
24.1438031
20
68.1519
11
23.4814903
21
69.1656993
0
LINE
8
DEFAULT_255_1_388
10
23.4814903
20
69.1656993
11
23.4814903
21
68.1519
0
LINE
8
DEFAULT_255_1_388
10
23.4814903
20
68.1519
11
23.3071024
21
68.1519
0
LINE
8
DEFAULT_255_1_388
10
23.3071024
20
68.1519
11
23.3071024
21
69.4674898
0
LINE
8
DEFAULT_255_1_388
10
23.3071024
20
69.4674898
11
23.4814903
21
69.4674898
0
LINE
8
DEFAULT_255_1_388
10
23.4814903
20
69.4674898
11
24.1456102
21
68.4491727
0
LINE
8
DEFAULT_255_1_388
10
24.1456102
20
68.4491727
11
24.1456102
21
69.4674898
0
LINE
8
DEFAULT_255_1_388
10
24.1456102
20
69.4674898
11
24.318191
21
69.4674898
0
ENDSEC
0
EOF