0
SECTION
2
HEADER
9
$MEASUREMENT
70
1
0
ENDSEC
0
SECTION
2
TABLES
0
TABLE
2
LTYPE
0
LTYPE
72
65
70
64
2
CONTINUOUS
3
______
73
0
40
0
0
ENDTAB
0
TABLE
2
LAYER
0
LAYER
2
DEFAULT_255_2_778
70
0
62
255
6
CONTINUOUS
0
LAYER
2
DEFAULT_255_1_234
70
0
62
255
6
CONTINUOUS
0
LAYER
2
DEFAULT_255_2_778_1
70
0
62
255
6
CONTINUOUS
0
ENDTAB
0
ENDSEC
0
SECTION
2
ENTITIES
0
ARC
8
DEFAULT_255_2_778
10
3.5700693
20
75.805203
40
0.7914215
50
129.1312896
51
180.1450914
0
ARC
8
DEFAULT_255_2_778
10
3.5703345
20
75.8056901
40
0.7912112
50
89.854026
51
129.1684493
0
ARC
8
DEFAULT_255_2_778
10
25.7993937
20
75.8053767
40
0.7915249
50
39.4792447
51
90.147911
0
ARC
8
DEFAULT_255_2_778
10
25.7999935
20
75.8052233
40
0.7911595
50
359.8533901
51
39.5154338
0
ARC
8
DEFAULT_255_2_778
10
25.7996693
20
-1.9863492
40
0.7914836
50
309.4761667
51
0.1482649
0
ARC
8
DEFAULT_255_2_778
10
25.799398
20
-1.9867803
40
0.7913235
50
269.8517415
51
309.511178
0
ARC
8
DEFAULT_255_2_778
10
3.570342
20
-1.9867221
40
0.7913815
50
219.1282118
51
270.1454017
0
ARC
8
DEFAULT_255_2_778
10
3.5700247
20
-1.9863397
40
0.7913769
50
179.8524075
51
219.1641908
0
LINE
8
DEFAULT_255_2_778
10
3.5723503
20
76.5968989
11
25.7973503
21
76.5968989
0
LINE
8
DEFAULT_255_2_778
10
26.5911503
20
75.8031989
11
26.5911503
21
-1.9843011
0
LINE
8
DEFAULT_255_2_778
10
25.7973503
20
-2.7781011
11
3.5723503
21
-2.7781011
0
LINE
8
DEFAULT_255_2_778
10
2.7786503
20
-1.9843011
11
2.7786503
21
75.8031989
0
LINE
8
DEFAULT_255_1_234
10
10.6935119
20
-0.5300208
11
10.6935119
21
-0.6513
0
LINE
8
DEFAULT_255_1_234
10
10.6935119
20
-0.6513
11
9.927284
21
-0.6513
0
LINE
8
DEFAULT_255_1_234
10
9.927284
20
-0.6513
11
9.927284
21
-0.5444779
0
LINE
8
DEFAULT_255_1_234
10
9.927284
20
-0.5444779
11
10.3320836
21
-0.0947005
0
LINE
8
DEFAULT_255_1_234
10
10.0533823
20
0.1735595
11
9.9047952
21
0.1735595
0
LINE
8
DEFAULT_255_1_234
10
10.4196296
20
-0.1902782
11
10.1063918
21
-0.5300208
0
LINE
8
DEFAULT_255_1_234
10
10.1063918
20
-0.5300208
11
10.6935119
21
-0.5300208
0
ARC
8
DEFAULT_255_1_234
10
8.983067
20
1.0982527
40
1.8008286
50
318.5132453
51
320.7828378
0
ARC
8
DEFAULT_255_1_234
10
9.5117644
20
0.6679426
40
1.1191493
50
320.7372736
51
323.9737074
0
ARC
8
DEFAULT_255_1_234
10
9.9037501
20
0.3839361
40
0.6350923
50
323.8961724
51
328.6421089
0
ARC
8
DEFAULT_255_1_234
10
10.1084096
20
0.2577031
40
0.3946393
50
328.8299013
51
331.789948
0
ARC
8
DEFAULT_255_1_234
10
10.2081274
20
0.2062509
40
0.2824501
50
331.4255242
51
352.9364833
0
ARC
8
DEFAULT_255_1_234
10
10.2217775
20
0.2031976
40
0.2685315
50
353.2248685
51
0.0169286
0
ARC
8
DEFAULT_255_1_234
10
10.2427652
20
0.205495
40
0.2475536
50
359.4866256
51
15.9339782
0
ARC
8
DEFAULT_255_1_234
10
10.2934637
20
0.2191286
40
0.1950618
50
16.1714718
51
43.5284424
0
ARC
8
DEFAULT_255_1_234
10
10.3011946
20
0.2268573
40
0.184134
50
43.4415429
51
83.1661404
0
ARC
8
DEFAULT_255_1_234
10
10.2877864
20
0.1531771
40
0.258926
50
82.160215
51
90.1505798
0
ARC
8
DEFAULT_255_1_234
10
10.2846291
20
0.0994865
40
0.3126255
50
89.5460705
51
102.5418777
0
ARC
8
DEFAULT_255_1_234
10
10.2603377
20
0.2025665
40
0.2067346
50
102.1739365
51
129.2061916
0
ARC
8
DEFAULT_255_1_234
10
10.2524449
20
0.2150094
40
0.1921118
50
129.7279328
51
135.7542026
0
ARC
8
DEFAULT_255_1_234
10
10.2645977
20
0.2053045
40
0.2075944
50
136.175737
51
166.3674722
0
ARC
8
DEFAULT_255_1_234
10
10.3652896
20
0.1783182
40
0.3118201
50
165.9092917
51
178.8683903
0
ARC
8
DEFAULT_255_1_234
10
10.4517757
20
0.1736179
40
0.3983935
50
178.438168
51
180.0083905
0
ARC
8
DEFAULT_255_1_234
10
10.3116359
20
0.1775231
40
0.4068601
50
163.2878735
51
180.5581814
0
ARC
8
DEFAULT_255_1_234
10
10.2314621
20
0.199584
40
0.3237344
50
133.454115
51
162.9470031
0
ARC
8
DEFAULT_255_1_234
10
10.2493162
20
0.1806
40
0.349795
50
100.7869394
51
133.4384016
0
ARC
8
DEFAULT_255_1_234
10
10.2840934
20
0.0257319
40
0.5084616
50
89.6605301
51
101.3704185
0
ARC
8
DEFAULT_255_1_234
10
10.2907273
20
0.0318496
40
0.502348
50
78.2171172
51
90.4130393
0
ARC
8
DEFAULT_255_1_234
10
10.3262351
20
0.1942637
40
0.3361092
50
55.9268222
51
78.4888551
0
ARC
8
DEFAULT_255_1_234
10
10.3458791
20
0.2281324
40
0.2970617
50
47.9292255
51
55.4054003
0
ARC
8
DEFAULT_255_1_234
10
10.3560352
20
0.2384502
40
0.2825983
50
4.3347696
51
48.0560701
0
ARC
8
DEFAULT_255_1_234
10
10.2464745
20
0.2214601
40
0.393225
50
359.925209
51
5.5967654
0
ARC
8
DEFAULT_255_1_234
10
10.2893637
20
0.2270816
40
0.3503892
50
337.8914096
51
358.9967724
0
ARC
8
DEFAULT_255_1_234
10
10.0180049
20
0.3317706
40
0.6412172
50
326.9135351
51
338.3505194
0
ARC
8
DEFAULT_255_1_234
10
9.6194353
20
0.5872284
40
1.1146189
50
319.6472867
51
327.095818
0
ARC
8
DEFAULT_255_1_234
10
9.2361356
20
0.9034
40
1.6114559
50
317.2586784
51
319.9046139
0
LINE
8
DEFAULT_255_1_234
10
10.8894863
20
0.5181211
11
11.0886734
21
0.5181211
0
LINE
8
DEFAULT_255_1_234
10
11.0886734
20
0.5181211
11
11.4709841
21
-0.4360494
0
LINE
8
DEFAULT_255_1_234
10
11.4709841
20
-0.4360494
11
11.8532949
21
0.5181211
0
LINE
8
DEFAULT_255_1_234
10
11.8532949
20
0.5181211
11
12.0532852
21
0.5181211
0
LINE
8
DEFAULT_255_1_234
10
12.0532852
20
0.5181211
11
12.0532852
21
-0.6513
0
LINE
8
DEFAULT_255_1_234
10
12.0532852
20
-0.6513
11
11.8990758
21
-0.6513
0
LINE
8
DEFAULT_255_1_234
10
11.8990758
20
-0.6513
11
11.8990758
21
-0.1959004
0
LINE
8
DEFAULT_255_1_234
10
11.8990758
20
-0.1959004
11
11.9135329
21
0.2956419
0
LINE
8
DEFAULT_255_1_234
10
11.9135329
20
0.2956419
11
11.5296158
21
-0.6513
0
LINE
8
DEFAULT_255_1_234
10
11.5296158
20
-0.6513
11
11.4115493
21
-0.6513
0
LINE
8
DEFAULT_255_1_234
10
11.4115493
20
-0.6513
11
11.0284354
21
0.2932324
0
LINE
8
DEFAULT_255_1_234
10
11.0284354
20
0.2932324
11
11.0436957
21
-0.1959004
0
LINE
8
DEFAULT_255_1_234
10
11.0436957
20
-0.1959004
11
11.0436957
21
-0.6513
0
LINE
8
DEFAULT_255_1_234
10
11.0436957
20
-0.6513
11
10.8894863
21
-0.6513
0
LINE
8
DEFAULT_255_1_234
10
10.8894863
20
-0.6513
11
10.8894863
21
0.5181211
0
LINE
8
DEFAULT_255_1_234
10
12.4805736
20
0.5181211
11
12.4805736
21
-0.5252017
0
LINE
8
DEFAULT_255_1_234
10
12.4805736
20
-0.5252017
11
13.0347636
21
-0.5252017
0
LINE
8
DEFAULT_255_1_234
10
13.0347636
20
-0.5252017
11
13.0347636
21
-0.6513
0
LINE
8
DEFAULT_255_1_234
10
13.0347636
20
-0.6513
11
12.3255611
21
-0.6513
0
LINE
8
DEFAULT_255_1_234
10
12.3255611
20
-0.6513
11
12.3255611
21
0.5181211
0
LINE
8
DEFAULT_255_1_234
10
12.3255611
20
0.5181211
11
12.4805736
21
0.5181211
0
LINE
8
DEFAULT_255_1_234
10
13.8556072
20
-0.0087609
11
13.8556072
21
-0.1348592
0
LINE
8
DEFAULT_255_1_234
10
13.8556072
20
-0.1348592
11
13.364868
21
-0.1348592
0
LINE
8
DEFAULT_255_1_234
10
13.364868
20
-0.1348592
11
13.364868
21
-0.6513
0
LINE
8
DEFAULT_255_1_234
10
13.364868
20
-0.6513
11
13.2106586
21
-0.6513
0
LINE
8
DEFAULT_255_1_234
10
13.2106586
20
-0.6513
11
13.2106586
21
0.5181211
0
LINE
8
DEFAULT_255_1_234
10
13.2106586
20
0.5181211
11
13.9351214
21
0.5181211
0
LINE
8
DEFAULT_255_1_234
10
13.9351214
20
0.5181211
11
13.9351214
21
0.3912196
0
LINE
8
DEFAULT_255_1_234
10
13.9351214
20
0.3912196
11
13.364868
21
0.3912196
0
LINE
8
DEFAULT_255_1_234
10
13.364868
20
0.3912196
11
13.364868
21
-0.0087609
0
LINE
8
DEFAULT_255_1_234
10
13.364868
20
-0.0087609
11
13.8556072
21
-0.0087609
0
LINE
8
DEFAULT_255_1_234
10
14.4057813
20
-0.0938974
11
14.4057813
21
-0.2151766
0
LINE
8
DEFAULT_255_1_234
10
14.4057813
20
-0.2151766
11
14.0138325
21
-0.2151766
0
LINE
8
DEFAULT_255_1_234
10
14.0138325
20
-0.2151766
11
14.0138325
21
-0.0938974
0
LINE
8
DEFAULT_255_1_234
10
14.0138325
20
-0.0938974
11
14.4057813
21
-0.0938974
0
LINE
8
DEFAULT_255_1_234
10
15.3310375
20
-0.6513
11
15.2193964
21
-0.3460939
0
LINE
8
DEFAULT_255_1_234
10
15.2193964
20
-0.3460939
11
14.7294604
21
-0.3460939
0
LINE
8
DEFAULT_255_1_234
10
14.7294604
20
-0.3460939
11
14.6194255
21
-0.6513
0
LINE
8
DEFAULT_255_1_234
10
14.6194255
20
-0.6513
11
14.4603971
21
-0.6513
0
LINE
8
DEFAULT_255_1_234
10
14.4603971
20
-0.6513
11
14.9069618
21
0.5181211
0
LINE
8
DEFAULT_255_1_234
10
14.9069618
20
0.5181211
11
15.041895
21
0.5181211
0
LINE
8
DEFAULT_255_1_234
10
15.041895
20
0.5181211
11
15.4892628
21
-0.6513
0
LINE
8
DEFAULT_255_1_234
10
15.4892628
20
-0.6513
11
15.3310375
21
-0.6513
0
LINE
8
DEFAULT_255_1_234
10
14.9744284
20
0.3277689
11
14.7760444
21
-0.2191925
0
LINE
8
DEFAULT_255_1_234
10
14.7760444
20
-0.2191925
11
15.1736155
21
-0.2191925
0
LINE
8
DEFAULT_255_1_234
10
15.1736155
20
-0.2191925
11
14.9744284
21
0.3277689
0
LINE
8
DEFAULT_255_1_234
10
15.6314246
20
0.5181211
11
15.9639385
21
-0.4464907
0
LINE
8
DEFAULT_255_1_234
10
15.9639385
20
-0.4464907
11
16.2980588
21
0.5181211
0
LINE
8
DEFAULT_255_1_234
10
16.2980588
20
0.5181211
11
16.4667253
21
0.5181211
0
LINE
8
DEFAULT_255_1_234
10
16.4667253
20
0.5181211
11
16.0330115
21
-0.6513
0
LINE
8
DEFAULT_255_1_234
10
16.0330115
20
-0.6513
11
15.8964719
21
-0.6513
0
LINE
8
DEFAULT_255_1_234
10
15.8964719
20
-0.6513
11
15.4635612
21
0.5181211
0
LINE
8
DEFAULT_255_1_234
10
15.4635612
20
0.5181211
11
15.6314246
21
0.5181211
0
ARC
8
DEFAULT_255_1_234
10
17.0117702
20
0.2103703
40
0.2822356
50
338.8763615
51
0.5166041
0
ARC
8
DEFAULT_255_1_234
10
17.0286357
20
0.2058208
40
0.2648703
50
325.8412414
51
338.4795939
0
ARC
8
DEFAULT_255_1_234
10
16.9895725
20
0.2329042
40
0.3124019
50
296.7586019
51
325.753654
0
ARC
8
DEFAULT_255_1_234
10
16.9607833
20
0.2813789
40
0.368668
50
296.0902311
51
297.3618122
0
ARC
8
DEFAULT_255_1_234
10
16.9865291
20
-0.3740959
40
0.3518806
50
47.9009248
51
67.1946869
0
ARC
8
DEFAULT_255_1_234
10
17.0061533
20
-0.3494605
40
0.320451
50
35.236241
51
47.551371
0
ARC
8
DEFAULT_255_1_234
10
17.032315
20
-0.3320007
40
0.2890103
50
359.2759738
51
35.4014081
0
ARC
8
DEFAULT_255_1_234
10
16.9578182
20
-0.3393174
40
0.3635026
50
343.1294516
51
0.5776525
0
ARC
8
DEFAULT_255_1_234
10
17.0302726
20
-0.359267
40
0.2883832
50
310.8497458
51
342.744803
0
ARC
8
DEFAULT_255_1_234
10
16.988484
20
-0.3115706
40
0.3517954
50
281.5473923
51
310.9169905
0
ARC
8
DEFAULT_255_1_234
10
16.9528289
20
-0.1562916
40
0.5110832
50
269.6192722
51
281.9789957
0
ARC
8
DEFAULT_255_1_234
10
16.9456078
20
-0.1562172
40
0.5111606
50
257.4584469
51
270.4287458
0
ARC
8
DEFAULT_255_1_234
10
16.9075221
20
-0.3165656
40
0.3463762
50
228.7553743
51
257.8484423
0
ARC
8
DEFAULT_255_1_234
10
16.876542
20
-0.3538558
40
0.297916
50
184.0104442
51
228.5071787
0
ARC
8
DEFAULT_255_1_234
10
16.9928364
20
-0.3361488
40
0.4152734
50
179.9315461
51
185.3254504
0
ARC
8
DEFAULT_255_1_234
10
16.8752009
20
-0.3324008
40
0.2976554
50
145.6795913
51
180.6259649
0
ARC
8
DEFAULT_255_1_234
10
16.8915359
20
-0.3438071
40
0.3175776
50
115.5537925
51
145.6416199
0
ARC
8
DEFAULT_255_1_234
10
16.9256289
20
-0.4048972
40
0.3874232
50
113.2437915
51
116.2054627
0
ARC
8
DEFAULT_255_1_234
10
16.9103501
20
0.234958
40
0.3154751
50
222.9548379
51
244.1372485
0
ARC
8
DEFAULT_255_1_234
10
16.8981577
20
0.2212834
40
0.2972382
50
213.3439227
51
222.6271327
0
ARC
8
DEFAULT_255_1_234
10
16.8789511
20
0.2082308
40
0.274019
50
180.4316517
51
213.2713999
0
ARC
8
DEFAULT_255_1_234
10
16.9364513
20
0.212911
40
0.33158
50
179.9992944
51
181.1655061
0
ARC
8
DEFAULT_255_1_234
10
16.977393
20
0.2163561
40
0.3725376
50
164.6186108
51
180.5292368
0
ARC
8
DEFAULT_255_1_234
10
16.8875792
20
0.2405101
40
0.2795349
50
132.2454369
51
164.5092287
0
ARC
8
DEFAULT_255_1_234
10
16.9162896
20
0.2080028
40
0.3229019
50
100.7052766
51
132.1387266
0
ARC
8
DEFAULT_255_1_234
10
16.9467869
20
0.0702086
40
0.4639835
50
89.6732617
51
101.2449487
0
ARC
8
DEFAULT_255_1_234
10
16.9530067
20
0.087699
40
0.4464999
50
76.2876631
51
90.4586123
0
ARC
8
DEFAULT_255_1_234
10
16.9836299
20
0.209922
40
0.3205023
50
47.8240157
51
76.4266918
0
ARC
8
DEFAULT_255_1_234
10
17.0058848
20
0.235959
40
0.2862661
50
6.9168658
51
47.6261438
0
ARC
8
DEFAULT_255_1_234
10
16.8872251
20
0.214037
40
0.4067708
50
359.8419705
51
7.9694496
0
ARC
8
DEFAULT_255_1_234
10
16.9214148
20
-0.3300075
40
0.2513121
50
359.4454068
51
16.9256425
0
ARC
8
DEFAULT_255_1_234
10
16.9682959
20
-0.3170967
40
0.2027071
50
17.292259
51
45.462717
0
ARC
8
DEFAULT_255_1_234
10
16.9628896
20
-0.3217566
40
0.2098212
50
45.3028762
51
83.1921472
0
ARC
8
DEFAULT_255_1_234
10
16.948558
20
-0.4019105
40
0.2911472
50
82.2614531
51
90.143954
0
ARC
8
DEFAULT_255_1_234
10
16.94547
20
-0.378605
40
0.2678513
50
89.4959189
51
104.8579811
0
ARC
8
DEFAULT_255_1_234
10
16.9277958
20
-0.311611
40
0.1985654
50
104.8855873
51
135.2448349
0
ARC
8
DEFAULT_255_1_234
10
16.9327731
20
-0.3160664
40
0.2052373
50
135.3398955
51
172.104394
0
ARC
8
DEFAULT_255_1_234
10
17.0134789
20
-0.3315075
40
0.2873299
50
171.2651929
51
180.1859362
0
ARC
8
DEFAULT_255_1_234
10
16.9965491
20
-0.3347267
40
0.2704083
50
179.515471
51
193.6466734
0
ARC
8
DEFAULT_255_1_234
10
16.914926
20
-0.3555223
40
0.1861855
50
193.3540587
51
225.8256931
0
ARC
8
DEFAULT_255_1_234
10
16.9190017
20
-0.3484476
40
0.1941102
50
226.418029
51
255.8553723
0
ARC
8
DEFAULT_255_1_234
10
16.9446449
20
-0.2548002
40
0.2911917
50
255.4655572
51
268.7985967
0
ARC
8
DEFAULT_255_1_234
10
16.9493641
20
-0.1709509
40
0.3751331
50
268.3464808
51
270.0104874
0
ARC
8
DEFAULT_255_1_234
10
16.9517029
20
-0.2393862
40
0.3067064
50
269.575914
51
282.0823146
0
ARC
8
DEFAULT_255_1_234
10
16.9741939
20
-0.3388197
40
0.2047712
50
281.7522535
51
306.6056425
0
ARC
8
DEFAULT_255_1_234
10
16.9840365
20
-0.3549513
40
0.1859604
50
307.1350025
51
314.0277951
0
ARC
8
DEFAULT_255_1_234
10
16.9804449
20
-0.3523234
40
0.1903475
50
314.2553419
51
350.169324
0
ARC
8
DEFAULT_255_1_234
10
16.8952917
20
-0.3338591
40
0.2774269
50
349.4145679
51
0.2930737
0
ARC
8
DEFAULT_255_1_234
10
16.9473351
20
0.1820353
40
0.2300764
50
89.477591
51
105.729794
0
ARC
8
DEFAULT_255_1_234
10
16.9337264
20
0.2325637
40
0.1777519
50
105.922966
51
135.1662921
0
ARC
8
DEFAULT_255_1_234
10
16.9357766
20
0.2311419
40
0.1802087
50
135.3053131
51
168.9882338
0
ARC
8
DEFAULT_255_1_234
10
17.0185339
20
0.2121721
40
0.2650806
50
168.3802067
51
180.3602358
0
ARC
8
DEFAULT_255_1_234
10
16.9956918
20
0.2084041
40
0.2422425
50
179.5029707
51
194.9126783
0
ARC
8
DEFAULT_255_1_234
10
16.9371579
20
0.193011
40
0.1817188
50
194.9722181
51
224.1943972
0
ARC
8
DEFAULT_255_1_234
10
16.9343447
20
0.1907169
40
0.1781027
50
224.2961434
51
262.0157375
0
ARC
8
DEFAULT_255_1_234
10
16.9485689
20
0.2638661
40
0.2525492
50
261.1250369
51
270.1959853
0
ARC
8
DEFAULT_255_1_234
10
16.9515445
20
0.2451339
40
0.233825
50
269.4825617
51
285.0988277
0
ARC
8
DEFAULT_255_1_234
10
16.9669604
20
0.187299
40
0.1739712
50
285.1585659
51
315.9484648
0
ARC
8
DEFAULT_255_1_234
10
16.9580615
20
0.1954886
40
0.1860616
50
316.0412958
51
351.9162715
0
ARC
8
DEFAULT_255_1_234
10
16.884757
20
0.2096245
40
0.2606517
50
351.1056823
51
0.1936567
0
ARC
8
DEFAULT_255_1_234
10
16.9110399
20
0.2126369
40
0.234377
50
359.4789506
51
16.0679113
0
ARC
8
DEFAULT_255_1_234
10
16.9586358
20
0.225481
40
0.1850875
50
16.3251951
51
44.791304
0
ARC
8
DEFAULT_255_1_234
10
16.956864
20
0.2255339
40
0.186312
50
44.3958661
51
88.2498933
0
ARC
8
DEFAULT_255_1_234
10
16.9495193
20
0.1644154
40
0.2476868
50
86.9833827
51
90.0200148
0
LINE
8
DEFAULT_255_1_234
10
18.3043871
20
-0.6513
11
18.1927459
21
-0.3460939
0
LINE
8
DEFAULT_255_1_234
10
18.1927459
20
-0.3460939
11
17.7028099
21
-0.3460939
0
LINE
8
DEFAULT_255_1_234
10
17.7028099
20
-0.3460939
11
17.592775
21
-0.6513
0
LINE
8
DEFAULT_255_1_234
10
17.592775
20
-0.6513
11
17.4337466
21
-0.6513
0
LINE
8
DEFAULT_255_1_234
10
17.4337466
20
-0.6513
11
17.8803113
21
0.5181211
0
LINE
8
DEFAULT_255_1_234
10
17.8803113
20
0.5181211
11
18.0152445
21
0.5181211
0
LINE
8
DEFAULT_255_1_234
10
18.0152445
20
0.5181211
11
18.4626123
21
-0.6513
0
LINE
8
DEFAULT_255_1_234
10
18.4626123
20
-0.6513
11
18.3043871
21
-0.6513
0
LINE
8
DEFAULT_255_1_234
10
17.9477779
20
0.3277689
11
17.7493939
21
-0.2191925
0
LINE
8
DEFAULT_255_1_234
10
17.7493939
20
-0.2191925
11
18.146965
21
-0.2191925
0
LINE
8
DEFAULT_255_1_234
10
18.146965
20
-0.2191925
11
17.9477779
21
0.3277689
0
ARC
8
DEFAULT_255_2_778
10
12.6050348
20
74.1038041
40
0.3813723
50
156.9728279
51
180.9672924
0
ARC
8
DEFAULT_255_2_778
10
12.4650905
20
74.1664556
40
0.2280903
50
120.6143155
51
157.7057572
0
ARC
8
DEFAULT_255_2_778
10
12.423185
20
74.2283889
40
0.1535155
50
105.6024085
51
118.9253865
0
ARC
8
DEFAULT_255_2_778
10
12.4163051
20
74.253158
40
0.1278087
50
90.2188612
51
105.6183161
0
ARC
8
DEFAULT_255_2_778
10
12.4186564
20
74.0860412
40
0.2949385
50
82.1187511
51
90.5516271
0
ARC
8
DEFAULT_255_2_778
10
12.4470429
20
74.2507036
40
0.128059
50
23.164146
51
84.5981403
0
ARC
8
DEFAULT_255_2_778
10
12.3195078
20
74.1989267
40
0.2656921
50
1.2065942
51
22.6109196
0
ARC
8
DEFAULT_255_2_778
10
12.1068205
20
74.1810377
40
0.4788966
50
359.9555286
51
2.8107684
0
ARC
8
DEFAULT_255_2_778
10
12.4802764
20
74.1696207
40
0.6523641
50
359.5121336
51
18.1513483
0
ARC
8
DEFAULT_255_2_778
10
12.6313291
20
74.2206245
40
0.4929411
50
17.987628
51
47.7515239
0
ARC
8
DEFAULT_255_2_778
10
12.6654537
20
74.2523389
40
0.4465388
50
48.2567149
51
90.320171
0
ARC
8
DEFAULT_255_2_778
10
12.6638541
20
74.2042874
40
0.4945841
50
90.103751
51
104.0317339
0
ARC
8
DEFAULT_255_2_778
10
12.6706581
20
74.1729342
40
0.5266526
50
103.9228462
51
106.737064
0
ARC
8
DEFAULT_255_2_778
10
12.6850928
20
74.1302316
40
0.5717052
50
106.8899656
51
120.2615348
0
ARC
8
DEFAULT_255_2_778
10
12.7341581
20
74.0457122
40
0.6694339
50
120.2432243
51
131.2854864
0
ARC
8
DEFAULT_255_2_778
10
12.785036
20
73.984952
40
0.7486631
50
131.143212
51
134.0802792
0
ARC
8
DEFAULT_255_2_778
10
15.2709404
20
73.0119131
40
0.1197666
50
309.5218924
51
339.9060311
0
ARC
8
DEFAULT_255_2_778
10
15.3039085
20
72.9744254
40
0.0698871
50
287.710739
51
308.230668
0
ARC
8
DEFAULT_255_2_778
10
15.3092212
20
72.9587982
40
0.0533853
50
270.2503717
51
287.3813074
0
ARC
8
DEFAULT_255_2_778
10
15.3118783
20
72.9596536
40
0.0542942
50
194.7346052
51
267.4414086
0
ARC
8
DEFAULT_255_2_778
10
15.3603123
20
72.982672
40
0.107451
50
190.9475811
51
200.0439116
0
ARC
8
DEFAULT_255_2_778
10
14.9941035
20
72.9697621
40
0.2608211
50
358.353068
51
64.1268931
0
ARC
8
DEFAULT_255_2_778
10
15.0249058
20
73.0154249
40
0.206441
50
66.2890109
51
89.9969258
0
ARC
8
DEFAULT_255_2_778
10
15.0382115
20
72.9801645
40
0.2420668
50
93.1483498
51
177.0819403
0
ARC
8
DEFAULT_255_2_778
10
15.0906424
20
72.9623292
40
0.2957256
50
174.1467469
51
180.0122521
0
ARC
8
DEFAULT_255_2_778
10
15.0902349
20
72.965793
40
0.2953391
50
180.6842551
51
197.2976119
0
ARC
8
DEFAULT_255_2_778
10
15.1427344
20
72.9819135
40
0.3502574
50
197.2618666
51
237.3003567
0
ARC
8
DEFAULT_255_2_778
10
15.1574152
20
73.010555
40
0.3823034
50
237.7678185
51
267.0989043
0
ARC
8
DEFAULT_255_2_778
10
15.1676437
20
73.095885
40
0.468079
50
266.3770992
51
270.0209723
0
ARC
8
DEFAULT_255_2_778
10
15.1676985
20
73.1261308
40
0.4983248
50
270.0133909
51
272.716577
0
ARC
8
DEFAULT_255_2_778
10
15.1758148
20
73.0115424
40
0.3834899
50
272.3167324
51
299.1303886
0
ARC
8
DEFAULT_255_2_778
10
15.1234049
20
73.0850329
40
0.4733038
50
300.3417229
51
327.7658215
0
ARC
8
DEFAULT_255_2_778
10
14.9406676
20
73.2135134
40
0.6964958
50
326.843622
51
335.4998036
0
ARC
8
DEFAULT_255_2_778
10
14.8514976
20
73.2557766
40
0.7951648
50
335.3932154
51
340.0324022
0
ARC
8
DEFAULT_255_2_778
10
14.8370312
20
73.2613094
40
0.8106509
50
340.0140149
51
340.5492811
0
ARC
8
DEFAULT_255_2_778
10
10.7612214
20
73.9594581
40
0.768197
50
90.8730151
51
175.0627552
0
ARC
8
DEFAULT_255_2_778
10
10.8136126
20
73.9430058
40
0.8218958
50
174.2343992
51
180.0097514
0
ARC
8
DEFAULT_255_2_778
10
10.7889867
20
73.9397729
40
0.7972759
50
179.7777162
51
222.1414196
0
ARC
8
DEFAULT_255_2_778
10
10.7511509
20
73.901835
40
0.7437709
50
221.9300285
51
269.8741254
0
ARC
8
DEFAULT_255_2_778
10
10.7376549
20
73.9262244
40
0.7682501
50
270.8846918
51
355.0667038
0
ARC
8
DEFAULT_255_2_778
10
10.6852873
20
73.9427267
40
0.8219296
50
354.2345114
51
0.0097094
0
ARC
8
DEFAULT_255_2_778
10
10.7100678
20
73.9459703
40
0.7971551
50
359.7768758
51
42.1436072
0
ARC
8
DEFAULT_255_2_778
10
10.7478782
20
73.9838788
40
0.7436889
50
41.9327014
51
89.8737509
0
ARC
8
DEFAULT_255_2_778
10
10.7319112
20
73.5666045
40
0.2064136
50
282.3154686
51
2.5716381
0
ARC
8
DEFAULT_255_2_778
10
10.749558
20
73.5315913
40
0.1687253
50
269.98603
51
278.995025
0
ARC
8
DEFAULT_255_2_778
10
10.7617107
20
73.5630042
40
0.2005094
50
178.6786273
51
266.5134562
0
ARC
8
DEFAULT_255_2_778
10
10.8074017
20
73.5758655
40
0.2462849
50
179.9999044
51
181.9167359
0
ARC
8
DEFAULT_255_2_778
10
10.7673954
20
74.3191548
40
0.2064787
50
103.0315545
51
182.5228891
0
ARC
8
DEFAULT_255_2_778
10
10.7494718
20
74.3542048
40
0.1685611
50
89.9846994
51
99.7807169
0
ARC
8
DEFAULT_255_2_778
10
10.7371616
20
74.3222176
40
0.2009286
50
358.490526
51
86.4746259
0
ARC
8
DEFAULT_255_2_778
10
10.6939639
20
74.3100644
40
0.244153
50
0.0003602
51
1.6101146
0
ARC
8
DEFAULT_255_2_778
10
13.7769085
20
73.9423122
40
1.0339085
50
353.7729731
51
0.0306848
0
ARC
8
DEFAULT_255_2_778
10
14.0136678
20
73.9459703
40
0.7971551
50
359.7768758
51
42.1436072
0
ARC
8
DEFAULT_255_2_778
10
14.0514782
20
73.9838788
40
0.7436889
50
41.9327014
51
89.8737509
0
ARC
8
DEFAULT_255_2_778
10
14.0648214
20
73.9594581
40
0.768197
50
90.8730151
51
175.0627552
0
ARC
8
DEFAULT_255_2_778
10
14.1172126
20
73.9430058
40
0.8218958
50
174.2343992
51
180.0097514
0
ARC
8
DEFAULT_255_2_778
10
14.0925867
20
73.9397729
40
0.7972759
50
179.7777162
51
222.1414196
0
ARC
8
DEFAULT_255_2_778
10
14.0547509
20
73.901835
40
0.7437709
50
221.9300285
51
269.8741254
0
ARC
8
DEFAULT_255_2_778
10
14.0479775
20
73.9118375
40
0.753789
50
270.3906469
51
332.9011285
0
ARC
8
DEFAULT_255_2_778
10
14.0503073
20
73.9233988
40
0.5766383
50
270.2493497
51
330.3649047
0
ARC
8
DEFAULT_255_2_778
10
14.0738266
20
73.5517117
40
0.2060198
50
188.4673322
51
264.146848
0
ARC
8
DEFAULT_255_2_778
10
14.1170452
20
73.5758502
40
0.2529285
50
180.0643852
51
192.4374066
0
ARC
8
DEFAULT_255_2_778
10
14.070552
20
74.3193297
40
0.2060435
50
102.2220352
51
182.5768883
0
ARC
8
DEFAULT_255_2_778
10
14.0532765
20
74.3535306
40
0.1692354
50
89.9863487
51
98.9553742
0
ARC
8
DEFAULT_255_2_778
10
14.0410627
20
74.3224487
40
0.2006917
50
358.1298546
51
86.4993767
0
ARC
8
DEFAULT_255_2_778
10
13.9951604
20
74.3100582
40
0.2465564
50
0.0018041
51
1.3574921
0
ARC
8
DEFAULT_255_2_778
10
18.8395085
20
73.9423122
40
1.0339085
50
353.7729731
51
0.0306848
0
ARC
8
DEFAULT_255_2_778
10
19.0763127
20
73.9459756
40
0.7971102
50
359.7764759
51
42.1460177
0
ARC
8
DEFAULT_255_2_778
10
19.1140101
20
73.9837511
40
0.7438166
50
41.9370909
51
89.8762358
0
ARC
8
DEFAULT_255_2_778
10
19.1273214
20
73.9594581
40
0.768197
50
90.8730151
51
175.0627552
0
ARC
8
DEFAULT_255_2_778
10
19.1797126
20
73.9430058
40
0.8218958
50
174.2343992
51
180.0097514
0
ARC
8
DEFAULT_255_2_778
10
19.1550867
20
73.9397729
40
0.7972759
50
179.7777162
51
222.1414196
0
ARC
8
DEFAULT_255_2_778
10
19.1172509
20
73.901835
40
0.7437709
50
221.9300285
51
269.8741254
0
ARC
8
DEFAULT_255_2_778
10
19.1104966
20
73.9122973
40
0.7542487
50
270.3889576
51
332.8797533
0
ARC
8
DEFAULT_255_2_778
10
19.1131073
20
73.9233988
40
0.5766383
50
270.2493497
51
330.3649047
0
ARC
8
DEFAULT_255_2_778
10
19.1366787
20
73.551307
40
0.2056225
50
188.7424888
51
264.120891
0
ARC
8
DEFAULT_255_2_778
10
19.180402
20
73.5758673
40
0.2531853
50
180.0682018
51
192.7352383
0
ARC
8
DEFAULT_255_2_778
10
19.1332623
20
74.319031
40
0.2062492
50
102.479692
51
182.5468765
0
ARC
8
DEFAULT_255_2_778
10
19.1155784
20
74.3540755
40
0.1684904
50
89.986931
51
99.1816697
0
ARC
8
DEFAULT_255_2_778
10
19.1031384
20
74.3218685
40
0.201085
50
358.3379179
51
86.4421934
0
ARC
8
DEFAULT_255_2_778
10
19.0609425
20
74.3098683
40
0.2432745
50
359.9994511
51
1.4527903
0
LINE
8
DEFAULT_255_2_778
10
20.0578169
20
73.2543659
11
20.5605169
21
73.2543659
0
LINE
8
DEFAULT_255_2_778
10
20.5605169
20
73.2543659
11
20.5605169
21
75.2739659
0
LINE
8
DEFAULT_255_2_778
10
20.5605169
20
75.2739659
11
20.0578169
21
75.2739659
0
LINE
8
DEFAULT_255_2_778
10
20.0578169
20
75.2739659
11
20.0578169
21
73.2543659
0
LINE
8
DEFAULT_255_2_778
10
20.0578169
20
73.2543659
11
20.0578169
21
73.2543659
0
LINE
8
DEFAULT_255_2_778
10
20.0578169
20
73.2543659
11
20.0578169
21
73.2543659
0
LINE
8
DEFAULT_255_2_778
10
21.2995169
20
75.2739659
11
21.2995169
21
73.2543659
0
LINE
8
DEFAULT_255_2_778
10
21.2995169
20
73.2543659
11
20.7970169
21
73.2543659
0
LINE
8
DEFAULT_255_2_778
10
20.7970169
20
73.2543659
11
20.7970169
21
75.2739659
0
LINE
8
DEFAULT_255_2_778
10
20.7970169
20
75.2739659
11
21.2995169
21
75.2739659
0
LINE
8
DEFAULT_255_2_778
10
21.2995169
20
75.2739659
11
21.2995169
21
75.2739659
0
LINE
8
DEFAULT_255_2_778
10
21.2995169
20
75.2739659
11
21.2995169
21
75.2739659
0
LINE
8
DEFAULT_255_2_778
10
9.1419169
20
74.4894659
11
8.7355169
21
74.4894659
0
LINE
8
DEFAULT_255_2_778
10
8.7355169
20
74.4894659
11
8.7355169
21
75.2739659
0
LINE
8
DEFAULT_255_2_778
10
8.7355169
20
75.2739659
11
8.0703169
21
75.2739659
0
LINE
8
DEFAULT_255_2_778
10
8.0703169
20
75.2739659
11
8.0703169
21
73.2543659
0
LINE
8
DEFAULT_255_2_778
10
8.0703169
20
73.2543659
11
8.7355169
21
73.2543659
0
LINE
8
DEFAULT_255_2_778
10
8.7355169
20
73.2543659
11
8.7355169
21
74.2558659
0
LINE
8
DEFAULT_255_2_778
10
8.7355169
20
74.2558659
11
9.1419169
21
74.2558659
0
LINE
8
DEFAULT_255_2_778
10
9.1419169
20
74.2558659
11
9.1419169
21
73.2543659
0
LINE
8
DEFAULT_255_2_778
10
9.1419169
20
73.2543659
11
9.8070169
21
73.2543659
0
LINE
8
DEFAULT_255_2_778
10
9.8070169
20
73.2543659
11
9.8070169
21
75.2739659
0
LINE
8
DEFAULT_255_2_778
10
9.8070169
20
75.2739659
11
9.1419169
21
75.2739659
0
LINE
8
DEFAULT_255_2_778
10
9.1419169
20
75.2739659
11
9.1419169
21
74.4894659
0
LINE
8
DEFAULT_255_2_778
10
9.1419169
20
74.4894659
11
9.1419169
21
74.4894659
0
LINE
8
DEFAULT_255_2_778
10
9.1419169
20
74.4894659
11
9.1419169
21
74.4894659
0
LINE
8
DEFAULT_255_2_778
10
12.2645169
20
74.5230659
11
12.2237169
21
74.6566659
0
LINE
8
DEFAULT_255_2_778
10
12.2237169
20
74.6566659
11
11.6768169
21
74.6566659
0
LINE
8
DEFAULT_255_2_778
10
11.6768169
20
74.6566659
11
11.6768169
21
73.2546659
0
LINE
8
DEFAULT_255_2_778
10
11.6768169
20
73.2546659
11
12.2237169
21
73.2546659
0
LINE
8
DEFAULT_255_2_778
10
12.2237169
20
73.2546659
11
12.2237169
21
74.0973659
0
LINE
8
DEFAULT_255_2_778
10
12.2237169
20
74.0973659
11
12.2237169
21
74.0973659
0
LINE
8
DEFAULT_255_2_778
10
12.5857169
20
74.1806659
11
12.5857169
21
74.1806659
0
LINE
8
DEFAULT_255_2_778
10
12.5857169
20
74.1806659
11
12.5857169
21
73.2543659
0
LINE
8
DEFAULT_255_2_778
10
12.5857169
20
73.2543659
11
13.1326169
21
73.2543659
0
LINE
8
DEFAULT_255_2_778
10
13.1326169
20
73.2543659
11
13.1326169
21
74.1640659
0
LINE
8
DEFAULT_255_2_778
10
13.1326169
20
74.1640659
11
13.1326169
21
74.1640659
0
LINE
8
DEFAULT_255_2_778
10
12.2642169
20
74.5227659
11
12.2642169
21
74.5227659
0
LINE
8
DEFAULT_255_2_778
10
12.2642169
20
74.5227659
11
12.2642169
21
74.5227659
0
LINE
8
DEFAULT_255_2_778
10
12.2642169
20
74.5227659
11
12.2642169
21
74.5227659
0
LINE
8
DEFAULT_255_2_778
10
12.2642169
20
74.5227659
11
12.2645169
21
74.5230659
0
LINE
8
DEFAULT_255_2_778
10
17.8816169
20
73.8428659
11
17.6265169
21
74.6564659
0
LINE
8
DEFAULT_255_2_778
10
17.6265169
20
74.6564659
11
17.2532169
21
74.6564659
0
LINE
8
DEFAULT_255_2_778
10
17.2532169
20
74.6564659
11
16.9981169
21
73.8094659
0
LINE
8
DEFAULT_255_2_778
10
16.9981169
20
73.8094659
11
16.7322169
21
74.6564659
0
LINE
8
DEFAULT_255_2_778
10
16.7322169
20
74.6564659
11
16.2113169
21
74.6564659
0
LINE
8
DEFAULT_255_2_778
10
16.2113169
20
74.6564659
11
16.2076169
21
74.6564659
0
LINE
8
DEFAULT_255_2_778
10
16.2076169
20
74.6564659
11
16.0007169
21
74.6564659
0
LINE
8
DEFAULT_255_2_778
10
16.0007169
20
74.6564659
11
15.7382169
21
73.9430659
0
LINE
8
DEFAULT_255_2_778
10
15.7382169
20
73.9430659
11
15.3688169
21
74.6564659
0
LINE
8
DEFAULT_255_2_778
10
15.3688169
20
74.6564659
11
14.7441169
21
74.6564659
0
LINE
8
DEFAULT_255_2_778
10
14.7441169
20
74.6564659
11
15.4794169
21
73.2377659
0
LINE
8
DEFAULT_255_2_778
10
15.4794169
20
73.2377659
11
15.3834169
21
72.9707659
0
LINE
8
DEFAULT_255_2_778
10
15.3834169
20
72.9707659
11
15.3834169
21
72.9707659
0
LINE
8
DEFAULT_255_2_778
10
15.6014169
20
72.9913659
11
15.6014169
21
72.9913659
0
LINE
8
DEFAULT_255_2_778
10
15.6014169
20
72.9913659
11
16.2091169
21
74.6505659
0
LINE
8
DEFAULT_255_2_778
10
16.2091169
20
74.6505659
11
16.6473169
21
73.2541659
0
LINE
8
DEFAULT_255_2_778
10
16.6473169
20
73.2541659
11
17.0463169
21
73.2541659
0
LINE
8
DEFAULT_255_2_778
10
17.0463169
20
73.2541659
11
17.2902169
21
74.0595659
0
LINE
8
DEFAULT_255_2_778
10
17.2902169
20
74.0595659
11
17.5416169
21
73.2541659
0
LINE
8
DEFAULT_255_2_778
10
17.5416169
20
73.2541659
11
17.9186169
21
73.2541659
0
LINE
8
DEFAULT_255_2_778
10
17.9186169
20
73.2541659
11
18.3435169
21
74.6561659
0
LINE
8
DEFAULT_255_2_778
10
18.3435169
20
74.6561659
11
18.1255169
21
74.6561659
0
LINE
8
DEFAULT_255_2_778
10
18.1255169
20
74.6561659
11
17.8816169
21
73.8425659
0
LINE
8
DEFAULT_255_2_778
10
17.8816169
20
73.8425659
11
17.8816169
21
73.8425659
0
LINE
8
DEFAULT_255_2_778
10
17.8816169
20
73.8425659
11
17.8816169
21
73.8425659
0
LINE
8
DEFAULT_255_2_778
10
17.8816169
20
73.8425659
11
17.8816169
21
73.8428659
0
LINE
8
DEFAULT_255_2_778
10
10.7495169
20
74.7275659
11
10.7495169
21
74.7275659
0
LINE
8
DEFAULT_255_2_778
10
10.7495169
20
74.7275659
11
10.7495169
21
74.7275659
0
LINE
8
DEFAULT_255_2_778
10
10.7495169
20
74.7275659
11
10.7495169
21
74.7275659
0
LINE
8
DEFAULT_255_2_778
10
10.7495169
20
74.7275659
11
10.7495169
21
74.7275659
0
LINE
8
DEFAULT_255_2_778
10
10.5611169
20
73.5758659
11
10.5611169
21
73.5758659
0
LINE
8
DEFAULT_255_2_778
10
10.5611169
20
73.5758659
11
10.5611169
21
74.3100659
0
LINE
8
DEFAULT_255_2_778
10
10.5611169
20
74.3100659
11
10.5611169
21
74.3100659
0
LINE
8
DEFAULT_255_2_778
10
10.9381169
20
74.3100659
11
10.9381169
21
74.3100659
0
LINE
8
DEFAULT_255_2_778
10
10.9381169
20
74.3100659
11
10.9381169
21
73.5758659
0
LINE
8
DEFAULT_255_2_778
10
10.9381169
20
73.5758659
11
10.9381169
21
73.5758659
0
LINE
8
DEFAULT_255_2_778
10
10.9381169
20
73.5758659
11
10.9381169
21
73.5758659
0
LINE
8
DEFAULT_255_2_778
10
10.9381169
20
73.5758659
11
10.9381169
21
73.5758659
0
LINE
8
DEFAULT_255_2_778
10
14.7190169
20
73.5684659
11
14.7190169
21
73.5684659
0
LINE
8
DEFAULT_255_2_778
10
14.7190169
20
73.5684659
11
14.5515169
21
73.6382659
0
LINE
8
DEFAULT_255_2_778
10
14.5515169
20
73.6382659
11
14.5515169
21
73.6382659
0
LINE
8
DEFAULT_255_2_778
10
13.8641169
20
73.5755659
11
13.8641169
21
73.5755659
0
LINE
8
DEFAULT_255_2_778
10
13.8641169
20
73.5755659
11
13.8641169
21
73.8301659
0
LINE
8
DEFAULT_255_2_778
10
13.8641169
20
73.8301659
11
14.8042169
21
73.8301659
0
LINE
8
DEFAULT_255_2_778
10
14.8042169
20
73.8301659
11
14.8042169
21
73.8301659
0
LINE
8
DEFAULT_255_2_778
10
14.8042169
20
73.8301659
11
14.8042169
21
73.8301659
0
LINE
8
DEFAULT_255_2_778
10
14.8042169
20
73.8301659
11
14.8047169
21
73.8301659
0
LINE
8
DEFAULT_255_2_778
10
14.2417169
20
74.3100659
11
14.2417169
21
74.3100659
0
LINE
8
DEFAULT_255_2_778
10
14.2417169
20
74.3100659
11
14.2417169
21
74.0304659
0
LINE
8
DEFAULT_255_2_778
10
14.2417169
20
74.0304659
11
13.8647169
21
74.0304659
0
LINE
8
DEFAULT_255_2_778
10
13.8647169
20
74.0304659
11
13.8647169
21
74.3100659
0
LINE
8
DEFAULT_255_2_778
10
13.8647169
20
74.3100659
11
13.8647169
21
74.3100659
0
LINE
8
DEFAULT_255_2_778
10
13.8647169
20
74.3100659
11
13.8647169
21
74.3100659
0
LINE
8
DEFAULT_255_2_778
10
13.8647169
20
74.3100659
11
13.8647169
21
74.3100659
0
LINE
8
DEFAULT_255_2_778
10
19.7818169
20
73.5684659
11
19.7818169
21
73.5684659
0
LINE
8
DEFAULT_255_2_778
10
19.7818169
20
73.5684659
11
19.6143169
21
73.6382659
0
LINE
8
DEFAULT_255_2_778
10
19.6143169
20
73.6382659
11
19.6143169
21
73.6382659
0
LINE
8
DEFAULT_255_2_778
10
18.9272169
20
73.5755659
11
18.9272169
21
73.5755659
0
LINE
8
DEFAULT_255_2_778
10
18.9272169
20
73.5755659
11
18.9272169
21
73.8301659
0
LINE
8
DEFAULT_255_2_778
10
18.9272169
20
73.8301659
11
19.8673169
21
73.8301659
0
LINE
8
DEFAULT_255_2_778
10
19.8673169
20
73.8301659
11
19.8673169
21
73.8301659
0
LINE
8
DEFAULT_255_2_778
10
19.8673169
20
73.8301659
11
19.8673169
21
73.8301659
0
LINE
8
DEFAULT_255_2_778
10
19.8673169
20
73.8301659
11
19.8673169
21
73.8301659
0
LINE
8
DEFAULT_255_2_778
10
19.3042169
20
74.3098659
11
19.3042169
21
74.3098659
0
LINE
8
DEFAULT_255_2_778
10
19.3042169
20
74.3098659
11
19.3042169
21
74.0304659
0
LINE
8
DEFAULT_255_2_778
10
19.3042169
20
74.0304659
11
18.9272169
21
74.0304659
0
LINE
8
DEFAULT_255_2_778
10
18.9272169
20
74.0304659
11
18.9272169
21
74.3100659
0
LINE
8
DEFAULT_255_2_778
10
18.9272169
20
74.3100659
11
18.9272169
21
74.3100659
0
LINE
8
DEFAULT_255_2_778
10
18.9272169
20
74.3100659
11
18.9272169
21
74.3100659
0
LINE
8
DEFAULT_255_2_778
10
18.9272169
20
74.3100659
11
18.9272169
21
74.3098659
0
LINE
8
DEFAULT_255_1_234
10
9.7177364
20
71.2941211
11
9.9169235
21
71.2941211
0
LINE
8
DEFAULT_255_1_234
10
9.9169235
20
71.2941211
11
10.2992342
21
70.3399506
0
LINE
8
DEFAULT_255_1_234
10
10.2992342
20
70.3399506
11
10.681545
21
71.2941211
0
LINE
8
DEFAULT_255_1_234
10
10.681545
20
71.2941211
11
10.8815353
21
71.2941211
0
LINE
8
DEFAULT_255_1_234
10
10.8815353
20
71.2941211
11
10.8815353
21
70.1247
0
LINE
8
DEFAULT_255_1_234
10
10.8815353
20
70.1247
11
10.7273259
21
70.1247
0
LINE
8
DEFAULT_255_1_234
10
10.7273259
20
70.1247
11
10.7273259
21
70.5800996
0
LINE
8
DEFAULT_255_1_234
10
10.7273259
20
70.5800996
11
10.741783
21
71.0716419
0
LINE
8
DEFAULT_255_1_234
10
10.741783
20
71.0716419
11
10.3578659
21
70.1247
0
LINE
8
DEFAULT_255_1_234
10
10.3578659
20
70.1247
11
10.2397994
21
70.1247
0
LINE
8
DEFAULT_255_1_234
10
10.2397994
20
70.1247
11
9.8566854
21
71.0692324
0
LINE
8
DEFAULT_255_1_234
10
9.8566854
20
71.0692324
11
9.8719458
21
70.5800996
0
LINE
8
DEFAULT_255_1_234
10
9.8719458
20
70.5800996
11
9.8719458
21
70.1247
0
LINE
8
DEFAULT_255_1_234
10
9.8719458
20
70.1247
11
9.7177364
21
70.1247
0
LINE
8
DEFAULT_255_1_234
10
9.7177364
20
70.1247
11
9.7177364
21
71.2941211
0
LINE
8
DEFAULT_255_1_234
10
11.822855
20
70.1247
11
11.6670393
21
70.1247
0
LINE
8
DEFAULT_255_1_234
10
11.4991759
20
70.651582
11
11.6437472
21
70.651582
0
LINE
8
DEFAULT_255_1_234
10
11.6437472
20
70.651582
11
11.6437472
21
70.7198518
0
LINE
8
DEFAULT_255_1_234
10
11.2726809
20
70.7527819
11
11.1232906
21
70.7527819
0
LINE
8
DEFAULT_255_1_234
10
11.7923344
20
70.7278835
11
11.7923344
21
70.327903
0
LINE
8
DEFAULT_255_1_234
10
11.822855
20
70.1375508
11
11.822855
21
70.1247
0
LINE
8
DEFAULT_255_1_234
10
11.6437472
20
70.3680617
11
11.6437472
21
70.5463663
0
LINE
8
DEFAULT_255_1_234
10
11.6437472
20
70.5463663
11
11.527287
21
70.5463663
0
ARC
8
DEFAULT_255_1_234
10
11.7709931
20
70.1751194
40
0.1155358
50
197.0791116
51
205.8741701
0
ARC
8
DEFAULT_255_1_234
10
11.894853
20
70.2143654
40
0.2454626
50
192.2918602
51
197.3448991
0
ARC
8
DEFAULT_255_1_234
10
12.0901979
20
70.2577663
40
0.4455697
50
189.1576348
51
192.3971359
0
ARC
8
DEFAULT_255_1_234
10
12.371626
20
70.3036549
40
0.7307142
50
186.8689952
51
189.1979448
0
ARC
8
DEFAULT_255_1_234
10
11.3887414
20
70.4583258
40
0.353352
50
294.0080019
51
316.7604136
0
ARC
8
DEFAULT_255_1_234
10
11.4016478
20
70.4401572
40
0.3315331
50
269.5042461
51
293.2479736
0
ARC
8
DEFAULT_255_1_234
10
11.3956963
20
70.4802491
40
0.3716254
50
255.403374
51
270.4753162
0
ARC
8
DEFAULT_255_1_234
10
11.3726935
20
70.3909825
40
0.2794431
50
228.6140946
51
255.354999
0
ARC
8
DEFAULT_255_1_234
10
11.3394459
20
70.3591491
40
0.2336109
50
181.8953303
51
229.5703879
0
ARC
8
DEFAULT_255_1_234
10
11.3985964
20
70.3655708
40
0.2929755
50
179.984097
51
182.7679515
0
ARC
8
DEFAULT_255_1_234
10
11.3902906
20
70.3690413
40
0.28469
50
161.0341165
51
180.6820968
0
ARC
8
DEFAULT_255_1_234
10
11.3463452
20
70.3804729
40
0.2394402
50
125.0523775
51
160.2033967
0
ARC
8
DEFAULT_255_1_234
10
11.4125461
20
70.2901431
40
0.3514152
50
106.2671988
51
125.4298572
0
ARC
8
DEFAULT_255_1_234
10
11.4697917
20
70.1030842
40
0.5470269
50
95.4857064
51
106.534858
0
ARC
8
DEFAULT_255_1_234
10
11.4971071
20
69.8531758
40
0.7984089
50
89.8515322
51
95.7224983
0
ARC
8
DEFAULT_255_1_234
10
11.4331666
20
70.7216759
40
0.2105886
50
359.503704
51
14.3184734
0
ARC
8
DEFAULT_255_1_234
10
11.490579
20
70.7366017
40
0.1512684
50
14.2187004
51
45.2025693
0
ARC
8
DEFAULT_255_1_234
10
11.4941986
20
70.7380251
40
0.1477163
50
45.8098026
51
73.0032427
0
ARC
8
DEFAULT_255_1_234
10
11.4692954
20
70.6618896
40
0.2278113
50
72.610967
51
85.7232876
0
ARC
8
DEFAULT_255_1_234
10
11.4602948
20
70.5705569
40
0.3195681
50
85.3352114
51
90.0850615
0
ARC
8
DEFAULT_255_1_234
10
11.4579351
20
70.6296391
40
0.2604924
50
89.5853149
51
103.4592217
0
ARC
8
DEFAULT_255_1_234
10
11.4426954
20
70.6931597
40
0.1951693
50
103.44851
51
126.5404292
0
ARC
8
DEFAULT_255_1_234
10
11.4187834
20
70.723743
40
0.1563639
50
126.1729825
51
141.5004088
0
ARC
8
DEFAULT_255_1_234
10
11.3809435
20
70.7534385
40
0.1082645
50
141.3333588
51
180.3474677
0
ARC
8
DEFAULT_255_1_234
10
11.3135145
20
70.7517174
40
0.1902269
50
151.6374668
51
179.6793754
0
ARC
8
DEFAULT_255_1_234
10
11.3737387
20
70.7217334
40
0.2574753
50
142.4988163
51
152.1325379
0
ARC
8
DEFAULT_255_1_234
10
11.4055347
20
70.6967735
40
0.2978957
50
120.8284787
51
142.4132259
0
ARC
8
DEFAULT_255_1_234
10
11.4471456
20
70.6316301
40
0.3751664
50
113.9638113
51
121.1869885
0
ARC
8
DEFAULT_255_1_234
10
11.4607608
20
70.5984544
40
0.4110136
50
93.3784663
51
113.8198047
0
ARC
8
DEFAULT_255_1_234
10
11.468439
20
70.5219446
40
0.487853
50
89.9745882
51
93.7491274
0
ARC
8
DEFAULT_255_1_234
10
11.4719276
20
70.5255605
40
0.4842481
50
79.1325877
51
90.3871757
0
ARC
8
DEFAULT_255_1_234
10
11.5044396
20
70.6880435
40
0.3185522
50
60.1435559
51
79.3654871
0
ARC
8
DEFAULT_255_1_234
10
11.5301085
20
70.737343
40
0.2630271
50
48.6192091
51
59.646742
0
ARC
8
DEFAULT_255_1_234
10
11.5348823
20
70.7436691
40
0.2551253
50
9.0349315
51
48.4844544
0
ARC
8
DEFAULT_255_1_234
10
11.4272667
20
70.7201793
40
0.3651489
50
1.2089744
51
10.0233366
0
ARC
8
DEFAULT_255_1_234
10
12.5559412
20
70.3254518
40
0.7636108
50
179.8160804
51
185.3206488
0
ARC
8
DEFAULT_255_1_234
10
12.2863894
20
70.2997155
40
0.4928344
50
185.2474014
51
192.7953707
0
ARC
8
DEFAULT_255_1_234
10
12.1102151
20
70.2592824
40
0.3120807
50
192.7197759
51
202.9585048
0
ARC
8
DEFAULT_255_1_234
10
11.4204334
20
70.4990928
40
0.2611453
50
270.0069004
51
300.5035019
0
ARC
8
DEFAULT_255_1_234
10
11.4326942
20
70.4862927
40
0.2439274
50
299.5482464
51
315.6095048
0
ARC
8
DEFAULT_255_1_234
10
11.4617039
20
70.4566155
40
0.2024389
50
315.868035
51
334.0596869
0
ARC
8
DEFAULT_255_1_234
10
11.5229399
20
69.8489943
40
0.6973855
50
89.6428514
51
97.2870891
0
ARC
8
DEFAULT_255_1_234
10
11.4788162
20
70.1793571
40
0.3640992
50
96.9938028
51
109.7781797
0
ARC
8
DEFAULT_255_1_234
10
11.4122787
20
70.3574891
40
0.1739759
50
109.0087453
51
135.326626
0
ARC
8
DEFAULT_255_1_234
10
11.3849392
20
70.3913473
40
0.1308198
50
137.4539381
51
182.1082805
0
ARC
8
DEFAULT_255_1_234
10
11.4223382
20
70.3848893
40
0.1681384
50
179.4392907
51
195.7200177
0
ARC
8
DEFAULT_255_1_234
10
11.381181
20
70.3736426
40
0.1254738
50
195.8684065
51
230.1572205
0
ARC
8
DEFAULT_255_1_234
10
11.4054237
20
70.4026769
40
0.1632985
50
230.1530708
51
259.7485588
0
ARC
8
DEFAULT_255_1_234
10
11.4192941
20
70.4680386
40
0.230094
50
259.2463819
51
270.291543
0
LINE
8
DEFAULT_255_1_234
10
12.6718097
20
70.7383248
11
12.5224194
21
70.7383248
0
LINE
8
DEFAULT_255_1_234
10
11.989112
20
70.3921569
11
12.1376991
21
70.3921569
0
ARC
8
DEFAULT_255_1_234
10
12.4036012
20
70.3566959
40
0.1276617
50
359.3334982
51
18.5871358
0
ARC
8
DEFAULT_255_1_234
10
12.424465
20
70.3622133
40
0.1061371
50
19.3540742
51
54.6485071
0
ARC
8
DEFAULT_255_1_234
10
12.3740552
20
70.2926919
40
0.1920087
50
54.3827097
51
65.0622807
0
ARC
8
DEFAULT_255_1_234
10
12.2971948
20
70.13099
40
0.3710447
50
64.8282493
51
71.4200025
0
ARC
8
DEFAULT_255_1_234
10
12.2069823
20
69.8663107
40
0.6506741
50
71.3164301
51
75.8006402
0
ARC
8
DEFAULT_255_1_234
10
12.1228643
20
69.5422561
40
0.9854641
50
75.6809531
51
78.0061883
0
ARC
8
DEFAULT_255_1_234
10
12.5677177
20
71.640177
40
1.1591028
50
254.6901892
51
258.0466452
0
ARC
8
DEFAULT_255_1_234
10
12.4639085
20
71.2642781
40
0.7691345
50
249.9010773
51
254.755261
0
ARC
8
DEFAULT_255_1_234
10
12.3635427
20
70.9916982
40
0.478665
50
243.3097214
51
249.9709442
0
ARC
8
DEFAULT_255_1_234
10
12.3006448
20
70.8662778
40
0.3383568
50
234.4047477
51
243.2862168
0
ARC
8
DEFAULT_255_1_234
10
12.2383972
20
70.7803232
40
0.2322322
50
220.8667099
51
234.5493881
0
ARC
8
DEFAULT_255_1_234
10
12.2041913
20
70.7491817
40
0.1859923
50
214.3062465
51
220.5065136
0
ARC
8
DEFAULT_255_1_234
10
12.2015992
20
70.746088
40
0.1821108
50
186.912965
51
213.9618616
0
ARC
8
DEFAULT_255_1_234
10
12.2548087
20
70.7547009
40
0.2359799
50
179.8808832
51
187.4339886
0
ARC
8
DEFAULT_255_1_234
10
12.239322
20
70.7567088
40
0.2204978
50
132.005434
51
180.3942919
0
ARC
8
DEFAULT_255_1_234
10
12.3049834
20
70.6961083
40
0.3095791
50
129.2319861
51
133.5302299
0
ARC
8
DEFAULT_255_1_234
10
12.3103342
20
70.6866928
40
0.3202615
50
100.4410011
51
128.9081242
0
ARC
8
DEFAULT_255_1_234
10
12.3377225
20
70.5581455
40
0.4516583
50
89.6985377
51
100.9026564
0
ARC
8
DEFAULT_255_1_234
10
12.3434267
20
70.5421166
40
0.4676928
50
77.6965325
51
90.4076836
0
ARC
8
DEFAULT_255_1_234
10
12.3765252
20
70.6848413
40
0.3211988
50
50.7276602
51
78.0399361
0
ARC
8
DEFAULT_255_1_234
10
12.420971
20
70.7366296
40
0.2529778
50
25.7545084
51
51.0957453
0
ARC
8
DEFAULT_255_1_234
10
12.4210935
20
70.7416206
40
0.250738
50
359.2468627
51
24.7394243
0
ARC
8
DEFAULT_255_1_234
10
12.3926387
20
70.7387664
40
0.1297815
50
359.8050318
51
45.1544908
0
ARC
8
DEFAULT_255_1_234
10
12.3519528
20
70.7039794
40
0.1831883
50
43.8047702
51
49.6271585
0
ARC
8
DEFAULT_255_1_234
10
12.352743
20
70.7040678
40
0.18261
50
49.7980766
51
82.1218353
0
ARC
8
DEFAULT_255_1_234
10
12.3408402
20
70.6393998
40
0.2483163
50
81.4465357
51
90.1710293
0
ARC
8
DEFAULT_255_1_234
10
12.3384005
20
70.586788
40
0.300932
50
89.6766211
51
99.1264602
0
ARC
8
DEFAULT_255_1_234
10
12.3212466
20
70.6901537
40
0.1961547
50
98.968313
51
113.4570237
0
ARC
8
DEFAULT_255_1_234
10
12.3016551
20
70.7369965
40
0.1453859
50
113.722589
51
127.4763106
0
ARC
8
DEFAULT_255_1_234
10
12.2848198
20
70.7570124
40
0.1192639
50
126.9083309
51
150.3165862
0
ARC
8
DEFAULT_255_1_234
10
12.280053
20
70.7620981
40
0.112623
50
151.3635175
51
180.0701457
0
ARC
8
DEFAULT_255_1_234
10
12.3109315
20
70.759999
40
0.1435149
50
179.2169974
51
179.9954013
0
ARC
8
DEFAULT_255_1_234
10
12.2748372
20
70.7587056
40
0.1074286
50
179.3040112
51
198.4225446
0
ARC
8
DEFAULT_255_1_234
10
12.2556506
20
70.7537127
40
0.0876573
50
199.2895851
51
238.6034594
0
ARC
8
DEFAULT_255_1_234
10
12.3159352
20
70.848345
40
0.1998512
50
237.9846301
51
246.8744712
0
ARC
8
DEFAULT_255_1_234
10
12.4017297
20
71.0446205
40
0.4140547
50
246.6234531
51
251.8168941
0
ARC
8
DEFAULT_255_1_234
10
12.5047841
20
71.3540905
40
0.7402308
50
251.713434
51
255.0778414
0
ARC
8
DEFAULT_255_1_234
10
12.6247104
20
71.8007563
40
1.2027155
50
255.0367487
51
257.4705983
0
ARC
8
DEFAULT_255_1_234
10
12.1139113
20
69.4993863
40
1.1546601
50
73.6837552
51
77.5016755
0
ARC
8
DEFAULT_255_1_234
10
12.2227888
20
69.8693581
40
0.7690009
50
68.7044154
51
73.7249639
0
ARC
8
DEFAULT_255_1_234
10
12.3130909
20
70.1020654
40
0.5193873
50
63.590599
51
68.6626804
0
ARC
8
DEFAULT_255_1_234
10
12.3901928
20
70.2558123
40
0.3473927
50
54.7106439
51
63.7013633
0
ARC
8
DEFAULT_255_1_234
10
12.4526382
20
70.34304
40
0.2401192
50
41.0622434
51
54.8487496
0
ARC
8
DEFAULT_255_1_234
10
12.4867769
20
70.3743592
40
0.1938094
50
34.4950568
51
40.7105546
0
ARC
8
DEFAULT_255_1_234
10
12.4914576
20
70.3792078
40
0.1872106
50
9.3763373
51
34.0833615
0
ARC
8
DEFAULT_255_1_234
10
12.4261447
20
70.3666728
40
0.2536988
50
359.7694872
51
9.7663171
0
ARC
8
DEFAULT_255_1_234
10
12.4458947
20
70.3623764
40
0.2339696
50
335.8654732
51
0.8022045
0
ARC
8
DEFAULT_255_1_234
10
12.4533992
20
70.3637197
40
0.2277108
50
307.7357725
51
334.7849066
0
ARC
8
DEFAULT_255_1_234
10
12.4133168
20
70.4087645
40
0.2878951
50
307.0241536
51
308.5578354
0
ARC
8
DEFAULT_255_1_234
10
12.3875499
20
70.4473801
40
0.3342515
50
282.9362969
51
306.5646424
0
ARC
8
DEFAULT_255_1_234
10
12.3513796
20
70.5941108
40
0.4853615
50
271.1026298
51
283.2200835
0
ARC
8
DEFAULT_255_1_234
10
12.345004
20
70.7182418
40
0.6096052
50
269.9919117
51
271.4772449
0
ARC
8
DEFAULT_255_1_234
10
12.3423795
20
70.6104436
40
0.5018135
50
259.0723564
51
270.289833
0
ARC
8
DEFAULT_255_1_234
10
12.3211528
20
70.4987271
40
0.388099
50
245.4963068
51
259.0227342
0
ARC
8
DEFAULT_255_1_234
10
12.2933484
20
70.4405615
40
0.3236422
50
228.9684658
51
245.7044727
0
ARC
8
DEFAULT_255_1_234
10
12.2667928
20
70.4078575
40
0.2815426
50
214.4011705
51
228.6759915
0
ARC
8
DEFAULT_255_1_234
10
12.2378668
20
70.392029
40
0.2487548
50
179.9705531
51
215.1572795
0
ARC
8
DEFAULT_255_1_234
10
12.3079268
20
70.3993806
40
0.1703809
50
182.4299387
51
203.0329699
0
ARC
8
DEFAULT_255_1_234
10
12.2894926
20
70.3937396
40
0.1512226
50
203.798802
51
232.548466
0
ARC
8
DEFAULT_255_1_234
10
12.3171447
20
70.4288826
40
0.1959374
50
232.3782728
51
256.3934612
0
ARC
8
DEFAULT_255_1_234
10
12.3401809
20
70.5178842
40
0.2878639
50
256.104506
51
268.4626716
0
ARC
8
DEFAULT_255_1_234
10
12.3448293
20
70.5975487
40
0.3676329
50
268.0715632
51
270.0138206
0
ARC
8
DEFAULT_255_1_234
10
12.3466818
20
70.5703083
40
0.3403971
50
269.7031147
51
278.8341955
0
ARC
8
DEFAULT_255_1_234
10
12.3648911
20
70.4572876
40
0.2259217
50
278.6728789
51
292.8232582
0
ARC
8
DEFAULT_255_1_234
10
12.3849449
20
70.4071449
40
0.171929
50
293.1452328
51
303.6655899
0
ARC
8
DEFAULT_255_1_234
10
12.4114328
20
70.3695204
40
0.1259367
50
303.1248165
51
321.742847
0
ARC
8
DEFAULT_255_1_234
10
12.4300208
20
70.3532156
40
0.1012531
50
322.4748573
51
1.1291126
0
LINE
8
DEFAULT_255_1_234
10
12.9264158
20
71.2041656
11
13.075003
21
71.2041656
0
LINE
8
DEFAULT_255_1_234
10
13.075003
20
71.2041656
11
13.075003
21
70.9937341
0
LINE
8
DEFAULT_255_1_234
10
13.075003
20
70.9937341
11
13.2372441
21
70.9937341
0
LINE
8
DEFAULT_255_1_234
10
13.2372441
20
70.9937341
11
13.2372441
21
70.8788802
0
LINE
8
DEFAULT_255_1_234
10
13.2372441
20
70.8788802
11
13.075003
21
70.8788802
0
LINE
8
DEFAULT_255_1_234
10
13.075003
20
70.8788802
11
13.075003
21
70.3399506
0
LINE
8
DEFAULT_255_1_234
10
13.24126
20
70.2451761
11
13.24126
21
70.1247
0
LINE
8
DEFAULT_255_1_234
10
12.9264158
20
70.3399506
11
12.9264158
21
70.8788802
0
LINE
8
DEFAULT_255_1_234
10
12.9264158
20
70.8788802
11
12.7681906
21
70.8788802
0
LINE
8
DEFAULT_255_1_234
10
12.7681906
20
70.8788802
11
12.7681906
21
70.9937341
0
LINE
8
DEFAULT_255_1_234
10
12.7681906
20
70.9937341
11
12.9264158
21
70.9937341
0
LINE
8
DEFAULT_255_1_234
10
12.9264158
20
70.9937341
11
12.9264158
21
71.2041656
0
ARC
8
DEFAULT_255_1_234
10
13.2757533
20
70.3389084
40
0.200753
50
179.7025659
51
187.917967
0
ARC
8
DEFAULT_255_1_234
10
13.2011559
20
70.3281724
40
0.1253883
50
187.7545981
51
200.2447476
0
ARC
8
DEFAULT_255_1_234
10
13.159088
20
70.3124859
40
0.0804913
50
200.130383
51
219.174133
0
ARC
8
DEFAULT_255_1_234
10
13.1455056
20
70.3032515
40
0.0641445
50
220.4434483
51
249.6172
0
ARC
8
DEFAULT_255_1_234
10
13.1609907
20
70.3421968
40
0.1060489
50
249.1032952
51
262.775154
0
ARC
8
DEFAULT_255_1_234
10
13.1698079
20
70.4050715
40
0.1695354
50
262.4913187
51
270.2611758
0
ARC
8
DEFAULT_255_1_234
10
13.1695496
20
70.4266103
40
0.191075
50
270.3091804
51
275.6625139
0
ARC
8
DEFAULT_255_1_234
10
13.155272
20
70.5767435
40
0.3418851
50
275.5610264
51
279.0879356
0
ARC
8
DEFAULT_255_1_234
10
13.1222598
20
70.7862699
40
0.5539959
50
279.0365489
51
281.5011378
0
ARC
8
DEFAULT_255_1_234
10
13.0865674
20
70.9666423
40
0.7378639
50
281.4243939
51
282.1017894
0
ARC
8
DEFAULT_255_1_234
10
13.1208921
20
70.5584858
40
0.4501761
50
275.2597045
51
285.5083879
0
ARC
8
DEFAULT_255_1_234
10
13.1270246
20
70.5028606
40
0.3942242
50
270.0268409
51
275.1132796
0
ARC
8
DEFAULT_255_1_234
10
13.1250211
20
70.3701614
40
0.261534
50
257.3573315
51
270.479383
0
ARC
8
DEFAULT_255_1_234
10
13.1037102
20
70.2803406
40
0.1692304
50
230.8037497
51
257.741658
0
ARC
8
DEFAULT_255_1_234
10
13.0969005
20
70.2693777
40
0.1564393
50
219.974146
51
230.1990686
0
ARC
8
DEFAULT_255_1_234
10
13.1300952
20
70.2947579
40
0.1981916
50
196.5084186
51
219.4318458
0
ARC
8
DEFAULT_255_1_234
10
13.2316397
20
70.3266194
40
0.3046086
50
184.6404872
51
196.8269686
0
ARC
8
DEFAULT_255_1_234
10
13.3561461
20
70.3391908
40
0.4297309
50
179.8986958
51
184.9681077
0
LINE
8
DEFAULT_255_1_234
10
13.3729805
20
70.5351218
11
13.3729805
21
70.5624297
0
LINE
8
DEFAULT_255_1_234
10
14.110294
20
70.5784932
11
14.110294
21
70.5166488
0
LINE
8
DEFAULT_255_1_234
10
14.110294
20
70.5166488
11
13.5215676
21
70.5166488
0
LINE
8
DEFAULT_255_1_234
10
14.008291
20
70.3471792
11
14.0990496
21
70.2764999
0
LINE
8
DEFAULT_255_1_234
10
13.5263867
20
70.6387313
11
13.9617069
21
70.6387313
0
LINE
8
DEFAULT_255_1_234
10
13.9617069
20
70.6387313
11
13.9617069
21
70.6499757
0
ARC
8
DEFAULT_255_1_234
10
13.766917
20
70.5462332
40
0.4376191
50
252.3266134
51
270.5810217
0
ARC
8
DEFAULT_255_1_234
10
13.7464259
20
70.4721644
40
0.3608374
50
223.3000567
51
251.8561855
0
ARC
8
DEFAULT_255_1_234
10
13.7675619
20
70.4926937
40
0.3902993
50
190.9374509
51
223.3654032
0
ARC
8
DEFAULT_255_1_234
10
13.9400592
20
70.5316885
40
0.5670891
50
179.6531105
51
191.4989439
0
ARC
8
DEFAULT_255_1_234
10
13.9522604
20
70.5656417
40
0.5792888
50
167.4007466
51
180.3176909
0
ARC
8
DEFAULT_255_1_234
10
13.8470666
20
70.5878885
40
0.471777
50
154.1835823
51
167.250763
0
ARC
8
DEFAULT_255_1_234
10
13.7839133
20
70.6211417
40
0.4004528
50
134.3149965
51
154.5315275
0
ARC
8
DEFAULT_255_1_234
10
13.7621628
20
70.6402228
40
0.371612
50
122.8616532
51
133.9707695
0
ARC
8
DEFAULT_255_1_234
10
13.7518202
20
70.6624703
40
0.3473289
50
89.8249009
51
123.4199222
0
ARC
8
DEFAULT_255_1_234
10
13.7568243
20
70.5977967
40
0.4120197
50
74.7876118
51
90.5482747
0
ARC
8
DEFAULT_255_1_234
10
13.7861987
20
70.706303
40
0.2996077
50
39.8178249
51
74.7633718
0
ARC
8
DEFAULT_255_1_234
10
13.7349307
20
70.6663351
40
0.3645855
50
16.8990863
51
39.4829761
0
ARC
8
DEFAULT_255_1_234
10
13.5454603
20
70.6056526
40
0.5635218
50
4.9636328
51
17.2026414
0
ARC
8
DEFAULT_255_1_234
10
13.3036673
20
70.580134
40
0.8066286
50
359.8834553
51
5.2834307
0
ARC
8
DEFAULT_255_1_234
10
13.9074198
20
70.5232803
40
0.3859091
50
180.9846213
51
194.9401313
0
ARC
8
DEFAULT_255_1_234
10
13.8024476
20
70.4945849
40
0.2770883
50
194.80314
51
222.0412631
0
ARC
8
DEFAULT_255_1_234
10
13.7720357
20
70.4644116
40
0.2343055
50
221.5417084
51
268.8614402
0
ARC
8
DEFAULT_255_1_234
10
13.7793352
20
70.5320686
40
0.3021528
50
267.732405
51
270.0097136
0
ARC
8
DEFAULT_255_1_234
10
13.7811162
20
70.5522105
40
0.3222994
50
269.6924892
51
280.4117579
0
ARC
8
DEFAULT_255_1_234
10
13.7987569
20
70.4603193
40
0.2287344
50
280.2255091
51
298.6338936
0
ARC
8
DEFAULT_255_1_234
10
13.8104361
20
70.4359223
40
0.2017294
50
299.0430333
51
300.4643464
0
ARC
8
DEFAULT_255_1_234
10
13.7424366
20
70.5493038
40
0.3339357
50
300.6577328
51
322.0378878
0
ARC
8
DEFAULT_255_1_234
10
13.7073905
20
70.5797021
40
0.3802736
50
321.6750233
51
322.3046845
0
ARC
8
DEFAULT_255_1_234
10
13.8004867
20
70.463037
40
0.3520454
50
276.9728461
51
328.0035423
0
ARC
8
DEFAULT_255_1_234
10
13.772792
20
70.6110841
40
0.5024498
50
269.8361028
51
278.0581756
0
ARC
8
DEFAULT_255_1_234
10
13.7500657
20
70.6855757
40
0.202159
50
89.2018686
51
117.2851756
0
ARC
8
DEFAULT_255_1_234
10
13.7553826
20
70.6813752
40
0.2083484
50
118.0551165
51
137.4540413
0
ARC
8
DEFAULT_255_1_234
10
13.7928566
20
70.6473304
40
0.2589774
50
137.5109581
51
158.8516286
0
ARC
8
DEFAULT_255_1_234
10
13.9066402
20
70.6014074
40
0.38167
50
158.5845963
51
170.1721436
0
ARC
8
DEFAULT_255_1_234
10
14.0235791
20
70.5781823
40
0.5008657
50
169.8376422
51
173.0566086
0
ARC
8
DEFAULT_255_1_234
10
13.5538865
20
70.6292509
40
0.4083467
50
2.9091802
51
12.8847116
0
ARC
8
DEFAULT_255_1_234
10
13.6909541
20
70.6615101
40
0.2675383
50
12.6957781
51
28.6404489
0
ARC
8
DEFAULT_255_1_234
10
13.7451212
20
70.6895458
40
0.2065654
50
29.0169854
51
41.1487595
0
ARC
8
DEFAULT_255_1_234
10
13.7653997
20
70.7072003
40
0.1796786
50
41.1646065
51
85.0013516
0
ARC
8
DEFAULT_255_1_234
10
13.7533094
20
70.6337431
40
0.2539726
50
83.7280015
51
90.0964893
0
LINE
8
DEFAULT_255_1_234
10
14.7022332
20
70.9985531
11
14.7022332
21
70.8604072
0
LINE
8
DEFAULT_255_1_234
10
14.4307604
20
70.7415375
11
14.4307604
21
70.1247
0
LINE
8
DEFAULT_255_1_234
10
14.4307604
20
70.1247
11
14.2821732
21
70.1247
0
LINE
8
DEFAULT_255_1_234
10
14.2821732
20
70.1247
11
14.2821732
21
70.9937341
0
LINE
8
DEFAULT_255_1_234
10
14.2821732
20
70.9937341
11
14.4267445
21
70.9937341
0
LINE
8
DEFAULT_255_1_234
10
14.4267445
20
70.9937341
11
14.4291541
21
70.8933374
0
ARC
8
DEFAULT_255_1_234
10
14.6355737
20
70.4544342
40
0.4114092
50
80.6754243
51
86.8932892
0
ARC
8
DEFAULT_255_1_234
10
14.6295271
20
70.35767
40
0.5083596
50
86.8038578
51
90.0431435
0
ARC
8
DEFAULT_255_1_234
10
14.6258252
20
70.6033866
40
0.2626638
50
89.2759698
51
106.6213787
0
ARC
8
DEFAULT_255_1_234
10
14.6053816
20
70.677683
40
0.1856317
50
107.1346045
51
157.6458115
0
ARC
8
DEFAULT_255_1_234
10
14.6745418
20
70.6393311
40
0.2643398
50
155.6586782
51
157.2539184
0
ARC
8
DEFAULT_255_1_234
10
14.654062
20
70.7562157
40
0.2634121
50
127.8165941
51
148.6302098
0
ARC
8
DEFAULT_255_1_234
10
14.6287089
20
70.7822218
40
0.2273596
50
91.3329982
51
126.7875809
0
ARC
8
DEFAULT_255_1_234
10
14.6363029
20
70.7107195
40
0.299078
50
89.986594
51
92.4688449
0
ARC
8
DEFAULT_255_1_234
10
14.6371424
20
70.7382078
40
0.2715908
50
85.3589899
51
90.1623399
0
ARC
8
DEFAULT_255_1_234
10
14.645594
20
70.8386164
40
0.1708278
50
78.401942
51
85.4594656
0
ARC
8
DEFAULT_255_1_234
10
14.6600824
20
70.9077236
40
0.1002194
50
67.7858312
51
78.5728455
0
ARC
8
DEFAULT_255_1_234
10
14.6708676
20
70.9356887
40
0.0702548
50
63.4835954
51
67.3062642
0
LINE
8
DEFAULT_255_1_234
10
15.0170773
20
71.2941211
11
15.0170773
21
70.2507983
0
LINE
8
DEFAULT_255_1_234
10
15.0170773
20
70.2507983
11
15.5712672
21
70.2507983
0
LINE
8
DEFAULT_255_1_234
10
15.5712672
20
70.2507983
11
15.5712672
21
70.1247
0
LINE
8
DEFAULT_255_1_234
10
15.5712672
20
70.1247
11
14.8620647
21
70.1247
0
LINE
8
DEFAULT_255_1_234
10
14.8620647
20
70.1247
11
14.8620647
21
71.2941211
0
LINE
8
DEFAULT_255_1_234
10
14.8620647
20
71.2941211
11
15.0170773
21
71.2941211
0
LINE
8
DEFAULT_255_1_234
10
15.6845147
20
70.5568075
11
15.6845147
21
70.5672488
0
LINE
8
DEFAULT_255_1_234
10
16.475641
20
70.5600202
11
16.475641
21
70.549579
0
ARC
8
DEFAULT_255_1_234
10
16.2431327
20
70.5704837
40
0.5586273
50
166.3003825
51
180.3317926
0
ARC
8
DEFAULT_255_1_234
10
16.1568486
20
70.5897964
40
0.4702272
50
153.8608245
51
166.0967125
0
ARC
8
DEFAULT_255_1_234
10
16.0902889
20
70.625475
40
0.3947658
50
135.1316692
51
154.253643
0
ARC
8
DEFAULT_255_1_234
10
16.0624448
20
70.6500666
40
0.3576898
50
121.7044358
51
134.776924
0
ARC
8
DEFAULT_255_1_234
10
16.0691442
20
70.6371867
40
0.3721701
50
93.4002104
51
121.5398234
0
ARC
8
DEFAULT_255_1_234
10
16.0786398
20
70.5546228
40
0.4551749
50
89.9706281
51
93.9769836
0
ARC
8
DEFAULT_255_1_234
10
16.083349
20
70.5936362
40
0.4161854
50
71.3323442
51
90.6161982
0
ARC
8
DEFAULT_255_1_234
10
16.0996186
20
70.6538578
40
0.3539455
50
41.1815071
51
70.707185
0
ARC
8
DEFAULT_255_1_234
10
16.0518586
20
70.6104919
40
0.4184468
50
12.1971897
51
41.3445735
0
ARC
8
DEFAULT_255_1_234
10
15.8592594
20
70.5646425
40
0.616399
50
359.5703439
51
12.5804035
0
ARC
8
DEFAULT_255_1_234
10
15.9065669
20
70.5464116
40
0.5690829
50
347.0197749
51
0.3188898
0
ARC
8
DEFAULT_255_1_234
10
16.0024171
20
70.5257808
40
0.4710501
50
334.3504053
51
346.846361
0
ARC
8
DEFAULT_255_1_234
10
16.0869594
20
70.4818805
40
0.3758475
50
310.422922
51
334.8045033
0
ARC
8
DEFAULT_255_1_234
10
16.095142
20
70.4754782
40
0.3656736
50
301.8486886
51
310.097356
0
ARC
8
DEFAULT_255_1_234
10
16.0919146
20
70.4830638
40
0.3738224
50
274.307774
51
301.655379
0
ARC
8
DEFAULT_255_1_234
10
16.0808453
20
70.5708361
40
0.4621997
50
269.9546461
51
274.8588071
0
ARC
8
DEFAULT_255_1_234
10
16.0759387
20
70.5207249
40
0.4121134
50
250.888809
51
270.631312
0
ARC
8
DEFAULT_255_1_234
10
16.0609307
20
70.4648277
40
0.3544073
50
221.1701932
51
250.2227191
0
ARC
8
DEFAULT_255_1_234
10
16.1093461
20
70.5089439
40
0.4198961
50
191.6263638
51
221.3526367
0
ARC
8
DEFAULT_255_1_234
10
16.2981457
20
70.5526329
40
0.6136451
50
179.610213
51
192.0693181
0
ARC
8
DEFAULT_255_1_234
10
16.3404685
20
70.5463633
40
0.5065736
50
179.636298
51
190.6162791
0
ARC
8
DEFAULT_255_1_234
10
16.1762353
20
70.514359
40
0.3392576
50
190.4136628
51
208.7170242
0
ARC
8
DEFAULT_255_1_234
10
16.1251977
20
70.4890366
40
0.2823401
50
209.1867941
51
217.4225593
0
ARC
8
DEFAULT_255_1_234
10
16.0722811
20
70.4424558
40
0.2120636
50
216.1156896
51
265.2575835
0
ARC
8
DEFAULT_255_1_234
10
16.080196
20
70.4998109
40
0.2698952
50
264.5897417
51
270.0601757
0
ARC
8
DEFAULT_255_1_234
10
16.083502
20
70.4618185
40
0.2319225
50
269.2532621
51
291.8792492
0
ARC
8
DEFAULT_255_1_234
10
16.0864242
20
70.4440238
40
0.2143562
50
292.9269754
51
323.1776747
0
ARC
8
DEFAULT_255_1_234
10
16.0471064
20
70.4788452
40
0.2667346
50
322.2518483
51
323.0930371
0
ARC
8
DEFAULT_255_1_234
10
16.0176723
20
70.496999
40
0.3011886
50
323.6941278
51
343.8493282
0
ARC
8
DEFAULT_255_1_234
10
15.8598266
20
70.545035
40
0.4661719
50
343.5748474
51
355.0079071
0
ARC
8
DEFAULT_255_1_234
10
15.6590511
20
70.5658424
40
0.6680042
50
354.7285225
51
0.1206288
0
ARC
8
DEFAULT_255_1_234
10
15.8358977
20
70.5704751
40
0.4911667
50
359.623636
51
11.2015604
0
ARC
8
DEFAULT_255_1_234
10
15.9893205
20
70.602064
40
0.3345323
50
10.9989411
51
30.8319188
0
ARC
8
DEFAULT_255_1_234
10
16.0289077
20
70.6229297
40
0.2898553
50
31.3008956
51
37.3959224
0
ARC
8
DEFAULT_255_1_234
10
16.0785656
20
70.6648653
40
0.2249582
50
36.5915954
51
62.2442953
0
ARC
8
DEFAULT_255_1_234
10
16.0832109
20
70.6645602
40
0.2231053
50
63.3365542
51
89.7195421
0
ARC
8
DEFAULT_255_1_234
10
16.0788963
20
70.6076884
40
0.2800267
50
88.8936788
51
90.0047485
0
ARC
8
DEFAULT_255_1_234
10
16.0757322
20
70.6649787
40
0.2227586
50
89.1921125
51
114.7099455
0
ARC
8
DEFAULT_255_1_234
10
16.0786086
20
70.6687628
40
0.2205633
50
115.7997161
51
142.2900762
0
ARC
8
DEFAULT_255_1_234
10
16.1224819
20
70.6297658
40
0.2791541
50
141.4658779
51
142.3795754
0
ARC
8
DEFAULT_255_1_234
10
16.1333723
20
70.6254557
40
0.2904292
50
143.0175714
51
163.234115
0
ARC
8
DEFAULT_255_1_234
10
16.2911896
20
70.5755054
40
0.4559523
50
162.9447461
51
174.3732162
0
ARC
8
DEFAULT_255_1_234
10
16.505771
20
70.5514143
40
0.6718682
50
174.1228657
51
180.1565175
0
LINE
8
DEFAULT_255_1_234
10
17.2177736
20
70.8973532
11
17.2250021
21
70.9937341
0
LINE
8
DEFAULT_255_1_234
10
17.2250021
20
70.9937341
11
17.3607385
21
70.9937341
0
LINE
8
DEFAULT_255_1_234
10
17.3607385
20
70.9937341
11
17.3607385
21
70.1455825
0
LINE
8
DEFAULT_255_1_234
10
16.6708122
20
69.9327415
11
16.7479169
21
70.0218938
0
LINE
8
DEFAULT_255_1_234
10
17.2113482
20
70.1367476
11
17.2113482
21
70.2114428
0
LINE
8
DEFAULT_255_1_234
10
17.2113482
20
70.3624395
11
17.2113482
21
70.7592073
0
ARC
8
DEFAULT_255_1_234
10
17.3412184
20
70.570767
40
0.7145938
50
169.8803029
51
180.346492
0
ARC
8
DEFAULT_255_1_234
10
17.1058956
20
70.6144732
40
0.4752555
50
152.8532592
51
170.0826994
0
ARC
8
DEFAULT_255_1_234
10
17.022573
20
70.6539298
40
0.3831198
50
142.0149503
51
152.4184154
0
ARC
8
DEFAULT_255_1_234
10
16.9588687
20
70.7119197
40
0.2972906
50
94.3317211
51
143.267544
0
ARC
8
DEFAULT_255_1_234
10
16.9692586
20
70.6336614
40
0.3761364
50
89.949086
51
95.0094918
0
ARC
8
DEFAULT_255_1_234
10
16.9734156
20
70.6495946
40
0.3602233
50
72.9495766
51
90.6080422
0
ARC
8
DEFAULT_255_1_234
10
16.9939262
20
70.7238804
40
0.2831969
50
37.7742493
51
72.5100279
0
ARC
8
DEFAULT_255_1_234
10
16.9019175
20
70.1417461
40
0.4588371
50
346.3654765
51
0.4790689
0
ARC
8
DEFAULT_255_1_234
10
17.0386999
20
70.1069784
40
0.3177173
50
314.3365179
51
346.6439967
0
ARC
8
DEFAULT_255_1_234
10
17.0284901
20
70.121312
40
0.3351156
50
280.7143003
51
313.8723582
0
ARC
8
DEFAULT_255_1_234
10
16.9949554
20
70.2707406
40
0.4882011
50
269.662739
51
281.3210136
0
ARC
8
DEFAULT_255_1_234
10
16.9933233
20
70.229507
40
0.4469607
50
245.5258041
51
269.8408437
0
ARC
8
DEFAULT_255_1_234
10
16.9551789
20
70.1579537
40
0.3660692
50
232.6665166
51
246.3199597
0
ARC
8
DEFAULT_255_1_234
10
16.9067583
20
70.0937155
40
0.2856276
50
214.3037329
51
232.5747698
0
ARC
8
DEFAULT_255_1_234
10
17.0185764
20
70.2362759
40
0.3452771
50
218.3818001
51
236.3658697
0
ARC
8
DEFAULT_255_1_234
10
16.9785588
20
70.1804637
40
0.2766535
50
236.8638847
51
270.6382346
0
ARC
8
DEFAULT_255_1_234
10
16.9840419
20
70.2135542
40
0.3097363
50
269.5557741
51
282.3971413
0
ARC
8
DEFAULT_255_1_234
10
17.0076494
20
70.1120559
40
0.2055403
50
282.04403
51
308.3081445
0
ARC
8
DEFAULT_255_1_234
10
17.0161892
20
70.0984365
40
0.1895677
50
308.8344832
51
315.2032883
0
ARC
8
DEFAULT_255_1_234
10
17.0083465
20
70.104177
40
0.199183
50
315.6210926
51
345.6795494
0
ARC
8
DEFAULT_255_1_234
10
16.9104352
20
70.1314308
40
0.3008009
50
345.2625808
51
358.6313382
0
ARC
8
DEFAULT_255_1_234
10
16.8215774
20
70.1366622
40
0.3897707
50
358.1745328
51
0.0125581
0
ARC
8
DEFAULT_255_1_234
10
16.9900432
20
70.4027802
40
0.2925507
50
275.695063
51
319.1537421
0
ARC
8
DEFAULT_255_1_234
10
16.9688576
20
70.5251945
40
0.4165589
50
269.8801937
51
276.923904
0
ARC
8
DEFAULT_255_1_234
10
16.9635482
20
70.414205
40
0.3056007
50
244.0749417
51
270.8321594
0
ARC
8
DEFAULT_255_1_234
10
16.9710595
20
70.4162057
40
0.3107397
50
217.7817538
51
242.9905588
0
ARC
8
DEFAULT_255_1_234
10
17.0321153
20
70.4704252
40
0.3922508
50
217.5213304
51
218.5773048
0
ARC
8
DEFAULT_255_1_234
10
17.0591685
20
70.4861333
40
0.4232938
50
195.3495212
51
216.9774018
0
ARC
8
DEFAULT_255_1_234
10
17.2614699
20
70.5449389
40
0.6339531
50
183.9386736
51
195.634887
0
ARC
8
DEFAULT_255_1_234
10
17.4890999
20
70.5653851
40
0.8624629
50
179.9295504
51
184.2550478
0
ARC
8
DEFAULT_255_1_234
10
17.3569412
20
70.5465275
40
0.5809212
50
179.6990322
51
188.5748787
0
ARC
8
DEFAULT_255_1_234
10
17.155623
20
70.5150858
40
0.377167
50
188.411837
51
202.0556851
0
ARC
8
DEFAULT_255_1_234
10
17.058746
20
70.477053
40
0.2731001
50
202.2924333
51
215.4475715
0
ARC
8
DEFAULT_255_1_234
10
16.9943087
20
70.4271537
40
0.191695
50
214.4673484
51
264.336154
0
ARC
8
DEFAULT_255_1_234
10
17.0045027
20
70.4908255
40
0.2560911
50
263.4724496
51
270.0961704
0
ARC
8
DEFAULT_255_1_234
10
17.0085229
20
70.475892
40
0.2411839
50
269.1470351
51
291.7977507
0
ARC
8
DEFAULT_255_1_234
10
17.0147663
20
70.4479994
40
0.2130159
50
293.0244875
51
327.6231489
0
ARC
8
DEFAULT_255_1_234
10
16.9439844
20
70.4997511
40
0.3005627
50
326.5166824
51
332.8160514
0
ARC
8
DEFAULT_255_1_234
10
16.9790878
20
70.6357491
40
0.2630339
50
27.9929136
51
47.6313992
0
ARC
8
DEFAULT_255_1_234
10
17.0152402
20
70.6701486
40
0.2132848
50
48.5793389
51
88.624502
0
ARC
8
DEFAULT_255_1_234
10
17.0066248
20
70.5952538
40
0.2884455
50
87.2706405
51
90.0170635
0
ARC
8
DEFAULT_255_1_234
10
17.0037572
20
70.661145
40
0.2225717
50
89.2839171
51
110.1848324
0
ARC
8
DEFAULT_255_1_234
10
16.9976059
20
70.687727
40
0.1955293
50
111.1807684
51
145.0424799
0
ARC
8
DEFAULT_255_1_234
10
17.0082839
20
70.675455
40
0.2113491
50
143.9743769
51
144.1060945
0
ARC
8
DEFAULT_255_1_234
10
17.0625806
20
70.640275
40
0.2759807
50
144.7982748
51
162.8715388
0
ARC
8
DEFAULT_255_1_234
10
17.2320456
20
70.5857842
40
0.453983
50
162.5984223
51
173.3418672
0
ARC
8
DEFAULT_255_1_234
10
17.4988234
20
70.5526851
40
0.7228019
50
173.1877442
51
180.2462216
0
LINE
8
DEFAULT_255_1_234
10
17.746262
20
70.9937341
11
17.746262
21
70.1247
0
LINE
8
DEFAULT_255_1_234
10
17.746262
20
70.1247
11
17.5976748
21
70.1247
0
LINE
8
DEFAULT_255_1_234
10
17.5976748
20
70.1247
11
17.5976748
21
70.9937341
0
LINE
8
DEFAULT_255_1_234
10
17.5976748
20
70.9937341
11
17.746262
21
70.9937341
0
ARC
8
DEFAULT_255_1_234
10
17.6834897
20
71.2251889
40
0.097867
50
161.415052
51
180.5526306
0
ARC
8
DEFAULT_255_1_234
10
17.6710675
20
71.2286077
40
0.0850062
50
138.1827368
51
160.9307106
0
ARC
8
DEFAULT_255_1_234
10
17.660062
20
71.2381588
40
0.0704362
50
104.6368899
51
138.0039868
0
ARC
8
DEFAULT_255_1_234
10
17.6707775
20
71.2014963
40
0.1086221
50
92.0600725
51
105.2189128
0
ARC
8
DEFAULT_255_1_234
10
17.6731124
20
71.1672117
40
0.1429728
50
89.9756393
51
92.5012496
0
ARC
8
DEFAULT_255_1_234
10
17.6741143
20
71.1897731
40
0.1204151
50
78.0235316
51
90.4478182
0
ARC
8
DEFAULT_255_1_234
10
17.6833235
20
71.2311295
40
0.0780493
50
55.051506
51
78.3369085
0
ARC
8
DEFAULT_255_1_234
10
17.6883509
20
71.2395711
40
0.0682538
50
42.0501187
51
54.4513741
0
ARC
8
DEFAULT_255_1_234
10
17.6748376
20
71.2271798
40
0.0865878
50
1.7497075
51
42.1496013
0
ARC
8
DEFAULT_255_1_234
10
17.6493709
20
71.2242738
40
0.1121515
50
359.9852656
51
2.8364544
0
ARC
8
DEFAULT_255_1_234
10
17.6659701
20
71.2233229
40
0.0955566
50
342.1070653
51
0.552888
0
ARC
8
DEFAULT_255_1_234
10
17.6802399
20
71.2193904
40
0.0807713
50
316.7107116
51
341.6516965
0
ARC
8
DEFAULT_255_1_234
10
17.6869436
20
71.2133823
40
0.0717724
50
285.4397031
51
316.5324284
0
ARC
8
DEFAULT_255_1_234
10
17.6759353
20
71.2499554
40
0.1099597
50
272.3547054
51
285.8953117
0
ARC
8
DEFAULT_255_1_234
10
17.6732511
20
71.2865048
40
0.1465932
50
269.9695369
51
272.8160237
0
ARC
8
DEFAULT_255_1_234
10
17.6722692
20
71.2645863
40
0.1246779
50
258.8431134
51
270.4153935
0
ARC
8
DEFAULT_255_1_234
10
17.6632735
20
71.2210414
40
0.0802162
50
238.5431189
51
259.1288175
0
ARC
8
DEFAULT_255_1_234
10
17.6564619
20
71.2086856
40
0.0661247
50
222.5062634
51
237.9906969
0
ARC
8
DEFAULT_255_1_234
10
17.6692207
20
71.2202889
40
0.0833707
50
184.1069131
51
222.460413
0
ARC
8
DEFAULT_255_1_234
10
17.6961448
20
71.2241349
40
0.1105176
50
179.9429482
51
185.0960898
0
LINE
8
DEFAULT_255_1_234
10
18.5373882
20
70.3985823
11
18.6779436
21
70.3985823
0
LINE
8
DEFAULT_255_1_234
10
17.9454491
20
70.5511853
11
17.9454491
21
70.5760837
0
LINE
8
DEFAULT_255_1_234
10
18.6779436
20
70.6949534
11
18.5373882
21
70.6949534
0
LINE
8
DEFAULT_255_1_234
10
18.0940362
20
70.5704615
11
18.0940362
21
70.5423504
0
ARC
8
DEFAULT_255_1_234
10
18.3361917
20
70.4439121
40
0.2140268
50
269.0327816
51
309.2224514
0
ARC
8
DEFAULT_255_1_234
10
18.3571672
20
70.4224108
40
0.1841255
50
308.396669
51
329.6984113
0
ARC
8
DEFAULT_255_1_234
10
18.3709527
20
70.411982
40
0.166974
50
330.401383
51
355.3970571
0
ARC
8
DEFAULT_255_1_234
10
18.4166393
20
70.4137082
40
0.2617417
50
329.2357853
51
356.6870514
0
ARC
8
DEFAULT_255_1_234
10
18.3616415
20
70.4427971
40
0.3238945
50
324.8706984
51
329.7905871
0
ARC
8
DEFAULT_255_1_234
10
18.3538133
20
70.4495106
40
0.3341614
50
298.8769168
51
324.7016144
0
ARC
8
DEFAULT_255_1_234
10
18.3206325
20
70.5023917
40
0.3965068
50
296.9023738
51
299.385174
0
ARC
8
DEFAULT_255_1_234
10
18.3335938
20
70.4736422
40
0.365007
50
269.8406811
51
297.1299281
0
ARC
8
DEFAULT_255_1_234
10
18.3282595
20
70.5374407
40
0.4288259
50
253.315473
51
270.5771285
0
ARC
8
DEFAULT_255_1_234
10
18.303563
20
70.4480739
40
0.3361372
50
221.1002312
51
252.9744583
0
ARC
8
DEFAULT_255_1_234
10
18.3495627
20
70.487559
40
0.3967576
50
194.5394537
51
221.0302238
0
ARC
8
DEFAULT_255_1_234
10
18.5344448
20
70.5390952
40
0.5886672
50
182.0499201
51
194.8773585
0
ARC
8
DEFAULT_255_1_234
10
18.7114646
20
70.550906
40
0.7660157
50
179.9791086
51
182.4591564
0
ARC
8
DEFAULT_255_1_234
10
18.537669
20
70.5790498
40
0.5922274
50
168.614861
51
180.2869651
0
ARC
8
DEFAULT_255_1_234
10
18.4174835
20
70.6026269
40
0.4697532
50
154.9162259
51
168.5402336
0
ARC
8
DEFAULT_255_1_234
10
18.3253343
20
70.648163
40
0.3669966
50
133.5746694
51
155.2558665
0
ARC
8
DEFAULT_255_1_234
10
18.3090502
20
70.6620467
40
0.3457206
50
122.0165146
51
133.2055214
0
ARC
8
DEFAULT_255_1_234
10
18.312634
20
70.6532361
40
0.355095
50
97.8731644
51
121.7531281
0
ARC
8
DEFAULT_255_1_234
10
18.3305423
20
70.5475159
40
0.4622833
50
89.8471353
51
98.2769494
0
ARC
8
DEFAULT_255_1_234
10
18.3354176
20
70.6085091
40
0.401305
50
73.3760412
51
90.5199766
0
ARC
8
DEFAULT_255_1_234
10
18.3550539
20
70.6807516
40
0.3264695
50
47.7085968
51
73.0509704
0
ARC
8
DEFAULT_255_1_234
10
18.3680409
20
70.6920128
40
0.309407
50
3.7443473
51
48.0843753
0
ARC
8
DEFAULT_255_1_234
10
18.2693359
20
70.6762614
40
0.4090351
50
2.6192045
51
5.0432185
0
ARC
8
DEFAULT_255_1_234
10
18.3150212
20
70.6802592
40
0.2228519
50
3.780656
51
23.9356886
0
ARC
8
DEFAULT_255_1_234
10
18.3378828
20
70.6883155
40
0.198697
50
24.4869552
51
46.9440088
0
ARC
8
DEFAULT_255_1_234
10
18.3379679
20
70.6906484
40
0.1969404
50
46.498716
51
89.3298174
0
ARC
8
DEFAULT_255_1_234
10
18.3318033
20
70.6311723
40
0.2565428
50
88.1083975
51
90.0061569
0
ARC
8
DEFAULT_255_1_234
10
18.3290463
20
70.6365759
40
0.251154
50
89.3773333
51
107.2071161
0
ARC
8
DEFAULT_255_1_234
10
18.3147586
20
70.688319
40
0.1975072
50
107.6883219
51
143.3583002
0
ARC
8
DEFAULT_255_1_234
10
18.3714969
20
70.6456873
40
0.2684762
50
143.2846717
51
162.935323
0
ARC
8
DEFAULT_255_1_234
10
18.5220571
20
70.5973652
40
0.4265927
50
162.6650068
51
174.0805419
0
ARC
8
DEFAULT_255_1_234
10
18.736341
20
70.5724636
40
0.6423078
50
173.8423985
51
180.1785963
0
ARC
8
DEFAULT_255_1_234
10
18.681551
20
70.5393039
40
0.5875227
50
179.7028978
51
188.2277152
0
ARC
8
DEFAULT_255_1_234
10
18.4713812
20
70.5078247
40
0.3750127
50
188.0629871
51
201.1160002
0
ARC
8
DEFAULT_255_1_234
10
18.361601
20
70.4659238
40
0.2575093
50
201.2187293
51
216.9761968
0
ARC
8
DEFAULT_255_1_234
10
18.3164573
20
70.4320993
40
0.2010998
50
217.0135981
51
265.2056839
0
ARC
8
DEFAULT_255_1_234
10
18.3320433
20
70.5242695
40
0.2943543
50
263.681807
51
270.104251
0
LINE
8
DEFAULT_255_2_778
10
9.3932417
20
60.721908
11
10.7161417
21
60.721908
0
LINE
8
DEFAULT_255_2_778
10
10.7161417
20
60.721908
11
10.7161417
21
35.586508
0
LINE
8
DEFAULT_255_2_778
10
9.3932834
20
35.5864333
11
12.0390834
21
35.5864333
0
LINE
8
DEFAULT_255_2_778
10
12.0390834
20
35.5864333
11
12.0390834
21
30.2947333
0
LINE
8
DEFAULT_255_2_778
10
12.0390834
20
30.2947333
11
9.3932834
21
30.2947333
0
LINE
8
DEFAULT_255_2_778
10
9.3932834
20
30.2947333
11
9.3932834
21
35.5864333
0
ARC
8
DEFAULT_255_2_778_1
10
13.1928591
20
30.397177
40
4.816461
50
120.9442904
51
122.351755
0
ARC
8
DEFAULT_255_2_778_1
10
12.7462523
20
31.1008039
40
3.9830657
50
122.3407904
51
124.1946752
0
ARC
8
DEFAULT_255_2_778_1
10
12.3063464
20
31.7473306
40
3.2010724
50
124.1855758
51
126.4338849
0
ARC
8
DEFAULT_255_2_778_1
10
11.9204129
20
32.2700611
40
2.5513094
50
126.4326926
51
128.8877368
0
ARC
8
DEFAULT_255_2_778_1
10
11.5855968
20
32.6844658
40
2.0185498
50
128.8749205
51
131.8726567
0
ARC
8
DEFAULT_255_2_778_1
10
11.2884677
20
33.0154854
40
1.5737356
50
131.8616166
51
135.4168838
0
ARC
8
DEFAULT_255_2_778_1
10
11.025668
20
33.2736765
40
1.2053256
50
135.3893975
51
139.9687014
0
ARC
8
DEFAULT_255_2_778_1
10
10.7927889
20
33.4685102
40
0.9016937
50
139.9301659
51
145.9260426
0
ARC
8
DEFAULT_255_2_778_1
10
10.596654
20
33.6005104
40
0.6652776
50
145.8787362
51
153.8146208
0
ARC
8
DEFAULT_255_2_778_1
10
10.4445553
20
33.6748797
40
0.4959714
50
153.770634
51
164.3484794
0
ARC
8
DEFAULT_255_2_778_1
10
10.3432387
20
33.7030786
40
0.3908039
50
164.3220276
51
179.8083066
0
ARC
8
DEFAULT_255_2_778_1
10
10.3642789
20
33.711215
40
0.4118985
50
180.9499449
51
213.8111542
0
ARC
8
DEFAULT_255_2_778_1
10
10.6401828
20
33.8807896
40
0.73561
50
212.8271214
51
224.258472
0
ARC
8
DEFAULT_255_2_778_1
10
11.0230335
20
34.2501236
40
1.267567
50
224.1376218
51
231.4508261
0
ARC
8
DEFAULT_255_2_778_1
10
11.6657195
20
35.0531168
40
2.2960809
50
231.3955893
51
236.1256478
0
ARC
8
DEFAULT_255_2_778_1
10
13.4980223
20
37.7996293
40
5.5976905
50
236.2233172
51
239.1314682
0
ARC
8
DEFAULT_255_2_778_1
10
25.447927
20
57.5273568
40
28.6623793
50
238.8606853
51
239.0711101
0
ARC
8
DEFAULT_255_2_778_1
10
6.2757281
20
25.4302653
40
8.7248518
50
57.2420924
51
59.4062964
0
ARC
8
DEFAULT_255_2_778_1
10
9.5034241
20
30.4612102
40
2.747542
50
52.8289294
51
57.079028
0
ARC
8
DEFAULT_255_2_778_1
10
10.2780783
20
31.4815488
40
1.466457
50
46.3041868
51
52.8596521
0
ARC
8
DEFAULT_255_2_778_1
10
10.7103073
20
31.9316842
40
0.8424061
50
36.2174211
51
46.4090895
0
ARC
8
DEFAULT_255_2_778_1
10
10.9948088
20
32.1365128
40
0.4918609
50
17.400375
51
36.5489745
0
ARC
8
DEFAULT_255_2_778_1
10
11.1088994
20
32.1763754
40
0.3710912
50
0.0676858
51
16.7951297
0
ARC
8
DEFAULT_255_2_778_1
10
11.0878613
20
32.1782428
40
0.3921317
50
343.8035191
51
359.7912046
0
ARC
8
DEFAULT_255_2_778_1
10
10.9815912
20
32.2087167
40
0.5026844
50
333.2506233
51
343.8465691
0
ARC
8
DEFAULT_255_2_778_1
10
10.8277757
20
32.2854313
40
0.6745679
50
325.6600948
51
333.3122657
0
ARC
8
DEFAULT_255_2_778_1
10
10.6323344
20
32.4182296
40
0.9108568
50
319.7560915
51
325.6976089
0
ARC
8
DEFAULT_255_2_778_1
10
10.404199
20
32.6100002
40
1.2088854
50
315.4577584
51
319.8037947
0
ARC
8
DEFAULT_255_2_778_1
10
10.1408127
20
32.8688507
40
1.5781764
50
311.7298824
51
315.4670864
0
ARC
8
DEFAULT_255_2_778_1
10
9.8317879
20
33.2144074
40
2.0417554
50
308.723055
51
311.7470879
0
ARC
8
DEFAULT_255_2_778_1
10
9.477589
20
33.6556492
40
2.6075745
50
306.1165163
51
308.7300151
0
ARC
8
DEFAULT_255_2_778_1
10
9.0746091
20
34.2069523
40
3.2904564
50
303.9559446
51
306.1266333
0
ARC
8
DEFAULT_255_2_778_1
10
8.6630432
20
34.816215
40
4.0257023
50
302.3733397
51
303.9712246
0
ARC
8
DEFAULT_255_2_778_1
10
8.2434347
20
35.4777058
40
4.8090549
50
300.9434827
51
302.3758078
0
LINE
8
DEFAULT_255_2_778
10
10.7161417
20
30.294808
11
10.7161417
21
5.159408
0
LINE
8
DEFAULT_255_2_778
10
10.7161417
20
5.159408
11
9.3932417
21
5.159408
0
LINE
8
DEFAULT_255_1_234
10
4.2413489
20
69.3098211
11
4.2413489
21
68.2664983
0
LINE
8
DEFAULT_255_1_234
10
4.2413489
20
68.2664983
11
4.7955389
21
68.2664983
0
LINE
8
DEFAULT_255_1_234
10
4.7955389
20
68.2664983
11
4.7955389
21
68.1404
0
LINE
8
DEFAULT_255_1_234
10
4.7955389
20
68.1404
11
4.0863364
21
68.1404
0
LINE
8
DEFAULT_255_1_234
10
4.0863364
20
68.1404
11
4.0863364
21
69.3098211
0
LINE
8
DEFAULT_255_1_234
10
4.0863364
20
69.3098211
11
4.2413489
21
69.3098211
0
LINE
8
DEFAULT_255_1_234
10
5.4212113
20
69.3154433
11
5.4212113
21
68.1404
0
LINE
8
DEFAULT_255_1_234
10
5.4212113
20
68.1404
11
5.2718209
21
68.1404
0
LINE
8
DEFAULT_255_1_234
10
5.2718209
20
68.1404
11
5.2718209
21
69.1307133
0
LINE
8
DEFAULT_255_1_234
10
5.2718209
20
69.1307133
11
4.9722371
21
69.0206785
0
LINE
8
DEFAULT_255_1_234
10
4.9722371
20
69.0206785
11
4.9722371
21
69.1556117
0
LINE
8
DEFAULT_255_1_234
10
4.9722371
20
69.1556117
11
5.3979192
21
69.3154433
0
LINE
8
DEFAULT_255_1_234
10
5.3979192
20
69.3154433
11
5.4212113
21
69.3154433
0
LINE
8
DEFAULT_255_1_234
10
4.9977293
20
4.6404
11
4.8860881
21
4.9456061
0
LINE
8
DEFAULT_255_1_234
10
4.8860881
20
4.9456061
11
4.3961521
21
4.9456061
0
LINE
8
DEFAULT_255_1_234
10
4.3961521
20
4.9456061
11
4.2861173
21
4.6404
0
LINE
8
DEFAULT_255_1_234
10
4.2861173
20
4.6404
11
4.1270889
21
4.6404
0
LINE
8
DEFAULT_255_1_234
10
4.1270889
20
4.6404
11
4.5736535
21
5.8098211
0
LINE
8
DEFAULT_255_1_234
10
4.5736535
20
5.8098211
11
4.7085867
21
5.8098211
0
LINE
8
DEFAULT_255_1_234
10
4.7085867
20
5.8098211
11
5.1559545
21
4.6404
0
LINE
8
DEFAULT_255_1_234
10
5.1559545
20
4.6404
11
4.9977293
21
4.6404
0
LINE
8
DEFAULT_255_1_234
10
4.6411201
20
5.6194689
11
4.4427362
21
5.0725075
0
LINE
8
DEFAULT_255_1_234
10
4.4427362
20
5.0725075
11
4.8403072
21
5.0725075
0
LINE
8
DEFAULT_255_1_234
10
4.8403072
20
5.0725075
11
4.6411201
21
5.6194689
0
LINE
8
DEFAULT_255_1_234
10
5.4788304
20
5.8098211
11
5.4788304
21
4.6404
0
LINE
8
DEFAULT_255_1_234
10
5.4788304
20
4.6404
11
5.324621
21
4.6404
0
LINE
8
DEFAULT_255_1_234
10
5.324621
20
4.6404
11
5.324621
21
5.8098211
0
LINE
8
DEFAULT_255_1_234
10
5.324621
20
5.8098211
11
5.4788304
21
5.8098211
0
LINE
8
DEFAULT_255_1_234
10
6.4771755
20
5.8098211
11
6.4771755
21
5.726291
0
LINE
8
DEFAULT_255_1_234
10
6.4771755
20
5.726291
11
5.9928617
21
4.6404
0
LINE
8
DEFAULT_255_1_234
10
5.9928617
20
4.6404
11
5.8370459
21
4.6404
0
LINE
8
DEFAULT_255_1_234
10
5.8370459
20
4.6404
11
6.3197534
21
5.6877387
0
LINE
8
DEFAULT_255_1_234
10
6.3197534
20
5.6877387
11
5.6868524
21
5.6877387
0
LINE
8
DEFAULT_255_1_234
10
5.6868524
20
5.6877387
11
5.6868524
21
5.8098211
0
LINE
8
DEFAULT_255_1_234
10
5.6868524
20
5.8098211
11
6.4771755
21
5.8098211
0
LINE
8
DEFAULT_255_1_234
10
4.9977293
20
12.5779
11
4.8860881
21
12.8831061
0
LINE
8
DEFAULT_255_1_234
10
4.8860881
20
12.8831061
11
4.3961521
21
12.8831061
0
LINE
8
DEFAULT_255_1_234
10
4.3961521
20
12.8831061
11
4.2861173
21
12.5779
0
LINE
8
DEFAULT_255_1_234
10
4.2861173
20
12.5779
11
4.1270889
21
12.5779
0
LINE
8
DEFAULT_255_1_234
10
4.1270889
20
12.5779
11
4.5736535
21
13.7473211
0
LINE
8
DEFAULT_255_1_234
10
4.5736535
20
13.7473211
11
4.7085867
21
13.7473211
0
LINE
8
DEFAULT_255_1_234
10
4.7085867
20
13.7473211
11
5.1559545
21
12.5779
0
LINE
8
DEFAULT_255_1_234
10
5.1559545
20
12.5779
11
4.9977293
21
12.5779
0
LINE
8
DEFAULT_255_1_234
10
4.6411201
20
13.5569689
11
4.4427362
21
13.0100075
0
LINE
8
DEFAULT_255_1_234
10
4.4427362
20
13.0100075
11
4.8403072
21
13.0100075
0
LINE
8
DEFAULT_255_1_234
10
4.8403072
20
13.0100075
11
4.6411201
21
13.5569689
0
LINE
8
DEFAULT_255_1_234
10
5.4788304
20
13.7473211
11
5.4788304
21
12.5779
0
LINE
8
DEFAULT_255_1_234
10
5.4788304
20
12.5779
11
5.324621
21
12.5779
0
LINE
8
DEFAULT_255_1_234
10
5.324621
20
12.5779
11
5.324621
21
13.7473211
0
LINE
8
DEFAULT_255_1_234
10
5.324621
20
13.7473211
11
5.4788304
21
13.7473211
0
LINE
8
DEFAULT_255_1_234
10
6.2787916
20
13.7481243
11
6.3052963
21
13.7481243
0
LINE
8
DEFAULT_255_1_234
10
6.3052963
20
13.7481243
11
6.3052963
21
13.622026
0
LINE
8
DEFAULT_255_1_234
10
6.3052963
20
13.622026
11
6.2779884
21
13.622026
0
LINE
8
DEFAULT_255_1_234
10
5.731027
20
13.0228583
11
5.731027
21
13.0798836
0
LINE
8
DEFAULT_255_1_234
10
5.8804173
20
13.0606075
11
5.8804173
21
13.0059917
0
ARC
8
DEFAULT_255_1_234
10
6.2832232
20
13.1222455
40
0.4998079
50
90.6001036
51
104.514704
0
ARC
8
DEFAULT_255_1_234
10
6.2443747
20
13.2667131
40
0.3502176
50
104.2855254
51
133.862935
0
ARC
8
DEFAULT_255_1_234
10
6.2607505
20
13.255883
40
0.3693984
50
134.5302688
51
161.6210873
0
ARC
8
DEFAULT_255_1_234
10
6.4260693
20
13.1975895
40
0.5446739
50
161.2849839
51
174.2076652
0
ARC
8
DEFAULT_255_1_234
10
6.566763
20
13.1781787
40
0.6866274
50
173.7810589
51
174.9254635
0
ARC
8
DEFAULT_255_1_234
10
6.1117462
20
13.0398839
40
0.3033419
50
95.8330959
51
138.9954921
0
ARC
8
DEFAULT_255_1_234
10
6.1340818
20
12.9120375
40
0.4328947
50
89.8753725
51
97.0544009
0
ARC
8
DEFAULT_255_1_234
10
6.1388284
20
12.9955748
40
0.3493769
50
71.6407809
51
90.6240094
0
ARC
8
DEFAULT_255_1_234
10
6.1538858
20
13.0510082
40
0.2920396
50
39.6367836
51
71.019018
0
ARC
8
DEFAULT_255_1_234
10
6.0902331
20
12.9959998
40
0.3761538
50
10.658731
51
39.9043955
0
ARC
8
DEFAULT_255_1_234
10
5.9354414
20
12.9623686
40
0.5345136
50
359.682601
51
11.132623
0
ARC
8
DEFAULT_255_1_234
10
5.9314545
20
12.955301
40
0.5385081
50
347.2486944
51
0.4369317
0
ARC
8
DEFAULT_255_1_234
10
6.0982021
20
12.9151807
40
0.3670249
50
318.1409698
51
347.6118597
0
ARC
8
DEFAULT_255_1_234
10
6.1307015
20
12.8884702
40
0.3250007
50
275.6342139
51
317.8248465
0
ARC
8
DEFAULT_255_1_234
10
6.1086126
20
13.0184219
40
0.4565864
50
269.8874292
51
276.7917694
0
ARC
8
DEFAULT_255_1_234
10
6.1031196
20
12.9158743
40
0.3540676
50
246.9140195
51
270.7437342
0
ARC
8
DEFAULT_255_1_234
10
6.1037587
20
12.9016384
40
0.3412781
50
218.1665114
51
245.878116
0
ARC
8
DEFAULT_255_1_234
10
6.1917048
20
12.9752279
40
0.455911
50
191.4115814
51
218.6077802
0
ARC
8
DEFAULT_255_1_234
10
6.3855137
20
13.0186833
40
0.6545001
50
179.6345085
51
191.7836486
0
ARC
8
DEFAULT_255_1_234
10
6.9437473
20
13.0865697
40
1.2127388
50
171.4525249
51
180.3158839
0
ARC
8
DEFAULT_255_1_234
10
6.5042349
20
13.1549608
40
0.7679464
50
157.9802646
51
171.6246686
0
ARC
8
DEFAULT_255_1_234
10
6.282837
20
13.2432421
40
0.5296008
50
141.4298019
51
157.854097
0
ARC
8
DEFAULT_255_1_234
10
6.2186691
20
13.2886381
40
0.4511509
50
102.8715806
51
140.8564722
0
ARC
8
DEFAULT_255_1_234
10
6.2834306
20
13.0446552
40
0.7034845
50
90.3778349
51
103.5869322
0
ARC
8
DEFAULT_255_1_234
10
6.1096083
20
12.984173
40
0.2370698
50
89.8751008
51
126.2071704
0
ARC
8
DEFAULT_255_1_234
10
6.1141872
20
12.9687303
40
0.2522934
50
124.9745049
51
144.895901
0
ARC
8
DEFAULT_255_1_234
10
6.0966063
20
12.983056
40
0.2296779
50
145.2974905
51
160.2660252
0
ARC
8
DEFAULT_255_1_234
10
6.4038602
20
13.0028071
40
0.5234525
50
179.6514266
51
190.2855912
0
ARC
8
DEFAULT_255_1_234
10
6.2344739
20
12.9708786
40
0.3510893
50
190.0945431
51
207.5098196
0
ARC
8
DEFAULT_255_1_234
10
6.1779009
20
12.9439623
40
0.288489
50
207.9583163
51
216.3251085
0
ARC
8
DEFAULT_255_1_234
10
6.1439117
20
12.9160105
40
0.2445587
50
215.7661442
51
232.5456785
0
ARC
8
DEFAULT_255_1_234
10
6.1056099
20
12.8673482
40
0.1826382
50
232.8005391
51
270.6605633
0
ARC
8
DEFAULT_255_1_234
10
6.11018
20
12.9037612
40
0.2190529
50
269.35537
51
288.4744281
0
ARC
8
DEFAULT_255_1_234
10
6.1194697
20
12.8688118
40
0.1829749
50
289.1833337
51
322.9683818
0
ARC
8
DEFAULT_255_1_234
10
6.058322
20
12.9170391
40
0.2608399
50
322.6007884
51
346.5182367
0
ARC
8
DEFAULT_255_1_234
10
5.9425816
20
12.9465616
40
0.3802777
50
346.2582162
51
358.7741648
0
ARC
8
DEFAULT_255_1_234
10
5.8407485
20
12.9520965
40
0.4822176
50
358.3755224
51
0.0098023
0
ARC
8
DEFAULT_255_1_234
10
5.9163672
20
12.9548657
40
0.4066078
50
359.6214041
51
11.2839074
0
ARC
8
DEFAULT_255_1_234
10
6.0440819
20
12.9815066
40
0.2761514
50
11.0482309
51
31.8146458
0
ARC
8
DEFAULT_255_1_234
10
6.0749862
20
12.9982584
40
0.2410679
50
32.3035391
51
38.082671
0
ARC
8
DEFAULT_255_1_234
10
6.1170521
20
13.0363662
40
0.1844966
50
36.825067
51
85.7415724
0
ARC
8
DEFAULT_255_1_234
10
6.1103355
20
12.9863301
40
0.2349122
50
85.0140713
51
90.0513278
0
LINE
8
DEFAULT_255_1_234
10
4.9977293
20
20.5154
11
4.8860881
21
20.8206061
0
LINE
8
DEFAULT_255_1_234
10
4.8860881
20
20.8206061
11
4.3961521
21
20.8206061
0
LINE
8
DEFAULT_255_1_234
10
4.3961521
20
20.8206061
11
4.2861173
21
20.5154
0
LINE
8
DEFAULT_255_1_234
10
4.2861173
20
20.5154
11
4.1270889
21
20.5154
0
LINE
8
DEFAULT_255_1_234
10
4.1270889
20
20.5154
11
4.5736535
21
21.6848211
0
LINE
8
DEFAULT_255_1_234
10
4.5736535
20
21.6848211
11
4.7085867
21
21.6848211
0
LINE
8
DEFAULT_255_1_234
10
4.7085867
20
21.6848211
11
5.1559545
21
20.5154
0
LINE
8
DEFAULT_255_1_234
10
5.1559545
20
20.5154
11
4.9977293
21
20.5154
0
LINE
8
DEFAULT_255_1_234
10
4.6411201
20
21.4944689
11
4.4427362
21
20.9475075
0
LINE
8
DEFAULT_255_1_234
10
4.4427362
20
20.9475075
11
4.8403072
21
20.9475075
0
LINE
8
DEFAULT_255_1_234
10
4.8403072
20
20.9475075
11
4.6411201
21
21.4944689
0
LINE
8
DEFAULT_255_1_234
10
5.4788304
20
21.6848211
11
5.4788304
21
20.5154
0
LINE
8
DEFAULT_255_1_234
10
5.4788304
20
20.5154
11
5.324621
21
20.5154
0
LINE
8
DEFAULT_255_1_234
10
5.324621
20
20.5154
11
5.324621
21
21.6848211
0
LINE
8
DEFAULT_255_1_234
10
5.324621
20
21.6848211
11
5.4788304
21
21.6848211
0
LINE
8
DEFAULT_255_1_234
10
5.9093316
20
21.0711963
11
5.7904619
21
21.1017169
0
LINE
8
DEFAULT_255_1_234
10
5.7904619
20
21.1017169
11
5.8498967
21
21.6848211
0
LINE
8
DEFAULT_255_1_234
10
5.8498967
20
21.6848211
11
6.4490644
21
21.6848211
0
LINE
8
DEFAULT_255_1_234
10
6.4490644
20
21.6848211
11
6.4490644
21
21.5474784
0
LINE
8
DEFAULT_255_1_234
10
6.4490644
20
21.5474784
11
5.975995
21
21.5474784
0
LINE
8
DEFAULT_255_1_234
10
5.975995
20
21.5474784
11
5.9406554
21
21.2286184
0
LINE
8
DEFAULT_255_1_234
10
5.7486968
20
20.8230156
11
5.8892522
21
20.8230156
0
LINE
8
DEFAULT_255_1_234
10
5.9486871
20
21.1033232
11
5.9093316
21
21.0711963
0
ARC
8
DEFAULT_255_1_234
10
6.1261338
20
20.910623
40
0.3681349
50
93.7182161
51
120.2538958
0
ARC
8
DEFAULT_255_1_234
10
6.1355601
20
20.8298394
40
0.449379
50
89.9660152
51
94.2496022
0
ARC
8
DEFAULT_255_1_234
10
6.1396334
20
20.8887549
40
0.390482
50
73.8043271
51
90.5585896
0
ARC
8
DEFAULT_255_1_234
10
6.1631231
20
20.9745602
40
0.3015334
50
41.3071453
51
73.5430202
0
ARC
8
DEFAULT_255_1_234
10
6.1215059
20
20.9387324
40
0.3564457
50
13.5075983
51
41.2174222
0
ARC
8
DEFAULT_255_1_234
10
5.9573263
20
20.8957486
40
0.5261351
50
1.1331335
51
13.8829381
0
ARC
8
DEFAULT_255_1_234
10
5.8161632
20
20.8881665
40
0.6674378
50
359.9919444
51
1.544251
0
ARC
8
DEFAULT_255_1_234
10
5.9438458
20
20.884028
40
0.5397702
50
347.8572367
51
0.4293338
0
ARC
8
DEFAULT_255_1_234
10
6.1188776
20
20.8443736
40
0.3603188
50
323.673004
51
348.1672506
0
ARC
8
DEFAULT_255_1_234
10
6.1483284
20
20.8264168
40
0.3259678
50
316.8171152
51
323.1492751
0
ARC
8
DEFAULT_255_1_234
10
6.1544473
20
20.822746
40
0.3189975
50
281.8396411
51
316.5457803
0
ARC
8
DEFAULT_255_1_234
10
6.1168736
20
20.9782762
40
0.4789527
50
269.5770101
51
282.4214771
0
ARC
8
DEFAULT_255_1_234
10
6.1097548
20
20.9569125
40
0.45759
50
256.2427136
51
270.4486331
0
ARC
8
DEFAULT_255_1_234
10
6.079845
20
20.8369229
40
0.3339303
50
228.9023911
51
256.3314342
0
ARC
8
DEFAULT_255_1_234
10
6.0724683
20
20.8252746
40
0.32031
50
193.753695
51
228.5271154
0
ARC
8
DEFAULT_255_1_234
10
6.1962637
20
20.86158
40
0.4492253
50
184.924711
51
194.497588
0
ARC
8
DEFAULT_255_1_234
10
6.2155204
20
20.8651591
40
0.3289787
50
187.3600538
51
198.6732863
0
ARC
8
DEFAULT_255_1_234
10
6.1105498
20
20.8287674
40
0.217884
50
198.4451669
51
217.794479
0
ARC
8
DEFAULT_255_1_234
10
6.0809673
20
20.8078085
40
0.1816698
50
218.2887171
51
228.5612368
0
ARC
8
DEFAULT_255_1_234
10
6.090746
20
20.8209963
40
0.1980329
50
228.9654866
51
258.1234728
0
ARC
8
DEFAULT_255_1_234
10
6.111317
20
20.9090833
40
0.2884748
50
257.7258293
51
270.401361
0
ARC
8
DEFAULT_255_1_234
10
6.1158056
20
20.8645821
40
0.2439788
50
269.4204404
51
286.4209037
0
ARC
8
DEFAULT_255_1_234
10
6.1306544
20
20.8106657
40
0.1880666
50
286.7251356
51
320.600362
0
ARC
8
DEFAULT_255_1_234
10
6.0923369
20
20.8417595
40
0.2374121
50
320.6712579
51
344.5441685
0
ARC
8
DEFAULT_255_1_234
10
5.9766695
20
20.8757045
40
0.3579479
50
344.2412205
51
356.7357071
0
ARC
8
DEFAULT_255_1_234
10
5.8517843
20
20.8860444
40
0.4832297
50
356.3548756
51
0.0500261
0
ARC
8
DEFAULT_255_1_234
10
5.9854353
20
20.889165
40
0.3495889
50
359.5576869
51
12.953486
0
ARC
8
DEFAULT_255_1_234
10
6.090925
20
20.9147434
40
0.2410532
50
12.6490276
51
41.6081334
0
ARC
8
DEFAULT_255_1_234
10
6.1139621
20
20.9343321
40
0.2108218
50
41.7850273
51
85.9892764
0
ARC
8
DEFAULT_255_1_234
10
6.1016357
20
20.8530462
40
0.2928454
50
84.6957577
51
90.0676183
0
ARC
8
DEFAULT_255_1_234
10
6.0992842
20
20.7861716
40
0.3597255
50
89.6804936
51
99.1614436
0
ARC
8
DEFAULT_255_1_234
10
6.0787473
20
20.9089131
40
0.235281
50
98.9830931
51
113.8908934
0
ARC
8
DEFAULT_255_1_234
10
6.0557883
20
20.9630587
40
0.176479
50
114.1950727
51
127.3641004
0
LINE
8
DEFAULT_255_1_234
10
5.1035293
20
28.4529
11
4.9918881
21
28.7581061
0
LINE
8
DEFAULT_255_1_234
10
4.9918881
20
28.7581061
11
4.5019521
21
28.7581061
0
LINE
8
DEFAULT_255_1_234
10
4.5019521
20
28.7581061
11
4.3919173
21
28.4529
0
LINE
8
DEFAULT_255_1_234
10
4.3919173
20
28.4529
11
4.2328889
21
28.4529
0
LINE
8
DEFAULT_255_1_234
10
4.2328889
20
28.4529
11
4.6794535
21
29.6223211
0
LINE
8
DEFAULT_255_1_234
10
4.6794535
20
29.6223211
11
4.8143867
21
29.6223211
0
LINE
8
DEFAULT_255_1_234
10
4.8143867
20
29.6223211
11
5.2617545
21
28.4529
0
LINE
8
DEFAULT_255_1_234
10
5.2617545
20
28.4529
11
5.1035293
21
28.4529
0
LINE
8
DEFAULT_255_1_234
10
4.7469201
20
29.4319689
11
4.5485362
21
28.8850075
0
LINE
8
DEFAULT_255_1_234
10
4.5485362
20
28.8850075
11
4.9461072
21
28.8850075
0
LINE
8
DEFAULT_255_1_234
10
4.9461072
20
28.8850075
11
4.7469201
21
29.4319689
0
LINE
8
DEFAULT_255_1_234
10
5.5846304
20
29.6223211
11
5.5846304
21
28.4529
0
LINE
8
DEFAULT_255_1_234
10
5.5846304
20
28.4529
11
5.430421
21
28.4529
0
LINE
8
DEFAULT_255_1_234
10
5.430421
20
28.4529
11
5.430421
21
29.6223211
0
LINE
8
DEFAULT_255_1_234
10
5.430421
20
29.6223211
11
5.5846304
21
29.6223211
0
LINE
8
DEFAULT_255_1_234
10
6.4552708
20
29.6223211
11
6.4552708
21
28.845652
0
LINE
8
DEFAULT_255_1_234
10
6.4552708
20
28.845652
11
6.617512
21
28.845652
0
LINE
8
DEFAULT_255_1_234
10
6.617512
20
28.845652
11
6.617512
21
28.7243728
0
LINE
8
DEFAULT_255_1_234
10
6.617512
20
28.7243728
11
6.4552708
21
28.7243728
0
LINE
8
DEFAULT_255_1_234
10
6.4552708
20
28.7243728
11
6.4552708
21
28.4529
0
LINE
8
DEFAULT_255_1_234
10
6.4552708
20
28.4529
11
6.3058805
21
28.4529
0
LINE
8
DEFAULT_255_1_234
10
6.3058805
20
28.4529
11
6.3058805
21
28.7243728
0
LINE
8
DEFAULT_255_1_234
10
6.3058805
20
28.7243728
11
5.7733763
21
28.7243728
0
LINE
8
DEFAULT_255_1_234
10
5.7733763
20
28.7243728
11
5.7733763
21
28.8119187
0
LINE
8
DEFAULT_255_1_234
10
5.7733763
20
28.8119187
11
6.2970456
21
29.6223211
0
LINE
8
DEFAULT_255_1_234
10
6.2970456
20
29.6223211
11
6.4552708
21
29.6223211
0
LINE
8
DEFAULT_255_1_234
10
6.2882107
20
29.3869912
11
5.9420428
21
28.845652
0
LINE
8
DEFAULT_255_1_234
10
5.9420428
20
28.845652
11
6.3058805
21
28.845652
0
LINE
8
DEFAULT_255_1_234
10
6.3058805
20
28.845652
11
6.3058805
21
29.4191181
0
LINE
8
DEFAULT_255_1_234
10
6.3058805
20
29.4191181
11
6.2882107
21
29.3869912
0
LINE
8
DEFAULT_255_1_234
10
4.9977293
20
36.3904
11
4.8860881
21
36.6956061
0
LINE
8
DEFAULT_255_1_234
10
4.8860881
20
36.6956061
11
4.3961521
21
36.6956061
0
LINE
8
DEFAULT_255_1_234
10
4.3961521
20
36.6956061
11
4.2861173
21
36.3904
0
LINE
8
DEFAULT_255_1_234
10
4.2861173
20
36.3904
11
4.1270889
21
36.3904
0
LINE
8
DEFAULT_255_1_234
10
4.1270889
20
36.3904
11
4.5736535
21
37.5598211
0
LINE
8
DEFAULT_255_1_234
10
4.5736535
20
37.5598211
11
4.7085867
21
37.5598211
0
LINE
8
DEFAULT_255_1_234
10
4.7085867
20
37.5598211
11
5.1559545
21
36.3904
0
LINE
8
DEFAULT_255_1_234
10
5.1559545
20
36.3904
11
4.9977293
21
36.3904
0
LINE
8
DEFAULT_255_1_234
10
4.6411201
20
37.3694689
11
4.4427362
21
36.8225075
0
LINE
8
DEFAULT_255_1_234
10
4.4427362
20
36.8225075
11
4.8403072
21
36.8225075
0
LINE
8
DEFAULT_255_1_234
10
4.8403072
20
36.8225075
11
4.6411201
21
37.3694689
0
LINE
8
DEFAULT_255_1_234
10
5.4788304
20
37.5598211
11
5.4788304
21
36.3904
0
LINE
8
DEFAULT_255_1_234
10
5.4788304
20
36.3904
11
5.324621
21
36.3904
0
LINE
8
DEFAULT_255_1_234
10
5.324621
20
36.3904
11
5.324621
21
37.5598211
0
LINE
8
DEFAULT_255_1_234
10
5.324621
20
37.5598211
11
5.4788304
21
37.5598211
0
LINE
8
DEFAULT_255_1_234
10
5.9382458
20
36.9261169
11
5.9382458
21
37.0473962
0
LINE
8
DEFAULT_255_1_234
10
5.9382458
20
37.0473962
11
6.049887
21
37.0473962
0
LINE
8
DEFAULT_255_1_234
10
5.8595348
20
37.2530087
11
5.7109477
21
37.2530087
0
LINE
8
DEFAULT_255_1_234
10
5.7005064
20
36.6988188
11
5.8498967
21
36.6988188
0
LINE
8
DEFAULT_255_1_234
10
6.049887
20
36.9261169
11
5.9382458
21
36.9261169
0
ARC
8
DEFAULT_255_1_234
10
6.0469737
20
37.3866713
40
0.3392876
50
270.4919872
51
281.8951556
0
ARC
8
DEFAULT_255_1_234
10
6.0710998
20
37.2764702
40
0.2264817
50
281.6691735
51
301.2943132
0
ARC
8
DEFAULT_255_1_234
10
6.0881209
20
37.2453304
40
0.1910381
50
301.7833094
51
311.7545298
0
ARC
8
DEFAULT_255_1_234
10
6.0972784
20
37.2351748
40
0.1773635
50
311.7323931
51
354.2802411
0
ARC
8
DEFAULT_255_1_234
10
6.024641
20
37.2476722
40
0.2509385
50
353.0937916
51
0.1181479
0
ARC
8
DEFAULT_255_1_234
10
5.9785194
20
37.2524386
40
0.2970898
50
359.1805295
51
15.0453146
0
ARC
8
DEFAULT_255_1_234
10
6.1131031
20
37.2916992
40
0.1569564
50
13.9577229
51
77.6713066
0
ARC
8
DEFAULT_255_1_234
10
6.074456
20
37.1531949
40
0.3006298
50
76.1116566
51
90.7026153
0
ARC
8
DEFAULT_255_1_234
10
6.0685399
20
37.1805545
40
0.2732568
50
89.5324876
51
103.531937
0
ARC
8
DEFAULT_255_1_234
10
6.0484843
20
37.2604884
40
0.1908508
50
103.2931773
51
133.5619022
0
ARC
8
DEFAULT_255_1_234
10
6.0440331
20
37.2664375
40
0.1834746
50
133.8349307
51
173.5344437
0
ARC
8
DEFAULT_255_1_234
10
6.1163374
20
37.2536213
40
0.2568033
50
172.5096846
51
180.1366907
0
ARC
8
DEFAULT_255_1_234
10
6.0212268
20
37.2570622
40
0.3103056
50
155.3484492
51
180.7484736
0
ARC
8
DEFAULT_255_1_234
10
6.0163357
20
37.2541846
40
0.3070957
50
131.5744599
51
154.4798489
0
ARC
8
DEFAULT_255_1_234
10
6.0476505
20
37.222531
40
0.3515643
50
96.9875458
51
131.9690667
0
ARC
8
DEFAULT_255_1_234
10
6.0695985
20
37.0979636
40
0.4779224
50
89.8596053
51
97.7825159
0
ARC
8
DEFAULT_255_1_234
10
6.0744048
20
37.0717616
40
0.5041361
50
78.3655447
51
90.4131539
0
ARC
8
DEFAULT_255_1_234
10
6.1101966
20
37.2376887
40
0.3344039
50
56.6229102
51
78.638727
0
ARC
8
DEFAULT_255_1_234
10
6.1316909
20
37.2752805
40
0.2912001
50
47.0253525
51
56.0854072
0
ARC
8
DEFAULT_255_1_234
10
6.1336689
20
37.2792223
40
0.2869704
50
10.9208013
51
46.7778124
0
ARC
8
DEFAULT_255_1_234
10
5.9972756
20
37.2476857
40
0.426899
50
359.6364486
51
11.6087304
0
ARC
8
DEFAULT_255_1_234
10
6.18076
20
37.2461752
40
0.243409
50
332.3549906
51
359.7179418
0
ARC
8
DEFAULT_255_1_234
10
6.1157201
20
37.2770142
40
0.3153459
50
325.2333722
51
332.8745602
0
ARC
8
DEFAULT_255_1_234
10
6.1309825
20
37.2663828
40
0.2967456
50
292.9802137
51
325.2392345
0
ARC
8
DEFAULT_255_1_234
10
6.1035199
20
37.3197863
40
0.3566604
50
292.5402179
51
293.6924929
0
ARC
8
DEFAULT_255_1_234
10
6.1427795
20
36.6743091
40
0.3307468
50
57.6435486
51
72.8625112
0
ARC
8
DEFAULT_255_1_234
10
6.1782295
20
36.7317549
40
0.2632492
50
36.7248896
51
57.4697979
0
ARC
8
DEFAULT_255_1_234
10
6.1770927
20
36.733022
40
0.2634081
50
8.0545065
51
36.356114
0
ARC
8
DEFAULT_255_1_234
10
6.0908112
20
36.7175174
40
0.3510261
50
359.8320645
51
8.5869982
0
ARC
8
DEFAULT_255_1_234
10
6.0532889
20
36.7127101
40
0.3885653
50
343.9829931
51
0.5571613
0
ARC
8
DEFAULT_255_1_234
10
6.1419086
20
36.6884438
40
0.2966924
50
311.6359546
51
343.7651759
0
ARC
8
DEFAULT_255_1_234
10
6.1040655
20
36.7311102
40
0.3537231
50
279.7829875
51
311.6255694
0
ARC
8
DEFAULT_255_1_234
10
6.0739431
20
36.874828
40
0.5004971
50
269.7286406
51
280.3856417
0
ARC
8
DEFAULT_255_1_234
10
6.0677504
20
36.8706996
40
0.4963778
50
256.6828919
51
270.4412052
0
ARC
8
DEFAULT_255_1_234
10
6.03388
20
36.7322394
40
0.3538406
50
229.4223008
51
256.8556159
0
ARC
8
DEFAULT_255_1_234
10
5.9924192
20
36.6855736
40
0.2914296
50
181.818294
51
229.6455059
0
ARC
8
DEFAULT_255_1_234
10
6.0964149
20
36.6986496
40
0.3959084
50
179.9755256
51
183.2323064
0
ARC
8
DEFAULT_255_1_234
10
6.0791894
20
36.6966037
40
0.2293034
50
179.4465117
51
196.2869258
0
ARC
8
DEFAULT_255_1_234
10
6.0304302
20
36.6832651
40
0.1787621
50
196.5661473
51
227.705904
0
ARC
8
DEFAULT_255_1_234
10
6.0468397
20
36.7016155
40
0.2033784
50
227.7652068
51
257.8762805
0
ARC
8
DEFAULT_255_1_234
10
6.0693367
20
36.7959156
40
0.3003081
50
257.4584385
51
270.426602
0
ARC
8
DEFAULT_255_1_234
10
6.0738934
20
36.8248996
40
0.329292
50
269.5962073
51
280.8789248
0
ARC
8
DEFAULT_255_1_234
10
6.0968462
20
36.7102685
40
0.2123908
50
280.6346389
51
299.8595945
0
ARC
8
DEFAULT_255_1_234
10
6.1159369
20
36.6740212
40
0.171457
50
300.3576302
51
314.5517981
0
ARC
8
DEFAULT_255_1_234
10
6.1076429
20
36.6800919
40
0.1816095
50
315.0728369
51
345.0431014
0
ARC
8
DEFAULT_255_1_234
10
6.0153244
20
36.7069841
40
0.2777492
50
344.5986631
51
357.9269593
0
ARC
8
DEFAULT_255_1_234
10
5.925757
20
36.7131276
40
0.3674917
50
357.4748886
51
0.0231117
0
ARC
8
DEFAULT_255_1_234
10
6.0280679
20
36.7155679
40
0.2651907
50
359.5047933
51
13.4239635
0
ARC
8
DEFAULT_255_1_234
10
6.1147323
20
36.7377478
40
0.1757509
50
12.9498199
51
48.7551375
0
ARC
8
DEFAULT_255_1_234
10
6.0965057
20
36.71284
40
0.2065134
50
49.5088623
51
72.1836453
0
ARC
8
DEFAULT_255_1_234
10
6.0607209
20
36.6066291
40
0.3185836
50
71.9010081
51
84.3554254
0
ARC
8
DEFAULT_255_1_234
10
6.0445841
20
36.4705326
40
0.4556151
50
84.0193428
51
89.333121
0
LINE
8
DEFAULT_255_1_234
10
4.9977293
20
44.3279
11
4.8860881
21
44.6331061
0
LINE
8
DEFAULT_255_1_234
10
4.8860881
20
44.6331061
11
4.3961521
21
44.6331061
0
LINE
8
DEFAULT_255_1_234
10
4.3961521
20
44.6331061
11
4.2861173
21
44.3279
0
LINE
8
DEFAULT_255_1_234
10
4.2861173
20
44.3279
11
4.1270889
21
44.3279
0
LINE
8
DEFAULT_255_1_234
10
4.1270889
20
44.3279
11
4.5736535
21
45.4973211
0
LINE
8
DEFAULT_255_1_234
10
4.5736535
20
45.4973211
11
4.7085867
21
45.4973211
0
LINE
8
DEFAULT_255_1_234
10
4.7085867
20
45.4973211
11
5.1559545
21
44.3279
0
LINE
8
DEFAULT_255_1_234
10
5.1559545
20
44.3279
11
4.9977293
21
44.3279
0
LINE
8
DEFAULT_255_1_234
10
4.6411201
20
45.3069689
11
4.4427362
21
44.7600075
0
LINE
8
DEFAULT_255_1_234
10
4.4427362
20
44.7600075
11
4.8403072
21
44.7600075
0
LINE
8
DEFAULT_255_1_234
10
4.8403072
20
44.7600075
11
4.6411201
21
45.3069689
0
LINE
8
DEFAULT_255_1_234
10
5.4788304
20
45.4973211
11
5.4788304
21
44.3279
0
LINE
8
DEFAULT_255_1_234
10
5.4788304
20
44.3279
11
5.324621
21
44.3279
0
LINE
8
DEFAULT_255_1_234
10
5.324621
20
44.3279
11
5.324621
21
45.4973211
0
LINE
8
DEFAULT_255_1_234
10
5.324621
20
45.4973211
11
5.4788304
21
45.4973211
0
LINE
8
DEFAULT_255_1_234
10
6.4884199
20
44.4491792
11
6.4884199
21
44.3279
0
LINE
8
DEFAULT_255_1_234
10
6.4884199
20
44.3279
11
5.7221921
21
44.3279
0
LINE
8
DEFAULT_255_1_234
10
5.7221921
20
44.3279
11
5.7221921
21
44.4347221
0
LINE
8
DEFAULT_255_1_234
10
5.7221921
20
44.4347221
11
6.1269917
21
44.8844995
0
LINE
8
DEFAULT_255_1_234
10
5.8482904
20
45.1527595
11
5.6997032
21
45.1527595
0
LINE
8
DEFAULT_255_1_234
10
6.2145376
20
44.7889218
11
5.9012999
21
44.4491792
0
LINE
8
DEFAULT_255_1_234
10
5.9012999
20
44.4491792
11
6.4884199
21
44.4491792
0
ARC
8
DEFAULT_255_1_234
10
4.777975
20
46.0774527
40
1.8008286
50
318.5132453
51
320.7828378
0
ARC
8
DEFAULT_255_1_234
10
5.3066725
20
45.6471426
40
1.1191493
50
320.7372736
51
323.9737074
0
ARC
8
DEFAULT_255_1_234
10
5.6986581
20
45.3631361
40
0.6350923
50
323.8961724
51
328.6421089
0
ARC
8
DEFAULT_255_1_234
10
5.9033177
20
45.2369031
40
0.3946393
50
328.8299013
51
331.789948
0
ARC
8
DEFAULT_255_1_234
10
6.0030355
20
45.1854509
40
0.2824501
50
331.4255242
51
352.9364833
0
ARC
8
DEFAULT_255_1_234
10
6.0166856
20
45.1823976
40
0.2685315
50
353.2248685
51
0.0169286
0
ARC
8
DEFAULT_255_1_234
10
6.0376732
20
45.184695
40
0.2475536
50
359.4866256
51
15.9339782
0
ARC
8
DEFAULT_255_1_234
10
6.0883718
20
45.1983286
40
0.1950618
50
16.1714718
51
43.5284424
0
ARC
8
DEFAULT_255_1_234
10
6.0961026
20
45.2060573
40
0.184134
50
43.4415429
51
83.1661404
0
ARC
8
DEFAULT_255_1_234
10
6.0826945
20
45.1323771
40
0.258926
50
82.160215
51
90.1505798
0
ARC
8
DEFAULT_255_1_234
10
6.0795372
20
45.0786865
40
0.3126255
50
89.5460705
51
102.5418777
0
ARC
8
DEFAULT_255_1_234
10
6.0552458
20
45.1817665
40
0.2067346
50
102.1739365
51
129.2061916
0
ARC
8
DEFAULT_255_1_234
10
6.047353
20
45.1942094
40
0.1921118
50
129.7279328
51
135.7542026
0
ARC
8
DEFAULT_255_1_234
10
6.0595057
20
45.1845045
40
0.2075944
50
136.175737
51
166.3674722
0
ARC
8
DEFAULT_255_1_234
10
6.1601977
20
45.1575182
40
0.3118201
50
165.9092917
51
178.8683903
0
ARC
8
DEFAULT_255_1_234
10
6.2466838
20
45.1528179
40
0.3983935
50
178.438168
51
180.0083905
0
ARC
8
DEFAULT_255_1_234
10
6.106544
20
45.1567231
40
0.4068601
50
163.2878735
51
180.5581814
0
ARC
8
DEFAULT_255_1_234
10
6.0263701
20
45.178784
40
0.3237344
50
133.454115
51
162.9470031
0
ARC
8
DEFAULT_255_1_234
10
6.0442243
20
45.1598
40
0.349795
50
100.7869394
51
133.4384016
0
ARC
8
DEFAULT_255_1_234
10
6.0790014
20
45.0049319
40
0.5084616
50
89.6605301
51
101.3704185
0
ARC
8
DEFAULT_255_1_234
10
6.0856353
20
45.0110496
40
0.502348
50
78.2171172
51
90.4130393
0
ARC
8
DEFAULT_255_1_234
10
6.1211431
20
45.1734637
40
0.3361092
50
55.9268222
51
78.4888551
0
ARC
8
DEFAULT_255_1_234
10
6.1407872
20
45.2073324
40
0.2970617
50
47.9292255
51
55.4054003
0
ARC
8
DEFAULT_255_1_234
10
6.1509432
20
45.2176502
40
0.2825983
50
4.3347696
51
48.0560701
0
ARC
8
DEFAULT_255_1_234
10
6.0413826
20
45.2006601
40
0.393225
50
359.925209
51
5.5967654
0
ARC
8
DEFAULT_255_1_234
10
6.0842718
20
45.2062816
40
0.3503892
50
337.8914096
51
358.9967724
0
ARC
8
DEFAULT_255_1_234
10
5.812913
20
45.3109706
40
0.6412172
50
326.9135351
51
338.3505194
0
ARC
8
DEFAULT_255_1_234
10
5.4143433
20
45.5664284
40
1.1146189
50
319.6472867
51
327.095818
0
ARC
8
DEFAULT_255_1_234
10
5.0310437
20
45.8826
40
1.6114559
50
317.2586784
51
319.9046139
0
LINE
8
DEFAULT_255_1_234
10
4.9900293
20
52.2654
11
4.8783881
21
52.5706061
0
LINE
8
DEFAULT_255_1_234
10
4.8783881
20
52.5706061
11
4.3884521
21
52.5706061
0
LINE
8
DEFAULT_255_1_234
10
4.3884521
20
52.5706061
11
4.2784173
21
52.2654
0
LINE
8
DEFAULT_255_1_234
10
4.2784173
20
52.2654
11
4.1193889
21
52.2654
0
LINE
8
DEFAULT_255_1_234
10
4.1193889
20
52.2654
11
4.5659535
21
53.4348211
0
LINE
8
DEFAULT_255_1_234
10
4.5659535
20
53.4348211
11
4.7008867
21
53.4348211
0
LINE
8
DEFAULT_255_1_234
10
4.7008867
20
53.4348211
11
5.1482545
21
52.2654
0
LINE
8
DEFAULT_255_1_234
10
5.1482545
20
52.2654
11
4.9900293
21
52.2654
0
LINE
8
DEFAULT_255_1_234
10
4.6334201
20
53.2444689
11
4.4350362
21
52.6975075
0
LINE
8
DEFAULT_255_1_234
10
4.4350362
20
52.6975075
11
4.8326072
21
52.6975075
0
LINE
8
DEFAULT_255_1_234
10
4.8326072
20
52.6975075
11
4.6334201
21
53.2444689
0
LINE
8
DEFAULT_255_1_234
10
5.4711304
20
53.4348211
11
5.4711304
21
52.2654
0
LINE
8
DEFAULT_255_1_234
10
5.4711304
20
52.2654
11
5.316921
21
52.2654
0
LINE
8
DEFAULT_255_1_234
10
5.316921
20
52.2654
11
5.316921
21
53.4348211
0
LINE
8
DEFAULT_255_1_234
10
5.316921
20
53.4348211
11
5.4711304
21
53.4348211
0
LINE
8
DEFAULT_255_1_234
10
6.2028218
20
53.4404433
11
6.2028218
21
52.2654
0
LINE
8
DEFAULT_255_1_234
10
6.2028218
20
52.2654
11
6.0534314
21
52.2654
0
LINE
8
DEFAULT_255_1_234
10
6.0534314
20
52.2654
11
6.0534314
21
53.2557133
0
LINE
8
DEFAULT_255_1_234
10
6.0534314
20
53.2557133
11
5.7538476
21
53.1456785
0
LINE
8
DEFAULT_255_1_234
10
5.7538476
20
53.1456785
11
5.7538476
21
53.2806117
0
LINE
8
DEFAULT_255_1_234
10
5.7538476
20
53.2806117
11
6.1795297
21
53.4404433
0
LINE
8
DEFAULT_255_1_234
10
6.1795297
20
53.4404433
11
6.2028218
21
53.4404433
0
LINE
8
DEFAULT_255_1_234
10
4.9977293
20
60.2029
11
4.8860881
21
60.5081061
0
LINE
8
DEFAULT_255_1_234
10
4.8860881
20
60.5081061
11
4.3961521
21
60.5081061
0
LINE
8
DEFAULT_255_1_234
10
4.3961521
20
60.5081061
11
4.2861173
21
60.2029
0
LINE
8
DEFAULT_255_1_234
10
4.2861173
20
60.2029
11
4.1270889
21
60.2029
0
LINE
8
DEFAULT_255_1_234
10
4.1270889
20
60.2029
11
4.5736535
21
61.3723211
0
LINE
8
DEFAULT_255_1_234
10
4.5736535
20
61.3723211
11
4.7085867
21
61.3723211
0
LINE
8
DEFAULT_255_1_234
10
4.7085867
20
61.3723211
11
5.1559545
21
60.2029
0
LINE
8
DEFAULT_255_1_234
10
5.1559545
20
60.2029
11
4.9977293
21
60.2029
0
LINE
8
DEFAULT_255_1_234
10
4.6411201
20
61.1819689
11
4.4427362
21
60.6350075
0
LINE
8
DEFAULT_255_1_234
10
4.4427362
20
60.6350075
11
4.8403072
21
60.6350075
0
LINE
8
DEFAULT_255_1_234
10
4.8403072
20
60.6350075
11
4.6411201
21
61.1819689
0
LINE
8
DEFAULT_255_1_234
10
5.4788304
20
61.3723211
11
5.4788304
21
60.2029
0
LINE
8
DEFAULT_255_1_234
10
5.4788304
20
60.2029
11
5.324621
21
60.2029
0
LINE
8
DEFAULT_255_1_234
10
5.324621
20
60.2029
11
5.324621
21
61.3723211
0
LINE
8
DEFAULT_255_1_234
10
5.324621
20
61.3723211
11
5.4788304
21
61.3723211
0
LINE
8
DEFAULT_255_1_234
10
6.4554898
20
60.8944327
11
6.4554898
21
60.7016709
0
LINE
8
DEFAULT_255_1_234
10
5.717373
20
60.6815916
11
5.717373
21
60.8799755
0
LINE
8
DEFAULT_255_1_234
10
6.3069026
20
60.6615123
11
6.3069026
21
60.9048739
0
LINE
8
DEFAULT_255_1_234
10
5.8659602
20
60.9161184
11
5.8659602
21
60.6783789
0
ARC
8
DEFAULT_255_1_234
10
5.2307788
20
60.6967805
40
1.2247208
50
353.8441951
51
0.2287902
0
ARC
8
DEFAULT_255_1_234
10
5.6947291
20
60.6449806
40
0.7578929
50
344.4934747
51
353.9765454
0
ARC
8
DEFAULT_255_1_234
10
5.9939881
20
60.5598981
40
0.4467846
50
329.2803592
51
344.7472793
0
ARC
8
DEFAULT_255_1_234
10
6.0932706
20
60.5054018
40
0.3336173
50
324.9352394
51
328.6160465
0
ARC
8
DEFAULT_255_1_234
10
6.1309815
20
60.4790427
40
0.2876076
50
280.580143
51
324.9173126
0
ARC
8
DEFAULT_255_1_234
10
6.0908608
20
60.6461099
40
0.4592847
50
269.5977311
51
281.6734359
0
ARC
8
DEFAULT_255_1_234
10
6.0836513
20
60.6341173
40
0.4472986
50
256.6228859
51
270.51044
0
ARC
8
DEFAULT_255_1_234
10
6.0434491
20
60.4792877
40
0.2873874
50
215.8618325
51
257.2788573
0
ARC
8
DEFAULT_255_1_234
10
6.1455523
20
60.5477977
40
0.4102928
50
197.9693508
51
215.2623606
0
ARC
8
DEFAULT_255_1_234
10
6.3940638
20
60.6316709
40
0.6725652
50
187.8816417
51
198.2346507
0
ARC
8
DEFAULT_255_1_234
10
6.7898846
20
60.6888079
40
1.0724845
50
180.8976217
51
188.0055519
0
ARC
8
DEFAULT_255_1_234
10
7.0699035
20
60.6991777
40
1.3526448
50
180.7449369
51
181.1510016
0
ARC
8
DEFAULT_255_1_234
10
6.9121764
20
60.8848042
40
1.1948131
50
173.7675579
51
180.231553
0
ARC
8
DEFAULT_255_1_234
10
6.460391
20
60.9358666
40
0.7401564
50
164.3058563
51
173.9002247
0
ARC
8
DEFAULT_255_1_234
10
6.1691979
20
61.0197656
40
0.4371288
50
148.7922025
51
164.568378
0
ARC
8
DEFAULT_255_1_234
10
6.0740431
20
61.0728929
40
0.3282386
50
144.5883898
51
148.1176286
0
ARC
8
DEFAULT_255_1_234
10
6.0397329
20
61.0968315
40
0.2864044
50
101.6440918
51
144.514236
0
ARC
8
DEFAULT_255_1_234
10
6.0822396
20
60.9279069
40
0.4604934
50
89.5284041
51
102.5819763
0
ARC
8
DEFAULT_255_1_234
10
6.0901484
20
60.9240018
40
0.464401
50
77.0437873
51
90.5081339
0
ARC
8
DEFAULT_255_1_234
10
6.1303485
20
61.0882615
40
0.2953195
50
48.2778575
51
77.4994676
0
ARC
8
DEFAULT_255_1_234
10
6.1376117
20
61.1011746
40
0.2808655
50
36.3142134
51
47.6305865
0
ARC
8
DEFAULT_255_1_234
10
6.0507424
20
61.0426515
40
0.3855453
50
18.2931786
51
35.6769206
0
ARC
8
DEFAULT_255_1_234
10
5.7964183
20
60.9553593
40
0.654423
50
8.024666
51
18.5605216
0
ARC
8
DEFAULT_255_1_234
10
5.3801103
20
60.8938792
40
1.0752407
50
1.1274072
51
8.1718305
0
ARC
8
DEFAULT_255_1_234
10
5.0565293
20
60.8811885
40
1.3990231
50
0.5424119
51
1.3863029
0
ARC
8
DEFAULT_255_1_234
10
5.2386671
20
60.9084342
40
1.0682415
50
359.8090433
51
4.9407866
0
ARC
8
DEFAULT_255_1_234
10
5.6596685
20
60.9460113
40
0.6455691
50
4.8362157
51
12.2904523
0
ARC
8
DEFAULT_255_1_234
10
5.93518
20
61.0073965
40
0.3633074
50
12.0805627
51
23.8173984
0
ARC
8
DEFAULT_255_1_234
10
6.0525505
20
61.0570919
40
0.2358723
50
24.2871213
51
31.3935614
0
ARC
8
DEFAULT_255_1_234
10
6.1050202
20
61.0914233
40
0.1732111
50
30.7407893
51
82.4657128
0
ARC
8
DEFAULT_255_1_234
10
6.0870337
20
61.0030691
40
0.263235
50
81.1060089
51
90.2184952
0
ARC
8
DEFAULT_255_1_234
10
6.0834636
20
61.0288924
40
0.2374236
50
89.3806855
51
105.6762551
0
ARC
8
DEFAULT_255_1_234
10
6.0651266
20
61.0955567
40
0.1682847
50
105.7981136
51
149.7388061
0
ARC
8
DEFAULT_255_1_234
10
6.1715344
20
61.031595
40
0.2924306
50
149.4208916
51
163.6286378
0
ARC
8
DEFAULT_255_1_234
10
6.3806233
20
60.967825
40
0.5110213
50
163.3763315
51
172.1410975
0
ARC
8
DEFAULT_255_1_234
10
6.7106951
20
60.9205518
40
0.8444586
50
172.0259487
51
178.0703232
0
ARC
8
DEFAULT_255_1_234
10
7.0137041
20
60.9061906
40
1.1477868
50
177.8631668
51
179.5044149
0
ARC
8
DEFAULT_255_1_234
10
6.9064445
20
60.6747389
40
1.0404907
50
179.7995573
51
185.2460446
0
ARC
8
DEFAULT_255_1_234
10
6.5021485
20
60.6364513
40
0.6343885
50
185.1411642
51
193.0079639
0
ARC
8
DEFAULT_255_1_234
10
6.2377957
20
60.5739641
40
0.3627568
50
192.7897626
51
205.2507664
0
ARC
8
DEFAULT_255_1_234
10
6.1331504
20
60.5272415
40
0.2481908
50
205.8005384
51
211.2537509
0
ARC
8
DEFAULT_255_1_234
10
6.0807945
20
60.492158
40
0.1852521
50
210.3789793
51
238.4008143
0
ARC
8
DEFAULT_255_1_234
10
6.0788467
20
60.4968376
40
0.1882621
50
239.6520629
51
265.9793761
0
ARC
8
DEFAULT_255_1_234
10
6.0873667
20
60.5640427
40
0.2559272
50
265.1315437
51
270.060332
0
ARC
8
DEFAULT_255_1_234
10
6.0902446
20
60.5316534
40
0.2235528
50
269.3314664
51
287.2178029
0
ARC
8
DEFAULT_255_1_234
10
6.1040298
20
60.4813279
40
0.1714108
50
287.7958004
51
329.080874
0
ARC
8
DEFAULT_255_1_234
10
6.0082754
20
60.541093
40
0.2842745
50
328.6634704
51
343.3325132
0
ARC
8
DEFAULT_255_1_234
10
5.7909774
20
60.6087863
40
0.5118644
50
343.0499468
51
351.9393422
0
ARC
8
DEFAULT_255_1_234
10
5.4443074
20
60.6598949
40
0.8622784
50
351.8069023
51
357.7959224
0
ARC
8
DEFAULT_255_1_234
10
5.120763
20
60.6766721
40
1.1862365
50
357.5871873
51
359.2677531
0
LINE
8
DEFAULT_255_1_234
10
24.2614879
20
69.3098211
11
24.2614879
21
68.1404
0
LINE
8
DEFAULT_255_1_234
10
24.2614879
20
68.1404
11
24.1064753
21
68.1404
0
LINE
8
DEFAULT_255_1_234
10
24.1064753
20
68.1404
11
23.5177489
21
69.041561
0
LINE
8
DEFAULT_255_1_234
10
23.5177489
20
69.041561
11
23.5177489
21
68.1404
0
LINE
8
DEFAULT_255_1_234
10
23.5177489
20
68.1404
11
23.3627364
21
68.1404
0
LINE
8
DEFAULT_255_1_234
10
23.3627364
20
68.1404
11
23.3627364
21
69.3098211
0
LINE
8
DEFAULT_255_1_234
10
23.3627364
20
69.3098211
11
23.5177489
21
69.3098211
0
LINE
8
DEFAULT_255_1_234
10
23.5177489
20
69.3098211
11
24.1080817
21
68.4046442
0
LINE
8
DEFAULT_255_1_234
10
24.1080817
20
68.4046442
11
24.1080817
21
69.3098211
0
LINE
8
DEFAULT_255_1_234
10
24.1080817
20
69.3098211
11
24.2614879
21
69.3098211
0
ENDSEC
0
EOF