0
SECTION
2
HEADER
9
$MEASUREMENT
70
1
0
ENDSEC
0
SECTION
2
TABLES
0
TABLE
2
LTYPE
0
LTYPE
72
65
70
64
2
CONTINUOUS
3
______
73
0
40
0
0
ENDTAB
0
TABLE
2
LAYER
0
LAYER
2
DEFAULT_255_2_778
70
0
62
255
6
CONTINUOUS
0
LAYER
2
DEFAULT_255_1_234
70
0
62
255
6
CONTINUOUS
0
LAYER
2
DEFAULT_255_2_778_1
70
0
62
255
6
CONTINUOUS
0
ENDTAB
0
ENDSEC
0
SECTION
2
ENTITIES
0
ARC
8
DEFAULT_255_2_778
10
3.5700693
20
44.0552035
40
0.7914215
50
129.1312896
51
180.1450914
0
ARC
8
DEFAULT_255_2_778
10
3.5703345
20
44.0556906
40
0.7912112
50
89.854026
51
129.1684493
0
ARC
8
DEFAULT_255_2_778
10
25.7993937
20
44.0553771
40
0.7915249
50
39.4792447
51
90.147911
0
ARC
8
DEFAULT_255_2_778
10
25.7999935
20
44.0552238
40
0.7911595
50
359.8533901
51
39.5154338
0
ARC
8
DEFAULT_255_2_778
10
25.7996693
20
-1.9863488
40
0.7914836
50
309.4761667
51
0.1482649
0
ARC
8
DEFAULT_255_2_778
10
25.799398
20
-1.9867799
40
0.7913235
50
269.8517415
51
309.511178
0
ARC
8
DEFAULT_255_2_778
10
3.570342
20
-1.9867217
40
0.7913815
50
219.1282118
51
270.1454017
0
ARC
8
DEFAULT_255_2_778
10
3.5700247
20
-1.9863392
40
0.7913769
50
179.8524075
51
219.1641908
0
LINE
8
DEFAULT_255_2_778
10
3.5723503
20
44.8468993
11
25.7973503
21
44.8468993
0
LINE
8
DEFAULT_255_2_778
10
26.5911503
20
44.0531993
11
26.5911503
21
-1.9843007
0
LINE
8
DEFAULT_255_2_778
10
25.7973503
20
-2.7781007
11
3.5723503
21
-2.7781007
0
LINE
8
DEFAULT_255_2_778
10
2.7786503
20
-1.9843007
11
2.7786503
21
44.0531993
0
LINE
8
DEFAULT_255_1_234
10
10.6717119
20
-0.5300208
11
10.6717119
21
-0.6513
0
LINE
8
DEFAULT_255_1_234
10
10.6717119
20
-0.6513
11
9.905484
21
-0.6513
0
LINE
8
DEFAULT_255_1_234
10
9.905484
20
-0.6513
11
9.905484
21
-0.5444779
0
LINE
8
DEFAULT_255_1_234
10
9.905484
20
-0.5444779
11
10.3102836
21
-0.0947005
0
LINE
8
DEFAULT_255_1_234
10
10.0315823
20
0.1735595
11
9.8829952
21
0.1735595
0
LINE
8
DEFAULT_255_1_234
10
10.3978296
20
-0.1902782
11
10.0845918
21
-0.5300208
0
LINE
8
DEFAULT_255_1_234
10
10.0845918
20
-0.5300208
11
10.6717119
21
-0.5300208
0
ARC
8
DEFAULT_255_1_234
10
8.961267
20
1.0982527
40
1.8008286
50
318.5132453
51
320.7828378
0
ARC
8
DEFAULT_255_1_234
10
9.4899644
20
0.6679426
40
1.1191493
50
320.7372736
51
323.9737074
0
ARC
8
DEFAULT_255_1_234
10
9.8819501
20
0.3839361
40
0.6350923
50
323.8961724
51
328.6421089
0
ARC
8
DEFAULT_255_1_234
10
10.0866096
20
0.2577031
40
0.3946393
50
328.8299013
51
331.789948
0
ARC
8
DEFAULT_255_1_234
10
10.1863274
20
0.2062509
40
0.2824501
50
331.4255242
51
352.9364833
0
ARC
8
DEFAULT_255_1_234
10
10.1999775
20
0.2031976
40
0.2685315
50
353.2248685
51
0.0169286
0
ARC
8
DEFAULT_255_1_234
10
10.2209652
20
0.205495
40
0.2475536
50
359.4866256
51
15.9339782
0
ARC
8
DEFAULT_255_1_234
10
10.2716637
20
0.2191286
40
0.1950618
50
16.1714718
51
43.5284424
0
ARC
8
DEFAULT_255_1_234
10
10.2793946
20
0.2268573
40
0.184134
50
43.4415429
51
83.1661404
0
ARC
8
DEFAULT_255_1_234
10
10.2659864
20
0.1531771
40
0.258926
50
82.160215
51
90.1505798
0
ARC
8
DEFAULT_255_1_234
10
10.2628291
20
0.0994865
40
0.3126255
50
89.5460705
51
102.5418777
0
ARC
8
DEFAULT_255_1_234
10
10.2385377
20
0.2025665
40
0.2067346
50
102.1739365
51
129.2061916
0
ARC
8
DEFAULT_255_1_234
10
10.2306449
20
0.2150094
40
0.1921118
50
129.7279328
51
135.7542026
0
ARC
8
DEFAULT_255_1_234
10
10.2427977
20
0.2053045
40
0.2075944
50
136.175737
51
166.3674722
0
ARC
8
DEFAULT_255_1_234
10
10.3434896
20
0.1783182
40
0.3118201
50
165.9092917
51
178.8683903
0
ARC
8
DEFAULT_255_1_234
10
10.4299757
20
0.1736179
40
0.3983935
50
178.438168
51
180.0083905
0
ARC
8
DEFAULT_255_1_234
10
10.2898359
20
0.1775231
40
0.4068601
50
163.2878735
51
180.5581814
0
ARC
8
DEFAULT_255_1_234
10
10.2096621
20
0.199584
40
0.3237344
50
133.454115
51
162.9470031
0
ARC
8
DEFAULT_255_1_234
10
10.2275162
20
0.1806
40
0.349795
50
100.7869394
51
133.4384016
0
ARC
8
DEFAULT_255_1_234
10
10.2622934
20
0.0257319
40
0.5084616
50
89.6605301
51
101.3704185
0
ARC
8
DEFAULT_255_1_234
10
10.2689273
20
0.0318496
40
0.502348
50
78.2171172
51
90.4130393
0
ARC
8
DEFAULT_255_1_234
10
10.3044351
20
0.1942637
40
0.3361092
50
55.9268222
51
78.4888551
0
ARC
8
DEFAULT_255_1_234
10
10.3240791
20
0.2281324
40
0.2970617
50
47.9292255
51
55.4054003
0
ARC
8
DEFAULT_255_1_234
10
10.3342352
20
0.2384502
40
0.2825983
50
4.3347696
51
48.0560701
0
ARC
8
DEFAULT_255_1_234
10
10.2246745
20
0.2214601
40
0.393225
50
359.925209
51
5.5967654
0
ARC
8
DEFAULT_255_1_234
10
10.2675637
20
0.2270816
40
0.3503892
50
337.8914096
51
358.9967724
0
ARC
8
DEFAULT_255_1_234
10
9.9962049
20
0.3317706
40
0.6412172
50
326.9135351
51
338.3505194
0
ARC
8
DEFAULT_255_1_234
10
9.5976353
20
0.5872284
40
1.1146189
50
319.6472867
51
327.095818
0
ARC
8
DEFAULT_255_1_234
10
9.2143356
20
0.9034
40
1.6114559
50
317.2586784
51
319.9046139
0
LINE
8
DEFAULT_255_1_234
10
10.8676863
20
0.5181211
11
11.0668734
21
0.5181211
0
LINE
8
DEFAULT_255_1_234
10
11.0668734
20
0.5181211
11
11.4491841
21
-0.4360494
0
LINE
8
DEFAULT_255_1_234
10
11.4491841
20
-0.4360494
11
11.8314949
21
0.5181211
0
LINE
8
DEFAULT_255_1_234
10
11.8314949
20
0.5181211
11
12.0314852
21
0.5181211
0
LINE
8
DEFAULT_255_1_234
10
12.0314852
20
0.5181211
11
12.0314852
21
-0.6513
0
LINE
8
DEFAULT_255_1_234
10
12.0314852
20
-0.6513
11
11.8772758
21
-0.6513
0
LINE
8
DEFAULT_255_1_234
10
11.8772758
20
-0.6513
11
11.8772758
21
-0.1959004
0
LINE
8
DEFAULT_255_1_234
10
11.8772758
20
-0.1959004
11
11.8917329
21
0.2956419
0
LINE
8
DEFAULT_255_1_234
10
11.8917329
20
0.2956419
11
11.5078158
21
-0.6513
0
LINE
8
DEFAULT_255_1_234
10
11.5078158
20
-0.6513
11
11.3897493
21
-0.6513
0
LINE
8
DEFAULT_255_1_234
10
11.3897493
20
-0.6513
11
11.0066354
21
0.2932324
0
LINE
8
DEFAULT_255_1_234
10
11.0066354
20
0.2932324
11
11.0218957
21
-0.1959004
0
LINE
8
DEFAULT_255_1_234
10
11.0218957
20
-0.1959004
11
11.0218957
21
-0.6513
0
LINE
8
DEFAULT_255_1_234
10
11.0218957
20
-0.6513
11
10.8676863
21
-0.6513
0
LINE
8
DEFAULT_255_1_234
10
10.8676863
20
-0.6513
11
10.8676863
21
0.5181211
0
LINE
8
DEFAULT_255_1_234
10
12.4587736
20
0.5181211
11
12.4587736
21
-0.5252017
0
LINE
8
DEFAULT_255_1_234
10
12.4587736
20
-0.5252017
11
13.0129636
21
-0.5252017
0
LINE
8
DEFAULT_255_1_234
10
13.0129636
20
-0.5252017
11
13.0129636
21
-0.6513
0
LINE
8
DEFAULT_255_1_234
10
13.0129636
20
-0.6513
11
12.3037611
21
-0.6513
0
LINE
8
DEFAULT_255_1_234
10
12.3037611
20
-0.6513
11
12.3037611
21
0.5181211
0
LINE
8
DEFAULT_255_1_234
10
12.3037611
20
0.5181211
11
12.4587736
21
0.5181211
0
LINE
8
DEFAULT_255_1_234
10
13.8338072
20
-0.0087609
11
13.8338072
21
-0.1348592
0
LINE
8
DEFAULT_255_1_234
10
13.8338072
20
-0.1348592
11
13.343068
21
-0.1348592
0
LINE
8
DEFAULT_255_1_234
10
13.343068
20
-0.1348592
11
13.343068
21
-0.6513
0
LINE
8
DEFAULT_255_1_234
10
13.343068
20
-0.6513
11
13.1888586
21
-0.6513
0
LINE
8
DEFAULT_255_1_234
10
13.1888586
20
-0.6513
11
13.1888586
21
0.5181211
0
LINE
8
DEFAULT_255_1_234
10
13.1888586
20
0.5181211
11
13.9133214
21
0.5181211
0
LINE
8
DEFAULT_255_1_234
10
13.9133214
20
0.5181211
11
13.9133214
21
0.3912196
0
LINE
8
DEFAULT_255_1_234
10
13.9133214
20
0.3912196
11
13.343068
21
0.3912196
0
LINE
8
DEFAULT_255_1_234
10
13.343068
20
0.3912196
11
13.343068
21
-0.0087609
0
LINE
8
DEFAULT_255_1_234
10
13.343068
20
-0.0087609
11
13.8338072
21
-0.0087609
0
LINE
8
DEFAULT_255_1_234
10
14.3839813
20
-0.0938974
11
14.3839813
21
-0.2151766
0
LINE
8
DEFAULT_255_1_234
10
14.3839813
20
-0.2151766
11
13.9920325
21
-0.2151766
0
LINE
8
DEFAULT_255_1_234
10
13.9920325
20
-0.2151766
11
13.9920325
21
-0.0938974
0
LINE
8
DEFAULT_255_1_234
10
13.9920325
20
-0.0938974
11
14.3839813
21
-0.0938974
0
LINE
8
DEFAULT_255_1_234
10
15.2345424
20
-0.6513
11
14.9807395
21
-0.1782306
0
LINE
8
DEFAULT_255_1_234
10
14.9807395
20
-0.1782306
11
14.706054
21
-0.1782306
0
LINE
8
DEFAULT_255_1_234
10
14.706054
20
-0.1782306
11
14.706054
21
-0.6513
0
LINE
8
DEFAULT_255_1_234
10
14.706054
20
-0.6513
11
14.5510415
21
-0.6513
0
LINE
8
DEFAULT_255_1_234
10
14.5510415
20
-0.6513
11
14.5510415
21
0.5181211
0
LINE
8
DEFAULT_255_1_234
10
14.5510415
20
0.5181211
11
14.9381712
21
0.5181211
0
LINE
8
DEFAULT_255_1_234
10
15.1253107
20
-0.1453005
11
15.3999962
21
-0.6416619
0
LINE
8
DEFAULT_255_1_234
10
15.3999962
20
-0.6416619
11
15.3999962
21
-0.6513
0
LINE
8
DEFAULT_255_1_234
10
15.3999962
20
-0.6513
11
15.2345424
21
-0.6513
0
LINE
8
DEFAULT_255_1_234
10
14.706054
20
0.3912196
11
14.706054
21
-0.0521323
0
LINE
8
DEFAULT_255_1_234
10
14.706054
20
-0.0521323
11
14.9429903
21
-0.0521323
0
LINE
8
DEFAULT_255_1_234
10
14.9421871
20
0.3912196
11
14.706054
21
0.3912196
0
ARC
8
DEFAULT_255_1_234
10
14.9423352
20
-0.1780239
40
0.6961575
50
80.653586
51
90.3427061
0
ARC
8
DEFAULT_255_1_234
10
14.9842827
20
0.0682348
40
0.4463577
50
65.6987447
51
80.8329603
0
ARC
8
DEFAULT_255_1_234
10
15.0320467
20
0.1777322
40
0.3269094
50
50.0017161
51
65.4305835
0
ARC
8
DEFAULT_255_1_234
10
15.0538932
20
0.2072482
40
0.2902647
50
11.628416
51
49.5603263
0
ARC
8
DEFAULT_255_1_234
10
14.9003268
20
0.1697299
40
0.4482792
50
359.5655735
51
12.3691
0
ARC
8
DEFAULT_255_1_234
10
15.0080127
20
0.1634644
40
0.3405924
50
341.9983148
51
0.4822259
0
ARC
8
DEFAULT_255_1_234
10
15.0474967
20
0.1527471
40
0.2997359
50
323.8609373
51
341.61416
0
ARC
8
DEFAULT_255_1_234
10
15.0173211
20
0.1760484
40
0.3378487
50
296.7018614
51
323.6876402
0
ARC
8
DEFAULT_255_1_234
10
14.9732107
20
0.2549235
40
0.4281516
50
290.8086567
51
297.2323311
0
ARC
8
DEFAULT_255_1_234
10
14.9455636
20
0.3072351
40
0.3593766
50
269.589728
51
281.8058135
0
ARC
8
DEFAULT_255_1_234
10
14.9706535
20
0.1924743
40
0.2419125
50
281.5501019
51
303.9357432
0
ARC
8
DEFAULT_255_1_234
10
14.9843723
20
0.1686936
40
0.2145323
50
304.4415616
51
311.2106213
0
ARC
8
DEFAULT_255_1_234
10
14.9975829
20
0.1547632
40
0.1953505
50
310.9875673
51
356.2715578
0
ARC
8
DEFAULT_255_1_234
10
14.9219477
20
0.1660422
40
0.2716331
50
354.9348262
51
0.0609027
0
ARC
8
DEFAULT_255_1_234
10
14.9032352
20
0.1687435
40
0.2903554
50
359.5239371
51
12.8808918
0
ARC
8
DEFAULT_255_1_234
10
15.0009907
20
0.1926728
40
0.1897315
50
12.4173452
51
43.1022135
0
ARC
8
DEFAULT_255_1_234
10
15.0071512
20
0.1963724
40
0.1827118
50
43.5751728
51
48.203944
0
ARC
8
DEFAULT_255_1_234
10
14.9902003
20
0.1742302
40
0.2105272
50
48.7809703
51
72.6969569
0
ARC
8
DEFAULT_255_1_234
10
14.9547628
20
0.066682
40
0.3237537
50
72.3702241
51
84.8791103
0
ARC
8
DEFAULT_255_1_234
10
14.9400104
20
-0.0675231
40
0.4587478
50
84.5400526
51
89.7281406
0
LINE
8
DEFAULT_255_1_234
10
15.8883259
20
-0.6513
11
15.5646468
21
-0.6513
0
LINE
8
DEFAULT_255_1_234
10
15.5646468
20
-0.6513
11
15.5646468
21
0.5181211
0
LINE
8
DEFAULT_255_1_234
10
15.5646468
20
0.5181211
11
15.8947513
21
0.5181211
0
LINE
8
DEFAULT_255_1_234
10
16.4103889
20
-0.0272339
11
16.4103889
21
-0.1019291
0
LINE
8
DEFAULT_255_1_234
10
15.8987671
20
0.3912196
11
15.7188562
21
0.3912196
0
LINE
8
DEFAULT_255_1_234
10
15.7188562
20
0.3912196
11
15.7188562
21
-0.5252017
0
LINE
8
DEFAULT_255_1_234
10
15.7188562
20
-0.5252017
11
15.8810973
21
-0.5252017
0
LINE
8
DEFAULT_255_1_234
10
16.2577858
20
-0.0987164
11
16.2577858
21
-0.0304466
0
ARC
8
DEFAULT_255_1_234
10
15.8986455
20
-0.0684106
40
0.5865446
50
75.4101064
51
90.3804066
0
ARC
8
DEFAULT_255_1_234
10
15.9215969
20
0.0272492
40
0.4881916
50
60.145586
51
75.1888407
0
ARC
8
DEFAULT_255_1_234
10
15.9374744
20
0.0549199
40
0.4562893
50
26.5253612
51
60.1450928
0
ARC
8
DEFAULT_255_1_234
10
15.8254493
20
-0.0044842
40
0.5830602
50
7.4030428
51
26.8320788
0
ARC
8
DEFAULT_255_1_234
10
15.666025
20
-0.0293196
40
0.7443669
50
0.1605367
51
7.7176192
0
ARC
8
DEFAULT_255_1_234
10
15.6824155
20
-0.1057566
40
0.7279835
50
348.7289388
51
0.3012466
0
ARC
8
DEFAULT_255_1_234
10
15.8480585
20
-0.1386614
40
0.559104
50
333.0706509
51
348.7181832
0
ARC
8
DEFAULT_255_1_234
10
15.9447343
20
-0.1911681
40
0.4491417
50
299.2531685
51
333.4571258
0
ARC
8
DEFAULT_255_1_234
10
15.9086482
20
-0.1226172
40
0.5265881
50
278.107187
51
299.0339503
0
ARC
8
DEFAULT_255_1_234
10
15.8830561
20
0.0281216
40
0.679442
50
270.4443897
51
278.4511052
0
ARC
8
DEFAULT_255_1_234
10
15.8851391
20
-0.0647787
40
0.4604407
50
269.4970433
51
284.0205042
0
ARC
8
DEFAULT_255_1_234
10
15.9206692
20
-0.2013022
40
0.3193797
50
283.7700273
51
318.1555492
0
ARC
8
DEFAULT_255_1_234
10
15.886945
20
-0.1760633
40
0.3613588
50
318.7415601
51
343.6873628
0
ARC
8
DEFAULT_255_1_234
10
15.7065474
20
-0.1197168
40
0.5503313
50
343.3325091
51
355.8548958
0
ARC
8
DEFAULT_255_1_234
10
15.4967158
20
-0.0997681
40
0.7610708
50
355.4988528
51
0.0791727
0
ARC
8
DEFAULT_255_1_234
10
15.5749781
20
-0.026222
40
0.6828208
50
359.6455037
51
9.8607896
0
ARC
8
DEFAULT_255_1_234
10
15.8110479
20
0.0164099
40
0.4429406
50
9.6571907
51
26.1932807
0
ARC
8
DEFAULT_255_1_234
10
15.9038467
20
0.0595118
40
0.3406537
50
26.5777228
51
40.1532208
0
ARC
8
DEFAULT_255_1_234
10
15.9294194
20
0.0794619
40
0.308246
50
40.3840491
51
80.1431104
0
ARC
8
DEFAULT_255_1_234
10
15.8967311
20
-0.0654667
40
0.4566909
50
79.2152159
51
89.7445637
0
LINE
8
DEFAULT_255_1_234
10
17.2320357
20
0.5181211
11
17.2320357
21
-0.258548
0
LINE
8
DEFAULT_255_1_234
10
17.2320357
20
-0.258548
11
17.3942768
21
-0.258548
0
LINE
8
DEFAULT_255_1_234
10
17.3942768
20
-0.258548
11
17.3942768
21
-0.3798272
0
LINE
8
DEFAULT_255_1_234
10
17.3942768
20
-0.3798272
11
17.2320357
21
-0.3798272
0
LINE
8
DEFAULT_255_1_234
10
17.2320357
20
-0.3798272
11
17.2320357
21
-0.6513
0
LINE
8
DEFAULT_255_1_234
10
17.2320357
20
-0.6513
11
17.0826454
21
-0.6513
0
LINE
8
DEFAULT_255_1_234
10
17.0826454
20
-0.6513
11
17.0826454
21
-0.3798272
0
LINE
8
DEFAULT_255_1_234
10
17.0826454
20
-0.3798272
11
16.5501411
21
-0.3798272
0
LINE
8
DEFAULT_255_1_234
10
16.5501411
20
-0.3798272
11
16.5501411
21
-0.2922813
0
LINE
8
DEFAULT_255_1_234
10
16.5501411
20
-0.2922813
11
17.0738104
21
0.5181211
0
LINE
8
DEFAULT_255_1_234
10
17.0738104
20
0.5181211
11
17.2320357
21
0.5181211
0
LINE
8
DEFAULT_255_1_234
10
17.0649755
20
0.2827912
11
16.7188076
21
-0.258548
0
LINE
8
DEFAULT_255_1_234
10
16.7188076
20
-0.258548
11
17.0826454
21
-0.258548
0
LINE
8
DEFAULT_255_1_234
10
17.0826454
20
-0.258548
11
17.0826454
21
0.3149181
0
LINE
8
DEFAULT_255_1_234
10
17.0826454
20
0.3149181
11
17.0649755
21
0.2827912
0
LINE
8
DEFAULT_255_1_234
10
18.3243521
20
-0.6513
11
18.2127109
21
-0.3460939
0
LINE
8
DEFAULT_255_1_234
10
18.2127109
20
-0.3460939
11
17.7227749
21
-0.3460939
0
LINE
8
DEFAULT_255_1_234
10
17.7227749
20
-0.3460939
11
17.6127401
21
-0.6513
0
LINE
8
DEFAULT_255_1_234
10
17.6127401
20
-0.6513
11
17.4537117
21
-0.6513
0
LINE
8
DEFAULT_255_1_234
10
17.4537117
20
-0.6513
11
17.9002763
21
0.5181211
0
LINE
8
DEFAULT_255_1_234
10
17.9002763
20
0.5181211
11
18.0352095
21
0.5181211
0
LINE
8
DEFAULT_255_1_234
10
18.0352095
20
0.5181211
11
18.4825773
21
-0.6513
0
LINE
8
DEFAULT_255_1_234
10
18.4825773
20
-0.6513
11
18.3243521
21
-0.6513
0
LINE
8
DEFAULT_255_1_234
10
17.9677429
20
0.3277689
11
17.769359
21
-0.2191925
0
LINE
8
DEFAULT_255_1_234
10
17.769359
20
-0.2191925
11
18.16693
21
-0.2191925
0
LINE
8
DEFAULT_255_1_234
10
18.16693
20
-0.2191925
11
17.9677429
21
0.3277689
0
ARC
8
DEFAULT_255_2_778
10
12.6050348
20
42.3538041
40
0.3813723
50
156.9728279
51
180.9672924
0
ARC
8
DEFAULT_255_2_778
10
12.4650905
20
42.4164556
40
0.2280903
50
120.6143155
51
157.7057572
0
ARC
8
DEFAULT_255_2_778
10
12.423185
20
42.4783889
40
0.1535155
50
105.6024085
51
118.9253865
0
ARC
8
DEFAULT_255_2_778
10
12.4163051
20
42.503158
40
0.1278087
50
90.2188612
51
105.6183161
0
ARC
8
DEFAULT_255_2_778
10
12.4186564
20
42.3360412
40
0.2949385
50
82.1187511
51
90.5516271
0
ARC
8
DEFAULT_255_2_778
10
12.4470429
20
42.5007036
40
0.128059
50
23.164146
51
84.5981403
0
ARC
8
DEFAULT_255_2_778
10
12.3195078
20
42.4489267
40
0.2656921
50
1.2065942
51
22.6109196
0
ARC
8
DEFAULT_255_2_778
10
12.1068205
20
42.4310377
40
0.4788966
50
359.9555286
51
2.8107684
0
ARC
8
DEFAULT_255_2_778
10
12.4802764
20
42.4196207
40
0.6523641
50
359.5121336
51
18.1513483
0
ARC
8
DEFAULT_255_2_778
10
12.6313291
20
42.4706245
40
0.4929411
50
17.987628
51
47.7515239
0
ARC
8
DEFAULT_255_2_778
10
12.6654537
20
42.5023389
40
0.4465388
50
48.2567149
51
90.320171
0
ARC
8
DEFAULT_255_2_778
10
12.6638541
20
42.4542874
40
0.4945841
50
90.103751
51
104.0317339
0
ARC
8
DEFAULT_255_2_778
10
12.6706581
20
42.4229342
40
0.5266526
50
103.9228462
51
106.737064
0
ARC
8
DEFAULT_255_2_778
10
12.6850928
20
42.3802316
40
0.5717052
50
106.8899656
51
120.2615348
0
ARC
8
DEFAULT_255_2_778
10
12.7341581
20
42.2957122
40
0.6694339
50
120.2432243
51
131.2854864
0
ARC
8
DEFAULT_255_2_778
10
12.785036
20
42.234952
40
0.7486631
50
131.143212
51
134.0802792
0
ARC
8
DEFAULT_255_2_778
10
15.2709404
20
41.2619131
40
0.1197666
50
309.5218924
51
339.9060311
0
ARC
8
DEFAULT_255_2_778
10
15.3039085
20
41.2244254
40
0.0698871
50
287.710739
51
308.230668
0
ARC
8
DEFAULT_255_2_778
10
15.3092212
20
41.2087982
40
0.0533853
50
270.2503717
51
287.3813074
0
ARC
8
DEFAULT_255_2_778
10
15.3118783
20
41.2096536
40
0.0542942
50
194.7346052
51
267.4414086
0
ARC
8
DEFAULT_255_2_778
10
15.3603123
20
41.232672
40
0.107451
50
190.9475811
51
200.0439116
0
ARC
8
DEFAULT_255_2_778
10
14.9941035
20
41.2197621
40
0.2608211
50
358.353068
51
64.1268931
0
ARC
8
DEFAULT_255_2_778
10
15.0249058
20
41.2654249
40
0.206441
50
66.2890109
51
89.9969258
0
ARC
8
DEFAULT_255_2_778
10
15.0382115
20
41.2301645
40
0.2420668
50
93.1483498
51
177.0819403
0
ARC
8
DEFAULT_255_2_778
10
15.0906424
20
41.2123292
40
0.2957256
50
174.1467469
51
180.0122521
0
ARC
8
DEFAULT_255_2_778
10
15.0902349
20
41.215793
40
0.2953391
50
180.6842551
51
197.2976119
0
ARC
8
DEFAULT_255_2_778
10
15.1427344
20
41.2319135
40
0.3502574
50
197.2618666
51
237.3003567
0
ARC
8
DEFAULT_255_2_778
10
15.1574152
20
41.260555
40
0.3823034
50
237.7678185
51
267.0989043
0
ARC
8
DEFAULT_255_2_778
10
15.1676437
20
41.345885
40
0.468079
50
266.3770992
51
270.0209723
0
ARC
8
DEFAULT_255_2_778
10
15.1676985
20
41.3761308
40
0.4983248
50
270.0133909
51
272.716577
0
ARC
8
DEFAULT_255_2_778
10
15.1758148
20
41.2615424
40
0.3834899
50
272.3167324
51
299.1303886
0
ARC
8
DEFAULT_255_2_778
10
15.1234049
20
41.3350329
40
0.4733038
50
300.3417229
51
327.7658215
0
ARC
8
DEFAULT_255_2_778
10
14.9406676
20
41.4635134
40
0.6964958
50
326.843622
51
335.4998036
0
ARC
8
DEFAULT_255_2_778
10
14.8514976
20
41.5057766
40
0.7951648
50
335.3932154
51
340.0324022
0
ARC
8
DEFAULT_255_2_778
10
14.8370312
20
41.5113094
40
0.8106509
50
340.0140149
51
340.5492811
0
ARC
8
DEFAULT_255_2_778
10
10.7612214
20
42.2094581
40
0.768197
50
90.8730151
51
175.0627552
0
ARC
8
DEFAULT_255_2_778
10
10.8136126
20
42.1930058
40
0.8218958
50
174.2343992
51
180.0097514
0
ARC
8
DEFAULT_255_2_778
10
10.7889867
20
42.1897729
40
0.7972759
50
179.7777162
51
222.1414196
0
ARC
8
DEFAULT_255_2_778
10
10.7511509
20
42.151835
40
0.7437709
50
221.9300285
51
269.8741254
0
ARC
8
DEFAULT_255_2_778
10
10.7376549
20
42.1762244
40
0.7682501
50
270.8846918
51
355.0667038
0
ARC
8
DEFAULT_255_2_778
10
10.6852873
20
42.1927267
40
0.8219296
50
354.2345114
51
0.0097094
0
ARC
8
DEFAULT_255_2_778
10
10.7100678
20
42.1959703
40
0.7971551
50
359.7768758
51
42.1436072
0
ARC
8
DEFAULT_255_2_778
10
10.7478782
20
42.2338788
40
0.7436889
50
41.9327014
51
89.8737509
0
ARC
8
DEFAULT_255_2_778
10
10.7319112
20
41.8166045
40
0.2064136
50
282.3154686
51
2.5716381
0
ARC
8
DEFAULT_255_2_778
10
10.749558
20
41.7815913
40
0.1687253
50
269.98603
51
278.995025
0
ARC
8
DEFAULT_255_2_778
10
10.7617107
20
41.8130042
40
0.2005094
50
178.6786273
51
266.5134562
0
ARC
8
DEFAULT_255_2_778
10
10.8074017
20
41.8258655
40
0.2462849
50
179.9999044
51
181.9167359
0
ARC
8
DEFAULT_255_2_778
10
10.7673954
20
42.5691548
40
0.2064787
50
103.0315545
51
182.5228891
0
ARC
8
DEFAULT_255_2_778
10
10.7494718
20
42.6042048
40
0.1685611
50
89.9846994
51
99.7807169
0
ARC
8
DEFAULT_255_2_778
10
10.7371616
20
42.5722176
40
0.2009286
50
358.490526
51
86.4746259
0
ARC
8
DEFAULT_255_2_778
10
10.6939639
20
42.5600644
40
0.244153
50
0.0003602
51
1.6101146
0
ARC
8
DEFAULT_255_2_778
10
13.7769085
20
42.1923122
40
1.0339085
50
353.7729731
51
0.0306848
0
ARC
8
DEFAULT_255_2_778
10
14.0136678
20
42.1959703
40
0.7971551
50
359.7768758
51
42.1436072
0
ARC
8
DEFAULT_255_2_778
10
14.0514782
20
42.2338788
40
0.7436889
50
41.9327014
51
89.8737509
0
ARC
8
DEFAULT_255_2_778
10
14.0648214
20
42.2094581
40
0.768197
50
90.8730151
51
175.0627552
0
ARC
8
DEFAULT_255_2_778
10
14.1172126
20
42.1930058
40
0.8218958
50
174.2343992
51
180.0097514
0
ARC
8
DEFAULT_255_2_778
10
14.0925867
20
42.1897729
40
0.7972759
50
179.7777162
51
222.1414196
0
ARC
8
DEFAULT_255_2_778
10
14.0547509
20
42.151835
40
0.7437709
50
221.9300285
51
269.8741254
0
ARC
8
DEFAULT_255_2_778
10
14.0479775
20
42.1618375
40
0.753789
50
270.3906469
51
332.9011285
0
ARC
8
DEFAULT_255_2_778
10
14.0503073
20
42.1733988
40
0.5766383
50
270.2493497
51
330.3649047
0
ARC
8
DEFAULT_255_2_778
10
14.0738266
20
41.8017117
40
0.2060198
50
188.4673322
51
264.146848
0
ARC
8
DEFAULT_255_2_778
10
14.1170452
20
41.8258502
40
0.2529285
50
180.0643852
51
192.4374066
0
ARC
8
DEFAULT_255_2_778
10
14.070552
20
42.5693297
40
0.2060435
50
102.2220352
51
182.5768883
0
ARC
8
DEFAULT_255_2_778
10
14.0532765
20
42.6035306
40
0.1692354
50
89.9863487
51
98.9553742
0
ARC
8
DEFAULT_255_2_778
10
14.0410627
20
42.5724487
40
0.2006917
50
358.1298546
51
86.4993767
0
ARC
8
DEFAULT_255_2_778
10
13.9951604
20
42.5600582
40
0.2465564
50
0.0018041
51
1.3574921
0
ARC
8
DEFAULT_255_2_778
10
18.8395085
20
42.1923122
40
1.0339085
50
353.7729731
51
0.0306848
0
ARC
8
DEFAULT_255_2_778
10
19.0763127
20
42.1959756
40
0.7971102
50
359.7764759
51
42.1460177
0
ARC
8
DEFAULT_255_2_778
10
19.1140101
20
42.2337511
40
0.7438166
50
41.9370909
51
89.8762358
0
ARC
8
DEFAULT_255_2_778
10
19.1273214
20
42.2094581
40
0.768197
50
90.8730151
51
175.0627552
0
ARC
8
DEFAULT_255_2_778
10
19.1797126
20
42.1930058
40
0.8218958
50
174.2343992
51
180.0097514
0
ARC
8
DEFAULT_255_2_778
10
19.1550867
20
42.1897729
40
0.7972759
50
179.7777162
51
222.1414196
0
ARC
8
DEFAULT_255_2_778
10
19.1172509
20
42.151835
40
0.7437709
50
221.9300285
51
269.8741254
0
ARC
8
DEFAULT_255_2_778
10
19.1104966
20
42.1622973
40
0.7542487
50
270.3889576
51
332.8797533
0
ARC
8
DEFAULT_255_2_778
10
19.1131073
20
42.1733988
40
0.5766383
50
270.2493497
51
330.3649047
0
ARC
8
DEFAULT_255_2_778
10
19.1366787
20
41.801307
40
0.2056225
50
188.7424888
51
264.120891
0
ARC
8
DEFAULT_255_2_778
10
19.180402
20
41.8258673
40
0.2531853
50
180.0682018
51
192.7352383
0
ARC
8
DEFAULT_255_2_778
10
19.1332623
20
42.569031
40
0.2062492
50
102.479692
51
182.5468765
0
ARC
8
DEFAULT_255_2_778
10
19.1155784
20
42.6040755
40
0.1684904
50
89.986931
51
99.1816697
0
ARC
8
DEFAULT_255_2_778
10
19.1031384
20
42.5718685
40
0.201085
50
358.3379179
51
86.4421934
0
ARC
8
DEFAULT_255_2_778
10
19.0609425
20
42.5598683
40
0.2432745
50
359.9994511
51
1.4527903
0
LINE
8
DEFAULT_255_2_778
10
20.0578169
20
41.5043659
11
20.5605169
21
41.5043659
0
LINE
8
DEFAULT_255_2_778
10
20.5605169
20
41.5043659
11
20.5605169
21
43.5239659
0
LINE
8
DEFAULT_255_2_778
10
20.5605169
20
43.5239659
11
20.0578169
21
43.5239659
0
LINE
8
DEFAULT_255_2_778
10
20.0578169
20
43.5239659
11
20.0578169
21
41.5043659
0
LINE
8
DEFAULT_255_2_778
10
20.0578169
20
41.5043659
11
20.0578169
21
41.5043659
0
LINE
8
DEFAULT_255_2_778
10
20.0578169
20
41.5043659
11
20.0578169
21
41.5043659
0
LINE
8
DEFAULT_255_2_778
10
21.2995169
20
43.5239659
11
21.2995169
21
41.5043659
0
LINE
8
DEFAULT_255_2_778
10
21.2995169
20
41.5043659
11
20.7970169
21
41.5043659
0
LINE
8
DEFAULT_255_2_778
10
20.7970169
20
41.5043659
11
20.7970169
21
43.5239659
0
LINE
8
DEFAULT_255_2_778
10
20.7970169
20
43.5239659
11
21.2995169
21
43.5239659
0
LINE
8
DEFAULT_255_2_778
10
21.2995169
20
43.5239659
11
21.2995169
21
43.5239659
0
LINE
8
DEFAULT_255_2_778
10
21.2995169
20
43.5239659
11
21.2995169
21
43.5239659
0
LINE
8
DEFAULT_255_2_778
10
9.1419169
20
42.7394659
11
8.7355169
21
42.7394659
0
LINE
8
DEFAULT_255_2_778
10
8.7355169
20
42.7394659
11
8.7355169
21
43.5239659
0
LINE
8
DEFAULT_255_2_778
10
8.7355169
20
43.5239659
11
8.0703169
21
43.5239659
0
LINE
8
DEFAULT_255_2_778
10
8.0703169
20
43.5239659
11
8.0703169
21
41.5043659
0
LINE
8
DEFAULT_255_2_778
10
8.0703169
20
41.5043659
11
8.7355169
21
41.5043659
0
LINE
8
DEFAULT_255_2_778
10
8.7355169
20
41.5043659
11
8.7355169
21
42.5058659
0
LINE
8
DEFAULT_255_2_778
10
8.7355169
20
42.5058659
11
9.1419169
21
42.5058659
0
LINE
8
DEFAULT_255_2_778
10
9.1419169
20
42.5058659
11
9.1419169
21
41.5043659
0
LINE
8
DEFAULT_255_2_778
10
9.1419169
20
41.5043659
11
9.8070169
21
41.5043659
0
LINE
8
DEFAULT_255_2_778
10
9.8070169
20
41.5043659
11
9.8070169
21
43.5239659
0
LINE
8
DEFAULT_255_2_778
10
9.8070169
20
43.5239659
11
9.1419169
21
43.5239659
0
LINE
8
DEFAULT_255_2_778
10
9.1419169
20
43.5239659
11
9.1419169
21
42.7394659
0
LINE
8
DEFAULT_255_2_778
10
9.1419169
20
42.7394659
11
9.1419169
21
42.7394659
0
LINE
8
DEFAULT_255_2_778
10
9.1419169
20
42.7394659
11
9.1419169
21
42.7394659
0
LINE
8
DEFAULT_255_2_778
10
12.2645169
20
42.7730659
11
12.2237169
21
42.9066659
0
LINE
8
DEFAULT_255_2_778
10
12.2237169
20
42.9066659
11
11.6768169
21
42.9066659
0
LINE
8
DEFAULT_255_2_778
10
11.6768169
20
42.9066659
11
11.6768169
21
41.5046659
0
LINE
8
DEFAULT_255_2_778
10
11.6768169
20
41.5046659
11
12.2237169
21
41.5046659
0
LINE
8
DEFAULT_255_2_778
10
12.2237169
20
41.5046659
11
12.2237169
21
42.3473659
0
LINE
8
DEFAULT_255_2_778
10
12.2237169
20
42.3473659
11
12.2237169
21
42.3473659
0
LINE
8
DEFAULT_255_2_778
10
12.5857169
20
42.4306659
11
12.5857169
21
42.4306659
0
LINE
8
DEFAULT_255_2_778
10
12.5857169
20
42.4306659
11
12.5857169
21
41.5043659
0
LINE
8
DEFAULT_255_2_778
10
12.5857169
20
41.5043659
11
13.1326169
21
41.5043659
0
LINE
8
DEFAULT_255_2_778
10
13.1326169
20
41.5043659
11
13.1326169
21
42.4140659
0
LINE
8
DEFAULT_255_2_778
10
13.1326169
20
42.4140659
11
13.1326169
21
42.4140659
0
LINE
8
DEFAULT_255_2_778
10
12.2642169
20
42.7727659
11
12.2642169
21
42.7727659
0
LINE
8
DEFAULT_255_2_778
10
12.2642169
20
42.7727659
11
12.2642169
21
42.7727659
0
LINE
8
DEFAULT_255_2_778
10
12.2642169
20
42.7727659
11
12.2642169
21
42.7727659
0
LINE
8
DEFAULT_255_2_778
10
12.2642169
20
42.7727659
11
12.2645169
21
42.7730659
0
LINE
8
DEFAULT_255_2_778
10
17.8816169
20
42.0928659
11
17.6265169
21
42.9064659
0
LINE
8
DEFAULT_255_2_778
10
17.6265169
20
42.9064659
11
17.2532169
21
42.9064659
0
LINE
8
DEFAULT_255_2_778
10
17.2532169
20
42.9064659
11
16.9981169
21
42.0594659
0
LINE
8
DEFAULT_255_2_778
10
16.9981169
20
42.0594659
11
16.7322169
21
42.9064659
0
LINE
8
DEFAULT_255_2_778
10
16.7322169
20
42.9064659
11
16.2113169
21
42.9064659
0
LINE
8
DEFAULT_255_2_778
10
16.2113169
20
42.9064659
11
16.2076169
21
42.9064659
0
LINE
8
DEFAULT_255_2_778
10
16.2076169
20
42.9064659
11
16.0007169
21
42.9064659
0
LINE
8
DEFAULT_255_2_778
10
16.0007169
20
42.9064659
11
15.7382169
21
42.1930659
0
LINE
8
DEFAULT_255_2_778
10
15.7382169
20
42.1930659
11
15.3688169
21
42.9064659
0
LINE
8
DEFAULT_255_2_778
10
15.3688169
20
42.9064659
11
14.7441169
21
42.9064659
0
LINE
8
DEFAULT_255_2_778
10
14.7441169
20
42.9064659
11
15.4794169
21
41.4877659
0
LINE
8
DEFAULT_255_2_778
10
15.4794169
20
41.4877659
11
15.3834169
21
41.2207659
0
LINE
8
DEFAULT_255_2_778
10
15.3834169
20
41.2207659
11
15.3834169
21
41.2207659
0
LINE
8
DEFAULT_255_2_778
10
15.6014169
20
41.2413659
11
15.6014169
21
41.2413659
0
LINE
8
DEFAULT_255_2_778
10
15.6014169
20
41.2413659
11
16.2091169
21
42.9005659
0
LINE
8
DEFAULT_255_2_778
10
16.2091169
20
42.9005659
11
16.6473169
21
41.5041659
0
LINE
8
DEFAULT_255_2_778
10
16.6473169
20
41.5041659
11
17.0463169
21
41.5041659
0
LINE
8
DEFAULT_255_2_778
10
17.0463169
20
41.5041659
11
17.2902169
21
42.3095659
0
LINE
8
DEFAULT_255_2_778
10
17.2902169
20
42.3095659
11
17.5416169
21
41.5041659
0
LINE
8
DEFAULT_255_2_778
10
17.5416169
20
41.5041659
11
17.9186169
21
41.5041659
0
LINE
8
DEFAULT_255_2_778
10
17.9186169
20
41.5041659
11
18.3435169
21
42.9061659
0
LINE
8
DEFAULT_255_2_778
10
18.3435169
20
42.9061659
11
18.1255169
21
42.9061659
0
LINE
8
DEFAULT_255_2_778
10
18.1255169
20
42.9061659
11
17.8816169
21
42.0925659
0
LINE
8
DEFAULT_255_2_778
10
17.8816169
20
42.0925659
11
17.8816169
21
42.0925659
0
LINE
8
DEFAULT_255_2_778
10
17.8816169
20
42.0925659
11
17.8816169
21
42.0925659
0
LINE
8
DEFAULT_255_2_778
10
17.8816169
20
42.0925659
11
17.8816169
21
42.0928659
0
LINE
8
DEFAULT_255_2_778
10
10.7495169
20
42.9775659
11
10.7495169
21
42.9775659
0
LINE
8
DEFAULT_255_2_778
10
10.7495169
20
42.9775659
11
10.7495169
21
42.9775659
0
LINE
8
DEFAULT_255_2_778
10
10.7495169
20
42.9775659
11
10.7495169
21
42.9775659
0
LINE
8
DEFAULT_255_2_778
10
10.7495169
20
42.9775659
11
10.7495169
21
42.9775659
0
LINE
8
DEFAULT_255_2_778
10
10.5611169
20
41.8258659
11
10.5611169
21
41.8258659
0
LINE
8
DEFAULT_255_2_778
10
10.5611169
20
41.8258659
11
10.5611169
21
42.5600659
0
LINE
8
DEFAULT_255_2_778
10
10.5611169
20
42.5600659
11
10.5611169
21
42.5600659
0
LINE
8
DEFAULT_255_2_778
10
10.9381169
20
42.5600659
11
10.9381169
21
42.5600659
0
LINE
8
DEFAULT_255_2_778
10
10.9381169
20
42.5600659
11
10.9381169
21
41.8258659
0
LINE
8
DEFAULT_255_2_778
10
10.9381169
20
41.8258659
11
10.9381169
21
41.8258659
0
LINE
8
DEFAULT_255_2_778
10
10.9381169
20
41.8258659
11
10.9381169
21
41.8258659
0
LINE
8
DEFAULT_255_2_778
10
10.9381169
20
41.8258659
11
10.9381169
21
41.8258659
0
LINE
8
DEFAULT_255_2_778
10
14.7190169
20
41.8184659
11
14.7190169
21
41.8184659
0
LINE
8
DEFAULT_255_2_778
10
14.7190169
20
41.8184659
11
14.5515169
21
41.8882659
0
LINE
8
DEFAULT_255_2_778
10
14.5515169
20
41.8882659
11
14.5515169
21
41.8882659
0
LINE
8
DEFAULT_255_2_778
10
13.8641169
20
41.8255659
11
13.8641169
21
41.8255659
0
LINE
8
DEFAULT_255_2_778
10
13.8641169
20
41.8255659
11
13.8641169
21
42.0801659
0
LINE
8
DEFAULT_255_2_778
10
13.8641169
20
42.0801659
11
14.8042169
21
42.0801659
0
LINE
8
DEFAULT_255_2_778
10
14.8042169
20
42.0801659
11
14.8042169
21
42.0801659
0
LINE
8
DEFAULT_255_2_778
10
14.8042169
20
42.0801659
11
14.8042169
21
42.0801659
0
LINE
8
DEFAULT_255_2_778
10
14.8042169
20
42.0801659
11
14.8047169
21
42.0801659
0
LINE
8
DEFAULT_255_2_778
10
14.2417169
20
42.5600659
11
14.2417169
21
42.5600659
0
LINE
8
DEFAULT_255_2_778
10
14.2417169
20
42.5600659
11
14.2417169
21
42.2804659
0
LINE
8
DEFAULT_255_2_778
10
14.2417169
20
42.2804659
11
13.8647169
21
42.2804659
0
LINE
8
DEFAULT_255_2_778
10
13.8647169
20
42.2804659
11
13.8647169
21
42.5600659
0
LINE
8
DEFAULT_255_2_778
10
13.8647169
20
42.5600659
11
13.8647169
21
42.5600659
0
LINE
8
DEFAULT_255_2_778
10
13.8647169
20
42.5600659
11
13.8647169
21
42.5600659
0
LINE
8
DEFAULT_255_2_778
10
13.8647169
20
42.5600659
11
13.8647169
21
42.5600659
0
LINE
8
DEFAULT_255_2_778
10
19.7818169
20
41.8184659
11
19.7818169
21
41.8184659
0
LINE
8
DEFAULT_255_2_778
10
19.7818169
20
41.8184659
11
19.6143169
21
41.8882659
0
LINE
8
DEFAULT_255_2_778
10
19.6143169
20
41.8882659
11
19.6143169
21
41.8882659
0
LINE
8
DEFAULT_255_2_778
10
18.9272169
20
41.8255659
11
18.9272169
21
41.8255659
0
LINE
8
DEFAULT_255_2_778
10
18.9272169
20
41.8255659
11
18.9272169
21
42.0801659
0
LINE
8
DEFAULT_255_2_778
10
18.9272169
20
42.0801659
11
19.8673169
21
42.0801659
0
LINE
8
DEFAULT_255_2_778
10
19.8673169
20
42.0801659
11
19.8673169
21
42.0801659
0
LINE
8
DEFAULT_255_2_778
10
19.8673169
20
42.0801659
11
19.8673169
21
42.0801659
0
LINE
8
DEFAULT_255_2_778
10
19.8673169
20
42.0801659
11
19.8673169
21
42.0801659
0
LINE
8
DEFAULT_255_2_778
10
19.3042169
20
42.5598659
11
19.3042169
21
42.5598659
0
LINE
8
DEFAULT_255_2_778
10
19.3042169
20
42.5598659
11
19.3042169
21
42.2804659
0
LINE
8
DEFAULT_255_2_778
10
19.3042169
20
42.2804659
11
18.9272169
21
42.2804659
0
LINE
8
DEFAULT_255_2_778
10
18.9272169
20
42.2804659
11
18.9272169
21
42.5600659
0
LINE
8
DEFAULT_255_2_778
10
18.9272169
20
42.5600659
11
18.9272169
21
42.5600659
0
LINE
8
DEFAULT_255_2_778
10
18.9272169
20
42.5600659
11
18.9272169
21
42.5600659
0
LINE
8
DEFAULT_255_2_778
10
18.9272169
20
42.5600659
11
18.9272169
21
42.5598659
0
LINE
8
DEFAULT_255_1_234
10
9.7166364
20
39.5441211
11
9.9158235
21
39.5441211
0
LINE
8
DEFAULT_255_1_234
10
9.9158235
20
39.5441211
11
10.2981342
21
38.5899506
0
LINE
8
DEFAULT_255_1_234
10
10.2981342
20
38.5899506
11
10.680445
21
39.5441211
0
LINE
8
DEFAULT_255_1_234
10
10.680445
20
39.5441211
11
10.8804353
21
39.5441211
0
LINE
8
DEFAULT_255_1_234
10
10.8804353
20
39.5441211
11
10.8804353
21
38.3747
0
LINE
8
DEFAULT_255_1_234
10
10.8804353
20
38.3747
11
10.7262259
21
38.3747
0
LINE
8
DEFAULT_255_1_234
10
10.7262259
20
38.3747
11
10.7262259
21
38.8300996
0
LINE
8
DEFAULT_255_1_234
10
10.7262259
20
38.8300996
11
10.740683
21
39.3216419
0
LINE
8
DEFAULT_255_1_234
10
10.740683
20
39.3216419
11
10.3567659
21
38.3747
0
LINE
8
DEFAULT_255_1_234
10
10.3567659
20
38.3747
11
10.2386994
21
38.3747
0
LINE
8
DEFAULT_255_1_234
10
10.2386994
20
38.3747
11
9.8555854
21
39.3192324
0
LINE
8
DEFAULT_255_1_234
10
9.8555854
20
39.3192324
11
9.8708458
21
38.8300996
0
LINE
8
DEFAULT_255_1_234
10
9.8708458
20
38.8300996
11
9.8708458
21
38.3747
0
LINE
8
DEFAULT_255_1_234
10
9.8708458
20
38.3747
11
9.7166364
21
38.3747
0
LINE
8
DEFAULT_255_1_234
10
9.7166364
20
38.3747
11
9.7166364
21
39.5441211
0
LINE
8
DEFAULT_255_1_234
10
11.821755
20
38.3747
11
11.6659393
21
38.3747
0
LINE
8
DEFAULT_255_1_234
10
11.4980759
20
38.901582
11
11.6426472
21
38.901582
0
LINE
8
DEFAULT_255_1_234
10
11.6426472
20
38.901582
11
11.6426472
21
38.9698518
0
LINE
8
DEFAULT_255_1_234
10
11.2715809
20
39.0027819
11
11.1221906
21
39.0027819
0
LINE
8
DEFAULT_255_1_234
10
11.7912344
20
38.9778835
11
11.7912344
21
38.577903
0
LINE
8
DEFAULT_255_1_234
10
11.821755
20
38.3875508
11
11.821755
21
38.3747
0
LINE
8
DEFAULT_255_1_234
10
11.6426472
20
38.6180617
11
11.6426472
21
38.7963663
0
LINE
8
DEFAULT_255_1_234
10
11.6426472
20
38.7963663
11
11.526187
21
38.7963663
0
ARC
8
DEFAULT_255_1_234
10
11.7698931
20
38.4251194
40
0.1155358
50
197.0791116
51
205.8741701
0
ARC
8
DEFAULT_255_1_234
10
11.893753
20
38.4643654
40
0.2454626
50
192.2918602
51
197.3448991
0
ARC
8
DEFAULT_255_1_234
10
12.0890979
20
38.5077663
40
0.4455697
50
189.1576348
51
192.3971359
0
ARC
8
DEFAULT_255_1_234
10
12.370526
20
38.5536549
40
0.7307142
50
186.8689952
51
189.1979448
0
ARC
8
DEFAULT_255_1_234
10
11.3876414
20
38.7083258
40
0.353352
50
294.0080019
51
316.7604136
0
ARC
8
DEFAULT_255_1_234
10
11.4005478
20
38.6901572
40
0.3315331
50
269.5042461
51
293.2479736
0
ARC
8
DEFAULT_255_1_234
10
11.3945963
20
38.7302491
40
0.3716254
50
255.403374
51
270.4753162
0
ARC
8
DEFAULT_255_1_234
10
11.3715935
20
38.6409825
40
0.2794431
50
228.6140946
51
255.354999
0
ARC
8
DEFAULT_255_1_234
10
11.3383459
20
38.6091491
40
0.2336109
50
181.8953303
51
229.5703879
0
ARC
8
DEFAULT_255_1_234
10
11.3974964
20
38.6155708
40
0.2929755
50
179.984097
51
182.7679515
0
ARC
8
DEFAULT_255_1_234
10
11.3891906
20
38.6190413
40
0.28469
50
161.0341165
51
180.6820968
0
ARC
8
DEFAULT_255_1_234
10
11.3452452
20
38.6304729
40
0.2394402
50
125.0523775
51
160.2033967
0
ARC
8
DEFAULT_255_1_234
10
11.4114461
20
38.5401431
40
0.3514152
50
106.2671988
51
125.4298572
0
ARC
8
DEFAULT_255_1_234
10
11.4686917
20
38.3530842
40
0.5470269
50
95.4857064
51
106.534858
0
ARC
8
DEFAULT_255_1_234
10
11.4960071
20
38.1031758
40
0.7984089
50
89.8515322
51
95.7224983
0
ARC
8
DEFAULT_255_1_234
10
11.4320666
20
38.9716759
40
0.2105886
50
359.503704
51
14.3184734
0
ARC
8
DEFAULT_255_1_234
10
11.489479
20
38.9866017
40
0.1512684
50
14.2187004
51
45.2025693
0
ARC
8
DEFAULT_255_1_234
10
11.4930986
20
38.9880251
40
0.1477163
50
45.8098026
51
73.0032427
0
ARC
8
DEFAULT_255_1_234
10
11.4681954
20
38.9118896
40
0.2278113
50
72.610967
51
85.7232876
0
ARC
8
DEFAULT_255_1_234
10
11.4591948
20
38.8205569
40
0.3195681
50
85.3352114
51
90.0850615
0
ARC
8
DEFAULT_255_1_234
10
11.4568351
20
38.8796391
40
0.2604924
50
89.5853149
51
103.4592217
0
ARC
8
DEFAULT_255_1_234
10
11.4415954
20
38.9431597
40
0.1951693
50
103.44851
51
126.5404292
0
ARC
8
DEFAULT_255_1_234
10
11.4176834
20
38.973743
40
0.1563639
50
126.1729825
51
141.5004088
0
ARC
8
DEFAULT_255_1_234
10
11.3798435
20
39.0034385
40
0.1082645
50
141.3333588
51
180.3474677
0
ARC
8
DEFAULT_255_1_234
10
11.3124145
20
39.0017174
40
0.1902269
50
151.6374668
51
179.6793754
0
ARC
8
DEFAULT_255_1_234
10
11.3726387
20
38.9717334
40
0.2574753
50
142.4988163
51
152.1325379
0
ARC
8
DEFAULT_255_1_234
10
11.4044347
20
38.9467735
40
0.2978957
50
120.8284787
51
142.4132259
0
ARC
8
DEFAULT_255_1_234
10
11.4460456
20
38.8816301
40
0.3751664
50
113.9638113
51
121.1869885
0
ARC
8
DEFAULT_255_1_234
10
11.4596608
20
38.8484544
40
0.4110136
50
93.3784663
51
113.8198047
0
ARC
8
DEFAULT_255_1_234
10
11.467339
20
38.7719446
40
0.487853
50
89.9745882
51
93.7491274
0
ARC
8
DEFAULT_255_1_234
10
11.4708276
20
38.7755605
40
0.4842481
50
79.1325877
51
90.3871757
0
ARC
8
DEFAULT_255_1_234
10
11.5033396
20
38.9380435
40
0.3185522
50
60.1435559
51
79.3654871
0
ARC
8
DEFAULT_255_1_234
10
11.5290085
20
38.987343
40
0.2630271
50
48.6192091
51
59.646742
0
ARC
8
DEFAULT_255_1_234
10
11.5337823
20
38.9936691
40
0.2551253
50
9.0349315
51
48.4844544
0
ARC
8
DEFAULT_255_1_234
10
11.4261667
20
38.9701793
40
0.3651489
50
1.2089744
51
10.0233366
0
ARC
8
DEFAULT_255_1_234
10
12.5548412
20
38.5754518
40
0.7636108
50
179.8160804
51
185.3206488
0
ARC
8
DEFAULT_255_1_234
10
12.2852894
20
38.5497155
40
0.4928344
50
185.2474014
51
192.7953707
0
ARC
8
DEFAULT_255_1_234
10
12.1091151
20
38.5092824
40
0.3120807
50
192.7197759
51
202.9585048
0
ARC
8
DEFAULT_255_1_234
10
11.4193334
20
38.7490928
40
0.2611453
50
270.0069004
51
300.5035019
0
ARC
8
DEFAULT_255_1_234
10
11.4315942
20
38.7362927
40
0.2439274
50
299.5482464
51
315.6095048
0
ARC
8
DEFAULT_255_1_234
10
11.4606039
20
38.7066155
40
0.2024389
50
315.868035
51
334.0596869
0
ARC
8
DEFAULT_255_1_234
10
11.5218399
20
38.0989943
40
0.6973855
50
89.6428514
51
97.2870891
0
ARC
8
DEFAULT_255_1_234
10
11.4777162
20
38.4293571
40
0.3640992
50
96.9938028
51
109.7781797
0
ARC
8
DEFAULT_255_1_234
10
11.4111787
20
38.6074891
40
0.1739759
50
109.0087453
51
135.326626
0
ARC
8
DEFAULT_255_1_234
10
11.3838392
20
38.6413473
40
0.1308198
50
137.4539381
51
182.1082805
0
ARC
8
DEFAULT_255_1_234
10
11.4212382
20
38.6348893
40
0.1681384
50
179.4392907
51
195.7200177
0
ARC
8
DEFAULT_255_1_234
10
11.380081
20
38.6236426
40
0.1254738
50
195.8684065
51
230.1572205
0
ARC
8
DEFAULT_255_1_234
10
11.4043237
20
38.6526769
40
0.1632985
50
230.1530708
51
259.7485588
0
ARC
8
DEFAULT_255_1_234
10
11.4181941
20
38.7180386
40
0.230094
50
259.2463819
51
270.291543
0
LINE
8
DEFAULT_255_1_234
10
12.6707097
20
38.9883248
11
12.5213194
21
38.9883248
0
LINE
8
DEFAULT_255_1_234
10
11.988012
20
38.6421569
11
12.1365991
21
38.6421569
0
ARC
8
DEFAULT_255_1_234
10
12.4025012
20
38.6066959
40
0.1276617
50
359.3334982
51
18.5871358
0
ARC
8
DEFAULT_255_1_234
10
12.423365
20
38.6122133
40
0.1061371
50
19.3540742
51
54.6485071
0
ARC
8
DEFAULT_255_1_234
10
12.3729552
20
38.5426919
40
0.1920087
50
54.3827097
51
65.0622807
0
ARC
8
DEFAULT_255_1_234
10
12.2960948
20
38.38099
40
0.3710447
50
64.8282493
51
71.4200025
0
ARC
8
DEFAULT_255_1_234
10
12.2058823
20
38.1163107
40
0.6506741
50
71.3164301
51
75.8006402
0
ARC
8
DEFAULT_255_1_234
10
12.1217643
20
37.7922561
40
0.9854641
50
75.6809531
51
78.0061883
0
ARC
8
DEFAULT_255_1_234
10
12.5666177
20
39.890177
40
1.1591028
50
254.6901892
51
258.0466452
0
ARC
8
DEFAULT_255_1_234
10
12.4628085
20
39.5142781
40
0.7691345
50
249.9010773
51
254.755261
0
ARC
8
DEFAULT_255_1_234
10
12.3624427
20
39.2416982
40
0.478665
50
243.3097214
51
249.9709442
0
ARC
8
DEFAULT_255_1_234
10
12.2995448
20
39.1162778
40
0.3383568
50
234.4047477
51
243.2862168
0
ARC
8
DEFAULT_255_1_234
10
12.2372972
20
39.0303232
40
0.2322322
50
220.8667099
51
234.5493881
0
ARC
8
DEFAULT_255_1_234
10
12.2030913
20
38.9991817
40
0.1859923
50
214.3062465
51
220.5065136
0
ARC
8
DEFAULT_255_1_234
10
12.2004992
20
38.996088
40
0.1821108
50
186.912965
51
213.9618616
0
ARC
8
DEFAULT_255_1_234
10
12.2537087
20
39.0047009
40
0.2359799
50
179.8808832
51
187.4339886
0
ARC
8
DEFAULT_255_1_234
10
12.238222
20
39.0067088
40
0.2204978
50
132.005434
51
180.3942919
0
ARC
8
DEFAULT_255_1_234
10
12.3038834
20
38.9461083
40
0.3095791
50
129.2319861
51
133.5302299
0
ARC
8
DEFAULT_255_1_234
10
12.3092342
20
38.9366928
40
0.3202615
50
100.4410011
51
128.9081242
0
ARC
8
DEFAULT_255_1_234
10
12.3366225
20
38.8081455
40
0.4516583
50
89.6985377
51
100.9026564
0
ARC
8
DEFAULT_255_1_234
10
12.3423267
20
38.7921166
40
0.4676928
50
77.6965325
51
90.4076836
0
ARC
8
DEFAULT_255_1_234
10
12.3754252
20
38.9348413
40
0.3211988
50
50.7276602
51
78.0399361
0
ARC
8
DEFAULT_255_1_234
10
12.419871
20
38.9866296
40
0.2529778
50
25.7545084
51
51.0957453
0
ARC
8
DEFAULT_255_1_234
10
12.4199935
20
38.9916206
40
0.250738
50
359.2468627
51
24.7394243
0
ARC
8
DEFAULT_255_1_234
10
12.3915387
20
38.9887664
40
0.1297815
50
359.8050318
51
45.1544908
0
ARC
8
DEFAULT_255_1_234
10
12.3508528
20
38.9539794
40
0.1831883
50
43.8047702
51
49.6271585
0
ARC
8
DEFAULT_255_1_234
10
12.351643
20
38.9540678
40
0.18261
50
49.7980766
51
82.1218353
0
ARC
8
DEFAULT_255_1_234
10
12.3397402
20
38.8893998
40
0.2483163
50
81.4465357
51
90.1710293
0
ARC
8
DEFAULT_255_1_234
10
12.3373005
20
38.836788
40
0.300932
50
89.6766211
51
99.1264602
0
ARC
8
DEFAULT_255_1_234
10
12.3201466
20
38.9401537
40
0.1961547
50
98.968313
51
113.4570237
0
ARC
8
DEFAULT_255_1_234
10
12.3005551
20
38.9869965
40
0.1453859
50
113.722589
51
127.4763106
0
ARC
8
DEFAULT_255_1_234
10
12.2837198
20
39.0070124
40
0.1192639
50
126.9083309
51
150.3165862
0
ARC
8
DEFAULT_255_1_234
10
12.278953
20
39.0120981
40
0.112623
50
151.3635175
51
180.0701457
0
ARC
8
DEFAULT_255_1_234
10
12.3098315
20
39.009999
40
0.1435149
50
179.2169974
51
179.9954013
0
ARC
8
DEFAULT_255_1_234
10
12.2737372
20
39.0087056
40
0.1074286
50
179.3040112
51
198.4225446
0
ARC
8
DEFAULT_255_1_234
10
12.2545506
20
39.0037127
40
0.0876573
50
199.2895851
51
238.6034594
0
ARC
8
DEFAULT_255_1_234
10
12.3148352
20
39.098345
40
0.1998512
50
237.9846301
51
246.8744712
0
ARC
8
DEFAULT_255_1_234
10
12.4006297
20
39.2946205
40
0.4140547
50
246.6234531
51
251.8168941
0
ARC
8
DEFAULT_255_1_234
10
12.5036841
20
39.6040905
40
0.7402308
50
251.713434
51
255.0778414
0
ARC
8
DEFAULT_255_1_234
10
12.6236104
20
40.0507563
40
1.2027155
50
255.0367487
51
257.4705983
0
ARC
8
DEFAULT_255_1_234
10
12.1128113
20
37.7493863
40
1.1546601
50
73.6837552
51
77.5016755
0
ARC
8
DEFAULT_255_1_234
10
12.2216888
20
38.1193581
40
0.7690009
50
68.7044154
51
73.7249639
0
ARC
8
DEFAULT_255_1_234
10
12.3119909
20
38.3520654
40
0.5193873
50
63.590599
51
68.6626804
0
ARC
8
DEFAULT_255_1_234
10
12.3890928
20
38.5058123
40
0.3473927
50
54.7106439
51
63.7013633
0
ARC
8
DEFAULT_255_1_234
10
12.4515382
20
38.59304
40
0.2401192
50
41.0622434
51
54.8487496
0
ARC
8
DEFAULT_255_1_234
10
12.4856769
20
38.6243592
40
0.1938094
50
34.4950568
51
40.7105546
0
ARC
8
DEFAULT_255_1_234
10
12.4903576
20
38.6292078
40
0.1872106
50
9.3763373
51
34.0833615
0
ARC
8
DEFAULT_255_1_234
10
12.4250447
20
38.6166728
40
0.2536988
50
359.7694872
51
9.7663171
0
ARC
8
DEFAULT_255_1_234
10
12.4447947
20
38.6123764
40
0.2339696
50
335.8654732
51
0.8022045
0
ARC
8
DEFAULT_255_1_234
10
12.4522992
20
38.6137197
40
0.2277108
50
307.7357725
51
334.7849066
0
ARC
8
DEFAULT_255_1_234
10
12.4122168
20
38.6587645
40
0.2878951
50
307.0241536
51
308.5578354
0
ARC
8
DEFAULT_255_1_234
10
12.3864499
20
38.6973801
40
0.3342515
50
282.9362969
51
306.5646424
0
ARC
8
DEFAULT_255_1_234
10
12.3502796
20
38.8441108
40
0.4853615
50
271.1026298
51
283.2200835
0
ARC
8
DEFAULT_255_1_234
10
12.343904
20
38.9682418
40
0.6096052
50
269.9919117
51
271.4772449
0
ARC
8
DEFAULT_255_1_234
10
12.3412795
20
38.8604436
40
0.5018135
50
259.0723564
51
270.289833
0
ARC
8
DEFAULT_255_1_234
10
12.3200528
20
38.7487271
40
0.388099
50
245.4963068
51
259.0227342
0
ARC
8
DEFAULT_255_1_234
10
12.2922484
20
38.6905615
40
0.3236422
50
228.9684658
51
245.7044727
0
ARC
8
DEFAULT_255_1_234
10
12.2656928
20
38.6578575
40
0.2815426
50
214.4011705
51
228.6759915
0
ARC
8
DEFAULT_255_1_234
10
12.2367668
20
38.642029
40
0.2487548
50
179.9705531
51
215.1572795
0
ARC
8
DEFAULT_255_1_234
10
12.3068268
20
38.6493806
40
0.1703809
50
182.4299387
51
203.0329699
0
ARC
8
DEFAULT_255_1_234
10
12.2883926
20
38.6437396
40
0.1512226
50
203.798802
51
232.548466
0
ARC
8
DEFAULT_255_1_234
10
12.3160447
20
38.6788826
40
0.1959374
50
232.3782728
51
256.3934612
0
ARC
8
DEFAULT_255_1_234
10
12.3390809
20
38.7678842
40
0.2878639
50
256.104506
51
268.4626716
0
ARC
8
DEFAULT_255_1_234
10
12.3437293
20
38.8475487
40
0.3676329
50
268.0715632
51
270.0138206
0
ARC
8
DEFAULT_255_1_234
10
12.3455818
20
38.8203083
40
0.3403971
50
269.7031147
51
278.8341955
0
ARC
8
DEFAULT_255_1_234
10
12.3637911
20
38.7072876
40
0.2259217
50
278.6728789
51
292.8232582
0
ARC
8
DEFAULT_255_1_234
10
12.3838449
20
38.6571449
40
0.171929
50
293.1452328
51
303.6655899
0
ARC
8
DEFAULT_255_1_234
10
12.4103328
20
38.6195204
40
0.1259367
50
303.1248165
51
321.742847
0
ARC
8
DEFAULT_255_1_234
10
12.4289208
20
38.6032156
40
0.1012531
50
322.4748573
51
1.1291126
0
LINE
8
DEFAULT_255_1_234
10
12.9253158
20
39.4541656
11
13.073903
21
39.4541656
0
LINE
8
DEFAULT_255_1_234
10
13.073903
20
39.4541656
11
13.073903
21
39.2437341
0
LINE
8
DEFAULT_255_1_234
10
13.073903
20
39.2437341
11
13.2361441
21
39.2437341
0
LINE
8
DEFAULT_255_1_234
10
13.2361441
20
39.2437341
11
13.2361441
21
39.1288802
0
LINE
8
DEFAULT_255_1_234
10
13.2361441
20
39.1288802
11
13.073903
21
39.1288802
0
LINE
8
DEFAULT_255_1_234
10
13.073903
20
39.1288802
11
13.073903
21
38.5899506
0
LINE
8
DEFAULT_255_1_234
10
13.24016
20
38.4951761
11
13.24016
21
38.3747
0
LINE
8
DEFAULT_255_1_234
10
12.9253158
20
38.5899506
11
12.9253158
21
39.1288802
0
LINE
8
DEFAULT_255_1_234
10
12.9253158
20
39.1288802
11
12.7670906
21
39.1288802
0
LINE
8
DEFAULT_255_1_234
10
12.7670906
20
39.1288802
11
12.7670906
21
39.2437341
0
LINE
8
DEFAULT_255_1_234
10
12.7670906
20
39.2437341
11
12.9253158
21
39.2437341
0
LINE
8
DEFAULT_255_1_234
10
12.9253158
20
39.2437341
11
12.9253158
21
39.4541656
0
ARC
8
DEFAULT_255_1_234
10
13.2746533
20
38.5889084
40
0.200753
50
179.7025659
51
187.917967
0
ARC
8
DEFAULT_255_1_234
10
13.2000559
20
38.5781724
40
0.1253883
50
187.7545981
51
200.2447476
0
ARC
8
DEFAULT_255_1_234
10
13.157988
20
38.5624859
40
0.0804913
50
200.130383
51
219.174133
0
ARC
8
DEFAULT_255_1_234
10
13.1444056
20
38.5532515
40
0.0641445
50
220.4434483
51
249.6172
0
ARC
8
DEFAULT_255_1_234
10
13.1598907
20
38.5921968
40
0.1060489
50
249.1032952
51
262.775154
0
ARC
8
DEFAULT_255_1_234
10
13.1687079
20
38.6550715
40
0.1695354
50
262.4913187
51
270.2611758
0
ARC
8
DEFAULT_255_1_234
10
13.1684496
20
38.6766103
40
0.191075
50
270.3091804
51
275.6625139
0
ARC
8
DEFAULT_255_1_234
10
13.154172
20
38.8267435
40
0.3418851
50
275.5610264
51
279.0879356
0
ARC
8
DEFAULT_255_1_234
10
13.1211598
20
39.0362699
40
0.5539959
50
279.0365489
51
281.5011378
0
ARC
8
DEFAULT_255_1_234
10
13.0854674
20
39.2166423
40
0.7378639
50
281.4243939
51
282.1017894
0
ARC
8
DEFAULT_255_1_234
10
13.1197921
20
38.8084858
40
0.4501761
50
275.2597045
51
285.5083879
0
ARC
8
DEFAULT_255_1_234
10
13.1259246
20
38.7528606
40
0.3942242
50
270.0268409
51
275.1132796
0
ARC
8
DEFAULT_255_1_234
10
13.1239211
20
38.6201614
40
0.261534
50
257.3573315
51
270.479383
0
ARC
8
DEFAULT_255_1_234
10
13.1026102
20
38.5303406
40
0.1692304
50
230.8037497
51
257.741658
0
ARC
8
DEFAULT_255_1_234
10
13.0958005
20
38.5193777
40
0.1564393
50
219.974146
51
230.1990686
0
ARC
8
DEFAULT_255_1_234
10
13.1289952
20
38.5447579
40
0.1981916
50
196.5084186
51
219.4318458
0
ARC
8
DEFAULT_255_1_234
10
13.2305397
20
38.5766194
40
0.3046086
50
184.6404872
51
196.8269686
0
ARC
8
DEFAULT_255_1_234
10
13.3550461
20
38.5891908
40
0.4297309
50
179.8986958
51
184.9681077
0
LINE
8
DEFAULT_255_1_234
10
13.3718805
20
38.7851218
11
13.3718805
21
38.8124297
0
LINE
8
DEFAULT_255_1_234
10
14.109194
20
38.8284932
11
14.109194
21
38.7666488
0
LINE
8
DEFAULT_255_1_234
10
14.109194
20
38.7666488
11
13.5204676
21
38.7666488
0
LINE
8
DEFAULT_255_1_234
10
14.007191
20
38.5971792
11
14.0979496
21
38.5264999
0
LINE
8
DEFAULT_255_1_234
10
13.5252867
20
38.8887313
11
13.9606069
21
38.8887313
0
LINE
8
DEFAULT_255_1_234
10
13.9606069
20
38.8887313
11
13.9606069
21
38.8999757
0
ARC
8
DEFAULT_255_1_234
10
13.765817
20
38.7962332
40
0.4376191
50
252.3266134
51
270.5810217
0
ARC
8
DEFAULT_255_1_234
10
13.7453259
20
38.7221644
40
0.3608374
50
223.3000567
51
251.8561855
0
ARC
8
DEFAULT_255_1_234
10
13.7664619
20
38.7426937
40
0.3902993
50
190.9374509
51
223.3654032
0
ARC
8
DEFAULT_255_1_234
10
13.9389592
20
38.7816885
40
0.5670891
50
179.6531105
51
191.4989439
0
ARC
8
DEFAULT_255_1_234
10
13.9511604
20
38.8156417
40
0.5792888
50
167.4007466
51
180.3176909
0
ARC
8
DEFAULT_255_1_234
10
13.8459666
20
38.8378885
40
0.471777
50
154.1835823
51
167.250763
0
ARC
8
DEFAULT_255_1_234
10
13.7828133
20
38.8711417
40
0.4004528
50
134.3149965
51
154.5315275
0
ARC
8
DEFAULT_255_1_234
10
13.7610628
20
38.8902228
40
0.371612
50
122.8616532
51
133.9707695
0
ARC
8
DEFAULT_255_1_234
10
13.7507202
20
38.9124703
40
0.3473289
50
89.8249009
51
123.4199222
0
ARC
8
DEFAULT_255_1_234
10
13.7557243
20
38.8477967
40
0.4120197
50
74.7876118
51
90.5482747
0
ARC
8
DEFAULT_255_1_234
10
13.7850987
20
38.956303
40
0.2996077
50
39.8178249
51
74.7633718
0
ARC
8
DEFAULT_255_1_234
10
13.7338307
20
38.9163351
40
0.3645855
50
16.8990863
51
39.4829761
0
ARC
8
DEFAULT_255_1_234
10
13.5443603
20
38.8556526
40
0.5635218
50
4.9636328
51
17.2026414
0
ARC
8
DEFAULT_255_1_234
10
13.3025673
20
38.830134
40
0.8066286
50
359.8834553
51
5.2834307
0
ARC
8
DEFAULT_255_1_234
10
13.9063198
20
38.7732803
40
0.3859091
50
180.9846213
51
194.9401313
0
ARC
8
DEFAULT_255_1_234
10
13.8013476
20
38.7445849
40
0.2770883
50
194.80314
51
222.0412631
0
ARC
8
DEFAULT_255_1_234
10
13.7709357
20
38.7144116
40
0.2343055
50
221.5417084
51
268.8614402
0
ARC
8
DEFAULT_255_1_234
10
13.7782352
20
38.7820686
40
0.3021528
50
267.732405
51
270.0097136
0
ARC
8
DEFAULT_255_1_234
10
13.7800162
20
38.8022105
40
0.3222994
50
269.6924892
51
280.4117579
0
ARC
8
DEFAULT_255_1_234
10
13.7976569
20
38.7103193
40
0.2287344
50
280.2255091
51
298.6338936
0
ARC
8
DEFAULT_255_1_234
10
13.8093361
20
38.6859223
40
0.2017294
50
299.0430333
51
300.4643464
0
ARC
8
DEFAULT_255_1_234
10
13.7413366
20
38.7993038
40
0.3339357
50
300.6577328
51
322.0378878
0
ARC
8
DEFAULT_255_1_234
10
13.7062905
20
38.8297021
40
0.3802736
50
321.6750233
51
322.3046845
0
ARC
8
DEFAULT_255_1_234
10
13.7993867
20
38.713037
40
0.3520454
50
276.9728461
51
328.0035423
0
ARC
8
DEFAULT_255_1_234
10
13.771692
20
38.8610841
40
0.5024498
50
269.8361028
51
278.0581756
0
ARC
8
DEFAULT_255_1_234
10
13.7489657
20
38.9355757
40
0.202159
50
89.2018686
51
117.2851756
0
ARC
8
DEFAULT_255_1_234
10
13.7542826
20
38.9313752
40
0.2083484
50
118.0551165
51
137.4540413
0
ARC
8
DEFAULT_255_1_234
10
13.7917566
20
38.8973304
40
0.2589774
50
137.5109581
51
158.8516286
0
ARC
8
DEFAULT_255_1_234
10
13.9055402
20
38.8514074
40
0.38167
50
158.5845963
51
170.1721436
0
ARC
8
DEFAULT_255_1_234
10
14.0224791
20
38.8281823
40
0.5008657
50
169.8376422
51
173.0566086
0
ARC
8
DEFAULT_255_1_234
10
13.5527865
20
38.8792509
40
0.4083467
50
2.9091802
51
12.8847116
0
ARC
8
DEFAULT_255_1_234
10
13.6898541
20
38.9115101
40
0.2675383
50
12.6957781
51
28.6404489
0
ARC
8
DEFAULT_255_1_234
10
13.7440212
20
38.9395458
40
0.2065654
50
29.0169854
51
41.1487595
0
ARC
8
DEFAULT_255_1_234
10
13.7642997
20
38.9572003
40
0.1796786
50
41.1646065
51
85.0013516
0
ARC
8
DEFAULT_255_1_234
10
13.7522094
20
38.8837431
40
0.2539726
50
83.7280015
51
90.0964893
0
LINE
8
DEFAULT_255_1_234
10
14.7011332
20
39.2485531
11
14.7011332
21
39.1104072
0
LINE
8
DEFAULT_255_1_234
10
14.4296604
20
38.9915375
11
14.4296604
21
38.3747
0
LINE
8
DEFAULT_255_1_234
10
14.4296604
20
38.3747
11
14.2810732
21
38.3747
0
LINE
8
DEFAULT_255_1_234
10
14.2810732
20
38.3747
11
14.2810732
21
39.2437341
0
LINE
8
DEFAULT_255_1_234
10
14.2810732
20
39.2437341
11
14.4256445
21
39.2437341
0
LINE
8
DEFAULT_255_1_234
10
14.4256445
20
39.2437341
11
14.4280541
21
39.1433374
0
ARC
8
DEFAULT_255_1_234
10
14.6344737
20
38.7044342
40
0.4114092
50
80.6754243
51
86.8932892
0
ARC
8
DEFAULT_255_1_234
10
14.6284271
20
38.60767
40
0.5083596
50
86.8038578
51
90.0431435
0
ARC
8
DEFAULT_255_1_234
10
14.6247252
20
38.8533866
40
0.2626638
50
89.2759698
51
106.6213787
0
ARC
8
DEFAULT_255_1_234
10
14.6042816
20
38.927683
40
0.1856317
50
107.1346045
51
157.6458115
0
ARC
8
DEFAULT_255_1_234
10
14.6734418
20
38.8893311
40
0.2643398
50
155.6586782
51
157.2539184
0
ARC
8
DEFAULT_255_1_234
10
14.652962
20
39.0062157
40
0.2634121
50
127.8165941
51
148.6302098
0
ARC
8
DEFAULT_255_1_234
10
14.6276089
20
39.0322218
40
0.2273596
50
91.3329982
51
126.7875809
0
ARC
8
DEFAULT_255_1_234
10
14.6352029
20
38.9607195
40
0.299078
50
89.986594
51
92.4688449
0
ARC
8
DEFAULT_255_1_234
10
14.6360424
20
38.9882078
40
0.2715908
50
85.3589899
51
90.1623399
0
ARC
8
DEFAULT_255_1_234
10
14.644494
20
39.0886164
40
0.1708278
50
78.401942
51
85.4594656
0
ARC
8
DEFAULT_255_1_234
10
14.6589824
20
39.1577236
40
0.1002194
50
67.7858312
51
78.5728455
0
ARC
8
DEFAULT_255_1_234
10
14.6697676
20
39.1856887
40
0.0702548
50
63.4835954
51
67.3062642
0
LINE
8
DEFAULT_255_1_234
10
15.0159773
20
39.5441211
11
15.0159773
21
38.5007983
0
LINE
8
DEFAULT_255_1_234
10
15.0159773
20
38.5007983
11
15.5701672
21
38.5007983
0
LINE
8
DEFAULT_255_1_234
10
15.5701672
20
38.5007983
11
15.5701672
21
38.3747
0
LINE
8
DEFAULT_255_1_234
10
15.5701672
20
38.3747
11
14.8609647
21
38.3747
0
LINE
8
DEFAULT_255_1_234
10
14.8609647
20
38.3747
11
14.8609647
21
39.5441211
0
LINE
8
DEFAULT_255_1_234
10
14.8609647
20
39.5441211
11
15.0159773
21
39.5441211
0
LINE
8
DEFAULT_255_1_234
10
15.6834147
20
38.8068075
11
15.6834147
21
38.8172488
0
LINE
8
DEFAULT_255_1_234
10
16.474541
20
38.8100202
11
16.474541
21
38.799579
0
ARC
8
DEFAULT_255_1_234
10
16.2420327
20
38.8204837
40
0.5586273
50
166.3003825
51
180.3317926
0
ARC
8
DEFAULT_255_1_234
10
16.1557486
20
38.8397964
40
0.4702272
50
153.8608245
51
166.0967125
0
ARC
8
DEFAULT_255_1_234
10
16.0891889
20
38.875475
40
0.3947658
50
135.1316692
51
154.253643
0
ARC
8
DEFAULT_255_1_234
10
16.0613448
20
38.9000666
40
0.3576898
50
121.7044358
51
134.776924
0
ARC
8
DEFAULT_255_1_234
10
16.0680442
20
38.8871867
40
0.3721701
50
93.4002104
51
121.5398234
0
ARC
8
DEFAULT_255_1_234
10
16.0775398
20
38.8046228
40
0.4551749
50
89.9706281
51
93.9769836
0
ARC
8
DEFAULT_255_1_234
10
16.082249
20
38.8436362
40
0.4161854
50
71.3323442
51
90.6161982
0
ARC
8
DEFAULT_255_1_234
10
16.0985186
20
38.9038578
40
0.3539455
50
41.1815071
51
70.707185
0
ARC
8
DEFAULT_255_1_234
10
16.0507586
20
38.8604919
40
0.4184468
50
12.1971897
51
41.3445735
0
ARC
8
DEFAULT_255_1_234
10
15.8581594
20
38.8146425
40
0.616399
50
359.5703439
51
12.5804035
0
ARC
8
DEFAULT_255_1_234
10
15.9054669
20
38.7964116
40
0.5690829
50
347.0197749
51
0.3188898
0
ARC
8
DEFAULT_255_1_234
10
16.0013171
20
38.7757808
40
0.4710501
50
334.3504053
51
346.846361
0
ARC
8
DEFAULT_255_1_234
10
16.0858594
20
38.7318805
40
0.3758475
50
310.422922
51
334.8045033
0
ARC
8
DEFAULT_255_1_234
10
16.094042
20
38.7254782
40
0.3656736
50
301.8486886
51
310.097356
0
ARC
8
DEFAULT_255_1_234
10
16.0908146
20
38.7330638
40
0.3738224
50
274.307774
51
301.655379
0
ARC
8
DEFAULT_255_1_234
10
16.0797453
20
38.8208361
40
0.4621997
50
269.9546461
51
274.8588071
0
ARC
8
DEFAULT_255_1_234
10
16.0748387
20
38.7707249
40
0.4121134
50
250.888809
51
270.631312
0
ARC
8
DEFAULT_255_1_234
10
16.0598307
20
38.7148277
40
0.3544073
50
221.1701932
51
250.2227191
0
ARC
8
DEFAULT_255_1_234
10
16.1082461
20
38.7589439
40
0.4198961
50
191.6263638
51
221.3526367
0
ARC
8
DEFAULT_255_1_234
10
16.2970457
20
38.8026329
40
0.6136451
50
179.610213
51
192.0693181
0
ARC
8
DEFAULT_255_1_234
10
16.3393685
20
38.7963633
40
0.5065736
50
179.636298
51
190.6162791
0
ARC
8
DEFAULT_255_1_234
10
16.1751353
20
38.764359
40
0.3392576
50
190.4136628
51
208.7170242
0
ARC
8
DEFAULT_255_1_234
10
16.1240977
20
38.7390366
40
0.2823401
50
209.1867941
51
217.4225593
0
ARC
8
DEFAULT_255_1_234
10
16.0711811
20
38.6924558
40
0.2120636
50
216.1156896
51
265.2575835
0
ARC
8
DEFAULT_255_1_234
10
16.079096
20
38.7498109
40
0.2698952
50
264.5897417
51
270.0601757
0
ARC
8
DEFAULT_255_1_234
10
16.082402
20
38.7118185
40
0.2319225
50
269.2532621
51
291.8792492
0
ARC
8
DEFAULT_255_1_234
10
16.0853242
20
38.6940238
40
0.2143562
50
292.9269754
51
323.1776747
0
ARC
8
DEFAULT_255_1_234
10
16.0460064
20
38.7288452
40
0.2667346
50
322.2518483
51
323.0930371
0
ARC
8
DEFAULT_255_1_234
10
16.0165723
20
38.746999
40
0.3011886
50
323.6941278
51
343.8493282
0
ARC
8
DEFAULT_255_1_234
10
15.8587266
20
38.795035
40
0.4661719
50
343.5748474
51
355.0079071
0
ARC
8
DEFAULT_255_1_234
10
15.6579511
20
38.8158424
40
0.6680042
50
354.7285225
51
0.1206288
0
ARC
8
DEFAULT_255_1_234
10
15.8347977
20
38.8204751
40
0.4911667
50
359.623636
51
11.2015604
0
ARC
8
DEFAULT_255_1_234
10
15.9882205
20
38.852064
40
0.3345323
50
10.9989411
51
30.8319188
0
ARC
8
DEFAULT_255_1_234
10
16.0278077
20
38.8729297
40
0.2898553
50
31.3008956
51
37.3959224
0
ARC
8
DEFAULT_255_1_234
10
16.0774656
20
38.9148653
40
0.2249582
50
36.5915954
51
62.2442953
0
ARC
8
DEFAULT_255_1_234
10
16.0821109
20
38.9145602
40
0.2231053
50
63.3365542
51
89.7195421
0
ARC
8
DEFAULT_255_1_234
10
16.0777963
20
38.8576884
40
0.2800267
50
88.8936788
51
90.0047485
0
ARC
8
DEFAULT_255_1_234
10
16.0746322
20
38.9149787
40
0.2227586
50
89.1921125
51
114.7099455
0
ARC
8
DEFAULT_255_1_234
10
16.0775086
20
38.9187628
40
0.2205633
50
115.7997161
51
142.2900762
0
ARC
8
DEFAULT_255_1_234
10
16.1213819
20
38.8797658
40
0.2791541
50
141.4658779
51
142.3795754
0
ARC
8
DEFAULT_255_1_234
10
16.1322723
20
38.8754557
40
0.2904292
50
143.0175714
51
163.234115
0
ARC
8
DEFAULT_255_1_234
10
16.2900896
20
38.8255054
40
0.4559523
50
162.9447461
51
174.3732162
0
ARC
8
DEFAULT_255_1_234
10
16.504671
20
38.8014143
40
0.6718682
50
174.1228657
51
180.1565175
0
LINE
8
DEFAULT_255_1_234
10
17.2166736
20
39.1473532
11
17.2239021
21
39.2437341
0
LINE
8
DEFAULT_255_1_234
10
17.2239021
20
39.2437341
11
17.3596385
21
39.2437341
0
LINE
8
DEFAULT_255_1_234
10
17.3596385
20
39.2437341
11
17.3596385
21
38.3955825
0
LINE
8
DEFAULT_255_1_234
10
16.6697122
20
38.1827415
11
16.7468169
21
38.2718938
0
LINE
8
DEFAULT_255_1_234
10
17.2102482
20
38.3867476
11
17.2102482
21
38.4614428
0
LINE
8
DEFAULT_255_1_234
10
17.2102482
20
38.6124395
11
17.2102482
21
39.0092073
0
ARC
8
DEFAULT_255_1_234
10
17.3401184
20
38.820767
40
0.7145938
50
169.8803029
51
180.346492
0
ARC
8
DEFAULT_255_1_234
10
17.1047956
20
38.8644732
40
0.4752555
50
152.8532592
51
170.0826994
0
ARC
8
DEFAULT_255_1_234
10
17.021473
20
38.9039298
40
0.3831198
50
142.0149503
51
152.4184154
0
ARC
8
DEFAULT_255_1_234
10
16.9577687
20
38.9619197
40
0.2972906
50
94.3317211
51
143.267544
0
ARC
8
DEFAULT_255_1_234
10
16.9681586
20
38.8836614
40
0.3761364
50
89.949086
51
95.0094918
0
ARC
8
DEFAULT_255_1_234
10
16.9723156
20
38.8995946
40
0.3602233
50
72.9495766
51
90.6080422
0
ARC
8
DEFAULT_255_1_234
10
16.9928262
20
38.9738804
40
0.2831969
50
37.7742493
51
72.5100279
0
ARC
8
DEFAULT_255_1_234
10
16.9008175
20
38.3917461
40
0.4588371
50
346.3654765
51
0.4790689
0
ARC
8
DEFAULT_255_1_234
10
17.0375999
20
38.3569784
40
0.3177173
50
314.3365179
51
346.6439967
0
ARC
8
DEFAULT_255_1_234
10
17.0273901
20
38.371312
40
0.3351156
50
280.7143003
51
313.8723582
0
ARC
8
DEFAULT_255_1_234
10
16.9938554
20
38.5207406
40
0.4882011
50
269.662739
51
281.3210136
0
ARC
8
DEFAULT_255_1_234
10
16.9922233
20
38.479507
40
0.4469607
50
245.5258041
51
269.8408437
0
ARC
8
DEFAULT_255_1_234
10
16.9540789
20
38.4079537
40
0.3660692
50
232.6665166
51
246.3199597
0
ARC
8
DEFAULT_255_1_234
10
16.9056583
20
38.3437155
40
0.2856276
50
214.3037329
51
232.5747698
0
ARC
8
DEFAULT_255_1_234
10
17.0174764
20
38.4862759
40
0.3452771
50
218.3818001
51
236.3658697
0
ARC
8
DEFAULT_255_1_234
10
16.9774588
20
38.4304637
40
0.2766535
50
236.8638847
51
270.6382346
0
ARC
8
DEFAULT_255_1_234
10
16.9829419
20
38.4635542
40
0.3097363
50
269.5557741
51
282.3971413
0
ARC
8
DEFAULT_255_1_234
10
17.0065494
20
38.3620559
40
0.2055403
50
282.04403
51
308.3081445
0
ARC
8
DEFAULT_255_1_234
10
17.0150892
20
38.3484365
40
0.1895677
50
308.8344832
51
315.2032883
0
ARC
8
DEFAULT_255_1_234
10
17.0072465
20
38.354177
40
0.199183
50
315.6210926
51
345.6795494
0
ARC
8
DEFAULT_255_1_234
10
16.9093352
20
38.3814308
40
0.3008009
50
345.2625808
51
358.6313382
0
ARC
8
DEFAULT_255_1_234
10
16.8204774
20
38.3866622
40
0.3897707
50
358.1745328
51
0.0125581
0
ARC
8
DEFAULT_255_1_234
10
16.9889432
20
38.6527802
40
0.2925507
50
275.695063
51
319.1537421
0
ARC
8
DEFAULT_255_1_234
10
16.9677576
20
38.7751945
40
0.4165589
50
269.8801937
51
276.923904
0
ARC
8
DEFAULT_255_1_234
10
16.9624482
20
38.664205
40
0.3056007
50
244.0749417
51
270.8321594
0
ARC
8
DEFAULT_255_1_234
10
16.9699595
20
38.6662057
40
0.3107397
50
217.7817538
51
242.9905588
0
ARC
8
DEFAULT_255_1_234
10
17.0310153
20
38.7204252
40
0.3922508
50
217.5213304
51
218.5773048
0
ARC
8
DEFAULT_255_1_234
10
17.0580685
20
38.7361333
40
0.4232938
50
195.3495212
51
216.9774018
0
ARC
8
DEFAULT_255_1_234
10
17.2603699
20
38.7949389
40
0.6339531
50
183.9386736
51
195.634887
0
ARC
8
DEFAULT_255_1_234
10
17.4879999
20
38.8153851
40
0.8624629
50
179.9295504
51
184.2550478
0
ARC
8
DEFAULT_255_1_234
10
17.3558412
20
38.7965275
40
0.5809212
50
179.6990322
51
188.5748787
0
ARC
8
DEFAULT_255_1_234
10
17.154523
20
38.7650858
40
0.377167
50
188.411837
51
202.0556851
0
ARC
8
DEFAULT_255_1_234
10
17.057646
20
38.727053
40
0.2731001
50
202.2924333
51
215.4475715
0
ARC
8
DEFAULT_255_1_234
10
16.9932087
20
38.6771537
40
0.191695
50
214.4673484
51
264.336154
0
ARC
8
DEFAULT_255_1_234
10
17.0034027
20
38.7408255
40
0.2560911
50
263.4724496
51
270.0961704
0
ARC
8
DEFAULT_255_1_234
10
17.0074229
20
38.725892
40
0.2411839
50
269.1470351
51
291.7977507
0
ARC
8
DEFAULT_255_1_234
10
17.0136663
20
38.6979994
40
0.2130159
50
293.0244875
51
327.6231489
0
ARC
8
DEFAULT_255_1_234
10
16.9428844
20
38.7497511
40
0.3005627
50
326.5166824
51
332.8160514
0
ARC
8
DEFAULT_255_1_234
10
16.9779878
20
38.8857491
40
0.2630339
50
27.9929136
51
47.6313992
0
ARC
8
DEFAULT_255_1_234
10
17.0141402
20
38.9201486
40
0.2132848
50
48.5793389
51
88.624502
0
ARC
8
DEFAULT_255_1_234
10
17.0055248
20
38.8452538
40
0.2884455
50
87.2706405
51
90.0170635
0
ARC
8
DEFAULT_255_1_234
10
17.0026572
20
38.911145
40
0.2225717
50
89.2839171
51
110.1848324
0
ARC
8
DEFAULT_255_1_234
10
16.9965059
20
38.937727
40
0.1955293
50
111.1807684
51
145.0424799
0
ARC
8
DEFAULT_255_1_234
10
17.0071839
20
38.925455
40
0.2113491
50
143.9743769
51
144.1060945
0
ARC
8
DEFAULT_255_1_234
10
17.0614806
20
38.890275
40
0.2759807
50
144.7982748
51
162.8715388
0
ARC
8
DEFAULT_255_1_234
10
17.2309456
20
38.8357842
40
0.453983
50
162.5984223
51
173.3418672
0
ARC
8
DEFAULT_255_1_234
10
17.4977234
20
38.8026851
40
0.7228019
50
173.1877442
51
180.2462216
0
LINE
8
DEFAULT_255_1_234
10
17.745162
20
39.2437341
11
17.745162
21
38.3747
0
LINE
8
DEFAULT_255_1_234
10
17.745162
20
38.3747
11
17.5965748
21
38.3747
0
LINE
8
DEFAULT_255_1_234
10
17.5965748
20
38.3747
11
17.5965748
21
39.2437341
0
LINE
8
DEFAULT_255_1_234
10
17.5965748
20
39.2437341
11
17.745162
21
39.2437341
0
ARC
8
DEFAULT_255_1_234
10
17.6823897
20
39.4751889
40
0.097867
50
161.415052
51
180.5526306
0
ARC
8
DEFAULT_255_1_234
10
17.6699675
20
39.4786077
40
0.0850062
50
138.1827368
51
160.9307106
0
ARC
8
DEFAULT_255_1_234
10
17.658962
20
39.4881588
40
0.0704362
50
104.6368899
51
138.0039868
0
ARC
8
DEFAULT_255_1_234
10
17.6696775
20
39.4514963
40
0.1086221
50
92.0600725
51
105.2189128
0
ARC
8
DEFAULT_255_1_234
10
17.6720124
20
39.4172117
40
0.1429728
50
89.9756393
51
92.5012496
0
ARC
8
DEFAULT_255_1_234
10
17.6730143
20
39.4397731
40
0.1204151
50
78.0235316
51
90.4478182
0
ARC
8
DEFAULT_255_1_234
10
17.6822235
20
39.4811295
40
0.0780493
50
55.051506
51
78.3369085
0
ARC
8
DEFAULT_255_1_234
10
17.6872509
20
39.4895711
40
0.0682538
50
42.0501187
51
54.4513741
0
ARC
8
DEFAULT_255_1_234
10
17.6737376
20
39.4771798
40
0.0865878
50
1.7497075
51
42.1496013
0
ARC
8
DEFAULT_255_1_234
10
17.6482709
20
39.4742738
40
0.1121515
50
359.9852656
51
2.8364544
0
ARC
8
DEFAULT_255_1_234
10
17.6648701
20
39.4733229
40
0.0955566
50
342.1070653
51
0.552888
0
ARC
8
DEFAULT_255_1_234
10
17.6791399
20
39.4693904
40
0.0807713
50
316.7107116
51
341.6516965
0
ARC
8
DEFAULT_255_1_234
10
17.6858436
20
39.4633823
40
0.0717724
50
285.4397031
51
316.5324284
0
ARC
8
DEFAULT_255_1_234
10
17.6748353
20
39.4999554
40
0.1099597
50
272.3547054
51
285.8953117
0
ARC
8
DEFAULT_255_1_234
10
17.6721511
20
39.5365048
40
0.1465932
50
269.9695369
51
272.8160237
0
ARC
8
DEFAULT_255_1_234
10
17.6711692
20
39.5145863
40
0.1246779
50
258.8431134
51
270.4153935
0
ARC
8
DEFAULT_255_1_234
10
17.6621735
20
39.4710414
40
0.0802162
50
238.5431189
51
259.1288175
0
ARC
8
DEFAULT_255_1_234
10
17.6553619
20
39.4586856
40
0.0661247
50
222.5062634
51
237.9906969
0
ARC
8
DEFAULT_255_1_234
10
17.6681207
20
39.4702889
40
0.0833707
50
184.1069131
51
222.460413
0
ARC
8
DEFAULT_255_1_234
10
17.6950448
20
39.4741349
40
0.1105176
50
179.9429482
51
185.0960898
0
LINE
8
DEFAULT_255_1_234
10
18.5362882
20
38.6485823
11
18.6768436
21
38.6485823
0
LINE
8
DEFAULT_255_1_234
10
17.9443491
20
38.8011853
11
17.9443491
21
38.8260837
0
LINE
8
DEFAULT_255_1_234
10
18.6768436
20
38.9449534
11
18.5362882
21
38.9449534
0
LINE
8
DEFAULT_255_1_234
10
18.0929362
20
38.8204615
11
18.0929362
21
38.7923504
0
ARC
8
DEFAULT_255_1_234
10
18.3350917
20
38.6939121
40
0.2140268
50
269.0327816
51
309.2224514
0
ARC
8
DEFAULT_255_1_234
10
18.3560672
20
38.6724108
40
0.1841255
50
308.396669
51
329.6984113
0
ARC
8
DEFAULT_255_1_234
10
18.3698527
20
38.661982
40
0.166974
50
330.401383
51
355.3970571
0
ARC
8
DEFAULT_255_1_234
10
18.4155393
20
38.6637082
40
0.2617417
50
329.2357853
51
356.6870514
0
ARC
8
DEFAULT_255_1_234
10
18.3605415
20
38.6927971
40
0.3238945
50
324.8706984
51
329.7905871
0
ARC
8
DEFAULT_255_1_234
10
18.3527133
20
38.6995106
40
0.3341614
50
298.8769168
51
324.7016144
0
ARC
8
DEFAULT_255_1_234
10
18.3195325
20
38.7523917
40
0.3965068
50
296.9023738
51
299.385174
0
ARC
8
DEFAULT_255_1_234
10
18.3324938
20
38.7236422
40
0.365007
50
269.8406811
51
297.1299281
0
ARC
8
DEFAULT_255_1_234
10
18.3271595
20
38.7874407
40
0.4288259
50
253.315473
51
270.5771285
0
ARC
8
DEFAULT_255_1_234
10
18.302463
20
38.6980739
40
0.3361372
50
221.1002312
51
252.9744583
0
ARC
8
DEFAULT_255_1_234
10
18.3484627
20
38.737559
40
0.3967576
50
194.5394537
51
221.0302238
0
ARC
8
DEFAULT_255_1_234
10
18.5333448
20
38.7890952
40
0.5886672
50
182.0499201
51
194.8773585
0
ARC
8
DEFAULT_255_1_234
10
18.7103646
20
38.800906
40
0.7660157
50
179.9791086
51
182.4591564
0
ARC
8
DEFAULT_255_1_234
10
18.536569
20
38.8290498
40
0.5922274
50
168.614861
51
180.2869651
0
ARC
8
DEFAULT_255_1_234
10
18.4163835
20
38.8526269
40
0.4697532
50
154.9162259
51
168.5402336
0
ARC
8
DEFAULT_255_1_234
10
18.3242343
20
38.898163
40
0.3669966
50
133.5746694
51
155.2558665
0
ARC
8
DEFAULT_255_1_234
10
18.3079502
20
38.9120467
40
0.3457206
50
122.0165146
51
133.2055214
0
ARC
8
DEFAULT_255_1_234
10
18.311534
20
38.9032361
40
0.355095
50
97.8731644
51
121.7531281
0
ARC
8
DEFAULT_255_1_234
10
18.3294423
20
38.7975159
40
0.4622833
50
89.8471353
51
98.2769494
0
ARC
8
DEFAULT_255_1_234
10
18.3343176
20
38.8585091
40
0.401305
50
73.3760412
51
90.5199766
0
ARC
8
DEFAULT_255_1_234
10
18.3539539
20
38.9307516
40
0.3264695
50
47.7085968
51
73.0509704
0
ARC
8
DEFAULT_255_1_234
10
18.3669409
20
38.9420128
40
0.309407
50
3.7443473
51
48.0843753
0
ARC
8
DEFAULT_255_1_234
10
18.2682359
20
38.9262614
40
0.4090351
50
2.6192045
51
5.0432185
0
ARC
8
DEFAULT_255_1_234
10
18.3139212
20
38.9302592
40
0.2228519
50
3.780656
51
23.9356886
0
ARC
8
DEFAULT_255_1_234
10
18.3367828
20
38.9383155
40
0.198697
50
24.4869552
51
46.9440088
0
ARC
8
DEFAULT_255_1_234
10
18.3368679
20
38.9406484
40
0.1969404
50
46.498716
51
89.3298174
0
ARC
8
DEFAULT_255_1_234
10
18.3307033
20
38.8811723
40
0.2565428
50
88.1083975
51
90.0061569
0
ARC
8
DEFAULT_255_1_234
10
18.3279463
20
38.8865759
40
0.251154
50
89.3773333
51
107.2071161
0
ARC
8
DEFAULT_255_1_234
10
18.3136586
20
38.938319
40
0.1975072
50
107.6883219
51
143.3583002
0
ARC
8
DEFAULT_255_1_234
10
18.3703969
20
38.8956873
40
0.2684762
50
143.2846717
51
162.935323
0
ARC
8
DEFAULT_255_1_234
10
18.5209571
20
38.8473652
40
0.4265927
50
162.6650068
51
174.0805419
0
ARC
8
DEFAULT_255_1_234
10
18.735241
20
38.8224636
40
0.6423078
50
173.8423985
51
180.1785963
0
ARC
8
DEFAULT_255_1_234
10
18.680451
20
38.7893039
40
0.5875227
50
179.7028978
51
188.2277152
0
ARC
8
DEFAULT_255_1_234
10
18.4702812
20
38.7578247
40
0.3750127
50
188.0629871
51
201.1160002
0
ARC
8
DEFAULT_255_1_234
10
18.360501
20
38.7159238
40
0.2575093
50
201.2187293
51
216.9761968
0
ARC
8
DEFAULT_255_1_234
10
18.3153573
20
38.6820993
40
0.2010998
50
217.0135981
51
265.2056839
0
ARC
8
DEFAULT_255_1_234
10
18.3309433
20
38.7742695
40
0.2943543
50
263.681807
51
270.104251
0
LINE
8
DEFAULT_255_2_778
10
19.9765417
20
28.9719082
11
18.6536417
21
28.9719082
0
LINE
8
DEFAULT_255_2_778
10
18.6536417
20
28.9719082
11
18.6536417
21
19.7115082
0
LINE
8
DEFAULT_255_2_778
10
17.3307834
20
19.7114333
11
19.9765834
21
19.7114333
0
LINE
8
DEFAULT_255_2_778
10
19.9765834
20
19.7114333
11
19.9765834
21
14.4197333
0
LINE
8
DEFAULT_255_2_778
10
19.9765834
20
14.4197333
11
17.3307834
21
14.4197333
0
LINE
8
DEFAULT_255_2_778
10
17.3307834
20
14.4197333
11
17.3307834
21
19.7114333
0
ARC
8
DEFAULT_255_2_778_1
10
21.130363
20
14.522177
40
4.816461
50
120.9442904
51
122.351755
0
ARC
8
DEFAULT_255_2_778_1
10
20.6837561
20
15.2258039
40
3.9830657
50
122.3407904
51
124.1946752
0
ARC
8
DEFAULT_255_2_778_1
10
20.2438503
20
15.8723306
40
3.2010724
50
124.1855758
51
126.4338849
0
ARC
8
DEFAULT_255_2_778_1
10
19.8579167
20
16.3950611
40
2.5513094
50
126.4326926
51
128.8877368
0
ARC
8
DEFAULT_255_2_778_1
10
19.5231006
20
16.8094658
40
2.0185498
50
128.8749205
51
131.8726567
0
ARC
8
DEFAULT_255_2_778_1
10
19.2259715
20
17.1404854
40
1.5737356
50
131.8616166
51
135.4168838
0
ARC
8
DEFAULT_255_2_778_1
10
18.9631718
20
17.3986765
40
1.2053256
50
135.3893975
51
139.9687014
0
ARC
8
DEFAULT_255_2_778_1
10
18.7302927
20
17.5935102
40
0.9016937
50
139.9301659
51
145.9260426
0
ARC
8
DEFAULT_255_2_778_1
10
18.5341578
20
17.7255104
40
0.6652776
50
145.8787362
51
153.8146208
0
ARC
8
DEFAULT_255_2_778_1
10
18.3820592
20
17.7998797
40
0.4959714
50
153.770634
51
164.3484794
0
ARC
8
DEFAULT_255_2_778_1
10
18.2807425
20
17.8280786
40
0.3908039
50
164.3220276
51
179.8083066
0
ARC
8
DEFAULT_255_2_778_1
10
18.3017827
20
17.836215
40
0.4118985
50
180.9499449
51
213.8111542
0
ARC
8
DEFAULT_255_2_778_1
10
18.5776866
20
18.0057896
40
0.73561
50
212.8271214
51
224.258472
0
ARC
8
DEFAULT_255_2_778_1
10
18.9605373
20
18.3751236
40
1.267567
50
224.1376218
51
231.4508261
0
ARC
8
DEFAULT_255_2_778_1
10
19.6032233
20
19.1781168
40
2.2960809
50
231.3955893
51
236.1256478
0
ARC
8
DEFAULT_255_2_778_1
10
21.4355261
20
21.9246293
40
5.5976905
50
236.2233172
51
239.1314682
0
ARC
8
DEFAULT_255_2_778_1
10
33.3854308
20
41.6523568
40
28.6623793
50
238.8606853
51
239.0711101
0
ARC
8
DEFAULT_255_2_778_1
10
14.2132319
20
9.5552653
40
8.7248518
50
57.2420924
51
59.4062964
0
ARC
8
DEFAULT_255_2_778_1
10
17.4409279
20
14.5862102
40
2.747542
50
52.8289294
51
57.079028
0
ARC
8
DEFAULT_255_2_778_1
10
18.2155821
20
15.6065488
40
1.466457
50
46.3041868
51
52.8596521
0
ARC
8
DEFAULT_255_2_778_1
10
18.6478111
20
16.0566842
40
0.8424061
50
36.2174211
51
46.4090895
0
ARC
8
DEFAULT_255_2_778_1
10
18.9323127
20
16.2615128
40
0.4918609
50
17.400375
51
36.5489745
0
ARC
8
DEFAULT_255_2_778_1
10
19.0464032
20
16.3013754
40
0.3710912
50
0.0676858
51
16.7951297
0
ARC
8
DEFAULT_255_2_778_1
10
19.0253651
20
16.3032428
40
0.3921317
50
343.8035191
51
359.7912046
0
ARC
8
DEFAULT_255_2_778_1
10
18.919095
20
16.3337167
40
0.5026844
50
333.2506233
51
343.8465691
0
ARC
8
DEFAULT_255_2_778_1
10
18.7652796
20
16.4104313
40
0.6745679
50
325.6600948
51
333.3122657
0
ARC
8
DEFAULT_255_2_778_1
10
18.5698382
20
16.5432296
40
0.9108568
50
319.7560915
51
325.6976089
0
ARC
8
DEFAULT_255_2_778_1
10
18.3417028
20
16.7350002
40
1.2088854
50
315.4577584
51
319.8037947
0
ARC
8
DEFAULT_255_2_778_1
10
18.0783165
20
16.9938507
40
1.5781764
50
311.7298824
51
315.4670864
0
ARC
8
DEFAULT_255_2_778_1
10
17.7692917
20
17.3394074
40
2.0417554
50
308.723055
51
311.7470879
0
ARC
8
DEFAULT_255_2_778_1
10
17.4150928
20
17.7806492
40
2.6075745
50
306.1165163
51
308.7300151
0
ARC
8
DEFAULT_255_2_778_1
10
17.0121129
20
18.3319523
40
3.2904564
50
303.9559446
51
306.1266333
0
ARC
8
DEFAULT_255_2_778_1
10
16.600547
20
18.941215
40
4.0257023
50
302.3733397
51
303.9712246
0
ARC
8
DEFAULT_255_2_778_1
10
16.1809385
20
19.6027058
40
4.8090549
50
300.9434827
51
302.3758078
0
LINE
8
DEFAULT_255_2_778
10
18.6536417
20
14.4198082
11
18.6536417
21
5.1594082
0
LINE
8
DEFAULT_255_2_778
10
18.6536417
20
5.1594082
11
19.9765417
21
5.1594082
0
LINE
8
DEFAULT_255_1_234
10
4.2407489
20
37.5598211
11
4.2407489
21
36.5164983
0
LINE
8
DEFAULT_255_1_234
10
4.2407489
20
36.5164983
11
4.7949389
21
36.5164983
0
LINE
8
DEFAULT_255_1_234
10
4.7949389
20
36.5164983
11
4.7949389
21
36.3904
0
LINE
8
DEFAULT_255_1_234
10
4.7949389
20
36.3904
11
4.0857364
21
36.3904
0
LINE
8
DEFAULT_255_1_234
10
4.0857364
20
36.3904
11
4.0857364
21
37.5598211
0
LINE
8
DEFAULT_255_1_234
10
4.0857364
20
37.5598211
11
4.2407489
21
37.5598211
0
LINE
8
DEFAULT_255_1_234
10
5.4206113
20
37.5654433
11
5.4206113
21
36.3904
0
LINE
8
DEFAULT_255_1_234
10
5.4206113
20
36.3904
11
5.2712209
21
36.3904
0
LINE
8
DEFAULT_255_1_234
10
5.2712209
20
36.3904
11
5.2712209
21
37.3807133
0
LINE
8
DEFAULT_255_1_234
10
5.2712209
20
37.3807133
11
4.9716371
21
37.2706785
0
LINE
8
DEFAULT_255_1_234
10
4.9716371
20
37.2706785
11
4.9716371
21
37.4056117
0
LINE
8
DEFAULT_255_1_234
10
4.9716371
20
37.4056117
11
5.3973192
21
37.5654433
0
LINE
8
DEFAULT_255_1_234
10
5.3973192
20
37.5654433
11
5.4206113
21
37.5654433
0
LINE
8
DEFAULT_255_1_234
10
24.2614879
20
37.5598211
11
24.2614879
21
36.3904
0
LINE
8
DEFAULT_255_1_234
10
24.2614879
20
36.3904
11
24.1064753
21
36.3904
0
LINE
8
DEFAULT_255_1_234
10
24.1064753
20
36.3904
11
23.5177489
21
37.291561
0
LINE
8
DEFAULT_255_1_234
10
23.5177489
20
37.291561
11
23.5177489
21
36.3904
0
LINE
8
DEFAULT_255_1_234
10
23.5177489
20
36.3904
11
23.3627364
21
36.3904
0
LINE
8
DEFAULT_255_1_234
10
23.3627364
20
36.3904
11
23.3627364
21
37.5598211
0
LINE
8
DEFAULT_255_1_234
10
23.3627364
20
37.5598211
11
23.5177489
21
37.5598211
0
LINE
8
DEFAULT_255_1_234
10
23.5177489
20
37.5598211
11
24.1080817
21
36.6546442
0
LINE
8
DEFAULT_255_1_234
10
24.1080817
20
36.6546442
11
24.1080817
21
37.5598211
0
LINE
8
DEFAULT_255_1_234
10
24.1080817
20
37.5598211
11
24.2614879
21
37.5598211
0
LINE
8
DEFAULT_255_1_234
10
21.9385293
20
4.6404
11
21.8268881
21
4.9456061
0
LINE
8
DEFAULT_255_1_234
10
21.8268881
20
4.9456061
11
21.3369521
21
4.9456061
0
LINE
8
DEFAULT_255_1_234
10
21.3369521
20
4.9456061
11
21.2269173
21
4.6404
0
LINE
8
DEFAULT_255_1_234
10
21.2269173
20
4.6404
11
21.0678889
21
4.6404
0
LINE
8
DEFAULT_255_1_234
10
21.0678889
20
4.6404
11
21.5144535
21
5.8098211
0
LINE
8
DEFAULT_255_1_234
10
21.5144535
20
5.8098211
11
21.6493867
21
5.8098211
0
LINE
8
DEFAULT_255_1_234
10
21.6493867
20
5.8098211
11
22.0967545
21
4.6404
0
LINE
8
DEFAULT_255_1_234
10
22.0967545
20
4.6404
11
21.9385293
21
4.6404
0
LINE
8
DEFAULT_255_1_234
10
21.5819201
20
5.6194689
11
21.3835362
21
5.0725075
0
LINE
8
DEFAULT_255_1_234
10
21.3835362
20
5.0725075
11
21.7811072
21
5.0725075
0
LINE
8
DEFAULT_255_1_234
10
21.7811072
20
5.0725075
11
21.5819201
21
5.6194689
0
LINE
8
DEFAULT_255_1_234
10
23.1448964
20
5.2612534
11
23.1448964
21
5.1873614
0
LINE
8
DEFAULT_255_1_234
10
22.2043798
20
5.1769201
11
22.2043798
21
5.2612534
0
LINE
8
DEFAULT_255_1_234
10
22.9914902
20
5.1761169
11
22.9914902
21
5.2628597
0
LINE
8
DEFAULT_255_1_234
10
22.357786
20
5.273301
11
22.357786
21
5.1873614
0
ARC
8
DEFAULT_255_1_234
10
22.280699
20
5.1834015
40
0.8642064
50
350.487711
51
0.2625388
0
ARC
8
DEFAULT_255_1_234
10
22.5100232
20
5.1439578
40
0.631518
50
336.0277639
51
350.5787438
0
ARC
8
DEFAULT_255_1_234
10
22.6445055
20
5.0831892
40
0.4839466
50
319.8877444
51
336.1328423
0
ARC
8
DEFAULT_255_1_234
10
22.7047696
20
5.034958
40
0.4067874
50
302.4806467
51
319.6143626
0
ARC
8
DEFAULT_255_1_234
10
22.6932706
20
5.0571202
40
0.4316636
50
275.8195682
51
302.1884709
0
ARC
8
DEFAULT_255_1_234
10
22.6766339
20
5.1713665
40
0.5470306
50
269.9171439
51
276.3397983
0
ARC
8
DEFAULT_255_1_234
10
22.6721549
20
5.1027681
40
0.4784458
50
252.5219675
51
270.4416499
0
ARC
8
DEFAULT_255_1_234
10
22.6577808
20
5.0488592
40
0.422716
50
237.5352116
51
252.1857531
0
ARC
8
DEFAULT_255_1_234
10
22.6667004
20
5.0602363
40
0.4371052
50
209.063312
51
237.3492538
0
ARC
8
DEFAULT_255_1_234
10
22.7536852
20
5.1148685
40
0.5397041
50
205.1183774
51
209.6470015
0
ARC
8
DEFAULT_255_1_234
10
22.8333889
20
5.148683
40
0.6262326
50
188.7215458
51
204.8240747
0
ARC
8
DEFAULT_255_1_234
10
23.0331417
20
5.1823067
40
0.8287794
50
180.3723947
51
188.9252049
0
ARC
8
DEFAULT_255_1_234
10
23.0304169
20
5.2652402
40
0.8260467
50
169.5253763
51
180.2765336
0
ARC
8
DEFAULT_255_1_234
10
22.8401618
20
5.3002309
40
0.6326007
50
155.8315255
51
169.5089989
0
ARC
8
DEFAULT_255_1_234
10
22.7121119
20
5.3596348
40
0.4914567
50
139.6258461
51
156.0379525
0
ARC
8
DEFAULT_255_1_234
10
22.6531452
20
5.4070799
40
0.4158054
50
122.6416387
51
139.3430715
0
ARC
8
DEFAULT_255_1_234
10
22.6632072
20
5.3887451
40
0.4366739
50
93.0223692
51
122.455762
0
ARC
8
DEFAULT_255_1_234
10
22.6740069
20
5.2922709
40
0.5336137
50
89.975342
51
93.6341897
0
ARC
8
DEFAULT_255_1_234
10
22.6778848
20
5.3321242
40
0.4937738
50
73.746375
51
90.4233405
0
ARC
8
DEFAULT_255_1_234
10
22.6954427
20
5.4001287
40
0.4235786
50
57.662753
51
73.4518111
0
ARC
8
DEFAULT_255_1_234
10
22.6946433
20
5.4022832
40
0.4221899
50
29.1440151
51
57.414694
0
ARC
8
DEFAULT_255_1_234
10
22.6011628
20
5.3439005
40
0.5322966
50
24.0982783
51
29.7323517
0
ARC
8
DEFAULT_255_1_234
10
22.4977903
20
5.3010399
40
0.6441673
50
8.6655297
51
23.8241346
0
ARC
8
DEFAULT_255_1_234
10
22.2743641
20
5.2645854
40
0.8705386
50
359.7806941
51
8.8218784
0
ARC
8
DEFAULT_255_1_234
10
22.1596639
20
5.2671345
40
0.8318373
50
359.7055579
51
8.036044
0
ARC
8
DEFAULT_255_1_234
10
22.4596645
20
5.3108239
40
0.5286768
50
7.8928306
51
20.2962107
0
ARC
8
DEFAULT_255_1_234
10
22.6224216
20
5.3708395
40
0.3552073
50
20.3231126
51
36.4992797
0
ARC
8
DEFAULT_255_1_234
10
22.6909762
20
5.4236402
40
0.2686974
50
36.1437156
51
85.6627023
0
ARC
8
DEFAULT_255_1_234
10
22.6747308
20
5.3196221
40
0.373739
50
84.3852322
51
90.0757696
0
ARC
8
DEFAULT_255_1_234
10
22.670498
20
5.3856839
40
0.3076997
50
89.3038458
51
109.9045693
0
ARC
8
DEFAULT_255_1_234
10
22.6612371
20
5.4239062
40
0.2686424
50
110.8228367
51
143.9179474
0
ARC
8
DEFAULT_255_1_234
10
22.7546031
20
5.3526236
40
0.3860887
50
143.5289163
51
163.2980757
0
ARC
8
DEFAULT_255_1_234
10
22.9453852
20
5.2926433
40
0.5860659
50
163.0418846
51
174.3140048
0
ARC
8
DEFAULT_255_1_234
10
23.1857964
20
5.2648854
40
0.8280531
50
174.0509143
51
179.4176892
0
ARC
8
DEFAULT_255_1_234
10
23.1353703
20
5.1831954
40
0.7775954
50
179.6930361
51
188.7906598
0
ARC
8
DEFAULT_255_1_234
10
22.8690182
20
5.1405935
40
0.5078633
50
188.6331305
51
202.5629587
0
ARC
8
DEFAULT_255_1_234
10
22.7435774
20
5.0901996
40
0.3726913
50
202.8081362
51
216.1193925
0
ARC
8
DEFAULT_255_1_234
10
22.6626344
20
5.0250676
40
0.2689577
50
215.0755913
51
264.6379694
0
ARC
8
DEFAULT_255_1_234
10
22.6753294
20
5.1081513
40
0.3528978
50
263.846392
51
270.0833719
0
ARC
8
DEFAULT_255_1_234
10
22.6794684
20
5.0823374
40
0.3271036
50
269.3649385
51
287.5152008
0
ARC
8
DEFAULT_255_1_234
10
22.6972842
20
5.0176238
40
0.2600406
50
288.0630309
51
323.8113348
0
ARC
8
DEFAULT_255_1_234
10
22.6101684
20
5.0826049
40
0.3687189
50
323.6547608
51
342.6590488
0
ARC
8
DEFAULT_255_1_234
10
22.4070299
20
5.1486952
40
0.5823286
50
342.4091907
51
353.6451149
0
ARC
8
DEFAULT_255_1_234
10
22.1238809
20
5.183919
40
0.8676442
50
353.4029884
51
359.4847795
0
LINE
8
DEFAULT_255_1_234
10
23.5537119
20
5.1761169
11
23.5537119
21
5.2973962
0
LINE
8
DEFAULT_255_1_234
10
23.5537119
20
5.2973962
11
23.665353
21
5.2973962
0
LINE
8
DEFAULT_255_1_234
10
23.4750008
20
5.5030087
11
23.3264137
21
5.5030087
0
LINE
8
DEFAULT_255_1_234
10
23.3159724
20
4.9488188
11
23.4653627
21
4.9488188
0
LINE
8
DEFAULT_255_1_234
10
23.665353
20
5.1761169
11
23.5537119
21
5.1761169
0
ARC
8
DEFAULT_255_1_234
10
23.6624397
20
5.6366713
40
0.3392876
50
270.4919872
51
281.8951556
0
ARC
8
DEFAULT_255_1_234
10
23.6865658
20
5.5264702
40
0.2264817
50
281.6691735
51
301.2943132
0
ARC
8
DEFAULT_255_1_234
10
23.7035869
20
5.4953304
40
0.1910381
50
301.7833094
51
311.7545298
0
ARC
8
DEFAULT_255_1_234
10
23.7127444
20
5.4851748
40
0.1773635
50
311.7323931
51
354.2802411
0
ARC
8
DEFAULT_255_1_234
10
23.640107
20
5.4976722
40
0.2509385
50
353.0937916
51
0.1181479
0
ARC
8
DEFAULT_255_1_234
10
23.5939854
20
5.5024386
40
0.2970898
50
359.1805295
51
15.0453146
0
ARC
8
DEFAULT_255_1_234
10
23.7285691
20
5.5416992
40
0.1569564
50
13.9577229
51
77.6713066
0
ARC
8
DEFAULT_255_1_234
10
23.6899221
20
5.4031949
40
0.3006298
50
76.1116566
51
90.7026153
0
ARC
8
DEFAULT_255_1_234
10
23.6840059
20
5.4305545
40
0.2732568
50
89.5324876
51
103.531937
0
ARC
8
DEFAULT_255_1_234
10
23.6639503
20
5.5104884
40
0.1908508
50
103.2931773
51
133.5619022
0
ARC
8
DEFAULT_255_1_234
10
23.6594991
20
5.5164375
40
0.1834746
50
133.8349307
51
173.5344437
0
ARC
8
DEFAULT_255_1_234
10
23.7318035
20
5.5036213
40
0.2568033
50
172.5096846
51
180.1366907
0
ARC
8
DEFAULT_255_1_234
10
23.6366928
20
5.5070622
40
0.3103056
50
155.3484492
51
180.7484736
0
ARC
8
DEFAULT_255_1_234
10
23.6318017
20
5.5041846
40
0.3070957
50
131.5744599
51
154.4798489
0
ARC
8
DEFAULT_255_1_234
10
23.6631165
20
5.472531
40
0.3515643
50
96.9875458
51
131.9690667
0
ARC
8
DEFAULT_255_1_234
10
23.6850645
20
5.3479636
40
0.4779224
50
89.8596053
51
97.7825159
0
ARC
8
DEFAULT_255_1_234
10
23.6898708
20
5.3217616
40
0.5041361
50
78.3655447
51
90.4131539
0
ARC
8
DEFAULT_255_1_234
10
23.7256626
20
5.4876887
40
0.3344039
50
56.6229102
51
78.638727
0
ARC
8
DEFAULT_255_1_234
10
23.7471569
20
5.5252805
40
0.2912001
50
47.0253525
51
56.0854072
0
ARC
8
DEFAULT_255_1_234
10
23.7491349
20
5.5292223
40
0.2869704
50
10.9208013
51
46.7778124
0
ARC
8
DEFAULT_255_1_234
10
23.6127416
20
5.4976857
40
0.426899
50
359.6364486
51
11.6087304
0
ARC
8
DEFAULT_255_1_234
10
23.796226
20
5.4961752
40
0.243409
50
332.3549906
51
359.7179418
0
ARC
8
DEFAULT_255_1_234
10
23.7311861
20
5.5270142
40
0.3153459
50
325.2333722
51
332.8745602
0
ARC
8
DEFAULT_255_1_234
10
23.7464485
20
5.5163828
40
0.2967456
50
292.9802137
51
325.2392345
0
ARC
8
DEFAULT_255_1_234
10
23.7189859
20
5.5697863
40
0.3566604
50
292.5402179
51
293.6924929
0
ARC
8
DEFAULT_255_1_234
10
23.7582455
20
4.9243091
40
0.3307468
50
57.6435486
51
72.8625112
0
ARC
8
DEFAULT_255_1_234
10
23.7936955
20
4.9817549
40
0.2632492
50
36.7248896
51
57.4697979
0
ARC
8
DEFAULT_255_1_234
10
23.7925587
20
4.983022
40
0.2634081
50
8.0545065
51
36.356114
0
ARC
8
DEFAULT_255_1_234
10
23.7062773
20
4.9675174
40
0.3510261
50
359.8320645
51
8.5869982
0
ARC
8
DEFAULT_255_1_234
10
23.6687549
20
4.9627101
40
0.3885653
50
343.9829931
51
0.5571613
0
ARC
8
DEFAULT_255_1_234
10
23.7573746
20
4.9384438
40
0.2966924
50
311.6359546
51
343.7651759
0
ARC
8
DEFAULT_255_1_234
10
23.7195315
20
4.9811102
40
0.3537231
50
279.7829875
51
311.6255694
0
ARC
8
DEFAULT_255_1_234
10
23.6894091
20
5.124828
40
0.5004971
50
269.7286406
51
280.3856417
0
ARC
8
DEFAULT_255_1_234
10
23.6832164
20
5.1206996
40
0.4963778
50
256.6828919
51
270.4412052
0
ARC
8
DEFAULT_255_1_234
10
23.649346
20
4.9822394
40
0.3538406
50
229.4223008
51
256.8556159
0
ARC
8
DEFAULT_255_1_234
10
23.6078853
20
4.9355736
40
0.2914296
50
181.818294
51
229.6455059
0
ARC
8
DEFAULT_255_1_234
10
23.7118809
20
4.9486496
40
0.3959084
50
179.9755256
51
183.2323064
0
ARC
8
DEFAULT_255_1_234
10
23.6946555
20
4.9466037
40
0.2293034
50
179.4465117
51
196.2869258
0
ARC
8
DEFAULT_255_1_234
10
23.6458963
20
4.9332651
40
0.1787621
50
196.5661473
51
227.705904
0
ARC
8
DEFAULT_255_1_234
10
23.6623057
20
4.9516155
40
0.2033784
50
227.7652068
51
257.8762805
0
ARC
8
DEFAULT_255_1_234
10
23.6848028
20
5.0459156
40
0.3003081
50
257.4584385
51
270.426602
0
ARC
8
DEFAULT_255_1_234
10
23.6893594
20
5.0748996
40
0.329292
50
269.5962073
51
280.8789248
0
ARC
8
DEFAULT_255_1_234
10
23.7123123
20
4.9602685
40
0.2123908
50
280.6346389
51
299.8595945
0
ARC
8
DEFAULT_255_1_234
10
23.7314029
20
4.9240212
40
0.171457
50
300.3576302
51
314.5517981
0
ARC
8
DEFAULT_255_1_234
10
23.7231089
20
4.9300919
40
0.1816095
50
315.0728369
51
345.0431014
0
ARC
8
DEFAULT_255_1_234
10
23.6307904
20
4.9569841
40
0.2777492
50
344.5986631
51
357.9269593
0
ARC
8
DEFAULT_255_1_234
10
23.541223
20
4.9631276
40
0.3674917
50
357.4748886
51
0.0231117
0
ARC
8
DEFAULT_255_1_234
10
23.6435339
20
4.9655679
40
0.2651907
50
359.5047933
51
13.4239635
0
ARC
8
DEFAULT_255_1_234
10
23.7301983
20
4.9877478
40
0.1757509
50
12.9498199
51
48.7551375
0
ARC
8
DEFAULT_255_1_234
10
23.7119717
20
4.96284
40
0.2065134
50
49.5088623
51
72.1836453
0
ARC
8
DEFAULT_255_1_234
10
23.6761869
20
4.8566291
40
0.3185836
50
71.9010081
51
84.3554254
0
ARC
8
DEFAULT_255_1_234
10
23.6600501
20
4.7205326
40
0.4556151
50
84.0193428
51
89.333121
0
LINE
8
DEFAULT_255_1_234
10
21.9385293
20
12.5779
11
21.8268881
21
12.8831061
0
LINE
8
DEFAULT_255_1_234
10
21.8268881
20
12.8831061
11
21.3369521
21
12.8831061
0
LINE
8
DEFAULT_255_1_234
10
21.3369521
20
12.8831061
11
21.2269173
21
12.5779
0
LINE
8
DEFAULT_255_1_234
10
21.2269173
20
12.5779
11
21.0678889
21
12.5779
0
LINE
8
DEFAULT_255_1_234
10
21.0678889
20
12.5779
11
21.5144535
21
13.7473211
0
LINE
8
DEFAULT_255_1_234
10
21.5144535
20
13.7473211
11
21.6493867
21
13.7473211
0
LINE
8
DEFAULT_255_1_234
10
21.6493867
20
13.7473211
11
22.0967545
21
12.5779
0
LINE
8
DEFAULT_255_1_234
10
22.0967545
20
12.5779
11
21.9385293
21
12.5779
0
LINE
8
DEFAULT_255_1_234
10
21.5819201
20
13.5569689
11
21.3835362
21
13.0100075
0
LINE
8
DEFAULT_255_1_234
10
21.3835362
20
13.0100075
11
21.7811072
21
13.0100075
0
LINE
8
DEFAULT_255_1_234
10
21.7811072
20
13.0100075
11
21.5819201
21
13.5569689
0
LINE
8
DEFAULT_255_1_234
10
23.1448964
20
13.1987534
11
23.1448964
21
13.1248614
0
LINE
8
DEFAULT_255_1_234
10
22.2043798
20
13.1144201
11
22.2043798
21
13.1987534
0
LINE
8
DEFAULT_255_1_234
10
22.9914902
20
13.1136169
11
22.9914902
21
13.2003597
0
LINE
8
DEFAULT_255_1_234
10
22.357786
20
13.210801
11
22.357786
21
13.1248614
0
ARC
8
DEFAULT_255_1_234
10
22.280699
20
13.1209015
40
0.8642064
50
350.487711
51
0.2625388
0
ARC
8
DEFAULT_255_1_234
10
22.5100232
20
13.0814578
40
0.631518
50
336.0277639
51
350.5787438
0
ARC
8
DEFAULT_255_1_234
10
22.6445055
20
13.0206892
40
0.4839466
50
319.8877444
51
336.1328423
0
ARC
8
DEFAULT_255_1_234
10
22.7047696
20
12.972458
40
0.4067874
50
302.4806467
51
319.6143626
0
ARC
8
DEFAULT_255_1_234
10
22.6932706
20
12.9946202
40
0.4316636
50
275.8195682
51
302.1884709
0
ARC
8
DEFAULT_255_1_234
10
22.6766339
20
13.1088665
40
0.5470306
50
269.9171439
51
276.3397983
0
ARC
8
DEFAULT_255_1_234
10
22.6721549
20
13.0402681
40
0.4784458
50
252.5219675
51
270.4416499
0
ARC
8
DEFAULT_255_1_234
10
22.6577808
20
12.9863592
40
0.422716
50
237.5352116
51
252.1857531
0
ARC
8
DEFAULT_255_1_234
10
22.6667004
20
12.9977363
40
0.4371052
50
209.063312
51
237.3492538
0
ARC
8
DEFAULT_255_1_234
10
22.7536852
20
13.0523685
40
0.5397041
50
205.1183774
51
209.6470015
0
ARC
8
DEFAULT_255_1_234
10
22.8333889
20
13.086183
40
0.6262326
50
188.7215458
51
204.8240747
0
ARC
8
DEFAULT_255_1_234
10
23.0331417
20
13.1198067
40
0.8287794
50
180.3723947
51
188.9252049
0
ARC
8
DEFAULT_255_1_234
10
23.0304169
20
13.2027402
40
0.8260467
50
169.5253763
51
180.2765336
0
ARC
8
DEFAULT_255_1_234
10
22.8401618
20
13.2377309
40
0.6326007
50
155.8315255
51
169.5089989
0
ARC
8
DEFAULT_255_1_234
10
22.7121119
20
13.2971348
40
0.4914567
50
139.6258461
51
156.0379525
0
ARC
8
DEFAULT_255_1_234
10
22.6531452
20
13.3445799
40
0.4158054
50
122.6416387
51
139.3430715
0
ARC
8
DEFAULT_255_1_234
10
22.6632072
20
13.3262451
40
0.4366739
50
93.0223692
51
122.455762
0
ARC
8
DEFAULT_255_1_234
10
22.6740069
20
13.2297709
40
0.5336137
50
89.975342
51
93.6341897
0
ARC
8
DEFAULT_255_1_234
10
22.6778848
20
13.2696242
40
0.4937738
50
73.746375
51
90.4233405
0
ARC
8
DEFAULT_255_1_234
10
22.6954427
20
13.3376287
40
0.4235786
50
57.662753
51
73.4518111
0
ARC
8
DEFAULT_255_1_234
10
22.6946433
20
13.3397832
40
0.4221899
50
29.1440151
51
57.414694
0
ARC
8
DEFAULT_255_1_234
10
22.6011628
20
13.2814005
40
0.5322966
50
24.0982783
51
29.7323517
0
ARC
8
DEFAULT_255_1_234
10
22.4977903
20
13.2385399
40
0.6441673
50
8.6655297
51
23.8241346
0
ARC
8
DEFAULT_255_1_234
10
22.2743641
20
13.2020854
40
0.8705386
50
359.7806941
51
8.8218784
0
ARC
8
DEFAULT_255_1_234
10
22.1596639
20
13.2046345
40
0.8318373
50
359.7055579
51
8.036044
0
ARC
8
DEFAULT_255_1_234
10
22.4596645
20
13.2483239
40
0.5286768
50
7.8928306
51
20.2962107
0
ARC
8
DEFAULT_255_1_234
10
22.6224216
20
13.3083395
40
0.3552073
50
20.3231126
51
36.4992797
0
ARC
8
DEFAULT_255_1_234
10
22.6909762
20
13.3611402
40
0.2686974
50
36.1437156
51
85.6627023
0
ARC
8
DEFAULT_255_1_234
10
22.6747308
20
13.2571221
40
0.373739
50
84.3852322
51
90.0757696
0
ARC
8
DEFAULT_255_1_234
10
22.670498
20
13.3231839
40
0.3076997
50
89.3038458
51
109.9045693
0
ARC
8
DEFAULT_255_1_234
10
22.6612371
20
13.3614062
40
0.2686424
50
110.8228367
51
143.9179474
0
ARC
8
DEFAULT_255_1_234
10
22.7546031
20
13.2901236
40
0.3860887
50
143.5289163
51
163.2980757
0
ARC
8
DEFAULT_255_1_234
10
22.9453852
20
13.2301433
40
0.5860659
50
163.0418846
51
174.3140048
0
ARC
8
DEFAULT_255_1_234
10
23.1857964
20
13.2023854
40
0.8280531
50
174.0509143
51
179.4176892
0
ARC
8
DEFAULT_255_1_234
10
23.1353703
20
13.1206954
40
0.7775954
50
179.6930361
51
188.7906598
0
ARC
8
DEFAULT_255_1_234
10
22.8690182
20
13.0780935
40
0.5078633
50
188.6331305
51
202.5629587
0
ARC
8
DEFAULT_255_1_234
10
22.7435774
20
13.0276996
40
0.3726913
50
202.8081362
51
216.1193925
0
ARC
8
DEFAULT_255_1_234
10
22.6626344
20
12.9625676
40
0.2689577
50
215.0755913
51
264.6379694
0
ARC
8
DEFAULT_255_1_234
10
22.6753294
20
13.0456513
40
0.3528978
50
263.846392
51
270.0833719
0
ARC
8
DEFAULT_255_1_234
10
22.6794684
20
13.0198374
40
0.3271036
50
269.3649385
51
287.5152008
0
ARC
8
DEFAULT_255_1_234
10
22.6972842
20
12.9551238
40
0.2600406
50
288.0630309
51
323.8113348
0
ARC
8
DEFAULT_255_1_234
10
22.6101684
20
13.0201049
40
0.3687189
50
323.6547608
51
342.6590488
0
ARC
8
DEFAULT_255_1_234
10
22.4070299
20
13.0861952
40
0.5823286
50
342.4091907
51
353.6451149
0
ARC
8
DEFAULT_255_1_234
10
22.1238809
20
13.121419
40
0.8676442
50
353.4029884
51
359.4847795
0
LINE
8
DEFAULT_255_1_234
10
24.1038859
20
12.6991792
11
24.1038859
21
12.5779
0
LINE
8
DEFAULT_255_1_234
10
24.1038859
20
12.5779
11
23.3376581
21
12.5779
0
LINE
8
DEFAULT_255_1_234
10
23.3376581
20
12.5779
11
23.3376581
21
12.6847221
0
LINE
8
DEFAULT_255_1_234
10
23.3376581
20
12.6847221
11
23.7424577
21
13.1344995
0
LINE
8
DEFAULT_255_1_234
10
23.4637564
20
13.4027595
11
23.3151692
21
13.4027595
0
LINE
8
DEFAULT_255_1_234
10
23.8300037
20
13.0389218
11
23.5167659
21
12.6991792
0
LINE
8
DEFAULT_255_1_234
10
23.5167659
20
12.6991792
11
24.1038859
21
12.6991792
0
ARC
8
DEFAULT_255_1_234
10
22.393441
20
14.3274527
40
1.8008286
50
318.5132453
51
320.7828378
0
ARC
8
DEFAULT_255_1_234
10
22.9221385
20
13.8971426
40
1.1191493
50
320.7372736
51
323.9737074
0
ARC
8
DEFAULT_255_1_234
10
23.3141241
20
13.6131361
40
0.6350923
50
323.8961724
51
328.6421089
0
ARC
8
DEFAULT_255_1_234
10
23.5187837
20
13.4869031
40
0.3946393
50
328.8299013
51
331.789948
0
ARC
8
DEFAULT_255_1_234
10
23.6185015
20
13.4354509
40
0.2824501
50
331.4255242
51
352.9364833
0
ARC
8
DEFAULT_255_1_234
10
23.6321516
20
13.4323976
40
0.2685315
50
353.2248685
51
0.0169286
0
ARC
8
DEFAULT_255_1_234
10
23.6531393
20
13.434695
40
0.2475536
50
359.4866256
51
15.9339782
0
ARC
8
DEFAULT_255_1_234
10
23.7038378
20
13.4483286
40
0.1950618
50
16.1714718
51
43.5284424
0
ARC
8
DEFAULT_255_1_234
10
23.7115686
20
13.4560573
40
0.184134
50
43.4415429
51
83.1661404
0
ARC
8
DEFAULT_255_1_234
10
23.6981605
20
13.3823771
40
0.258926
50
82.160215
51
90.1505798
0
ARC
8
DEFAULT_255_1_234
10
23.6950032
20
13.3286865
40
0.3126255
50
89.5460705
51
102.5418777
0
ARC
8
DEFAULT_255_1_234
10
23.6707118
20
13.4317665
40
0.2067346
50
102.1739365
51
129.2061916
0
ARC
8
DEFAULT_255_1_234
10
23.662819
20
13.4442094
40
0.1921118
50
129.7279328
51
135.7542026
0
ARC
8
DEFAULT_255_1_234
10
23.6749717
20
13.4345045
40
0.2075944
50
136.175737
51
166.3674722
0
ARC
8
DEFAULT_255_1_234
10
23.7756637
20
13.4075182
40
0.3118201
50
165.9092917
51
178.8683903
0
ARC
8
DEFAULT_255_1_234
10
23.8621498
20
13.4028179
40
0.3983935
50
178.438168
51
180.0083905
0
ARC
8
DEFAULT_255_1_234
10
23.72201
20
13.4067231
40
0.4068601
50
163.2878735
51
180.5581814
0
ARC
8
DEFAULT_255_1_234
10
23.6418361
20
13.428784
40
0.3237344
50
133.454115
51
162.9470031
0
ARC
8
DEFAULT_255_1_234
10
23.6596903
20
13.4098
40
0.349795
50
100.7869394
51
133.4384016
0
ARC
8
DEFAULT_255_1_234
10
23.6944674
20
13.2549319
40
0.5084616
50
89.6605301
51
101.3704185
0
ARC
8
DEFAULT_255_1_234
10
23.7011013
20
13.2610496
40
0.502348
50
78.2171172
51
90.4130393
0
ARC
8
DEFAULT_255_1_234
10
23.7366091
20
13.4234637
40
0.3361092
50
55.9268222
51
78.4888551
0
ARC
8
DEFAULT_255_1_234
10
23.7562532
20
13.4573324
40
0.2970617
50
47.9292255
51
55.4054003
0
ARC
8
DEFAULT_255_1_234
10
23.7664092
20
13.4676502
40
0.2825983
50
4.3347696
51
48.0560701
0
ARC
8
DEFAULT_255_1_234
10
23.6568486
20
13.4506601
40
0.393225
50
359.925209
51
5.5967654
0
ARC
8
DEFAULT_255_1_234
10
23.6997378
20
13.4562816
40
0.3503892
50
337.8914096
51
358.9967724
0
ARC
8
DEFAULT_255_1_234
10
23.428379
20
13.5609706
40
0.6412172
50
326.9135351
51
338.3505194
0
ARC
8
DEFAULT_255_1_234
10
23.0298094
20
13.8164284
40
1.1146189
50
319.6472867
51
327.095818
0
ARC
8
DEFAULT_255_1_234
10
22.6465097
20
14.1326
40
1.6114559
50
317.2586784
51
319.9046139
0
LINE
8
DEFAULT_255_1_234
10
21.9473293
20
20.5154
11
21.8356881
21
20.8206061
0
LINE
8
DEFAULT_255_1_234
10
21.8356881
20
20.8206061
11
21.3457521
21
20.8206061
0
LINE
8
DEFAULT_255_1_234
10
21.3457521
20
20.8206061
11
21.2357173
21
20.5154
0
LINE
8
DEFAULT_255_1_234
10
21.2357173
20
20.5154
11
21.0766889
21
20.5154
0
LINE
8
DEFAULT_255_1_234
10
21.0766889
20
20.5154
11
21.5232535
21
21.6848211
0
LINE
8
DEFAULT_255_1_234
10
21.5232535
20
21.6848211
11
21.6581867
21
21.6848211
0
LINE
8
DEFAULT_255_1_234
10
21.6581867
20
21.6848211
11
22.1055545
21
20.5154
0
LINE
8
DEFAULT_255_1_234
10
22.1055545
20
20.5154
11
21.9473293
21
20.5154
0
LINE
8
DEFAULT_255_1_234
10
21.5907201
20
21.4944689
11
21.3923362
21
20.9475075
0
LINE
8
DEFAULT_255_1_234
10
21.3923362
20
20.9475075
11
21.7899072
21
20.9475075
0
LINE
8
DEFAULT_255_1_234
10
21.7899072
20
20.9475075
11
21.5907201
21
21.4944689
0
LINE
8
DEFAULT_255_1_234
10
23.1536964
20
21.1362534
11
23.1536964
21
21.0623614
0
LINE
8
DEFAULT_255_1_234
10
22.2131798
20
21.0519201
11
22.2131798
21
21.1362534
0
LINE
8
DEFAULT_255_1_234
10
23.0002902
20
21.0511169
11
23.0002902
21
21.1378597
0
LINE
8
DEFAULT_255_1_234
10
22.366586
20
21.148301
11
22.366586
21
21.0623614
0
ARC
8
DEFAULT_255_1_234
10
22.289499
20
21.0584015
40
0.8642064
50
350.487711
51
0.2625388
0
ARC
8
DEFAULT_255_1_234
10
22.5188232
20
21.0189578
40
0.631518
50
336.0277639
51
350.5787438
0
ARC
8
DEFAULT_255_1_234
10
22.6533055
20
20.9581892
40
0.4839466
50
319.8877444
51
336.1328423
0
ARC
8
DEFAULT_255_1_234
10
22.7135696
20
20.909958
40
0.4067874
50
302.4806467
51
319.6143626
0
ARC
8
DEFAULT_255_1_234
10
22.7020706
20
20.9321202
40
0.4316636
50
275.8195682
51
302.1884709
0
ARC
8
DEFAULT_255_1_234
10
22.6854339
20
21.0463665
40
0.5470306
50
269.9171439
51
276.3397983
0
ARC
8
DEFAULT_255_1_234
10
22.6809549
20
20.9777681
40
0.4784458
50
252.5219675
51
270.4416499
0
ARC
8
DEFAULT_255_1_234
10
22.6665808
20
20.9238592
40
0.422716
50
237.5352116
51
252.1857531
0
ARC
8
DEFAULT_255_1_234
10
22.6755004
20
20.9352363
40
0.4371052
50
209.063312
51
237.3492538
0
ARC
8
DEFAULT_255_1_234
10
22.7624852
20
20.9898685
40
0.5397041
50
205.1183774
51
209.6470015
0
ARC
8
DEFAULT_255_1_234
10
22.8421889
20
21.023683
40
0.6262326
50
188.7215458
51
204.8240747
0
ARC
8
DEFAULT_255_1_234
10
23.0419417
20
21.0573067
40
0.8287794
50
180.3723947
51
188.9252049
0
ARC
8
DEFAULT_255_1_234
10
23.0392169
20
21.1402402
40
0.8260467
50
169.5253763
51
180.2765336
0
ARC
8
DEFAULT_255_1_234
10
22.8489618
20
21.1752309
40
0.6326007
50
155.8315255
51
169.5089989
0
ARC
8
DEFAULT_255_1_234
10
22.7209119
20
21.2346348
40
0.4914567
50
139.6258461
51
156.0379525
0
ARC
8
DEFAULT_255_1_234
10
22.6619452
20
21.2820799
40
0.4158054
50
122.6416387
51
139.3430715
0
ARC
8
DEFAULT_255_1_234
10
22.6720072
20
21.2637451
40
0.4366739
50
93.0223692
51
122.455762
0
ARC
8
DEFAULT_255_1_234
10
22.6828069
20
21.1672709
40
0.5336137
50
89.975342
51
93.6341897
0
ARC
8
DEFAULT_255_1_234
10
22.6866848
20
21.2071242
40
0.4937738
50
73.746375
51
90.4233405
0
ARC
8
DEFAULT_255_1_234
10
22.7042427
20
21.2751287
40
0.4235786
50
57.662753
51
73.4518111
0
ARC
8
DEFAULT_255_1_234
10
22.7034433
20
21.2772832
40
0.4221899
50
29.1440151
51
57.414694
0
ARC
8
DEFAULT_255_1_234
10
22.6099628
20
21.2189005
40
0.5322966
50
24.0982783
51
29.7323517
0
ARC
8
DEFAULT_255_1_234
10
22.5065903
20
21.1760399
40
0.6441673
50
8.6655297
51
23.8241346
0
ARC
8
DEFAULT_255_1_234
10
22.2831641
20
21.1395854
40
0.8705386
50
359.7806941
51
8.8218784
0
ARC
8
DEFAULT_255_1_234
10
22.1684639
20
21.1421345
40
0.8318373
50
359.7055579
51
8.036044
0
ARC
8
DEFAULT_255_1_234
10
22.4684645
20
21.1858239
40
0.5286768
50
7.8928306
51
20.2962107
0
ARC
8
DEFAULT_255_1_234
10
22.6312216
20
21.2458395
40
0.3552073
50
20.3231126
51
36.4992797
0
ARC
8
DEFAULT_255_1_234
10
22.6997762
20
21.2986402
40
0.2686974
50
36.1437156
51
85.6627023
0
ARC
8
DEFAULT_255_1_234
10
22.6835308
20
21.1946221
40
0.373739
50
84.3852322
51
90.0757696
0
ARC
8
DEFAULT_255_1_234
10
22.679298
20
21.2606839
40
0.3076997
50
89.3038458
51
109.9045693
0
ARC
8
DEFAULT_255_1_234
10
22.6700371
20
21.2989062
40
0.2686424
50
110.8228367
51
143.9179474
0
ARC
8
DEFAULT_255_1_234
10
22.7634031
20
21.2276236
40
0.3860887
50
143.5289163
51
163.2980757
0
ARC
8
DEFAULT_255_1_234
10
22.9541852
20
21.1676433
40
0.5860659
50
163.0418846
51
174.3140048
0
ARC
8
DEFAULT_255_1_234
10
23.1945964
20
21.1398854
40
0.8280531
50
174.0509143
51
179.4176892
0
ARC
8
DEFAULT_255_1_234
10
23.1441703
20
21.0581954
40
0.7775954
50
179.6930361
51
188.7906598
0
ARC
8
DEFAULT_255_1_234
10
22.8778182
20
21.0155935
40
0.5078633
50
188.6331305
51
202.5629587
0
ARC
8
DEFAULT_255_1_234
10
22.7523774
20
20.9651996
40
0.3726913
50
202.8081362
51
216.1193925
0
ARC
8
DEFAULT_255_1_234
10
22.6714344
20
20.9000676
40
0.2689577
50
215.0755913
51
264.6379694
0
ARC
8
DEFAULT_255_1_234
10
22.6841294
20
20.9831513
40
0.3528978
50
263.846392
51
270.0833719
0
ARC
8
DEFAULT_255_1_234
10
22.6882684
20
20.9573374
40
0.3271036
50
269.3649385
51
287.5152008
0
ARC
8
DEFAULT_255_1_234
10
22.7060842
20
20.8926238
40
0.2600406
50
288.0630309
51
323.8113348
0
ARC
8
DEFAULT_255_1_234
10
22.6189684
20
20.9576049
40
0.3687189
50
323.6547608
51
342.6590488
0
ARC
8
DEFAULT_255_1_234
10
22.4158299
20
21.0236952
40
0.5823286
50
342.4091907
51
353.6451149
0
ARC
8
DEFAULT_255_1_234
10
22.1326809
20
21.058919
40
0.8676442
50
353.4029884
51
359.4847795
0
LINE
8
DEFAULT_255_1_234
10
23.8347878
20
21.6904433
11
23.8347878
21
20.5154
0
LINE
8
DEFAULT_255_1_234
10
23.8347878
20
20.5154
11
23.6853975
21
20.5154
0
LINE
8
DEFAULT_255_1_234
10
23.6853975
20
20.5154
11
23.6853975
21
21.5057133
0
LINE
8
DEFAULT_255_1_234
10
23.6853975
20
21.5057133
11
23.3858136
21
21.3956785
0
LINE
8
DEFAULT_255_1_234
10
23.3858136
20
21.3956785
11
23.3858136
21
21.5306117
0
LINE
8
DEFAULT_255_1_234
10
23.3858136
20
21.5306117
11
23.8114958
21
21.6904433
0
LINE
8
DEFAULT_255_1_234
10
23.8114958
20
21.6904433
11
23.8347878
21
21.6904433
0
LINE
8
DEFAULT_255_1_234
10
21.9385293
20
28.4529
11
21.8268881
21
28.7581061
0
LINE
8
DEFAULT_255_1_234
10
21.8268881
20
28.7581061
11
21.3369521
21
28.7581061
0
LINE
8
DEFAULT_255_1_234
10
21.3369521
20
28.7581061
11
21.2269173
21
28.4529
0
LINE
8
DEFAULT_255_1_234
10
21.2269173
20
28.4529
11
21.0678889
21
28.4529
0
LINE
8
DEFAULT_255_1_234
10
21.0678889
20
28.4529
11
21.5144535
21
29.6223211
0
LINE
8
DEFAULT_255_1_234
10
21.5144535
20
29.6223211
11
21.6493867
21
29.6223211
0
LINE
8
DEFAULT_255_1_234
10
21.6493867
20
29.6223211
11
22.0967545
21
28.4529
0
LINE
8
DEFAULT_255_1_234
10
22.0967545
20
28.4529
11
21.9385293
21
28.4529
0
LINE
8
DEFAULT_255_1_234
10
21.5819201
20
29.4319689
11
21.3835362
21
28.8850075
0
LINE
8
DEFAULT_255_1_234
10
21.3835362
20
28.8850075
11
21.7811072
21
28.8850075
0
LINE
8
DEFAULT_255_1_234
10
21.7811072
20
28.8850075
11
21.5819201
21
29.4319689
0
LINE
8
DEFAULT_255_1_234
10
23.1448964
20
29.0737534
11
23.1448964
21
28.9998614
0
LINE
8
DEFAULT_255_1_234
10
22.2043798
20
28.9894201
11
22.2043798
21
29.0737534
0
LINE
8
DEFAULT_255_1_234
10
22.9914902
20
28.9886169
11
22.9914902
21
29.0753597
0
LINE
8
DEFAULT_255_1_234
10
22.357786
20
29.085801
11
22.357786
21
28.9998614
0
ARC
8
DEFAULT_255_1_234
10
22.280699
20
28.9959015
40
0.8642064
50
350.487711
51
0.2625388
0
ARC
8
DEFAULT_255_1_234
10
22.5100232
20
28.9564578
40
0.631518
50
336.0277639
51
350.5787438
0
ARC
8
DEFAULT_255_1_234
10
22.6445055
20
28.8956892
40
0.4839466
50
319.8877444
51
336.1328423
0
ARC
8
DEFAULT_255_1_234
10
22.7047696
20
28.847458
40
0.4067874
50
302.4806467
51
319.6143626
0
ARC
8
DEFAULT_255_1_234
10
22.6932706
20
28.8696202
40
0.4316636
50
275.8195682
51
302.1884709
0
ARC
8
DEFAULT_255_1_234
10
22.6766339
20
28.9838665
40
0.5470306
50
269.9171439
51
276.3397983
0
ARC
8
DEFAULT_255_1_234
10
22.6721549
20
28.9152681
40
0.4784458
50
252.5219675
51
270.4416499
0
ARC
8
DEFAULT_255_1_234
10
22.6577808
20
28.8613592
40
0.422716
50
237.5352116
51
252.1857531
0
ARC
8
DEFAULT_255_1_234
10
22.6667004
20
28.8727363
40
0.4371052
50
209.063312
51
237.3492538
0
ARC
8
DEFAULT_255_1_234
10
22.7536852
20
28.9273685
40
0.5397041
50
205.1183774
51
209.6470015
0
ARC
8
DEFAULT_255_1_234
10
22.8333889
20
28.961183
40
0.6262326
50
188.7215458
51
204.8240747
0
ARC
8
DEFAULT_255_1_234
10
23.0331417
20
28.9948067
40
0.8287794
50
180.3723947
51
188.9252049
0
ARC
8
DEFAULT_255_1_234
10
23.0304169
20
29.0777402
40
0.8260467
50
169.5253763
51
180.2765336
0
ARC
8
DEFAULT_255_1_234
10
22.8401618
20
29.1127309
40
0.6326007
50
155.8315255
51
169.5089989
0
ARC
8
DEFAULT_255_1_234
10
22.7121119
20
29.1721348
40
0.4914567
50
139.6258461
51
156.0379525
0
ARC
8
DEFAULT_255_1_234
10
22.6531452
20
29.2195799
40
0.4158054
50
122.6416387
51
139.3430715
0
ARC
8
DEFAULT_255_1_234
10
22.6632072
20
29.2012451
40
0.4366739
50
93.0223692
51
122.455762
0
ARC
8
DEFAULT_255_1_234
10
22.6740069
20
29.1047709
40
0.5336137
50
89.975342
51
93.6341897
0
ARC
8
DEFAULT_255_1_234
10
22.6778848
20
29.1446242
40
0.4937738
50
73.746375
51
90.4233405
0
ARC
8
DEFAULT_255_1_234
10
22.6954427
20
29.2126287
40
0.4235786
50
57.662753
51
73.4518111
0
ARC
8
DEFAULT_255_1_234
10
22.6946433
20
29.2147832
40
0.4221899
50
29.1440151
51
57.414694
0
ARC
8
DEFAULT_255_1_234
10
22.6011628
20
29.1564005
40
0.5322966
50
24.0982783
51
29.7323517
0
ARC
8
DEFAULT_255_1_234
10
22.4977903
20
29.1135399
40
0.6441673
50
8.6655297
51
23.8241346
0
ARC
8
DEFAULT_255_1_234
10
22.2743641
20
29.0770854
40
0.8705386
50
359.7806941
51
8.8218784
0
ARC
8
DEFAULT_255_1_234
10
22.1596639
20
29.0796345
40
0.8318373
50
359.7055579
51
8.036044
0
ARC
8
DEFAULT_255_1_234
10
22.4596645
20
29.1233239
40
0.5286768
50
7.8928306
51
20.2962107
0
ARC
8
DEFAULT_255_1_234
10
22.6224216
20
29.1833395
40
0.3552073
50
20.3231126
51
36.4992797
0
ARC
8
DEFAULT_255_1_234
10
22.6909762
20
29.2361402
40
0.2686974
50
36.1437156
51
85.6627023
0
ARC
8
DEFAULT_255_1_234
10
22.6747308
20
29.1321221
40
0.373739
50
84.3852322
51
90.0757696
0
ARC
8
DEFAULT_255_1_234
10
22.670498
20
29.1981839
40
0.3076997
50
89.3038458
51
109.9045693
0
ARC
8
DEFAULT_255_1_234
10
22.6612371
20
29.2364062
40
0.2686424
50
110.8228367
51
143.9179474
0
ARC
8
DEFAULT_255_1_234
10
22.7546031
20
29.1651236
40
0.3860887
50
143.5289163
51
163.2980757
0
ARC
8
DEFAULT_255_1_234
10
22.9453852
20
29.1051433
40
0.5860659
50
163.0418846
51
174.3140048
0
ARC
8
DEFAULT_255_1_234
10
23.1857964
20
29.0773854
40
0.8280531
50
174.0509143
51
179.4176892
0
ARC
8
DEFAULT_255_1_234
10
23.1353703
20
28.9956954
40
0.7775954
50
179.6930361
51
188.7906598
0
ARC
8
DEFAULT_255_1_234
10
22.8690182
20
28.9530935
40
0.5078633
50
188.6331305
51
202.5629587
0
ARC
8
DEFAULT_255_1_234
10
22.7435774
20
28.9026996
40
0.3726913
50
202.8081362
51
216.1193925
0
ARC
8
DEFAULT_255_1_234
10
22.6626344
20
28.8375676
40
0.2689577
50
215.0755913
51
264.6379694
0
ARC
8
DEFAULT_255_1_234
10
22.6753294
20
28.9206513
40
0.3528978
50
263.846392
51
270.0833719
0
ARC
8
DEFAULT_255_1_234
10
22.6794684
20
28.8948374
40
0.3271036
50
269.3649385
51
287.5152008
0
ARC
8
DEFAULT_255_1_234
10
22.6972842
20
28.8301238
40
0.2600406
50
288.0630309
51
323.8113348
0
ARC
8
DEFAULT_255_1_234
10
22.6101684
20
28.8951049
40
0.3687189
50
323.6547608
51
342.6590488
0
ARC
8
DEFAULT_255_1_234
10
22.4070299
20
28.9611952
40
0.5823286
50
342.4091907
51
353.6451149
0
ARC
8
DEFAULT_255_1_234
10
22.1238809
20
28.996419
40
0.8676442
50
353.4029884
51
359.4847795
0
LINE
8
DEFAULT_255_1_234
10
24.0709558
20
29.1444327
11
24.0709558
21
28.9516709
0
LINE
8
DEFAULT_255_1_234
10
23.3328391
20
28.9315916
11
23.3328391
21
29.1299755
0
LINE
8
DEFAULT_255_1_234
10
23.9223687
20
28.9115123
11
23.9223687
21
29.1548739
0
LINE
8
DEFAULT_255_1_234
10
23.4814262
20
29.1661184
11
23.4814262
21
28.9283789
0
ARC
8
DEFAULT_255_1_234
10
22.8462448
20
28.9467805
40
1.2247208
50
353.8441951
51
0.2287902
0
ARC
8
DEFAULT_255_1_234
10
23.3101951
20
28.8949806
40
0.7578929
50
344.4934747
51
353.9765454
0
ARC
8
DEFAULT_255_1_234
10
23.6094542
20
28.8098981
40
0.4467846
50
329.2803592
51
344.7472793
0
ARC
8
DEFAULT_255_1_234
10
23.7087366
20
28.7554018
40
0.3336173
50
324.9352394
51
328.6160465
0
ARC
8
DEFAULT_255_1_234
10
23.7464475
20
28.7290427
40
0.2876076
50
280.580143
51
324.9173126
0
ARC
8
DEFAULT_255_1_234
10
23.7063268
20
28.8961099
40
0.4592847
50
269.5977311
51
281.6734359
0
ARC
8
DEFAULT_255_1_234
10
23.6991173
20
28.8841173
40
0.4472986
50
256.6228859
51
270.51044
0
ARC
8
DEFAULT_255_1_234
10
23.6589151
20
28.7292877
40
0.2873874
50
215.8618325
51
257.2788573
0
ARC
8
DEFAULT_255_1_234
10
23.7610183
20
28.7977977
40
0.4102928
50
197.9693508
51
215.2623606
0
ARC
8
DEFAULT_255_1_234
10
24.0095298
20
28.8816709
40
0.6725652
50
187.8816417
51
198.2346507
0
ARC
8
DEFAULT_255_1_234
10
24.4053507
20
28.9388079
40
1.0724845
50
180.8976217
51
188.0055519
0
ARC
8
DEFAULT_255_1_234
10
24.6853695
20
28.9491777
40
1.3526448
50
180.7449369
51
181.1510016
0
ARC
8
DEFAULT_255_1_234
10
24.5276424
20
29.1348042
40
1.1948131
50
173.7675579
51
180.231553
0
ARC
8
DEFAULT_255_1_234
10
24.075857
20
29.1858666
40
0.7401564
50
164.3058563
51
173.9002247
0
ARC
8
DEFAULT_255_1_234
10
23.7846639
20
29.2697656
40
0.4371288
50
148.7922025
51
164.568378
0
ARC
8
DEFAULT_255_1_234
10
23.6895091
20
29.3228929
40
0.3282386
50
144.5883898
51
148.1176286
0
ARC
8
DEFAULT_255_1_234
10
23.6551989
20
29.3468315
40
0.2864044
50
101.6440918
51
144.514236
0
ARC
8
DEFAULT_255_1_234
10
23.6977056
20
29.1779069
40
0.4604934
50
89.5284041
51
102.5819763
0
ARC
8
DEFAULT_255_1_234
10
23.7056144
20
29.1740018
40
0.464401
50
77.0437873
51
90.5081339
0
ARC
8
DEFAULT_255_1_234
10
23.7458146
20
29.3382615
40
0.2953195
50
48.2778575
51
77.4994676
0
ARC
8
DEFAULT_255_1_234
10
23.7530777
20
29.3511746
40
0.2808655
50
36.3142134
51
47.6305865
0
ARC
8
DEFAULT_255_1_234
10
23.6662084
20
29.2926515
40
0.3855453
50
18.2931786
51
35.6769206
0
ARC
8
DEFAULT_255_1_234
10
23.4118843
20
29.2053593
40
0.654423
50
8.024666
51
18.5605216
0
ARC
8
DEFAULT_255_1_234
10
22.9955763
20
29.1438792
40
1.0752407
50
1.1274072
51
8.1718305
0
ARC
8
DEFAULT_255_1_234
10
22.6719953
20
29.1311885
40
1.3990231
50
0.5424119
51
1.3863029
0
ARC
8
DEFAULT_255_1_234
10
22.8541331
20
29.1584342
40
1.0682415
50
359.8090433
51
4.9407866
0
ARC
8
DEFAULT_255_1_234
10
23.2751345
20
29.1960113
40
0.6455691
50
4.8362157
51
12.2904523
0
ARC
8
DEFAULT_255_1_234
10
23.550646
20
29.2573965
40
0.3633074
50
12.0805627
51
23.8173984
0
ARC
8
DEFAULT_255_1_234
10
23.6680165
20
29.3070919
40
0.2358723
50
24.2871213
51
31.3935614
0
ARC
8
DEFAULT_255_1_234
10
23.7204862
20
29.3414233
40
0.1732111
50
30.7407893
51
82.4657128
0
ARC
8
DEFAULT_255_1_234
10
23.7024997
20
29.2530691
40
0.263235
50
81.1060089
51
90.2184952
0
ARC
8
DEFAULT_255_1_234
10
23.6989296
20
29.2788924
40
0.2374236
50
89.3806855
51
105.6762551
0
ARC
8
DEFAULT_255_1_234
10
23.6805926
20
29.3455567
40
0.1682847
50
105.7981136
51
149.7388061
0
ARC
8
DEFAULT_255_1_234
10
23.7870005
20
29.281595
40
0.2924306
50
149.4208916
51
163.6286378
0
ARC
8
DEFAULT_255_1_234
10
23.9960893
20
29.217825
40
0.5110213
50
163.3763315
51
172.1410975
0
ARC
8
DEFAULT_255_1_234
10
24.3261612
20
29.1705518
40
0.8444586
50
172.0259487
51
178.0703232
0
ARC
8
DEFAULT_255_1_234
10
24.6291701
20
29.1561906
40
1.1477868
50
177.8631668
51
179.5044149
0
ARC
8
DEFAULT_255_1_234
10
24.5219106
20
28.9247389
40
1.0404907
50
179.7995573
51
185.2460446
0
ARC
8
DEFAULT_255_1_234
10
24.1176145
20
28.8864513
40
0.6343885
50
185.1411642
51
193.0079639
0
ARC
8
DEFAULT_255_1_234
10
23.8532617
20
28.8239641
40
0.3627568
50
192.7897626
51
205.2507664
0
ARC
8
DEFAULT_255_1_234
10
23.7486164
20
28.7772415
40
0.2481908
50
205.8005384
51
211.2537509
0
ARC
8
DEFAULT_255_1_234
10
23.6962605
20
28.742158
40
0.1852521
50
210.3789793
51
238.4008143
0
ARC
8
DEFAULT_255_1_234
10
23.6943127
20
28.7468376
40
0.1882621
50
239.6520629
51
265.9793761
0
ARC
8
DEFAULT_255_1_234
10
23.7028327
20
28.8140427
40
0.2559272
50
265.1315437
51
270.060332
0
ARC
8
DEFAULT_255_1_234
10
23.7057106
20
28.7816534
40
0.2235528
50
269.3314664
51
287.2178029
0
ARC
8
DEFAULT_255_1_234
10
23.7194958
20
28.7313279
40
0.1714108
50
287.7958004
51
329.080874
0
ARC
8
DEFAULT_255_1_234
10
23.6237415
20
28.791093
40
0.2842745
50
328.6634704
51
343.3325132
0
ARC
8
DEFAULT_255_1_234
10
23.4064435
20
28.8587863
40
0.5118644
50
343.0499468
51
351.9393422
0
ARC
8
DEFAULT_255_1_234
10
23.0597735
20
28.9098949
40
0.8622784
50
351.8069023
51
357.7959224
0
ARC
8
DEFAULT_255_1_234
10
22.7362291
20
28.9266721
40
1.1862365
50
357.5871873
51
359.2677531
0
ENDSEC
0
EOF