0
SECTION
2
HEADER
9
$MEASUREMENT
70
1
0
ENDSEC
0
SECTION
2
TABLES
0
TABLE
2
LTYPE
0
LTYPE
72
65
70
64
2
CONTINUOUS
3
______
73
0
40
0
0
ENDTAB
0
TABLE
2
LAYER
0
LAYER
2
DEFAULT_255_2_778
70
0
62
255
6
CONTINUOUS
0
LAYER
2
DEFAULT_255_1_234
70
0
62
255
6
CONTINUOUS
0
LAYER
2
DEFAULT_255_2_778_1
70
0
62
255
6
CONTINUOUS
0
ENDTAB
0
ENDSEC
0
SECTION
2
ENTITIES
0
ARC
8
DEFAULT_255_2_778
10
3.5700693
20
139.3052021
40
0.7914215
50
129.1312896
51
180.1450914
0
ARC
8
DEFAULT_255_2_778
10
3.5703345
20
139.3056893
40
0.7912112
50
89.854026
51
129.1684493
0
ARC
8
DEFAULT_255_2_778
10
25.7993937
20
139.3053758
40
0.7915249
50
39.4792447
51
90.147911
0
ARC
8
DEFAULT_255_2_778
10
25.7999935
20
139.3052224
40
0.7911595
50
359.8533901
51
39.5154338
0
ARC
8
DEFAULT_255_2_778
10
25.7996693
20
-1.9863501
40
0.7914836
50
309.4761667
51
0.1482649
0
ARC
8
DEFAULT_255_2_778
10
25.799398
20
-1.9867812
40
0.7913235
50
269.8517415
51
309.511178
0
ARC
8
DEFAULT_255_2_778
10
3.570342
20
-1.986723
40
0.7913815
50
219.1282118
51
270.1454017
0
ARC
8
DEFAULT_255_2_778
10
3.5700247
20
-1.9863406
40
0.7913769
50
179.8524075
51
219.1641908
0
LINE
8
DEFAULT_255_2_778
10
3.5723503
20
140.096898
11
25.7973503
21
140.096898
0
LINE
8
DEFAULT_255_2_778
10
26.5911503
20
139.303198
11
26.5911503
21
-1.984302
0
LINE
8
DEFAULT_255_2_778
10
25.7973503
20
-2.778102
11
3.5723503
21
-2.778102
0
LINE
8
DEFAULT_255_2_778
10
2.7786503
20
-1.984302
11
2.7786503
21
139.303198
0
LINE
8
DEFAULT_255_1_234
10
10.1795119
20
-0.5300208
11
10.1795119
21
-0.6513
0
LINE
8
DEFAULT_255_1_234
10
10.1795119
20
-0.6513
11
9.413284
21
-0.6513
0
LINE
8
DEFAULT_255_1_234
10
9.413284
20
-0.6513
11
9.413284
21
-0.5444779
0
LINE
8
DEFAULT_255_1_234
10
9.413284
20
-0.5444779
11
9.8180836
21
-0.0947005
0
LINE
8
DEFAULT_255_1_234
10
9.5393823
20
0.1735595
11
9.3907952
21
0.1735595
0
LINE
8
DEFAULT_255_1_234
10
9.9056296
20
-0.1902782
11
9.5923918
21
-0.5300208
0
LINE
8
DEFAULT_255_1_234
10
9.5923918
20
-0.5300208
11
10.1795119
21
-0.5300208
0
ARC
8
DEFAULT_255_1_234
10
8.469067
20
1.0982527
40
1.8008286
50
318.5132453
51
320.7828378
0
ARC
8
DEFAULT_255_1_234
10
8.9977644
20
0.6679426
40
1.1191493
50
320.7372736
51
323.9737074
0
ARC
8
DEFAULT_255_1_234
10
9.3897501
20
0.3839361
40
0.6350923
50
323.8961724
51
328.6421089
0
ARC
8
DEFAULT_255_1_234
10
9.5944096
20
0.2577031
40
0.3946393
50
328.8299013
51
331.789948
0
ARC
8
DEFAULT_255_1_234
10
9.6941274
20
0.2062509
40
0.2824501
50
331.4255242
51
352.9364833
0
ARC
8
DEFAULT_255_1_234
10
9.7077775
20
0.2031976
40
0.2685315
50
353.2248685
51
0.0169286
0
ARC
8
DEFAULT_255_1_234
10
9.7287652
20
0.205495
40
0.2475536
50
359.4866256
51
15.9339782
0
ARC
8
DEFAULT_255_1_234
10
9.7794637
20
0.2191286
40
0.1950618
50
16.1714718
51
43.5284424
0
ARC
8
DEFAULT_255_1_234
10
9.7871946
20
0.2268573
40
0.184134
50
43.4415429
51
83.1661404
0
ARC
8
DEFAULT_255_1_234
10
9.7737864
20
0.1531771
40
0.258926
50
82.160215
51
90.1505798
0
ARC
8
DEFAULT_255_1_234
10
9.7706291
20
0.0994865
40
0.3126255
50
89.5460705
51
102.5418777
0
ARC
8
DEFAULT_255_1_234
10
9.7463377
20
0.2025665
40
0.2067346
50
102.1739365
51
129.2061916
0
ARC
8
DEFAULT_255_1_234
10
9.7384449
20
0.2150094
40
0.1921118
50
129.7279328
51
135.7542026
0
ARC
8
DEFAULT_255_1_234
10
9.7505977
20
0.2053045
40
0.2075944
50
136.175737
51
166.3674722
0
ARC
8
DEFAULT_255_1_234
10
9.8512896
20
0.1783182
40
0.3118201
50
165.9092917
51
178.8683903
0
ARC
8
DEFAULT_255_1_234
10
9.9377757
20
0.1736179
40
0.3983935
50
178.438168
51
180.0083905
0
ARC
8
DEFAULT_255_1_234
10
9.7976359
20
0.1775231
40
0.4068601
50
163.2878735
51
180.5581814
0
ARC
8
DEFAULT_255_1_234
10
9.7174621
20
0.199584
40
0.3237344
50
133.454115
51
162.9470031
0
ARC
8
DEFAULT_255_1_234
10
9.7353162
20
0.1806
40
0.349795
50
100.7869394
51
133.4384016
0
ARC
8
DEFAULT_255_1_234
10
9.7700934
20
0.0257319
40
0.5084616
50
89.6605301
51
101.3704185
0
ARC
8
DEFAULT_255_1_234
10
9.7767273
20
0.0318496
40
0.502348
50
78.2171172
51
90.4130393
0
ARC
8
DEFAULT_255_1_234
10
9.8122351
20
0.1942637
40
0.3361092
50
55.9268222
51
78.4888551
0
ARC
8
DEFAULT_255_1_234
10
9.8318791
20
0.2281324
40
0.2970617
50
47.9292255
51
55.4054003
0
ARC
8
DEFAULT_255_1_234
10
9.8420352
20
0.2384502
40
0.2825983
50
4.3347696
51
48.0560701
0
ARC
8
DEFAULT_255_1_234
10
9.7324745
20
0.2214601
40
0.393225
50
359.925209
51
5.5967654
0
ARC
8
DEFAULT_255_1_234
10
9.7753637
20
0.2270816
40
0.3503892
50
337.8914096
51
358.9967724
0
ARC
8
DEFAULT_255_1_234
10
9.5040049
20
0.3317706
40
0.6412172
50
326.9135351
51
338.3505194
0
ARC
8
DEFAULT_255_1_234
10
9.1054353
20
0.5872284
40
1.1146189
50
319.6472867
51
327.095818
0
ARC
8
DEFAULT_255_1_234
10
8.7221356
20
0.9034
40
1.6114559
50
317.2586784
51
319.9046139
0
LINE
8
DEFAULT_255_1_234
10
10.3754863
20
0.5181211
11
10.5746734
21
0.5181211
0
LINE
8
DEFAULT_255_1_234
10
10.5746734
20
0.5181211
11
10.9569841
21
-0.4360494
0
LINE
8
DEFAULT_255_1_234
10
10.9569841
20
-0.4360494
11
11.3392949
21
0.5181211
0
LINE
8
DEFAULT_255_1_234
10
11.3392949
20
0.5181211
11
11.5392852
21
0.5181211
0
LINE
8
DEFAULT_255_1_234
10
11.5392852
20
0.5181211
11
11.5392852
21
-0.6513
0
LINE
8
DEFAULT_255_1_234
10
11.5392852
20
-0.6513
11
11.3850758
21
-0.6513
0
LINE
8
DEFAULT_255_1_234
10
11.3850758
20
-0.6513
11
11.3850758
21
-0.1959004
0
LINE
8
DEFAULT_255_1_234
10
11.3850758
20
-0.1959004
11
11.3995329
21
0.2956419
0
LINE
8
DEFAULT_255_1_234
10
11.3995329
20
0.2956419
11
11.0156158
21
-0.6513
0
LINE
8
DEFAULT_255_1_234
10
11.0156158
20
-0.6513
11
10.8975493
21
-0.6513
0
LINE
8
DEFAULT_255_1_234
10
10.8975493
20
-0.6513
11
10.5144354
21
0.2932324
0
LINE
8
DEFAULT_255_1_234
10
10.5144354
20
0.2932324
11
10.5296957
21
-0.1959004
0
LINE
8
DEFAULT_255_1_234
10
10.5296957
20
-0.1959004
11
10.5296957
21
-0.6513
0
LINE
8
DEFAULT_255_1_234
10
10.5296957
20
-0.6513
11
10.3754863
21
-0.6513
0
LINE
8
DEFAULT_255_1_234
10
10.3754863
20
-0.6513
11
10.3754863
21
0.5181211
0
LINE
8
DEFAULT_255_1_234
10
11.9665736
20
0.5181211
11
11.9665736
21
-0.5252017
0
LINE
8
DEFAULT_255_1_234
10
11.9665736
20
-0.5252017
11
12.5207636
21
-0.5252017
0
LINE
8
DEFAULT_255_1_234
10
12.5207636
20
-0.5252017
11
12.5207636
21
-0.6513
0
LINE
8
DEFAULT_255_1_234
10
12.5207636
20
-0.6513
11
11.8115611
21
-0.6513
0
LINE
8
DEFAULT_255_1_234
10
11.8115611
20
-0.6513
11
11.8115611
21
0.5181211
0
LINE
8
DEFAULT_255_1_234
10
11.8115611
20
0.5181211
11
11.9665736
21
0.5181211
0
LINE
8
DEFAULT_255_1_234
10
13.3416072
20
-0.0087609
11
13.3416072
21
-0.1348592
0
LINE
8
DEFAULT_255_1_234
10
13.3416072
20
-0.1348592
11
12.850868
21
-0.1348592
0
LINE
8
DEFAULT_255_1_234
10
12.850868
20
-0.1348592
11
12.850868
21
-0.6513
0
LINE
8
DEFAULT_255_1_234
10
12.850868
20
-0.6513
11
12.6966586
21
-0.6513
0
LINE
8
DEFAULT_255_1_234
10
12.6966586
20
-0.6513
11
12.6966586
21
0.5181211
0
LINE
8
DEFAULT_255_1_234
10
12.6966586
20
0.5181211
11
13.4211214
21
0.5181211
0
LINE
8
DEFAULT_255_1_234
10
13.4211214
20
0.5181211
11
13.4211214
21
0.3912196
0
LINE
8
DEFAULT_255_1_234
10
13.4211214
20
0.3912196
11
12.850868
21
0.3912196
0
LINE
8
DEFAULT_255_1_234
10
12.850868
20
0.3912196
11
12.850868
21
-0.0087609
0
LINE
8
DEFAULT_255_1_234
10
12.850868
20
-0.0087609
11
13.3416072
21
-0.0087609
0
LINE
8
DEFAULT_255_1_234
10
13.8917813
20
-0.0938974
11
13.8917813
21
-0.2151766
0
LINE
8
DEFAULT_255_1_234
10
13.8917813
20
-0.2151766
11
13.4998325
21
-0.2151766
0
LINE
8
DEFAULT_255_1_234
10
13.4998325
20
-0.2151766
11
13.4998325
21
-0.0938974
0
LINE
8
DEFAULT_255_1_234
10
13.4998325
20
-0.0938974
11
13.8917813
21
-0.0938974
0
LINE
8
DEFAULT_255_1_234
10
14.8170375
20
-0.6513
11
14.7053964
21
-0.3460939
0
LINE
8
DEFAULT_255_1_234
10
14.7053964
20
-0.3460939
11
14.2154604
21
-0.3460939
0
LINE
8
DEFAULT_255_1_234
10
14.2154604
20
-0.3460939
11
14.1054255
21
-0.6513
0
LINE
8
DEFAULT_255_1_234
10
14.1054255
20
-0.6513
11
13.9463971
21
-0.6513
0
LINE
8
DEFAULT_255_1_234
10
13.9463971
20
-0.6513
11
14.3929618
21
0.5181211
0
LINE
8
DEFAULT_255_1_234
10
14.3929618
20
0.5181211
11
14.527895
21
0.5181211
0
LINE
8
DEFAULT_255_1_234
10
14.527895
20
0.5181211
11
14.9752628
21
-0.6513
0
LINE
8
DEFAULT_255_1_234
10
14.9752628
20
-0.6513
11
14.8170375
21
-0.6513
0
LINE
8
DEFAULT_255_1_234
10
14.4604284
20
0.3277689
11
14.2620444
21
-0.2191925
0
LINE
8
DEFAULT_255_1_234
10
14.2620444
20
-0.2191925
11
14.6596155
21
-0.2191925
0
LINE
8
DEFAULT_255_1_234
10
14.6596155
20
-0.2191925
11
14.4604284
21
0.3277689
0
LINE
8
DEFAULT_255_1_234
10
15.4563639
20
-0.6513
11
15.1326849
21
-0.6513
0
LINE
8
DEFAULT_255_1_234
10
15.1326849
20
-0.6513
11
15.1326849
21
0.5181211
0
LINE
8
DEFAULT_255_1_234
10
15.1326849
20
0.5181211
11
15.4627893
21
0.5181211
0
LINE
8
DEFAULT_255_1_234
10
15.9784269
20
-0.0272339
11
15.9784269
21
-0.1019291
0
LINE
8
DEFAULT_255_1_234
10
15.4668052
20
0.3912196
11
15.2868942
21
0.3912196
0
LINE
8
DEFAULT_255_1_234
10
15.2868942
20
0.3912196
11
15.2868942
21
-0.5252017
0
LINE
8
DEFAULT_255_1_234
10
15.2868942
20
-0.5252017
11
15.4491354
21
-0.5252017
0
LINE
8
DEFAULT_255_1_234
10
15.8258239
20
-0.0987164
11
15.8258239
21
-0.0304466
0
ARC
8
DEFAULT_255_1_234
10
15.4666836
20
-0.0684106
40
0.5865446
50
75.4101064
51
90.3804066
0
ARC
8
DEFAULT_255_1_234
10
15.4896349
20
0.0272492
40
0.4881916
50
60.145586
51
75.1888407
0
ARC
8
DEFAULT_255_1_234
10
15.5055125
20
0.0549199
40
0.4562893
50
26.5253612
51
60.1450928
0
ARC
8
DEFAULT_255_1_234
10
15.3934874
20
-0.0044842
40
0.5830602
50
7.4030428
51
26.8320788
0
ARC
8
DEFAULT_255_1_234
10
15.2340631
20
-0.0293196
40
0.7443669
50
0.1605367
51
7.7176192
0
ARC
8
DEFAULT_255_1_234
10
15.2504535
20
-0.1057566
40
0.7279835
50
348.7289388
51
0.3012466
0
ARC
8
DEFAULT_255_1_234
10
15.4160965
20
-0.1386614
40
0.559104
50
333.0706509
51
348.7181832
0
ARC
8
DEFAULT_255_1_234
10
15.5127723
20
-0.1911681
40
0.4491417
50
299.2531685
51
333.4571258
0
ARC
8
DEFAULT_255_1_234
10
15.4766863
20
-0.1226172
40
0.5265881
50
278.107187
51
299.0339503
0
ARC
8
DEFAULT_255_1_234
10
15.4510942
20
0.0281216
40
0.679442
50
270.4443897
51
278.4511052
0
ARC
8
DEFAULT_255_1_234
10
15.4531772
20
-0.0647787
40
0.4604407
50
269.4970433
51
284.0205042
0
ARC
8
DEFAULT_255_1_234
10
15.4887073
20
-0.2013022
40
0.3193797
50
283.7700273
51
318.1555492
0
ARC
8
DEFAULT_255_1_234
10
15.4549831
20
-0.1760633
40
0.3613588
50
318.7415601
51
343.6873628
0
ARC
8
DEFAULT_255_1_234
10
15.2745854
20
-0.1197168
40
0.5503313
50
343.3325091
51
355.8548958
0
ARC
8
DEFAULT_255_1_234
10
15.0647538
20
-0.0997681
40
0.7610708
50
355.4988528
51
0.0791727
0
ARC
8
DEFAULT_255_1_234
10
15.1430161
20
-0.026222
40
0.6828208
50
359.6455037
51
9.8607896
0
ARC
8
DEFAULT_255_1_234
10
15.3790859
20
0.0164099
40
0.4429406
50
9.6571907
51
26.1932807
0
ARC
8
DEFAULT_255_1_234
10
15.4718848
20
0.0595118
40
0.3406537
50
26.5777228
51
40.1532208
0
ARC
8
DEFAULT_255_1_234
10
15.4974574
20
0.0794619
40
0.308246
50
40.3840491
51
80.1431104
0
ARC
8
DEFAULT_255_1_234
10
15.4647692
20
-0.0654667
40
0.4566909
50
79.2152159
51
89.7445637
0
LINE
8
DEFAULT_255_1_234
10
16.6611247
20
0.5237433
11
16.6611247
21
-0.6513
0
LINE
8
DEFAULT_255_1_234
10
16.6611247
20
-0.6513
11
16.5117343
21
-0.6513
0
LINE
8
DEFAULT_255_1_234
10
16.5117343
20
-0.6513
11
16.5117343
21
0.3390133
0
LINE
8
DEFAULT_255_1_234
10
16.5117343
20
0.3390133
11
16.2121505
21
0.2289785
0
LINE
8
DEFAULT_255_1_234
10
16.2121505
20
0.2289785
11
16.2121505
21
0.3639117
0
LINE
8
DEFAULT_255_1_234
10
16.2121505
20
0.3639117
11
16.6378326
21
0.5237433
0
LINE
8
DEFAULT_255_1_234
10
16.6378326
20
0.5237433
11
16.6611247
21
0.5237433
0
LINE
8
DEFAULT_255_1_234
10
17.6530443
20
0.5189243
11
17.6795491
21
0.5189243
0
LINE
8
DEFAULT_255_1_234
10
17.6795491
20
0.5189243
11
17.6795491
21
0.392826
0
LINE
8
DEFAULT_255_1_234
10
17.6795491
20
0.392826
11
17.6522412
21
0.392826
0
LINE
8
DEFAULT_255_1_234
10
17.1052798
20
-0.2063417
11
17.1052798
21
-0.1493164
0
LINE
8
DEFAULT_255_1_234
10
17.2546701
20
-0.1685925
11
17.2546701
21
-0.2232083
0
ARC
8
DEFAULT_255_1_234
10
17.6574759
20
-0.1069545
40
0.4998079
50
90.6001036
51
104.514704
0
ARC
8
DEFAULT_255_1_234
10
17.6186275
20
0.0375131
40
0.3502176
50
104.2855254
51
133.862935
0
ARC
8
DEFAULT_255_1_234
10
17.6350032
20
0.026683
40
0.3693984
50
134.5302688
51
161.6210873
0
ARC
8
DEFAULT_255_1_234
10
17.8003221
20
-0.0316105
40
0.5446739
50
161.2849839
51
174.2076652
0
ARC
8
DEFAULT_255_1_234
10
17.9410158
20
-0.0510213
40
0.6866274
50
173.7810589
51
174.9254635
0
ARC
8
DEFAULT_255_1_234
10
17.485999
20
-0.1893161
40
0.3033419
50
95.8330959
51
138.9954921
0
ARC
8
DEFAULT_255_1_234
10
17.5083346
20
-0.3171625
40
0.4328947
50
89.8753725
51
97.0544009
0
ARC
8
DEFAULT_255_1_234
10
17.5130812
20
-0.2336252
40
0.3493769
50
71.6407809
51
90.6240094
0
ARC
8
DEFAULT_255_1_234
10
17.5281386
20
-0.1781918
40
0.2920396
50
39.6367836
51
71.019018
0
ARC
8
DEFAULT_255_1_234
10
17.4644859
20
-0.2332002
40
0.3761538
50
10.658731
51
39.9043955
0
ARC
8
DEFAULT_255_1_234
10
17.3096942
20
-0.2668314
40
0.5345136
50
359.682601
51
11.132623
0
ARC
8
DEFAULT_255_1_234
10
17.3057072
20
-0.273899
40
0.5385081
50
347.2486944
51
0.4369317
0
ARC
8
DEFAULT_255_1_234
10
17.4724549
20
-0.3140193
40
0.3670249
50
318.1409698
51
347.6118597
0
ARC
8
DEFAULT_255_1_234
10
17.5049542
20
-0.3407298
40
0.3250007
50
275.6342139
51
317.8248465
0
ARC
8
DEFAULT_255_1_234
10
17.4828654
20
-0.2107781
40
0.4565864
50
269.8874292
51
276.7917694
0
ARC
8
DEFAULT_255_1_234
10
17.4773724
20
-0.3133257
40
0.3540676
50
246.9140195
51
270.7437342
0
ARC
8
DEFAULT_255_1_234
10
17.4780115
20
-0.3275616
40
0.3412781
50
218.1665114
51
245.878116
0
ARC
8
DEFAULT_255_1_234
10
17.5659575
20
-0.2539721
40
0.455911
50
191.4115814
51
218.6077802
0
ARC
8
DEFAULT_255_1_234
10
17.7597665
20
-0.2105167
40
0.6545001
50
179.6345085
51
191.7836486
0
ARC
8
DEFAULT_255_1_234
10
18.3180001
20
-0.1426303
40
1.2127388
50
171.4525249
51
180.3158839
0
ARC
8
DEFAULT_255_1_234
10
17.8784877
20
-0.0742392
40
0.7679464
50
157.9802646
51
171.6246686
0
ARC
8
DEFAULT_255_1_234
10
17.6570898
20
0.0140421
40
0.5296008
50
141.4298019
51
157.854097
0
ARC
8
DEFAULT_255_1_234
10
17.5929219
20
0.0594381
40
0.4511509
50
102.8715806
51
140.8564722
0
ARC
8
DEFAULT_255_1_234
10
17.6576834
20
-0.1845448
40
0.7034845
50
90.3778349
51
103.5869322
0
ARC
8
DEFAULT_255_1_234
10
17.483861
20
-0.245027
40
0.2370698
50
89.8751008
51
126.2071704
0
ARC
8
DEFAULT_255_1_234
10
17.48844
20
-0.2604697
40
0.2522934
50
124.9745049
51
144.895901
0
ARC
8
DEFAULT_255_1_234
10
17.4708591
20
-0.246144
40
0.2296779
50
145.2974905
51
160.2660252
0
ARC
8
DEFAULT_255_1_234
10
17.778113
20
-0.2263929
40
0.5234525
50
179.6514266
51
190.2855912
0
ARC
8
DEFAULT_255_1_234
10
17.6087267
20
-0.2583214
40
0.3510893
50
190.0945431
51
207.5098196
0
ARC
8
DEFAULT_255_1_234
10
17.5521537
20
-0.2852377
40
0.288489
50
207.9583163
51
216.3251085
0
ARC
8
DEFAULT_255_1_234
10
17.5181644
20
-0.3131895
40
0.2445587
50
215.7661442
51
232.5456785
0
ARC
8
DEFAULT_255_1_234
10
17.4798627
20
-0.3618518
40
0.1826382
50
232.8005391
51
270.6605633
0
ARC
8
DEFAULT_255_1_234
10
17.4844328
20
-0.3254388
40
0.2190529
50
269.35537
51
288.4744281
0
ARC
8
DEFAULT_255_1_234
10
17.4937225
20
-0.3603882
40
0.1829749
50
289.1833337
51
322.9683818
0
ARC
8
DEFAULT_255_1_234
10
17.4325748
20
-0.3121609
40
0.2608399
50
322.6007884
51
346.5182367
0
ARC
8
DEFAULT_255_1_234
10
17.3168344
20
-0.2826384
40
0.3802777
50
346.2582162
51
358.7741648
0
ARC
8
DEFAULT_255_1_234
10
17.2150012
20
-0.2771035
40
0.4822176
50
358.3755224
51
0.0098023
0
ARC
8
DEFAULT_255_1_234
10
17.29062
20
-0.2743343
40
0.4066078
50
359.6214041
51
11.2839074
0
ARC
8
DEFAULT_255_1_234
10
17.4183346
20
-0.2476934
40
0.2761514
50
11.0482309
51
31.8146458
0
ARC
8
DEFAULT_255_1_234
10
17.4492389
20
-0.2309416
40
0.2410679
50
32.3035391
51
38.082671
0
ARC
8
DEFAULT_255_1_234
10
17.4913049
20
-0.1928338
40
0.1844966
50
36.825067
51
85.7415724
0
ARC
8
DEFAULT_255_1_234
10
17.4845883
20
-0.2428699
40
0.2349122
50
85.0140713
51
90.0513278
0
LINE
8
DEFAULT_255_1_234
10
18.81604
20
-0.6513
11
18.7043989
21
-0.3460939
0
LINE
8
DEFAULT_255_1_234
10
18.7043989
20
-0.3460939
11
18.2144628
21
-0.3460939
0
LINE
8
DEFAULT_255_1_234
10
18.2144628
20
-0.3460939
11
18.104428
21
-0.6513
0
LINE
8
DEFAULT_255_1_234
10
18.104428
20
-0.6513
11
17.9453996
21
-0.6513
0
LINE
8
DEFAULT_255_1_234
10
17.9453996
20
-0.6513
11
18.3919643
21
0.5181211
0
LINE
8
DEFAULT_255_1_234
10
18.3919643
20
0.5181211
11
18.5268975
21
0.5181211
0
LINE
8
DEFAULT_255_1_234
10
18.5268975
20
0.5181211
11
18.9742653
21
-0.6513
0
LINE
8
DEFAULT_255_1_234
10
18.9742653
20
-0.6513
11
18.81604
21
-0.6513
0
LINE
8
DEFAULT_255_1_234
10
18.4594309
20
0.3277689
11
18.2610469
21
-0.2191925
0
LINE
8
DEFAULT_255_1_234
10
18.2610469
20
-0.2191925
11
18.658618
21
-0.2191925
0
LINE
8
DEFAULT_255_1_234
10
18.658618
20
-0.2191925
11
18.4594309
21
0.3277689
0
ARC
8
DEFAULT_255_2_778
10
12.6050348
20
137.6038041
40
0.3813723
50
156.9728279
51
180.9672924
0
ARC
8
DEFAULT_255_2_778
10
12.4650905
20
137.6664556
40
0.2280903
50
120.6143155
51
157.7057572
0
ARC
8
DEFAULT_255_2_778
10
12.423185
20
137.7283889
40
0.1535155
50
105.6024085
51
118.9253865
0
ARC
8
DEFAULT_255_2_778
10
12.4163051
20
137.753158
40
0.1278087
50
90.2188612
51
105.6183161
0
ARC
8
DEFAULT_255_2_778
10
12.4186564
20
137.5860412
40
0.2949385
50
82.1187511
51
90.5516271
0
ARC
8
DEFAULT_255_2_778
10
12.4470429
20
137.7507036
40
0.128059
50
23.164146
51
84.5981403
0
ARC
8
DEFAULT_255_2_778
10
12.3195078
20
137.6989267
40
0.2656921
50
1.2065942
51
22.6109196
0
ARC
8
DEFAULT_255_2_778
10
12.1068205
20
137.6810377
40
0.4788966
50
359.9555286
51
2.8107684
0
ARC
8
DEFAULT_255_2_778
10
12.4802764
20
137.6696207
40
0.6523641
50
359.5121336
51
18.1513483
0
ARC
8
DEFAULT_255_2_778
10
12.6313291
20
137.7206245
40
0.4929411
50
17.987628
51
47.7515239
0
ARC
8
DEFAULT_255_2_778
10
12.6654537
20
137.7523389
40
0.4465388
50
48.2567149
51
90.320171
0
ARC
8
DEFAULT_255_2_778
10
12.6638541
20
137.7042874
40
0.4945841
50
90.103751
51
104.0317339
0
ARC
8
DEFAULT_255_2_778
10
12.6706581
20
137.6729342
40
0.5266526
50
103.9228462
51
106.737064
0
ARC
8
DEFAULT_255_2_778
10
12.6850928
20
137.6302316
40
0.5717052
50
106.8899656
51
120.2615348
0
ARC
8
DEFAULT_255_2_778
10
12.7341581
20
137.5457122
40
0.6694339
50
120.2432243
51
131.2854864
0
ARC
8
DEFAULT_255_2_778
10
12.785036
20
137.484952
40
0.7486631
50
131.143212
51
134.0802792
0
ARC
8
DEFAULT_255_2_778
10
15.2709404
20
136.5119131
40
0.1197666
50
309.5218924
51
339.9060311
0
ARC
8
DEFAULT_255_2_778
10
15.3039085
20
136.4744254
40
0.0698871
50
287.710739
51
308.230668
0
ARC
8
DEFAULT_255_2_778
10
15.3092212
20
136.4587982
40
0.0533853
50
270.2503717
51
287.3813074
0
ARC
8
DEFAULT_255_2_778
10
15.3118783
20
136.4596536
40
0.0542942
50
194.7346052
51
267.4414086
0
ARC
8
DEFAULT_255_2_778
10
15.3603123
20
136.482672
40
0.107451
50
190.9475811
51
200.0439116
0
ARC
8
DEFAULT_255_2_778
10
14.9941035
20
136.4697621
40
0.2608211
50
358.353068
51
64.1268931
0
ARC
8
DEFAULT_255_2_778
10
15.0249058
20
136.5154249
40
0.206441
50
66.2890109
51
89.9969258
0
ARC
8
DEFAULT_255_2_778
10
15.0382115
20
136.4801645
40
0.2420668
50
93.1483498
51
177.0819403
0
ARC
8
DEFAULT_255_2_778
10
15.0906424
20
136.4623292
40
0.2957256
50
174.1467469
51
180.0122521
0
ARC
8
DEFAULT_255_2_778
10
15.0902349
20
136.465793
40
0.2953391
50
180.6842551
51
197.2976119
0
ARC
8
DEFAULT_255_2_778
10
15.1427344
20
136.4819135
40
0.3502574
50
197.2618666
51
237.3003567
0
ARC
8
DEFAULT_255_2_778
10
15.1574152
20
136.510555
40
0.3823034
50
237.7678185
51
267.0989043
0
ARC
8
DEFAULT_255_2_778
10
15.1676437
20
136.595885
40
0.468079
50
266.3770992
51
270.0209723
0
ARC
8
DEFAULT_255_2_778
10
15.1676985
20
136.6261308
40
0.4983248
50
270.0133909
51
272.716577
0
ARC
8
DEFAULT_255_2_778
10
15.1758148
20
136.5115424
40
0.3834899
50
272.3167324
51
299.1303886
0
ARC
8
DEFAULT_255_2_778
10
15.1234049
20
136.5850329
40
0.4733038
50
300.3417229
51
327.7658215
0
ARC
8
DEFAULT_255_2_778
10
14.9406676
20
136.7135134
40
0.6964958
50
326.843622
51
335.4998036
0
ARC
8
DEFAULT_255_2_778
10
14.8514976
20
136.7557766
40
0.7951648
50
335.3932154
51
340.0324022
0
ARC
8
DEFAULT_255_2_778
10
14.8370312
20
136.7613094
40
0.8106509
50
340.0140149
51
340.5492811
0
ARC
8
DEFAULT_255_2_778
10
10.7612214
20
137.4594581
40
0.768197
50
90.8730151
51
175.0627552
0
ARC
8
DEFAULT_255_2_778
10
10.8136126
20
137.4430058
40
0.8218958
50
174.2343992
51
180.0097514
0
ARC
8
DEFAULT_255_2_778
10
10.7889867
20
137.4397729
40
0.7972759
50
179.7777162
51
222.1414196
0
ARC
8
DEFAULT_255_2_778
10
10.7511509
20
137.401835
40
0.7437709
50
221.9300285
51
269.8741254
0
ARC
8
DEFAULT_255_2_778
10
10.7376549
20
137.4262244
40
0.7682501
50
270.8846918
51
355.0667038
0
ARC
8
DEFAULT_255_2_778
10
10.6852873
20
137.4427267
40
0.8219296
50
354.2345114
51
0.0097094
0
ARC
8
DEFAULT_255_2_778
10
10.7100678
20
137.4459703
40
0.7971551
50
359.7768758
51
42.1436072
0
ARC
8
DEFAULT_255_2_778
10
10.7478782
20
137.4838788
40
0.7436889
50
41.9327014
51
89.8737509
0
ARC
8
DEFAULT_255_2_778
10
10.7319112
20
137.0666045
40
0.2064136
50
282.3154686
51
2.5716381
0
ARC
8
DEFAULT_255_2_778
10
10.749558
20
137.0315913
40
0.1687253
50
269.98603
51
278.995025
0
ARC
8
DEFAULT_255_2_778
10
10.7617107
20
137.0630042
40
0.2005094
50
178.6786273
51
266.5134562
0
ARC
8
DEFAULT_255_2_778
10
10.8074017
20
137.0758655
40
0.2462849
50
179.9999044
51
181.9167359
0
ARC
8
DEFAULT_255_2_778
10
10.7673954
20
137.8191548
40
0.2064787
50
103.0315545
51
182.5228891
0
ARC
8
DEFAULT_255_2_778
10
10.7494718
20
137.8542048
40
0.1685611
50
89.9846994
51
99.7807169
0
ARC
8
DEFAULT_255_2_778
10
10.7371616
20
137.8222176
40
0.2009286
50
358.490526
51
86.4746259
0
ARC
8
DEFAULT_255_2_778
10
10.6939639
20
137.8100644
40
0.244153
50
0.0003602
51
1.6101146
0
ARC
8
DEFAULT_255_2_778
10
13.7769085
20
137.4423122
40
1.0339085
50
353.7729731
51
0.0306848
0
ARC
8
DEFAULT_255_2_778
10
14.0136678
20
137.4459703
40
0.7971551
50
359.7768758
51
42.1436072
0
ARC
8
DEFAULT_255_2_778
10
14.0514782
20
137.4838788
40
0.7436889
50
41.9327014
51
89.8737509
0
ARC
8
DEFAULT_255_2_778
10
14.0648214
20
137.4594581
40
0.768197
50
90.8730151
51
175.0627552
0
ARC
8
DEFAULT_255_2_778
10
14.1172126
20
137.4430058
40
0.8218958
50
174.2343992
51
180.0097514
0
ARC
8
DEFAULT_255_2_778
10
14.0925867
20
137.4397729
40
0.7972759
50
179.7777162
51
222.1414196
0
ARC
8
DEFAULT_255_2_778
10
14.0547509
20
137.401835
40
0.7437709
50
221.9300285
51
269.8741254
0
ARC
8
DEFAULT_255_2_778
10
14.0479775
20
137.4118375
40
0.753789
50
270.3906469
51
332.9011285
0
ARC
8
DEFAULT_255_2_778
10
14.0503073
20
137.4233988
40
0.5766383
50
270.2493497
51
330.3649047
0
ARC
8
DEFAULT_255_2_778
10
14.0738266
20
137.0517117
40
0.2060198
50
188.4673322
51
264.146848
0
ARC
8
DEFAULT_255_2_778
10
14.1170452
20
137.0758502
40
0.2529285
50
180.0643852
51
192.4374066
0
ARC
8
DEFAULT_255_2_778
10
14.070552
20
137.8193297
40
0.2060435
50
102.2220352
51
182.5768883
0
ARC
8
DEFAULT_255_2_778
10
14.0532765
20
137.8535306
40
0.1692354
50
89.9863487
51
98.9553742
0
ARC
8
DEFAULT_255_2_778
10
14.0410627
20
137.8224487
40
0.2006917
50
358.1298546
51
86.4993767
0
ARC
8
DEFAULT_255_2_778
10
13.9951604
20
137.8100582
40
0.2465564
50
0.0018041
51
1.3574921
0
ARC
8
DEFAULT_255_2_778
10
18.8395085
20
137.4423122
40
1.0339085
50
353.7729731
51
0.0306848
0
ARC
8
DEFAULT_255_2_778
10
19.0763127
20
137.4459756
40
0.7971102
50
359.7764759
51
42.1460177
0
ARC
8
DEFAULT_255_2_778
10
19.1140101
20
137.4837511
40
0.7438166
50
41.9370909
51
89.8762358
0
ARC
8
DEFAULT_255_2_778
10
19.1273214
20
137.4594581
40
0.768197
50
90.8730151
51
175.0627552
0
ARC
8
DEFAULT_255_2_778
10
19.1797126
20
137.4430058
40
0.8218958
50
174.2343992
51
180.0097514
0
ARC
8
DEFAULT_255_2_778
10
19.1550867
20
137.4397729
40
0.7972759
50
179.7777162
51
222.1414196
0
ARC
8
DEFAULT_255_2_778
10
19.1172509
20
137.401835
40
0.7437709
50
221.9300285
51
269.8741254
0
ARC
8
DEFAULT_255_2_778
10
19.1104966
20
137.4122973
40
0.7542487
50
270.3889576
51
332.8797533
0
ARC
8
DEFAULT_255_2_778
10
19.1131073
20
137.4233988
40
0.5766383
50
270.2493497
51
330.3649047
0
ARC
8
DEFAULT_255_2_778
10
19.1366787
20
137.051307
40
0.2056225
50
188.7424888
51
264.120891
0
ARC
8
DEFAULT_255_2_778
10
19.180402
20
137.0758673
40
0.2531853
50
180.0682018
51
192.7352383
0
ARC
8
DEFAULT_255_2_778
10
19.1332623
20
137.819031
40
0.2062492
50
102.479692
51
182.5468765
0
ARC
8
DEFAULT_255_2_778
10
19.1155784
20
137.8540755
40
0.1684904
50
89.986931
51
99.1816697
0
ARC
8
DEFAULT_255_2_778
10
19.1031384
20
137.8218685
40
0.201085
50
358.3379179
51
86.4421934
0
ARC
8
DEFAULT_255_2_778
10
19.0609425
20
137.8098683
40
0.2432745
50
359.9994511
51
1.4527903
0
LINE
8
DEFAULT_255_2_778
10
20.0578169
20
136.7543659
11
20.5605169
21
136.7543659
0
LINE
8
DEFAULT_255_2_778
10
20.5605169
20
136.7543659
11
20.5605169
21
138.7739659
0
LINE
8
DEFAULT_255_2_778
10
20.5605169
20
138.7739659
11
20.0578169
21
138.7739659
0
LINE
8
DEFAULT_255_2_778
10
20.0578169
20
138.7739659
11
20.0578169
21
136.7543659
0
LINE
8
DEFAULT_255_2_778
10
20.0578169
20
136.7543659
11
20.0578169
21
136.7543659
0
LINE
8
DEFAULT_255_2_778
10
20.0578169
20
136.7543659
11
20.0578169
21
136.7543659
0
LINE
8
DEFAULT_255_2_778
10
21.2995169
20
138.7739659
11
21.2995169
21
136.7543659
0
LINE
8
DEFAULT_255_2_778
10
21.2995169
20
136.7543659
11
20.7970169
21
136.7543659
0
LINE
8
DEFAULT_255_2_778
10
20.7970169
20
136.7543659
11
20.7970169
21
138.7739659
0
LINE
8
DEFAULT_255_2_778
10
20.7970169
20
138.7739659
11
21.2995169
21
138.7739659
0
LINE
8
DEFAULT_255_2_778
10
21.2995169
20
138.7739659
11
21.2995169
21
138.7739659
0
LINE
8
DEFAULT_255_2_778
10
21.2995169
20
138.7739659
11
21.2995169
21
138.7739659
0
LINE
8
DEFAULT_255_2_778
10
9.1419169
20
137.9894659
11
8.7355169
21
137.9894659
0
LINE
8
DEFAULT_255_2_778
10
8.7355169
20
137.9894659
11
8.7355169
21
138.7739659
0
LINE
8
DEFAULT_255_2_778
10
8.7355169
20
138.7739659
11
8.0703169
21
138.7739659
0
LINE
8
DEFAULT_255_2_778
10
8.0703169
20
138.7739659
11
8.0703169
21
136.7543659
0
LINE
8
DEFAULT_255_2_778
10
8.0703169
20
136.7543659
11
8.7355169
21
136.7543659
0
LINE
8
DEFAULT_255_2_778
10
8.7355169
20
136.7543659
11
8.7355169
21
137.7558659
0
LINE
8
DEFAULT_255_2_778
10
8.7355169
20
137.7558659
11
9.1419169
21
137.7558659
0
LINE
8
DEFAULT_255_2_778
10
9.1419169
20
137.7558659
11
9.1419169
21
136.7543659
0
LINE
8
DEFAULT_255_2_778
10
9.1419169
20
136.7543659
11
9.8070169
21
136.7543659
0
LINE
8
DEFAULT_255_2_778
10
9.8070169
20
136.7543659
11
9.8070169
21
138.7739659
0
LINE
8
DEFAULT_255_2_778
10
9.8070169
20
138.7739659
11
9.1419169
21
138.7739659
0
LINE
8
DEFAULT_255_2_778
10
9.1419169
20
138.7739659
11
9.1419169
21
137.9894659
0
LINE
8
DEFAULT_255_2_778
10
9.1419169
20
137.9894659
11
9.1419169
21
137.9894659
0
LINE
8
DEFAULT_255_2_778
10
9.1419169
20
137.9894659
11
9.1419169
21
137.9894659
0
LINE
8
DEFAULT_255_2_778
10
12.2645169
20
138.0230659
11
12.2237169
21
138.1566659
0
LINE
8
DEFAULT_255_2_778
10
12.2237169
20
138.1566659
11
11.6768169
21
138.1566659
0
LINE
8
DEFAULT_255_2_778
10
11.6768169
20
138.1566659
11
11.6768169
21
136.7546659
0
LINE
8
DEFAULT_255_2_778
10
11.6768169
20
136.7546659
11
12.2237169
21
136.7546659
0
LINE
8
DEFAULT_255_2_778
10
12.2237169
20
136.7546659
11
12.2237169
21
137.5973659
0
LINE
8
DEFAULT_255_2_778
10
12.2237169
20
137.5973659
11
12.2237169
21
137.5973659
0
LINE
8
DEFAULT_255_2_778
10
12.5857169
20
137.6806659
11
12.5857169
21
137.6806659
0
LINE
8
DEFAULT_255_2_778
10
12.5857169
20
137.6806659
11
12.5857169
21
136.7543659
0
LINE
8
DEFAULT_255_2_778
10
12.5857169
20
136.7543659
11
13.1326169
21
136.7543659
0
LINE
8
DEFAULT_255_2_778
10
13.1326169
20
136.7543659
11
13.1326169
21
137.6640659
0
LINE
8
DEFAULT_255_2_778
10
13.1326169
20
137.6640659
11
13.1326169
21
137.6640659
0
LINE
8
DEFAULT_255_2_778
10
12.2642169
20
138.0227659
11
12.2642169
21
138.0227659
0
LINE
8
DEFAULT_255_2_778
10
12.2642169
20
138.0227659
11
12.2642169
21
138.0227659
0
LINE
8
DEFAULT_255_2_778
10
12.2642169
20
138.0227659
11
12.2642169
21
138.0227659
0
LINE
8
DEFAULT_255_2_778
10
12.2642169
20
138.0227659
11
12.2645169
21
138.0230659
0
LINE
8
DEFAULT_255_2_778
10
17.8816169
20
137.3428659
11
17.6265169
21
138.1564659
0
LINE
8
DEFAULT_255_2_778
10
17.6265169
20
138.1564659
11
17.2532169
21
138.1564659
0
LINE
8
DEFAULT_255_2_778
10
17.2532169
20
138.1564659
11
16.9981169
21
137.3094659
0
LINE
8
DEFAULT_255_2_778
10
16.9981169
20
137.3094659
11
16.7322169
21
138.1564659
0
LINE
8
DEFAULT_255_2_778
10
16.7322169
20
138.1564659
11
16.2113169
21
138.1564659
0
LINE
8
DEFAULT_255_2_778
10
16.2113169
20
138.1564659
11
16.2076169
21
138.1564659
0
LINE
8
DEFAULT_255_2_778
10
16.2076169
20
138.1564659
11
16.0007169
21
138.1564659
0
LINE
8
DEFAULT_255_2_778
10
16.0007169
20
138.1564659
11
15.7382169
21
137.4430659
0
LINE
8
DEFAULT_255_2_778
10
15.7382169
20
137.4430659
11
15.3688169
21
138.1564659
0
LINE
8
DEFAULT_255_2_778
10
15.3688169
20
138.1564659
11
14.7441169
21
138.1564659
0
LINE
8
DEFAULT_255_2_778
10
14.7441169
20
138.1564659
11
15.4794169
21
136.7377659
0
LINE
8
DEFAULT_255_2_778
10
15.4794169
20
136.7377659
11
15.3834169
21
136.4707659
0
LINE
8
DEFAULT_255_2_778
10
15.3834169
20
136.4707659
11
15.3834169
21
136.4707659
0
LINE
8
DEFAULT_255_2_778
10
15.6014169
20
136.4913659
11
15.6014169
21
136.4913659
0
LINE
8
DEFAULT_255_2_778
10
15.6014169
20
136.4913659
11
16.2091169
21
138.1505659
0
LINE
8
DEFAULT_255_2_778
10
16.2091169
20
138.1505659
11
16.6473169
21
136.7541659
0
LINE
8
DEFAULT_255_2_778
10
16.6473169
20
136.7541659
11
17.0463169
21
136.7541659
0
LINE
8
DEFAULT_255_2_778
10
17.0463169
20
136.7541659
11
17.2902169
21
137.5595659
0
LINE
8
DEFAULT_255_2_778
10
17.2902169
20
137.5595659
11
17.5416169
21
136.7541659
0
LINE
8
DEFAULT_255_2_778
10
17.5416169
20
136.7541659
11
17.9186169
21
136.7541659
0
LINE
8
DEFAULT_255_2_778
10
17.9186169
20
136.7541659
11
18.3435169
21
138.1561659
0
LINE
8
DEFAULT_255_2_778
10
18.3435169
20
138.1561659
11
18.1255169
21
138.1561659
0
LINE
8
DEFAULT_255_2_778
10
18.1255169
20
138.1561659
11
17.8816169
21
137.3425659
0
LINE
8
DEFAULT_255_2_778
10
17.8816169
20
137.3425659
11
17.8816169
21
137.3425659
0
LINE
8
DEFAULT_255_2_778
10
17.8816169
20
137.3425659
11
17.8816169
21
137.3425659
0
LINE
8
DEFAULT_255_2_778
10
17.8816169
20
137.3425659
11
17.8816169
21
137.3428659
0
LINE
8
DEFAULT_255_2_778
10
10.7495169
20
138.2275659
11
10.7495169
21
138.2275659
0
LINE
8
DEFAULT_255_2_778
10
10.7495169
20
138.2275659
11
10.7495169
21
138.2275659
0
LINE
8
DEFAULT_255_2_778
10
10.7495169
20
138.2275659
11
10.7495169
21
138.2275659
0
LINE
8
DEFAULT_255_2_778
10
10.7495169
20
138.2275659
11
10.7495169
21
138.2275659
0
LINE
8
DEFAULT_255_2_778
10
10.5611169
20
137.0758659
11
10.5611169
21
137.0758659
0
LINE
8
DEFAULT_255_2_778
10
10.5611169
20
137.0758659
11
10.5611169
21
137.8100659
0
LINE
8
DEFAULT_255_2_778
10
10.5611169
20
137.8100659
11
10.5611169
21
137.8100659
0
LINE
8
DEFAULT_255_2_778
10
10.9381169
20
137.8100659
11
10.9381169
21
137.8100659
0
LINE
8
DEFAULT_255_2_778
10
10.9381169
20
137.8100659
11
10.9381169
21
137.0758659
0
LINE
8
DEFAULT_255_2_778
10
10.9381169
20
137.0758659
11
10.9381169
21
137.0758659
0
LINE
8
DEFAULT_255_2_778
10
10.9381169
20
137.0758659
11
10.9381169
21
137.0758659
0
LINE
8
DEFAULT_255_2_778
10
10.9381169
20
137.0758659
11
10.9381169
21
137.0758659
0
LINE
8
DEFAULT_255_2_778
10
14.7190169
20
137.0684659
11
14.7190169
21
137.0684659
0
LINE
8
DEFAULT_255_2_778
10
14.7190169
20
137.0684659
11
14.5515169
21
137.1382659
0
LINE
8
DEFAULT_255_2_778
10
14.5515169
20
137.1382659
11
14.5515169
21
137.1382659
0
LINE
8
DEFAULT_255_2_778
10
13.8641169
20
137.0755659
11
13.8641169
21
137.0755659
0
LINE
8
DEFAULT_255_2_778
10
13.8641169
20
137.0755659
11
13.8641169
21
137.3301659
0
LINE
8
DEFAULT_255_2_778
10
13.8641169
20
137.3301659
11
14.8042169
21
137.3301659
0
LINE
8
DEFAULT_255_2_778
10
14.8042169
20
137.3301659
11
14.8042169
21
137.3301659
0
LINE
8
DEFAULT_255_2_778
10
14.8042169
20
137.3301659
11
14.8042169
21
137.3301659
0
LINE
8
DEFAULT_255_2_778
10
14.8042169
20
137.3301659
11
14.8047169
21
137.3301659
0
LINE
8
DEFAULT_255_2_778
10
14.2417169
20
137.8100659
11
14.2417169
21
137.8100659
0
LINE
8
DEFAULT_255_2_778
10
14.2417169
20
137.8100659
11
14.2417169
21
137.5304659
0
LINE
8
DEFAULT_255_2_778
10
14.2417169
20
137.5304659
11
13.8647169
21
137.5304659
0
LINE
8
DEFAULT_255_2_778
10
13.8647169
20
137.5304659
11
13.8647169
21
137.8100659
0
LINE
8
DEFAULT_255_2_778
10
13.8647169
20
137.8100659
11
13.8647169
21
137.8100659
0
LINE
8
DEFAULT_255_2_778
10
13.8647169
20
137.8100659
11
13.8647169
21
137.8100659
0
LINE
8
DEFAULT_255_2_778
10
13.8647169
20
137.8100659
11
13.8647169
21
137.8100659
0
LINE
8
DEFAULT_255_2_778
10
19.7818169
20
137.0684659
11
19.7818169
21
137.0684659
0
LINE
8
DEFAULT_255_2_778
10
19.7818169
20
137.0684659
11
19.6143169
21
137.1382659
0
LINE
8
DEFAULT_255_2_778
10
19.6143169
20
137.1382659
11
19.6143169
21
137.1382659
0
LINE
8
DEFAULT_255_2_778
10
18.9272169
20
137.0755659
11
18.9272169
21
137.0755659
0
LINE
8
DEFAULT_255_2_778
10
18.9272169
20
137.0755659
11
18.9272169
21
137.3301659
0
LINE
8
DEFAULT_255_2_778
10
18.9272169
20
137.3301659
11
19.8673169
21
137.3301659
0
LINE
8
DEFAULT_255_2_778
10
19.8673169
20
137.3301659
11
19.8673169
21
137.3301659
0
LINE
8
DEFAULT_255_2_778
10
19.8673169
20
137.3301659
11
19.8673169
21
137.3301659
0
LINE
8
DEFAULT_255_2_778
10
19.8673169
20
137.3301659
11
19.8673169
21
137.3301659
0
LINE
8
DEFAULT_255_2_778
10
19.3042169
20
137.8098659
11
19.3042169
21
137.8098659
0
LINE
8
DEFAULT_255_2_778
10
19.3042169
20
137.8098659
11
19.3042169
21
137.5304659
0
LINE
8
DEFAULT_255_2_778
10
19.3042169
20
137.5304659
11
18.9272169
21
137.5304659
0
LINE
8
DEFAULT_255_2_778
10
18.9272169
20
137.5304659
11
18.9272169
21
137.8100659
0
LINE
8
DEFAULT_255_2_778
10
18.9272169
20
137.8100659
11
18.9272169
21
137.8100659
0
LINE
8
DEFAULT_255_2_778
10
18.9272169
20
137.8100659
11
18.9272169
21
137.8100659
0
LINE
8
DEFAULT_255_2_778
10
18.9272169
20
137.8100659
11
18.9272169
21
137.8098659
0
LINE
8
DEFAULT_255_1_234
10
9.7164364
20
134.7941211
11
9.9156235
21
134.7941211
0
LINE
8
DEFAULT_255_1_234
10
9.9156235
20
134.7941211
11
10.2979342
21
133.8399506
0
LINE
8
DEFAULT_255_1_234
10
10.2979342
20
133.8399506
11
10.680245
21
134.7941211
0
LINE
8
DEFAULT_255_1_234
10
10.680245
20
134.7941211
11
10.8802353
21
134.7941211
0
LINE
8
DEFAULT_255_1_234
10
10.8802353
20
134.7941211
11
10.8802353
21
133.6247
0
LINE
8
DEFAULT_255_1_234
10
10.8802353
20
133.6247
11
10.7260259
21
133.6247
0
LINE
8
DEFAULT_255_1_234
10
10.7260259
20
133.6247
11
10.7260259
21
134.0800996
0
LINE
8
DEFAULT_255_1_234
10
10.7260259
20
134.0800996
11
10.740483
21
134.5716419
0
LINE
8
DEFAULT_255_1_234
10
10.740483
20
134.5716419
11
10.3565659
21
133.6247
0
LINE
8
DEFAULT_255_1_234
10
10.3565659
20
133.6247
11
10.2384994
21
133.6247
0
LINE
8
DEFAULT_255_1_234
10
10.2384994
20
133.6247
11
9.8553854
21
134.5692324
0
LINE
8
DEFAULT_255_1_234
10
9.8553854
20
134.5692324
11
9.8706458
21
134.0800996
0
LINE
8
DEFAULT_255_1_234
10
9.8706458
20
134.0800996
11
9.8706458
21
133.6247
0
LINE
8
DEFAULT_255_1_234
10
9.8706458
20
133.6247
11
9.7164364
21
133.6247
0
LINE
8
DEFAULT_255_1_234
10
9.7164364
20
133.6247
11
9.7164364
21
134.7941211
0
LINE
8
DEFAULT_255_1_234
10
11.821555
20
133.6247
11
11.6657393
21
133.6247
0
LINE
8
DEFAULT_255_1_234
10
11.4978759
20
134.151582
11
11.6424472
21
134.151582
0
LINE
8
DEFAULT_255_1_234
10
11.6424472
20
134.151582
11
11.6424472
21
134.2198518
0
LINE
8
DEFAULT_255_1_234
10
11.2713809
20
134.2527819
11
11.1219906
21
134.2527819
0
LINE
8
DEFAULT_255_1_234
10
11.7910344
20
134.2278835
11
11.7910344
21
133.827903
0
LINE
8
DEFAULT_255_1_234
10
11.821555
20
133.6375508
11
11.821555
21
133.6247
0
LINE
8
DEFAULT_255_1_234
10
11.6424472
20
133.8680617
11
11.6424472
21
134.0463663
0
LINE
8
DEFAULT_255_1_234
10
11.6424472
20
134.0463663
11
11.525987
21
134.0463663
0
ARC
8
DEFAULT_255_1_234
10
11.7696931
20
133.6751194
40
0.1155358
50
197.0791116
51
205.8741701
0
ARC
8
DEFAULT_255_1_234
10
11.893553
20
133.7143654
40
0.2454626
50
192.2918602
51
197.3448991
0
ARC
8
DEFAULT_255_1_234
10
12.0888979
20
133.7577663
40
0.4455697
50
189.1576348
51
192.3971359
0
ARC
8
DEFAULT_255_1_234
10
12.370326
20
133.8036549
40
0.7307142
50
186.8689952
51
189.1979448
0
ARC
8
DEFAULT_255_1_234
10
11.3874414
20
133.9583258
40
0.353352
50
294.0080019
51
316.7604136
0
ARC
8
DEFAULT_255_1_234
10
11.4003478
20
133.9401572
40
0.3315331
50
269.5042461
51
293.2479736
0
ARC
8
DEFAULT_255_1_234
10
11.3943963
20
133.9802491
40
0.3716254
50
255.403374
51
270.4753162
0
ARC
8
DEFAULT_255_1_234
10
11.3713935
20
133.8909825
40
0.2794431
50
228.6140946
51
255.354999
0
ARC
8
DEFAULT_255_1_234
10
11.3381459
20
133.8591491
40
0.2336109
50
181.8953303
51
229.5703879
0
ARC
8
DEFAULT_255_1_234
10
11.3972964
20
133.8655708
40
0.2929755
50
179.984097
51
182.7679515
0
ARC
8
DEFAULT_255_1_234
10
11.3889906
20
133.8690413
40
0.28469
50
161.0341165
51
180.6820968
0
ARC
8
DEFAULT_255_1_234
10
11.3450452
20
133.8804729
40
0.2394402
50
125.0523775
51
160.2033967
0
ARC
8
DEFAULT_255_1_234
10
11.4112461
20
133.7901431
40
0.3514152
50
106.2671988
51
125.4298572
0
ARC
8
DEFAULT_255_1_234
10
11.4684917
20
133.6030842
40
0.5470269
50
95.4857064
51
106.534858
0
ARC
8
DEFAULT_255_1_234
10
11.4958071
20
133.3531758
40
0.7984089
50
89.8515322
51
95.7224983
0
ARC
8
DEFAULT_255_1_234
10
11.4318666
20
134.2216759
40
0.2105886
50
359.503704
51
14.3184734
0
ARC
8
DEFAULT_255_1_234
10
11.489279
20
134.2366017
40
0.1512684
50
14.2187004
51
45.2025693
0
ARC
8
DEFAULT_255_1_234
10
11.4928986
20
134.2380251
40
0.1477163
50
45.8098026
51
73.0032427
0
ARC
8
DEFAULT_255_1_234
10
11.4679954
20
134.1618896
40
0.2278113
50
72.610967
51
85.7232876
0
ARC
8
DEFAULT_255_1_234
10
11.4589948
20
134.0705569
40
0.3195681
50
85.3352114
51
90.0850615
0
ARC
8
DEFAULT_255_1_234
10
11.4566351
20
134.1296391
40
0.2604924
50
89.5853149
51
103.4592217
0
ARC
8
DEFAULT_255_1_234
10
11.4413954
20
134.1931597
40
0.1951693
50
103.44851
51
126.5404292
0
ARC
8
DEFAULT_255_1_234
10
11.4174834
20
134.223743
40
0.1563639
50
126.1729825
51
141.5004088
0
ARC
8
DEFAULT_255_1_234
10
11.3796435
20
134.2534385
40
0.1082645
50
141.3333588
51
180.3474677
0
ARC
8
DEFAULT_255_1_234
10
11.3122145
20
134.2517174
40
0.1902269
50
151.6374668
51
179.6793754
0
ARC
8
DEFAULT_255_1_234
10
11.3724387
20
134.2217334
40
0.2574753
50
142.4988163
51
152.1325379
0
ARC
8
DEFAULT_255_1_234
10
11.4042347
20
134.1967735
40
0.2978957
50
120.8284787
51
142.4132259
0
ARC
8
DEFAULT_255_1_234
10
11.4458456
20
134.1316301
40
0.3751664
50
113.9638113
51
121.1869885
0
ARC
8
DEFAULT_255_1_234
10
11.4594608
20
134.0984544
40
0.4110136
50
93.3784663
51
113.8198047
0
ARC
8
DEFAULT_255_1_234
10
11.467139
20
134.0219446
40
0.487853
50
89.9745882
51
93.7491274
0
ARC
8
DEFAULT_255_1_234
10
11.4706276
20
134.0255605
40
0.4842481
50
79.1325877
51
90.3871757
0
ARC
8
DEFAULT_255_1_234
10
11.5031396
20
134.1880435
40
0.3185522
50
60.1435559
51
79.3654871
0
ARC
8
DEFAULT_255_1_234
10
11.5288085
20
134.237343
40
0.2630271
50
48.6192091
51
59.646742
0
ARC
8
DEFAULT_255_1_234
10
11.5335823
20
134.2436691
40
0.2551253
50
9.0349315
51
48.4844544
0
ARC
8
DEFAULT_255_1_234
10
11.4259667
20
134.2201793
40
0.3651489
50
1.2089744
51
10.0233366
0
ARC
8
DEFAULT_255_1_234
10
12.5546412
20
133.8254518
40
0.7636108
50
179.8160804
51
185.3206488
0
ARC
8
DEFAULT_255_1_234
10
12.2850894
20
133.7997155
40
0.4928344
50
185.2474014
51
192.7953707
0
ARC
8
DEFAULT_255_1_234
10
12.1089151
20
133.7592824
40
0.3120807
50
192.7197759
51
202.9585048
0
ARC
8
DEFAULT_255_1_234
10
11.4191334
20
133.9990928
40
0.2611453
50
270.0069004
51
300.5035019
0
ARC
8
DEFAULT_255_1_234
10
11.4313942
20
133.9862927
40
0.2439274
50
299.5482464
51
315.6095048
0
ARC
8
DEFAULT_255_1_234
10
11.4604039
20
133.9566155
40
0.2024389
50
315.868035
51
334.0596869
0
ARC
8
DEFAULT_255_1_234
10
11.5216399
20
133.3489943
40
0.6973855
50
89.6428514
51
97.2870891
0
ARC
8
DEFAULT_255_1_234
10
11.4775162
20
133.6793571
40
0.3640992
50
96.9938028
51
109.7781797
0
ARC
8
DEFAULT_255_1_234
10
11.4109787
20
133.8574891
40
0.1739759
50
109.0087453
51
135.326626
0
ARC
8
DEFAULT_255_1_234
10
11.3836392
20
133.8913473
40
0.1308198
50
137.4539381
51
182.1082805
0
ARC
8
DEFAULT_255_1_234
10
11.4210382
20
133.8848893
40
0.1681384
50
179.4392907
51
195.7200177
0
ARC
8
DEFAULT_255_1_234
10
11.379881
20
133.8736426
40
0.1254738
50
195.8684065
51
230.1572205
0
ARC
8
DEFAULT_255_1_234
10
11.4041237
20
133.9026769
40
0.1632985
50
230.1530708
51
259.7485588
0
ARC
8
DEFAULT_255_1_234
10
11.4179941
20
133.9680386
40
0.230094
50
259.2463819
51
270.291543
0
LINE
8
DEFAULT_255_1_234
10
12.6705097
20
134.2383248
11
12.5211194
21
134.2383248
0
LINE
8
DEFAULT_255_1_234
10
11.987812
20
133.8921569
11
12.1363991
21
133.8921569
0
ARC
8
DEFAULT_255_1_234
10
12.4023012
20
133.8566959
40
0.1276617
50
359.3334982
51
18.5871358
0
ARC
8
DEFAULT_255_1_234
10
12.423165
20
133.8622133
40
0.1061371
50
19.3540742
51
54.6485071
0
ARC
8
DEFAULT_255_1_234
10
12.3727552
20
133.7926919
40
0.1920087
50
54.3827097
51
65.0622807
0
ARC
8
DEFAULT_255_1_234
10
12.2958948
20
133.63099
40
0.3710447
50
64.8282493
51
71.4200025
0
ARC
8
DEFAULT_255_1_234
10
12.2056823
20
133.3663107
40
0.6506741
50
71.3164301
51
75.8006402
0
ARC
8
DEFAULT_255_1_234
10
12.1215643
20
133.0422561
40
0.9854641
50
75.6809531
51
78.0061883
0
ARC
8
DEFAULT_255_1_234
10
12.5664177
20
135.140177
40
1.1591028
50
254.6901892
51
258.0466452
0
ARC
8
DEFAULT_255_1_234
10
12.4626085
20
134.7642781
40
0.7691345
50
249.9010773
51
254.755261
0
ARC
8
DEFAULT_255_1_234
10
12.3622427
20
134.4916982
40
0.478665
50
243.3097214
51
249.9709442
0
ARC
8
DEFAULT_255_1_234
10
12.2993448
20
134.3662778
40
0.3383568
50
234.4047477
51
243.2862168
0
ARC
8
DEFAULT_255_1_234
10
12.2370972
20
134.2803232
40
0.2322322
50
220.8667099
51
234.5493881
0
ARC
8
DEFAULT_255_1_234
10
12.2028913
20
134.2491817
40
0.1859923
50
214.3062465
51
220.5065136
0
ARC
8
DEFAULT_255_1_234
10
12.2002992
20
134.246088
40
0.1821108
50
186.912965
51
213.9618616
0
ARC
8
DEFAULT_255_1_234
10
12.2535087
20
134.2547009
40
0.2359799
50
179.8808832
51
187.4339886
0
ARC
8
DEFAULT_255_1_234
10
12.238022
20
134.2567088
40
0.2204978
50
132.005434
51
180.3942919
0
ARC
8
DEFAULT_255_1_234
10
12.3036834
20
134.1961083
40
0.3095791
50
129.2319861
51
133.5302299
0
ARC
8
DEFAULT_255_1_234
10
12.3090342
20
134.1866928
40
0.3202615
50
100.4410011
51
128.9081242
0
ARC
8
DEFAULT_255_1_234
10
12.3364225
20
134.0581455
40
0.4516583
50
89.6985377
51
100.9026564
0
ARC
8
DEFAULT_255_1_234
10
12.3421267
20
134.0421166
40
0.4676928
50
77.6965325
51
90.4076836
0
ARC
8
DEFAULT_255_1_234
10
12.3752252
20
134.1848413
40
0.3211988
50
50.7276602
51
78.0399361
0
ARC
8
DEFAULT_255_1_234
10
12.419671
20
134.2366296
40
0.2529778
50
25.7545084
51
51.0957453
0
ARC
8
DEFAULT_255_1_234
10
12.4197935
20
134.2416206
40
0.250738
50
359.2468627
51
24.7394243
0
ARC
8
DEFAULT_255_1_234
10
12.3913387
20
134.2387664
40
0.1297815
50
359.8050318
51
45.1544908
0
ARC
8
DEFAULT_255_1_234
10
12.3506528
20
134.2039794
40
0.1831883
50
43.8047702
51
49.6271585
0
ARC
8
DEFAULT_255_1_234
10
12.351443
20
134.2040678
40
0.18261
50
49.7980766
51
82.1218353
0
ARC
8
DEFAULT_255_1_234
10
12.3395402
20
134.1393998
40
0.2483163
50
81.4465357
51
90.1710293
0
ARC
8
DEFAULT_255_1_234
10
12.3371005
20
134.086788
40
0.300932
50
89.6766211
51
99.1264602
0
ARC
8
DEFAULT_255_1_234
10
12.3199466
20
134.1901537
40
0.1961547
50
98.968313
51
113.4570237
0
ARC
8
DEFAULT_255_1_234
10
12.3003551
20
134.2369965
40
0.1453859
50
113.722589
51
127.4763106
0
ARC
8
DEFAULT_255_1_234
10
12.2835198
20
134.2570124
40
0.1192639
50
126.9083309
51
150.3165862
0
ARC
8
DEFAULT_255_1_234
10
12.278753
20
134.2620981
40
0.112623
50
151.3635175
51
180.0701457
0
ARC
8
DEFAULT_255_1_234
10
12.3096315
20
134.259999
40
0.1435149
50
179.2169974
51
179.9954013
0
ARC
8
DEFAULT_255_1_234
10
12.2735372
20
134.2587056
40
0.1074286
50
179.3040112
51
198.4225446
0
ARC
8
DEFAULT_255_1_234
10
12.2543506
20
134.2537127
40
0.0876573
50
199.2895851
51
238.6034594
0
ARC
8
DEFAULT_255_1_234
10
12.3146352
20
134.348345
40
0.1998512
50
237.9846301
51
246.8744712
0
ARC
8
DEFAULT_255_1_234
10
12.4004297
20
134.5446205
40
0.4140547
50
246.6234531
51
251.8168941
0
ARC
8
DEFAULT_255_1_234
10
12.5034841
20
134.8540905
40
0.7402308
50
251.713434
51
255.0778414
0
ARC
8
DEFAULT_255_1_234
10
12.6234104
20
135.3007563
40
1.2027155
50
255.0367487
51
257.4705983
0
ARC
8
DEFAULT_255_1_234
10
12.1126113
20
132.9993863
40
1.1546601
50
73.6837552
51
77.5016755
0
ARC
8
DEFAULT_255_1_234
10
12.2214888
20
133.3693581
40
0.7690009
50
68.7044154
51
73.7249639
0
ARC
8
DEFAULT_255_1_234
10
12.3117909
20
133.6020654
40
0.5193873
50
63.590599
51
68.6626804
0
ARC
8
DEFAULT_255_1_234
10
12.3888928
20
133.7558123
40
0.3473927
50
54.7106439
51
63.7013633
0
ARC
8
DEFAULT_255_1_234
10
12.4513382
20
133.84304
40
0.2401192
50
41.0622434
51
54.8487496
0
ARC
8
DEFAULT_255_1_234
10
12.4854769
20
133.8743592
40
0.1938094
50
34.4950568
51
40.7105546
0
ARC
8
DEFAULT_255_1_234
10
12.4901576
20
133.8792078
40
0.1872106
50
9.3763373
51
34.0833615
0
ARC
8
DEFAULT_255_1_234
10
12.4248447
20
133.8666728
40
0.2536988
50
359.7694872
51
9.7663171
0
ARC
8
DEFAULT_255_1_234
10
12.4445947
20
133.8623764
40
0.2339696
50
335.8654732
51
0.8022045
0
ARC
8
DEFAULT_255_1_234
10
12.4520992
20
133.8637197
40
0.2277108
50
307.7357725
51
334.7849066
0
ARC
8
DEFAULT_255_1_234
10
12.4120168
20
133.9087645
40
0.2878951
50
307.0241536
51
308.5578354
0
ARC
8
DEFAULT_255_1_234
10
12.3862499
20
133.9473801
40
0.3342515
50
282.9362969
51
306.5646424
0
ARC
8
DEFAULT_255_1_234
10
12.3500796
20
134.0941108
40
0.4853615
50
271.1026298
51
283.2200835
0
ARC
8
DEFAULT_255_1_234
10
12.343704
20
134.2182418
40
0.6096052
50
269.9919117
51
271.4772449
0
ARC
8
DEFAULT_255_1_234
10
12.3410795
20
134.1104436
40
0.5018135
50
259.0723564
51
270.289833
0
ARC
8
DEFAULT_255_1_234
10
12.3198528
20
133.9987271
40
0.388099
50
245.4963068
51
259.0227342
0
ARC
8
DEFAULT_255_1_234
10
12.2920484
20
133.9405615
40
0.3236422
50
228.9684658
51
245.7044727
0
ARC
8
DEFAULT_255_1_234
10
12.2654928
20
133.9078575
40
0.2815426
50
214.4011705
51
228.6759915
0
ARC
8
DEFAULT_255_1_234
10
12.2365668
20
133.892029
40
0.2487548
50
179.9705531
51
215.1572795
0
ARC
8
DEFAULT_255_1_234
10
12.3066268
20
133.8993806
40
0.1703809
50
182.4299387
51
203.0329699
0
ARC
8
DEFAULT_255_1_234
10
12.2881926
20
133.8937396
40
0.1512226
50
203.798802
51
232.548466
0
ARC
8
DEFAULT_255_1_234
10
12.3158447
20
133.9288826
40
0.1959374
50
232.3782728
51
256.3934612
0
ARC
8
DEFAULT_255_1_234
10
12.3388809
20
134.0178842
40
0.2878639
50
256.104506
51
268.4626716
0
ARC
8
DEFAULT_255_1_234
10
12.3435293
20
134.0975487
40
0.3676329
50
268.0715632
51
270.0138206
0
ARC
8
DEFAULT_255_1_234
10
12.3453818
20
134.0703083
40
0.3403971
50
269.7031147
51
278.8341955
0
ARC
8
DEFAULT_255_1_234
10
12.3635911
20
133.9572876
40
0.2259217
50
278.6728789
51
292.8232582
0
ARC
8
DEFAULT_255_1_234
10
12.3836449
20
133.9071449
40
0.171929
50
293.1452328
51
303.6655899
0
ARC
8
DEFAULT_255_1_234
10
12.4101328
20
133.8695204
40
0.1259367
50
303.1248165
51
321.742847
0
ARC
8
DEFAULT_255_1_234
10
12.4287208
20
133.8532156
40
0.1012531
50
322.4748573
51
1.1291126
0
LINE
8
DEFAULT_255_1_234
10
12.9251158
20
134.7041656
11
13.073703
21
134.7041656
0
LINE
8
DEFAULT_255_1_234
10
13.073703
20
134.7041656
11
13.073703
21
134.4937341
0
LINE
8
DEFAULT_255_1_234
10
13.073703
20
134.4937341
11
13.2359441
21
134.4937341
0
LINE
8
DEFAULT_255_1_234
10
13.2359441
20
134.4937341
11
13.2359441
21
134.3788802
0
LINE
8
DEFAULT_255_1_234
10
13.2359441
20
134.3788802
11
13.073703
21
134.3788802
0
LINE
8
DEFAULT_255_1_234
10
13.073703
20
134.3788802
11
13.073703
21
133.8399506
0
LINE
8
DEFAULT_255_1_234
10
13.23996
20
133.7451761
11
13.23996
21
133.6247
0
LINE
8
DEFAULT_255_1_234
10
12.9251158
20
133.8399506
11
12.9251158
21
134.3788802
0
LINE
8
DEFAULT_255_1_234
10
12.9251158
20
134.3788802
11
12.7668906
21
134.3788802
0
LINE
8
DEFAULT_255_1_234
10
12.7668906
20
134.3788802
11
12.7668906
21
134.4937341
0
LINE
8
DEFAULT_255_1_234
10
12.7668906
20
134.4937341
11
12.9251158
21
134.4937341
0
LINE
8
DEFAULT_255_1_234
10
12.9251158
20
134.4937341
11
12.9251158
21
134.7041656
0
ARC
8
DEFAULT_255_1_234
10
13.2744533
20
133.8389084
40
0.200753
50
179.7025659
51
187.917967
0
ARC
8
DEFAULT_255_1_234
10
13.1998559
20
133.8281724
40
0.1253883
50
187.7545981
51
200.2447476
0
ARC
8
DEFAULT_255_1_234
10
13.157788
20
133.8124859
40
0.0804913
50
200.130383
51
219.174133
0
ARC
8
DEFAULT_255_1_234
10
13.1442056
20
133.8032515
40
0.0641445
50
220.4434483
51
249.6172
0
ARC
8
DEFAULT_255_1_234
10
13.1596907
20
133.8421968
40
0.1060489
50
249.1032952
51
262.775154
0
ARC
8
DEFAULT_255_1_234
10
13.1685079
20
133.9050715
40
0.1695354
50
262.4913187
51
270.2611758
0
ARC
8
DEFAULT_255_1_234
10
13.1682496
20
133.9266103
40
0.191075
50
270.3091804
51
275.6625139
0
ARC
8
DEFAULT_255_1_234
10
13.153972
20
134.0767435
40
0.3418851
50
275.5610264
51
279.0879356
0
ARC
8
DEFAULT_255_1_234
10
13.1209598
20
134.2862699
40
0.5539959
50
279.0365489
51
281.5011378
0
ARC
8
DEFAULT_255_1_234
10
13.0852674
20
134.4666423
40
0.7378639
50
281.4243939
51
282.1017894
0
ARC
8
DEFAULT_255_1_234
10
13.1195921
20
134.0584858
40
0.4501761
50
275.2597045
51
285.5083879
0
ARC
8
DEFAULT_255_1_234
10
13.1257246
20
134.0028606
40
0.3942242
50
270.0268409
51
275.1132796
0
ARC
8
DEFAULT_255_1_234
10
13.1237211
20
133.8701614
40
0.261534
50
257.3573315
51
270.479383
0
ARC
8
DEFAULT_255_1_234
10
13.1024102
20
133.7803406
40
0.1692304
50
230.8037497
51
257.741658
0
ARC
8
DEFAULT_255_1_234
10
13.0956005
20
133.7693777
40
0.1564393
50
219.974146
51
230.1990686
0
ARC
8
DEFAULT_255_1_234
10
13.1287952
20
133.7947579
40
0.1981916
50
196.5084186
51
219.4318458
0
ARC
8
DEFAULT_255_1_234
10
13.2303397
20
133.8266194
40
0.3046086
50
184.6404872
51
196.8269686
0
ARC
8
DEFAULT_255_1_234
10
13.3548461
20
133.8391908
40
0.4297309
50
179.8986958
51
184.9681077
0
LINE
8
DEFAULT_255_1_234
10
13.3716805
20
134.0351218
11
13.3716805
21
134.0624297
0
LINE
8
DEFAULT_255_1_234
10
14.108994
20
134.0784932
11
14.108994
21
134.0166488
0
LINE
8
DEFAULT_255_1_234
10
14.108994
20
134.0166488
11
13.5202676
21
134.0166488
0
LINE
8
DEFAULT_255_1_234
10
14.006991
20
133.8471792
11
14.0977496
21
133.7764999
0
LINE
8
DEFAULT_255_1_234
10
13.5250867
20
134.1387313
11
13.9604069
21
134.1387313
0
LINE
8
DEFAULT_255_1_234
10
13.9604069
20
134.1387313
11
13.9604069
21
134.1499757
0
ARC
8
DEFAULT_255_1_234
10
13.765617
20
134.0462332
40
0.4376191
50
252.3266134
51
270.5810217
0
ARC
8
DEFAULT_255_1_234
10
13.7451259
20
133.9721644
40
0.3608374
50
223.3000567
51
251.8561855
0
ARC
8
DEFAULT_255_1_234
10
13.7662619
20
133.9926937
40
0.3902993
50
190.9374509
51
223.3654032
0
ARC
8
DEFAULT_255_1_234
10
13.9387592
20
134.0316885
40
0.5670891
50
179.6531105
51
191.4989439
0
ARC
8
DEFAULT_255_1_234
10
13.9509604
20
134.0656417
40
0.5792888
50
167.4007466
51
180.3176909
0
ARC
8
DEFAULT_255_1_234
10
13.8457666
20
134.0878885
40
0.471777
50
154.1835823
51
167.250763
0
ARC
8
DEFAULT_255_1_234
10
13.7826133
20
134.1211417
40
0.4004528
50
134.3149965
51
154.5315275
0
ARC
8
DEFAULT_255_1_234
10
13.7608628
20
134.1402228
40
0.371612
50
122.8616532
51
133.9707695
0
ARC
8
DEFAULT_255_1_234
10
13.7505202
20
134.1624703
40
0.3473289
50
89.8249009
51
123.4199222
0
ARC
8
DEFAULT_255_1_234
10
13.7555243
20
134.0977967
40
0.4120197
50
74.7876118
51
90.5482747
0
ARC
8
DEFAULT_255_1_234
10
13.7848987
20
134.206303
40
0.2996077
50
39.8178249
51
74.7633718
0
ARC
8
DEFAULT_255_1_234
10
13.7336307
20
134.1663351
40
0.3645855
50
16.8990863
51
39.4829761
0
ARC
8
DEFAULT_255_1_234
10
13.5441603
20
134.1056526
40
0.5635218
50
4.9636328
51
17.2026414
0
ARC
8
DEFAULT_255_1_234
10
13.3023673
20
134.080134
40
0.8066286
50
359.8834553
51
5.2834307
0
ARC
8
DEFAULT_255_1_234
10
13.9061198
20
134.0232803
40
0.3859091
50
180.9846213
51
194.9401313
0
ARC
8
DEFAULT_255_1_234
10
13.8011476
20
133.9945849
40
0.2770883
50
194.80314
51
222.0412631
0
ARC
8
DEFAULT_255_1_234
10
13.7707357
20
133.9644116
40
0.2343055
50
221.5417084
51
268.8614402
0
ARC
8
DEFAULT_255_1_234
10
13.7780352
20
134.0320686
40
0.3021528
50
267.732405
51
270.0097136
0
ARC
8
DEFAULT_255_1_234
10
13.7798162
20
134.0522105
40
0.3222994
50
269.6924892
51
280.4117579
0
ARC
8
DEFAULT_255_1_234
10
13.7974569
20
133.9603193
40
0.2287344
50
280.2255091
51
298.6338936
0
ARC
8
DEFAULT_255_1_234
10
13.8091361
20
133.9359223
40
0.2017294
50
299.0430333
51
300.4643464
0
ARC
8
DEFAULT_255_1_234
10
13.7411366
20
134.0493038
40
0.3339357
50
300.6577328
51
322.0378878
0
ARC
8
DEFAULT_255_1_234
10
13.7060905
20
134.0797021
40
0.3802736
50
321.6750233
51
322.3046845
0
ARC
8
DEFAULT_255_1_234
10
13.7991867
20
133.963037
40
0.3520454
50
276.9728461
51
328.0035423
0
ARC
8
DEFAULT_255_1_234
10
13.771492
20
134.1110841
40
0.5024498
50
269.8361028
51
278.0581756
0
ARC
8
DEFAULT_255_1_234
10
13.7487657
20
134.1855757
40
0.202159
50
89.2018686
51
117.2851756
0
ARC
8
DEFAULT_255_1_234
10
13.7540826
20
134.1813752
40
0.2083484
50
118.0551165
51
137.4540413
0
ARC
8
DEFAULT_255_1_234
10
13.7915566
20
134.1473304
40
0.2589774
50
137.5109581
51
158.8516286
0
ARC
8
DEFAULT_255_1_234
10
13.9053402
20
134.1014074
40
0.38167
50
158.5845963
51
170.1721436
0
ARC
8
DEFAULT_255_1_234
10
14.0222791
20
134.0781823
40
0.5008657
50
169.8376422
51
173.0566086
0
ARC
8
DEFAULT_255_1_234
10
13.5525865
20
134.1292509
40
0.4083467
50
2.9091802
51
12.8847116
0
ARC
8
DEFAULT_255_1_234
10
13.6896541
20
134.1615101
40
0.2675383
50
12.6957781
51
28.6404489
0
ARC
8
DEFAULT_255_1_234
10
13.7438212
20
134.1895458
40
0.2065654
50
29.0169854
51
41.1487595
0
ARC
8
DEFAULT_255_1_234
10
13.7640997
20
134.2072003
40
0.1796786
50
41.1646065
51
85.0013516
0
ARC
8
DEFAULT_255_1_234
10
13.7520094
20
134.1337431
40
0.2539726
50
83.7280015
51
90.0964893
0
LINE
8
DEFAULT_255_1_234
10
14.7009332
20
134.4985531
11
14.7009332
21
134.3604072
0
LINE
8
DEFAULT_255_1_234
10
14.4294604
20
134.2415375
11
14.4294604
21
133.6247
0
LINE
8
DEFAULT_255_1_234
10
14.4294604
20
133.6247
11
14.2808732
21
133.6247
0
LINE
8
DEFAULT_255_1_234
10
14.2808732
20
133.6247
11
14.2808732
21
134.4937341
0
LINE
8
DEFAULT_255_1_234
10
14.2808732
20
134.4937341
11
14.4254445
21
134.4937341
0
LINE
8
DEFAULT_255_1_234
10
14.4254445
20
134.4937341
11
14.4278541
21
134.3933374
0
ARC
8
DEFAULT_255_1_234
10
14.6342737
20
133.9544342
40
0.4114092
50
80.6754243
51
86.8932892
0
ARC
8
DEFAULT_255_1_234
10
14.6282271
20
133.85767
40
0.5083596
50
86.8038578
51
90.0431435
0
ARC
8
DEFAULT_255_1_234
10
14.6245252
20
134.1033866
40
0.2626638
50
89.2759698
51
106.6213787
0
ARC
8
DEFAULT_255_1_234
10
14.6040816
20
134.177683
40
0.1856317
50
107.1346045
51
157.6458115
0
ARC
8
DEFAULT_255_1_234
10
14.6732418
20
134.1393311
40
0.2643398
50
155.6586782
51
157.2539184
0
ARC
8
DEFAULT_255_1_234
10
14.652762
20
134.2562157
40
0.2634121
50
127.8165941
51
148.6302098
0
ARC
8
DEFAULT_255_1_234
10
14.6274089
20
134.2822218
40
0.2273596
50
91.3329982
51
126.7875809
0
ARC
8
DEFAULT_255_1_234
10
14.6350029
20
134.2107195
40
0.299078
50
89.986594
51
92.4688449
0
ARC
8
DEFAULT_255_1_234
10
14.6358424
20
134.2382078
40
0.2715908
50
85.3589899
51
90.1623399
0
ARC
8
DEFAULT_255_1_234
10
14.644294
20
134.3386164
40
0.1708278
50
78.401942
51
85.4594656
0
ARC
8
DEFAULT_255_1_234
10
14.6587824
20
134.4077236
40
0.1002194
50
67.7858312
51
78.5728455
0
ARC
8
DEFAULT_255_1_234
10
14.6695676
20
134.4356887
40
0.0702548
50
63.4835954
51
67.3062642
0
LINE
8
DEFAULT_255_1_234
10
15.0157773
20
134.7941211
11
15.0157773
21
133.7507983
0
LINE
8
DEFAULT_255_1_234
10
15.0157773
20
133.7507983
11
15.5699672
21
133.7507983
0
LINE
8
DEFAULT_255_1_234
10
15.5699672
20
133.7507983
11
15.5699672
21
133.6247
0
LINE
8
DEFAULT_255_1_234
10
15.5699672
20
133.6247
11
14.8607647
21
133.6247
0
LINE
8
DEFAULT_255_1_234
10
14.8607647
20
133.6247
11
14.8607647
21
134.7941211
0
LINE
8
DEFAULT_255_1_234
10
14.8607647
20
134.7941211
11
15.0157773
21
134.7941211
0
LINE
8
DEFAULT_255_1_234
10
15.6832147
20
134.0568075
11
15.6832147
21
134.0672488
0
LINE
8
DEFAULT_255_1_234
10
16.474341
20
134.0600202
11
16.474341
21
134.049579
0
ARC
8
DEFAULT_255_1_234
10
16.2418327
20
134.0704837
40
0.5586273
50
166.3003825
51
180.3317926
0
ARC
8
DEFAULT_255_1_234
10
16.1555486
20
134.0897964
40
0.4702272
50
153.8608245
51
166.0967125
0
ARC
8
DEFAULT_255_1_234
10
16.0889889
20
134.125475
40
0.3947658
50
135.1316692
51
154.253643
0
ARC
8
DEFAULT_255_1_234
10
16.0611448
20
134.1500666
40
0.3576898
50
121.7044358
51
134.776924
0
ARC
8
DEFAULT_255_1_234
10
16.0678442
20
134.1371867
40
0.3721701
50
93.4002104
51
121.5398234
0
ARC
8
DEFAULT_255_1_234
10
16.0773398
20
134.0546228
40
0.4551749
50
89.9706281
51
93.9769836
0
ARC
8
DEFAULT_255_1_234
10
16.082049
20
134.0936362
40
0.4161854
50
71.3323442
51
90.6161982
0
ARC
8
DEFAULT_255_1_234
10
16.0983186
20
134.1538578
40
0.3539455
50
41.1815071
51
70.707185
0
ARC
8
DEFAULT_255_1_234
10
16.0505586
20
134.1104919
40
0.4184468
50
12.1971897
51
41.3445735
0
ARC
8
DEFAULT_255_1_234
10
15.8579594
20
134.0646425
40
0.616399
50
359.5703439
51
12.5804035
0
ARC
8
DEFAULT_255_1_234
10
15.9052669
20
134.0464116
40
0.5690829
50
347.0197749
51
0.3188898
0
ARC
8
DEFAULT_255_1_234
10
16.0011171
20
134.0257808
40
0.4710501
50
334.3504053
51
346.846361
0
ARC
8
DEFAULT_255_1_234
10
16.0856594
20
133.9818805
40
0.3758475
50
310.422922
51
334.8045033
0
ARC
8
DEFAULT_255_1_234
10
16.093842
20
133.9754782
40
0.3656736
50
301.8486886
51
310.097356
0
ARC
8
DEFAULT_255_1_234
10
16.0906146
20
133.9830638
40
0.3738224
50
274.307774
51
301.655379
0
ARC
8
DEFAULT_255_1_234
10
16.0795453
20
134.0708361
40
0.4621997
50
269.9546461
51
274.8588071
0
ARC
8
DEFAULT_255_1_234
10
16.0746387
20
134.0207249
40
0.4121134
50
250.888809
51
270.631312
0
ARC
8
DEFAULT_255_1_234
10
16.0596307
20
133.9648277
40
0.3544073
50
221.1701932
51
250.2227191
0
ARC
8
DEFAULT_255_1_234
10
16.1080461
20
134.0089439
40
0.4198961
50
191.6263638
51
221.3526367
0
ARC
8
DEFAULT_255_1_234
10
16.2968457
20
134.0526329
40
0.6136451
50
179.610213
51
192.0693181
0
ARC
8
DEFAULT_255_1_234
10
16.3391685
20
134.0463633
40
0.5065736
50
179.636298
51
190.6162791
0
ARC
8
DEFAULT_255_1_234
10
16.1749353
20
134.014359
40
0.3392576
50
190.4136628
51
208.7170242
0
ARC
8
DEFAULT_255_1_234
10
16.1238977
20
133.9890366
40
0.2823401
50
209.1867941
51
217.4225593
0
ARC
8
DEFAULT_255_1_234
10
16.0709811
20
133.9424558
40
0.2120636
50
216.1156896
51
265.2575835
0
ARC
8
DEFAULT_255_1_234
10
16.078896
20
133.9998109
40
0.2698952
50
264.5897417
51
270.0601757
0
ARC
8
DEFAULT_255_1_234
10
16.082202
20
133.9618185
40
0.2319225
50
269.2532621
51
291.8792492
0
ARC
8
DEFAULT_255_1_234
10
16.0851242
20
133.9440238
40
0.2143562
50
292.9269754
51
323.1776747
0
ARC
8
DEFAULT_255_1_234
10
16.0458064
20
133.9788452
40
0.2667346
50
322.2518483
51
323.0930371
0
ARC
8
DEFAULT_255_1_234
10
16.0163723
20
133.996999
40
0.3011886
50
323.6941278
51
343.8493282
0
ARC
8
DEFAULT_255_1_234
10
15.8585266
20
134.045035
40
0.4661719
50
343.5748474
51
355.0079071
0
ARC
8
DEFAULT_255_1_234
10
15.6577511
20
134.0658424
40
0.6680042
50
354.7285225
51
0.1206288
0
ARC
8
DEFAULT_255_1_234
10
15.8345977
20
134.0704751
40
0.4911667
50
359.623636
51
11.2015604
0
ARC
8
DEFAULT_255_1_234
10
15.9880205
20
134.102064
40
0.3345323
50
10.9989411
51
30.8319188
0
ARC
8
DEFAULT_255_1_234
10
16.0276077
20
134.1229297
40
0.2898553
50
31.3008956
51
37.3959224
0
ARC
8
DEFAULT_255_1_234
10
16.0772656
20
134.1648653
40
0.2249582
50
36.5915954
51
62.2442953
0
ARC
8
DEFAULT_255_1_234
10
16.0819109
20
134.1645602
40
0.2231053
50
63.3365542
51
89.7195421
0
ARC
8
DEFAULT_255_1_234
10
16.0775963
20
134.1076884
40
0.2800267
50
88.8936788
51
90.0047485
0
ARC
8
DEFAULT_255_1_234
10
16.0744322
20
134.1649787
40
0.2227586
50
89.1921125
51
114.7099455
0
ARC
8
DEFAULT_255_1_234
10
16.0773086
20
134.1687628
40
0.2205633
50
115.7997161
51
142.2900762
0
ARC
8
DEFAULT_255_1_234
10
16.1211819
20
134.1297658
40
0.2791541
50
141.4658779
51
142.3795754
0
ARC
8
DEFAULT_255_1_234
10
16.1320723
20
134.1254557
40
0.2904292
50
143.0175714
51
163.234115
0
ARC
8
DEFAULT_255_1_234
10
16.2898896
20
134.0755054
40
0.4559523
50
162.9447461
51
174.3732162
0
ARC
8
DEFAULT_255_1_234
10
16.504471
20
134.0514143
40
0.6718682
50
174.1228657
51
180.1565175
0
LINE
8
DEFAULT_255_1_234
10
17.2164736
20
134.3973532
11
17.2237021
21
134.4937341
0
LINE
8
DEFAULT_255_1_234
10
17.2237021
20
134.4937341
11
17.3594385
21
134.4937341
0
LINE
8
DEFAULT_255_1_234
10
17.3594385
20
134.4937341
11
17.3594385
21
133.6455825
0
LINE
8
DEFAULT_255_1_234
10
16.6695122
20
133.4327415
11
16.7466169
21
133.5218938
0
LINE
8
DEFAULT_255_1_234
10
17.2100482
20
133.6367476
11
17.2100482
21
133.7114428
0
LINE
8
DEFAULT_255_1_234
10
17.2100482
20
133.8624395
11
17.2100482
21
134.2592073
0
ARC
8
DEFAULT_255_1_234
10
17.3399184
20
134.070767
40
0.7145938
50
169.8803029
51
180.346492
0
ARC
8
DEFAULT_255_1_234
10
17.1045956
20
134.1144732
40
0.4752555
50
152.8532592
51
170.0826994
0
ARC
8
DEFAULT_255_1_234
10
17.021273
20
134.1539298
40
0.3831198
50
142.0149503
51
152.4184154
0
ARC
8
DEFAULT_255_1_234
10
16.9575687
20
134.2119197
40
0.2972906
50
94.3317211
51
143.267544
0
ARC
8
DEFAULT_255_1_234
10
16.9679586
20
134.1336614
40
0.3761364
50
89.949086
51
95.0094918
0
ARC
8
DEFAULT_255_1_234
10
16.9721156
20
134.1495946
40
0.3602233
50
72.9495766
51
90.6080422
0
ARC
8
DEFAULT_255_1_234
10
16.9926262
20
134.2238804
40
0.2831969
50
37.7742493
51
72.5100279
0
ARC
8
DEFAULT_255_1_234
10
16.9006175
20
133.6417461
40
0.4588371
50
346.3654765
51
0.4790689
0
ARC
8
DEFAULT_255_1_234
10
17.0373999
20
133.6069784
40
0.3177173
50
314.3365179
51
346.6439967
0
ARC
8
DEFAULT_255_1_234
10
17.0271901
20
133.621312
40
0.3351156
50
280.7143003
51
313.8723582
0
ARC
8
DEFAULT_255_1_234
10
16.9936554
20
133.7707406
40
0.4882011
50
269.662739
51
281.3210136
0
ARC
8
DEFAULT_255_1_234
10
16.9920233
20
133.729507
40
0.4469607
50
245.5258041
51
269.8408437
0
ARC
8
DEFAULT_255_1_234
10
16.9538789
20
133.6579537
40
0.3660692
50
232.6665166
51
246.3199597
0
ARC
8
DEFAULT_255_1_234
10
16.9054583
20
133.5937155
40
0.2856276
50
214.3037329
51
232.5747698
0
ARC
8
DEFAULT_255_1_234
10
17.0172764
20
133.7362759
40
0.3452771
50
218.3818001
51
236.3658697
0
ARC
8
DEFAULT_255_1_234
10
16.9772588
20
133.6804637
40
0.2766535
50
236.8638847
51
270.6382346
0
ARC
8
DEFAULT_255_1_234
10
16.9827419
20
133.7135542
40
0.3097363
50
269.5557741
51
282.3971413
0
ARC
8
DEFAULT_255_1_234
10
17.0063494
20
133.6120559
40
0.2055403
50
282.04403
51
308.3081445
0
ARC
8
DEFAULT_255_1_234
10
17.0148892
20
133.5984365
40
0.1895677
50
308.8344832
51
315.2032883
0
ARC
8
DEFAULT_255_1_234
10
17.0070465
20
133.604177
40
0.199183
50
315.6210926
51
345.6795494
0
ARC
8
DEFAULT_255_1_234
10
16.9091352
20
133.6314308
40
0.3008009
50
345.2625808
51
358.6313382
0
ARC
8
DEFAULT_255_1_234
10
16.8202774
20
133.6366622
40
0.3897707
50
358.1745328
51
0.0125581
0
ARC
8
DEFAULT_255_1_234
10
16.9887432
20
133.9027802
40
0.2925507
50
275.695063
51
319.1537421
0
ARC
8
DEFAULT_255_1_234
10
16.9675576
20
134.0251945
40
0.4165589
50
269.8801937
51
276.923904
0
ARC
8
DEFAULT_255_1_234
10
16.9622482
20
133.914205
40
0.3056007
50
244.0749417
51
270.8321594
0
ARC
8
DEFAULT_255_1_234
10
16.9697595
20
133.9162057
40
0.3107397
50
217.7817538
51
242.9905588
0
ARC
8
DEFAULT_255_1_234
10
17.0308153
20
133.9704252
40
0.3922508
50
217.5213304
51
218.5773048
0
ARC
8
DEFAULT_255_1_234
10
17.0578685
20
133.9861333
40
0.4232938
50
195.3495212
51
216.9774018
0
ARC
8
DEFAULT_255_1_234
10
17.2601699
20
134.0449389
40
0.6339531
50
183.9386736
51
195.634887
0
ARC
8
DEFAULT_255_1_234
10
17.4877999
20
134.0653851
40
0.8624629
50
179.9295504
51
184.2550478
0
ARC
8
DEFAULT_255_1_234
10
17.3556412
20
134.0465275
40
0.5809212
50
179.6990322
51
188.5748787
0
ARC
8
DEFAULT_255_1_234
10
17.154323
20
134.0150858
40
0.377167
50
188.411837
51
202.0556851
0
ARC
8
DEFAULT_255_1_234
10
17.057446
20
133.977053
40
0.2731001
50
202.2924333
51
215.4475715
0
ARC
8
DEFAULT_255_1_234
10
16.9930087
20
133.9271537
40
0.191695
50
214.4673484
51
264.336154
0
ARC
8
DEFAULT_255_1_234
10
17.0032027
20
133.9908255
40
0.2560911
50
263.4724496
51
270.0961704
0
ARC
8
DEFAULT_255_1_234
10
17.0072229
20
133.975892
40
0.2411839
50
269.1470351
51
291.7977507
0
ARC
8
DEFAULT_255_1_234
10
17.0134663
20
133.9479994
40
0.2130159
50
293.0244875
51
327.6231489
0
ARC
8
DEFAULT_255_1_234
10
16.9426844
20
133.9997511
40
0.3005627
50
326.5166824
51
332.8160514
0
ARC
8
DEFAULT_255_1_234
10
16.9777878
20
134.1357491
40
0.2630339
50
27.9929136
51
47.6313992
0
ARC
8
DEFAULT_255_1_234
10
17.0139402
20
134.1701486
40
0.2132848
50
48.5793389
51
88.624502
0
ARC
8
DEFAULT_255_1_234
10
17.0053248
20
134.0952538
40
0.2884455
50
87.2706405
51
90.0170635
0
ARC
8
DEFAULT_255_1_234
10
17.0024572
20
134.161145
40
0.2225717
50
89.2839171
51
110.1848324
0
ARC
8
DEFAULT_255_1_234
10
16.9963059
20
134.187727
40
0.1955293
50
111.1807684
51
145.0424799
0
ARC
8
DEFAULT_255_1_234
10
17.0069839
20
134.175455
40
0.2113491
50
143.9743769
51
144.1060945
0
ARC
8
DEFAULT_255_1_234
10
17.0612806
20
134.140275
40
0.2759807
50
144.7982748
51
162.8715388
0
ARC
8
DEFAULT_255_1_234
10
17.2307456
20
134.0857842
40
0.453983
50
162.5984223
51
173.3418672
0
ARC
8
DEFAULT_255_1_234
10
17.4975234
20
134.0526851
40
0.7228019
50
173.1877442
51
180.2462216
0
LINE
8
DEFAULT_255_1_234
10
17.744962
20
134.4937341
11
17.744962
21
133.6247
0
LINE
8
DEFAULT_255_1_234
10
17.744962
20
133.6247
11
17.5963748
21
133.6247
0
LINE
8
DEFAULT_255_1_234
10
17.5963748
20
133.6247
11
17.5963748
21
134.4937341
0
LINE
8
DEFAULT_255_1_234
10
17.5963748
20
134.4937341
11
17.744962
21
134.4937341
0
ARC
8
DEFAULT_255_1_234
10
17.6821897
20
134.7251889
40
0.097867
50
161.415052
51
180.5526306
0
ARC
8
DEFAULT_255_1_234
10
17.6697675
20
134.7286077
40
0.0850062
50
138.1827368
51
160.9307106
0
ARC
8
DEFAULT_255_1_234
10
17.658762
20
134.7381588
40
0.0704362
50
104.6368899
51
138.0039868
0
ARC
8
DEFAULT_255_1_234
10
17.6694775
20
134.7014963
40
0.1086221
50
92.0600725
51
105.2189128
0
ARC
8
DEFAULT_255_1_234
10
17.6718124
20
134.6672117
40
0.1429728
50
89.9756393
51
92.5012496
0
ARC
8
DEFAULT_255_1_234
10
17.6728143
20
134.6897731
40
0.1204151
50
78.0235316
51
90.4478182
0
ARC
8
DEFAULT_255_1_234
10
17.6820235
20
134.7311295
40
0.0780493
50
55.051506
51
78.3369085
0
ARC
8
DEFAULT_255_1_234
10
17.6870509
20
134.7395711
40
0.0682538
50
42.0501187
51
54.4513741
0
ARC
8
DEFAULT_255_1_234
10
17.6735376
20
134.7271798
40
0.0865878
50
1.7497075
51
42.1496013
0
ARC
8
DEFAULT_255_1_234
10
17.6480709
20
134.7242738
40
0.1121515
50
359.9852656
51
2.8364544
0
ARC
8
DEFAULT_255_1_234
10
17.6646701
20
134.7233229
40
0.0955566
50
342.1070653
51
0.552888
0
ARC
8
DEFAULT_255_1_234
10
17.6789399
20
134.7193904
40
0.0807713
50
316.7107116
51
341.6516965
0
ARC
8
DEFAULT_255_1_234
10
17.6856436
20
134.7133823
40
0.0717724
50
285.4397031
51
316.5324284
0
ARC
8
DEFAULT_255_1_234
10
17.6746353
20
134.7499554
40
0.1099597
50
272.3547054
51
285.8953117
0
ARC
8
DEFAULT_255_1_234
10
17.6719511
20
134.7865048
40
0.1465932
50
269.9695369
51
272.8160237
0
ARC
8
DEFAULT_255_1_234
10
17.6709692
20
134.7645863
40
0.1246779
50
258.8431134
51
270.4153935
0
ARC
8
DEFAULT_255_1_234
10
17.6619735
20
134.7210414
40
0.0802162
50
238.5431189
51
259.1288175
0
ARC
8
DEFAULT_255_1_234
10
17.6551619
20
134.7086856
40
0.0661247
50
222.5062634
51
237.9906969
0
ARC
8
DEFAULT_255_1_234
10
17.6679207
20
134.7202889
40
0.0833707
50
184.1069131
51
222.460413
0
ARC
8
DEFAULT_255_1_234
10
17.6948448
20
134.7241349
40
0.1105176
50
179.9429482
51
185.0960898
0
LINE
8
DEFAULT_255_1_234
10
18.5360882
20
133.8985823
11
18.6766436
21
133.8985823
0
LINE
8
DEFAULT_255_1_234
10
17.9441491
20
134.0511853
11
17.9441491
21
134.0760837
0
LINE
8
DEFAULT_255_1_234
10
18.6766436
20
134.1949534
11
18.5360882
21
134.1949534
0
LINE
8
DEFAULT_255_1_234
10
18.0927362
20
134.0704615
11
18.0927362
21
134.0423504
0
ARC
8
DEFAULT_255_1_234
10
18.3348917
20
133.9439121
40
0.2140268
50
269.0327816
51
309.2224514
0
ARC
8
DEFAULT_255_1_234
10
18.3558672
20
133.9224108
40
0.1841255
50
308.396669
51
329.6984113
0
ARC
8
DEFAULT_255_1_234
10
18.3696527
20
133.911982
40
0.166974
50
330.401383
51
355.3970571
0
ARC
8
DEFAULT_255_1_234
10
18.4153393
20
133.9137082
40
0.2617417
50
329.2357853
51
356.6870514
0
ARC
8
DEFAULT_255_1_234
10
18.3603415
20
133.9427971
40
0.3238945
50
324.8706984
51
329.7905871
0
ARC
8
DEFAULT_255_1_234
10
18.3525133
20
133.9495106
40
0.3341614
50
298.8769168
51
324.7016144
0
ARC
8
DEFAULT_255_1_234
10
18.3193325
20
134.0023917
40
0.3965068
50
296.9023738
51
299.385174
0
ARC
8
DEFAULT_255_1_234
10
18.3322938
20
133.9736422
40
0.365007
50
269.8406811
51
297.1299281
0
ARC
8
DEFAULT_255_1_234
10
18.3269595
20
134.0374407
40
0.4288259
50
253.315473
51
270.5771285
0
ARC
8
DEFAULT_255_1_234
10
18.302263
20
133.9480739
40
0.3361372
50
221.1002312
51
252.9744583
0
ARC
8
DEFAULT_255_1_234
10
18.3482627
20
133.987559
40
0.3967576
50
194.5394537
51
221.0302238
0
ARC
8
DEFAULT_255_1_234
10
18.5331448
20
134.0390952
40
0.5886672
50
182.0499201
51
194.8773585
0
ARC
8
DEFAULT_255_1_234
10
18.7101646
20
134.050906
40
0.7660157
50
179.9791086
51
182.4591564
0
ARC
8
DEFAULT_255_1_234
10
18.536369
20
134.0790498
40
0.5922274
50
168.614861
51
180.2869651
0
ARC
8
DEFAULT_255_1_234
10
18.4161835
20
134.1026269
40
0.4697532
50
154.9162259
51
168.5402336
0
ARC
8
DEFAULT_255_1_234
10
18.3240343
20
134.148163
40
0.3669966
50
133.5746694
51
155.2558665
0
ARC
8
DEFAULT_255_1_234
10
18.3077502
20
134.1620467
40
0.3457206
50
122.0165146
51
133.2055214
0
ARC
8
DEFAULT_255_1_234
10
18.311334
20
134.1532361
40
0.355095
50
97.8731644
51
121.7531281
0
ARC
8
DEFAULT_255_1_234
10
18.3292423
20
134.0475159
40
0.4622833
50
89.8471353
51
98.2769494
0
ARC
8
DEFAULT_255_1_234
10
18.3341176
20
134.1085091
40
0.401305
50
73.3760412
51
90.5199766
0
ARC
8
DEFAULT_255_1_234
10
18.3537539
20
134.1807516
40
0.3264695
50
47.7085968
51
73.0509704
0
ARC
8
DEFAULT_255_1_234
10
18.3667409
20
134.1920128
40
0.309407
50
3.7443473
51
48.0843753
0
ARC
8
DEFAULT_255_1_234
10
18.2680359
20
134.1762614
40
0.4090351
50
2.6192045
51
5.0432185
0
ARC
8
DEFAULT_255_1_234
10
18.3137212
20
134.1802592
40
0.2228519
50
3.780656
51
23.9356886
0
ARC
8
DEFAULT_255_1_234
10
18.3365828
20
134.1883155
40
0.198697
50
24.4869552
51
46.9440088
0
ARC
8
DEFAULT_255_1_234
10
18.3366679
20
134.1906484
40
0.1969404
50
46.498716
51
89.3298174
0
ARC
8
DEFAULT_255_1_234
10
18.3305033
20
134.1311723
40
0.2565428
50
88.1083975
51
90.0061569
0
ARC
8
DEFAULT_255_1_234
10
18.3277463
20
134.1365759
40
0.251154
50
89.3773333
51
107.2071161
0
ARC
8
DEFAULT_255_1_234
10
18.3134586
20
134.188319
40
0.1975072
50
107.6883219
51
143.3583002
0
ARC
8
DEFAULT_255_1_234
10
18.3701969
20
134.1456873
40
0.2684762
50
143.2846717
51
162.935323
0
ARC
8
DEFAULT_255_1_234
10
18.5207571
20
134.0973652
40
0.4265927
50
162.6650068
51
174.0805419
0
ARC
8
DEFAULT_255_1_234
10
18.735041
20
134.0724636
40
0.6423078
50
173.8423985
51
180.1785963
0
ARC
8
DEFAULT_255_1_234
10
18.680251
20
134.0393039
40
0.5875227
50
179.7028978
51
188.2277152
0
ARC
8
DEFAULT_255_1_234
10
18.4700812
20
134.0078247
40
0.3750127
50
188.0629871
51
201.1160002
0
ARC
8
DEFAULT_255_1_234
10
18.360301
20
133.9659238
40
0.2575093
50
201.2187293
51
216.9761968
0
ARC
8
DEFAULT_255_1_234
10
18.3151573
20
133.9320993
40
0.2010998
50
217.0135981
51
265.2056839
0
ARC
8
DEFAULT_255_1_234
10
18.3307433
20
134.0242695
40
0.2943543
50
263.681807
51
270.104251
0
LINE
8
DEFAULT_255_2_778
10
9.3932417
20
124.2219075
11
10.7161417
21
124.2219075
0
LINE
8
DEFAULT_255_2_778
10
10.7161417
20
124.2219075
11
10.7161417
21
67.3365075
0
LINE
8
DEFAULT_255_2_778
10
9.3932834
20
67.3364333
11
12.0390834
21
67.3364333
0
LINE
8
DEFAULT_255_2_778
10
12.0390834
20
67.3364333
11
12.0390834
21
62.0447333
0
LINE
8
DEFAULT_255_2_778
10
12.0390834
20
62.0447333
11
9.3932834
21
62.0447333
0
LINE
8
DEFAULT_255_2_778
10
9.3932834
20
62.0447333
11
9.3932834
21
67.3364333
0
ARC
8
DEFAULT_255_2_778_1
10
13.1928591
20
62.147177
40
4.816461
50
120.9442904
51
122.351755
0
ARC
8
DEFAULT_255_2_778_1
10
12.7462523
20
62.8508039
40
3.9830657
50
122.3407904
51
124.1946752
0
ARC
8
DEFAULT_255_2_778_1
10
12.3063464
20
63.4973306
40
3.2010724
50
124.1855758
51
126.4338849
0
ARC
8
DEFAULT_255_2_778_1
10
11.9204129
20
64.0200611
40
2.5513094
50
126.4326926
51
128.8877368
0
ARC
8
DEFAULT_255_2_778_1
10
11.5855968
20
64.4344658
40
2.0185498
50
128.8749205
51
131.8726567
0
ARC
8
DEFAULT_255_2_778_1
10
11.2884677
20
64.7654854
40
1.5737356
50
131.8616166
51
135.4168838
0
ARC
8
DEFAULT_255_2_778_1
10
11.025668
20
65.0236765
40
1.2053256
50
135.3893975
51
139.9687014
0
ARC
8
DEFAULT_255_2_778_1
10
10.7927889
20
65.2185102
40
0.9016937
50
139.9301659
51
145.9260426
0
ARC
8
DEFAULT_255_2_778_1
10
10.596654
20
65.3505104
40
0.6652776
50
145.8787362
51
153.8146208
0
ARC
8
DEFAULT_255_2_778_1
10
10.4445553
20
65.4248797
40
0.4959714
50
153.770634
51
164.3484794
0
ARC
8
DEFAULT_255_2_778_1
10
10.3432387
20
65.4530786
40
0.3908039
50
164.3220276
51
179.8083066
0
ARC
8
DEFAULT_255_2_778_1
10
10.3642789
20
65.461215
40
0.4118985
50
180.9499449
51
213.8111542
0
ARC
8
DEFAULT_255_2_778_1
10
10.6401828
20
65.6307896
40
0.73561
50
212.8271214
51
224.258472
0
ARC
8
DEFAULT_255_2_778_1
10
11.0230335
20
66.0001236
40
1.267567
50
224.1376218
51
231.4508261
0
ARC
8
DEFAULT_255_2_778_1
10
11.6657195
20
66.8031168
40
2.2960809
50
231.3955893
51
236.1256478
0
ARC
8
DEFAULT_255_2_778_1
10
13.4980223
20
69.5496293
40
5.5976905
50
236.2233172
51
239.1314682
0
ARC
8
DEFAULT_255_2_778_1
10
25.447927
20
89.2773568
40
28.6623793
50
238.8606853
51
239.0711101
0
ARC
8
DEFAULT_255_2_778_1
10
6.2757281
20
57.1802653
40
8.7248518
50
57.2420924
51
59.4062964
0
ARC
8
DEFAULT_255_2_778_1
10
9.5034241
20
62.2112102
40
2.747542
50
52.8289294
51
57.079028
0
ARC
8
DEFAULT_255_2_778_1
10
10.2780783
20
63.2315488
40
1.466457
50
46.3041868
51
52.8596521
0
ARC
8
DEFAULT_255_2_778_1
10
10.7103073
20
63.6816842
40
0.8424061
50
36.2174211
51
46.4090895
0
ARC
8
DEFAULT_255_2_778_1
10
10.9948088
20
63.8865128
40
0.4918609
50
17.400375
51
36.5489745
0
ARC
8
DEFAULT_255_2_778_1
10
11.1088994
20
63.9263754
40
0.3710912
50
0.0676858
51
16.7951297
0
ARC
8
DEFAULT_255_2_778_1
10
11.0878613
20
63.9282428
40
0.3921317
50
343.8035191
51
359.7912046
0
ARC
8
DEFAULT_255_2_778_1
10
10.9815912
20
63.9587167
40
0.5026844
50
333.2506233
51
343.8465691
0
ARC
8
DEFAULT_255_2_778_1
10
10.8277757
20
64.0354313
40
0.6745679
50
325.6600948
51
333.3122657
0
ARC
8
DEFAULT_255_2_778_1
10
10.6323344
20
64.1682296
40
0.9108568
50
319.7560915
51
325.6976089
0
ARC
8
DEFAULT_255_2_778_1
10
10.404199
20
64.3600002
40
1.2088854
50
315.4577584
51
319.8037947
0
ARC
8
DEFAULT_255_2_778_1
10
10.1408127
20
64.6188507
40
1.5781764
50
311.7298824
51
315.4670864
0
ARC
8
DEFAULT_255_2_778_1
10
9.8317879
20
64.9644074
40
2.0417554
50
308.723055
51
311.7470879
0
ARC
8
DEFAULT_255_2_778_1
10
9.477589
20
65.4056492
40
2.6075745
50
306.1165163
51
308.7300151
0
ARC
8
DEFAULT_255_2_778_1
10
9.0746091
20
65.9569523
40
3.2904564
50
303.9559446
51
306.1266333
0
ARC
8
DEFAULT_255_2_778_1
10
8.6630432
20
66.566215
40
4.0257023
50
302.3733397
51
303.9712246
0
ARC
8
DEFAULT_255_2_778_1
10
8.2434347
20
67.2277058
40
4.8090549
50
300.9434827
51
302.3758078
0
LINE
8
DEFAULT_255_2_778
10
10.7161417
20
62.0448075
11
10.7161417
21
5.1594075
0
LINE
8
DEFAULT_255_2_778
10
10.7161417
20
5.1594075
11
9.3932417
21
5.1594075
0
LINE
8
DEFAULT_255_1_234
10
4.2413489
20
132.8098211
11
4.2413489
21
131.7664983
0
LINE
8
DEFAULT_255_1_234
10
4.2413489
20
131.7664983
11
4.7955389
21
131.7664983
0
LINE
8
DEFAULT_255_1_234
10
4.7955389
20
131.7664983
11
4.7955389
21
131.6404
0
LINE
8
DEFAULT_255_1_234
10
4.7955389
20
131.6404
11
4.0863364
21
131.6404
0
LINE
8
DEFAULT_255_1_234
10
4.0863364
20
131.6404
11
4.0863364
21
132.8098211
0
LINE
8
DEFAULT_255_1_234
10
4.0863364
20
132.8098211
11
4.2413489
21
132.8098211
0
LINE
8
DEFAULT_255_1_234
10
5.4212113
20
132.8154433
11
5.4212113
21
131.6404
0
LINE
8
DEFAULT_255_1_234
10
5.4212113
20
131.6404
11
5.2718209
21
131.6404
0
LINE
8
DEFAULT_255_1_234
10
5.2718209
20
131.6404
11
5.2718209
21
132.6307133
0
LINE
8
DEFAULT_255_1_234
10
5.2718209
20
132.6307133
11
4.9722371
21
132.5206785
0
LINE
8
DEFAULT_255_1_234
10
4.9722371
20
132.5206785
11
4.9722371
21
132.6556117
0
LINE
8
DEFAULT_255_1_234
10
4.9722371
20
132.6556117
11
5.3979192
21
132.8154433
0
LINE
8
DEFAULT_255_1_234
10
5.3979192
20
132.8154433
11
5.4212113
21
132.8154433
0
LINE
8
DEFAULT_255_1_234
10
5.0560293
20
4.6404
11
4.9443881
21
4.9456061
0
LINE
8
DEFAULT_255_1_234
10
4.9443881
20
4.9456061
11
4.4544521
21
4.9456061
0
LINE
8
DEFAULT_255_1_234
10
4.4544521
20
4.9456061
11
4.3444173
21
4.6404
0
LINE
8
DEFAULT_255_1_234
10
4.3444173
20
4.6404
11
4.1853889
21
4.6404
0
LINE
8
DEFAULT_255_1_234
10
4.1853889
20
4.6404
11
4.6319535
21
5.8098211
0
LINE
8
DEFAULT_255_1_234
10
4.6319535
20
5.8098211
11
4.7668867
21
5.8098211
0
LINE
8
DEFAULT_255_1_234
10
4.7668867
20
5.8098211
11
5.2142545
21
4.6404
0
LINE
8
DEFAULT_255_1_234
10
5.2142545
20
4.6404
11
5.0560293
21
4.6404
0
LINE
8
DEFAULT_255_1_234
10
4.6994201
20
5.6194689
11
4.5010362
21
5.0725075
0
LINE
8
DEFAULT_255_1_234
10
4.5010362
20
5.0725075
11
4.8986072
21
5.0725075
0
LINE
8
DEFAULT_255_1_234
10
4.8986072
20
5.0725075
11
4.6994201
21
5.6194689
0
LINE
8
DEFAULT_255_1_234
10
5.5371304
20
5.8098211
11
5.5371304
21
4.6404
0
LINE
8
DEFAULT_255_1_234
10
5.5371304
20
4.6404
11
5.382921
21
4.6404
0
LINE
8
DEFAULT_255_1_234
10
5.382921
20
4.6404
11
5.382921
21
5.8098211
0
LINE
8
DEFAULT_255_1_234
10
5.382921
20
5.8098211
11
5.5371304
21
5.8098211
0
LINE
8
DEFAULT_255_1_234
10
6.2688218
20
5.8154433
11
6.2688218
21
4.6404
0
LINE
8
DEFAULT_255_1_234
10
6.2688218
20
4.6404
11
6.1194314
21
4.6404
0
LINE
8
DEFAULT_255_1_234
10
6.1194314
20
4.6404
11
6.1194314
21
5.6307133
0
LINE
8
DEFAULT_255_1_234
10
6.1194314
20
5.6307133
11
5.8198476
21
5.5206785
0
LINE
8
DEFAULT_255_1_234
10
5.8198476
20
5.5206785
11
5.8198476
21
5.6556117
0
LINE
8
DEFAULT_255_1_234
10
5.8198476
20
5.6556117
11
6.2455297
21
5.8154433
0
LINE
8
DEFAULT_255_1_234
10
6.2455297
20
5.8154433
11
6.2688218
21
5.8154433
0
LINE
8
DEFAULT_255_1_234
10
6.8912815
20
5.1961963
11
6.7724118
21
5.2267169
0
LINE
8
DEFAULT_255_1_234
10
6.7724118
20
5.2267169
11
6.8318466
21
5.8098211
0
LINE
8
DEFAULT_255_1_234
10
6.8318466
20
5.8098211
11
7.4310143
21
5.8098211
0
LINE
8
DEFAULT_255_1_234
10
7.4310143
20
5.8098211
11
7.4310143
21
5.6724784
0
LINE
8
DEFAULT_255_1_234
10
7.4310143
20
5.6724784
11
6.9579449
21
5.6724784
0
LINE
8
DEFAULT_255_1_234
10
6.9579449
20
5.6724784
11
6.9226053
21
5.3536184
0
LINE
8
DEFAULT_255_1_234
10
6.7306467
20
4.9480156
11
6.8712021
21
4.9480156
0
LINE
8
DEFAULT_255_1_234
10
6.930637
20
5.2283232
11
6.8912815
21
5.1961963
0
ARC
8
DEFAULT_255_1_234
10
7.1080837
20
5.035623
40
0.3681349
50
93.7182161
51
120.2538958
0
ARC
8
DEFAULT_255_1_234
10
7.11751
20
4.9548394
40
0.449379
50
89.9660152
51
94.2496022
0
ARC
8
DEFAULT_255_1_234
10
7.1215834
20
5.0137549
40
0.390482
50
73.8043271
51
90.5585896
0
ARC
8
DEFAULT_255_1_234
10
7.145073
20
5.0995602
40
0.3015334
50
41.3071453
51
73.5430202
0
ARC
8
DEFAULT_255_1_234
10
7.1034558
20
5.0637324
40
0.3564457
50
13.5075983
51
41.2174222
0
ARC
8
DEFAULT_255_1_234
10
6.9392762
20
5.0207486
40
0.5261351
50
1.1331335
51
13.8829381
0
ARC
8
DEFAULT_255_1_234
10
6.7981131
20
5.0131665
40
0.6674378
50
359.9919444
51
1.544251
0
ARC
8
DEFAULT_255_1_234
10
6.9257957
20
5.009028
40
0.5397702
50
347.8572367
51
0.4293338
0
ARC
8
DEFAULT_255_1_234
10
7.1008275
20
4.9693736
40
0.3603188
50
323.673004
51
348.1672506
0
ARC
8
DEFAULT_255_1_234
10
7.1302783
20
4.9514168
40
0.3259678
50
316.8171152
51
323.1492751
0
ARC
8
DEFAULT_255_1_234
10
7.1363972
20
4.947746
40
0.3189975
50
281.8396411
51
316.5457803
0
ARC
8
DEFAULT_255_1_234
10
7.0988235
20
5.1032762
40
0.4789527
50
269.5770101
51
282.4214771
0
ARC
8
DEFAULT_255_1_234
10
7.0917047
20
5.0819125
40
0.45759
50
256.2427136
51
270.4486331
0
ARC
8
DEFAULT_255_1_234
10
7.0617949
20
4.9619229
40
0.3339303
50
228.9023911
51
256.3314342
0
ARC
8
DEFAULT_255_1_234
10
7.0544182
20
4.9502746
40
0.32031
50
193.753695
51
228.5271154
0
ARC
8
DEFAULT_255_1_234
10
7.1782136
20
4.98658
40
0.4492253
50
184.924711
51
194.497588
0
ARC
8
DEFAULT_255_1_234
10
7.1974703
20
4.9901591
40
0.3289787
50
187.3600538
51
198.6732863
0
ARC
8
DEFAULT_255_1_234
10
7.0924997
20
4.9537674
40
0.217884
50
198.4451669
51
217.794479
0
ARC
8
DEFAULT_255_1_234
10
7.0629172
20
4.9328085
40
0.1816698
50
218.2887171
51
228.5612368
0
ARC
8
DEFAULT_255_1_234
10
7.0726959
20
4.9459963
40
0.1980329
50
228.9654866
51
258.1234728
0
ARC
8
DEFAULT_255_1_234
10
7.0932669
20
5.0340833
40
0.2884748
50
257.7258293
51
270.401361
0
ARC
8
DEFAULT_255_1_234
10
7.0977555
20
4.9895821
40
0.2439788
50
269.4204404
51
286.4209037
0
ARC
8
DEFAULT_255_1_234
10
7.1126043
20
4.9356657
40
0.1880666
50
286.7251356
51
320.600362
0
ARC
8
DEFAULT_255_1_234
10
7.0742868
20
4.9667595
40
0.2374121
50
320.6712579
51
344.5441685
0
ARC
8
DEFAULT_255_1_234
10
6.9586194
20
5.0007045
40
0.3579479
50
344.2412205
51
356.7357071
0
ARC
8
DEFAULT_255_1_234
10
6.8337342
20
5.0110444
40
0.4832297
50
356.3548756
51
0.0500261
0
ARC
8
DEFAULT_255_1_234
10
6.9673852
20
5.014165
40
0.3495889
50
359.5576869
51
12.953486
0
ARC
8
DEFAULT_255_1_234
10
7.0728749
20
5.0397434
40
0.2410532
50
12.6490276
51
41.6081334
0
ARC
8
DEFAULT_255_1_234
10
7.095912
20
5.0593321
40
0.2108218
50
41.7850273
51
85.9892764
0
ARC
8
DEFAULT_255_1_234
10
7.0835856
20
4.9780462
40
0.2928454
50
84.6957577
51
90.0676183
0
ARC
8
DEFAULT_255_1_234
10
7.0812341
20
4.9111716
40
0.3597255
50
89.6804936
51
99.1614436
0
ARC
8
DEFAULT_255_1_234
10
7.0606972
20
5.0339131
40
0.235281
50
98.9830931
51
113.8908934
0
ARC
8
DEFAULT_255_1_234
10
7.0377382
20
5.0880587
40
0.176479
50
114.1950727
51
127.3641004
0
LINE
8
DEFAULT_255_1_234
10
5.1618293
20
12.5779
11
5.0501881
21
12.8831061
0
LINE
8
DEFAULT_255_1_234
10
5.0501881
20
12.8831061
11
4.5602521
21
12.8831061
0
LINE
8
DEFAULT_255_1_234
10
4.5602521
20
12.8831061
11
4.4502173
21
12.5779
0
LINE
8
DEFAULT_255_1_234
10
4.4502173
20
12.5779
11
4.2911889
21
12.5779
0
LINE
8
DEFAULT_255_1_234
10
4.2911889
20
12.5779
11
4.7377535
21
13.7473211
0
LINE
8
DEFAULT_255_1_234
10
4.7377535
20
13.7473211
11
4.8726867
21
13.7473211
0
LINE
8
DEFAULT_255_1_234
10
4.8726867
20
13.7473211
11
5.3200545
21
12.5779
0
LINE
8
DEFAULT_255_1_234
10
5.3200545
20
12.5779
11
5.1618293
21
12.5779
0
LINE
8
DEFAULT_255_1_234
10
4.8052201
20
13.5569689
11
4.6068362
21
13.0100075
0
LINE
8
DEFAULT_255_1_234
10
4.6068362
20
13.0100075
11
5.0044072
21
13.0100075
0
LINE
8
DEFAULT_255_1_234
10
5.0044072
20
13.0100075
11
4.8052201
21
13.5569689
0
LINE
8
DEFAULT_255_1_234
10
5.6429304
20
13.7473211
11
5.6429304
21
12.5779
0
LINE
8
DEFAULT_255_1_234
10
5.6429304
20
12.5779
11
5.488721
21
12.5779
0
LINE
8
DEFAULT_255_1_234
10
5.488721
20
12.5779
11
5.488721
21
13.7473211
0
LINE
8
DEFAULT_255_1_234
10
5.488721
20
13.7473211
11
5.6429304
21
13.7473211
0
LINE
8
DEFAULT_255_1_234
10
6.3746218
20
13.7529433
11
6.3746218
21
12.5779
0
LINE
8
DEFAULT_255_1_234
10
6.3746218
20
12.5779
11
6.2252314
21
12.5779
0
LINE
8
DEFAULT_255_1_234
10
6.2252314
20
12.5779
11
6.2252314
21
13.5682133
0
LINE
8
DEFAULT_255_1_234
10
6.2252314
20
13.5682133
11
5.9256476
21
13.4581785
0
LINE
8
DEFAULT_255_1_234
10
5.9256476
20
13.4581785
11
5.9256476
21
13.5931117
0
LINE
8
DEFAULT_255_1_234
10
5.9256476
20
13.5931117
11
6.3513297
21
13.7529433
0
LINE
8
DEFAULT_255_1_234
10
6.3513297
20
13.7529433
11
6.3746218
21
13.7529433
0
LINE
8
DEFAULT_255_1_234
10
7.4372208
20
13.7473211
11
7.4372208
21
12.970652
0
LINE
8
DEFAULT_255_1_234
10
7.4372208
20
12.970652
11
7.5994619
21
12.970652
0
LINE
8
DEFAULT_255_1_234
10
7.5994619
20
12.970652
11
7.5994619
21
12.8493728
0
LINE
8
DEFAULT_255_1_234
10
7.5994619
20
12.8493728
11
7.4372208
21
12.8493728
0
LINE
8
DEFAULT_255_1_234
10
7.4372208
20
12.8493728
11
7.4372208
21
12.5779
0
LINE
8
DEFAULT_255_1_234
10
7.4372208
20
12.5779
11
7.2878304
21
12.5779
0
LINE
8
DEFAULT_255_1_234
10
7.2878304
20
12.5779
11
7.2878304
21
12.8493728
0
LINE
8
DEFAULT_255_1_234
10
7.2878304
20
12.8493728
11
6.7553262
21
12.8493728
0
LINE
8
DEFAULT_255_1_234
10
6.7553262
20
12.8493728
11
6.7553262
21
12.9369187
0
LINE
8
DEFAULT_255_1_234
10
6.7553262
20
12.9369187
11
7.2789955
21
13.7473211
0
LINE
8
DEFAULT_255_1_234
10
7.2789955
20
13.7473211
11
7.4372208
21
13.7473211
0
LINE
8
DEFAULT_255_1_234
10
7.2701606
20
13.5119912
11
6.9239927
21
12.970652
0
LINE
8
DEFAULT_255_1_234
10
6.9239927
20
12.970652
11
7.2878304
21
12.970652
0
LINE
8
DEFAULT_255_1_234
10
7.2878304
20
12.970652
11
7.2878304
21
13.5441181
0
LINE
8
DEFAULT_255_1_234
10
7.2878304
20
13.5441181
11
7.2701606
21
13.5119912
0
LINE
8
DEFAULT_255_1_234
10
5.0560293
20
20.5154
11
4.9443881
21
20.8206061
0
LINE
8
DEFAULT_255_1_234
10
4.9443881
20
20.8206061
11
4.4544521
21
20.8206061
0
LINE
8
DEFAULT_255_1_234
10
4.4544521
20
20.8206061
11
4.3444173
21
20.5154
0
LINE
8
DEFAULT_255_1_234
10
4.3444173
20
20.5154
11
4.1853889
21
20.5154
0
LINE
8
DEFAULT_255_1_234
10
4.1853889
20
20.5154
11
4.6319535
21
21.6848211
0
LINE
8
DEFAULT_255_1_234
10
4.6319535
20
21.6848211
11
4.7668867
21
21.6848211
0
LINE
8
DEFAULT_255_1_234
10
4.7668867
20
21.6848211
11
5.2142545
21
20.5154
0
LINE
8
DEFAULT_255_1_234
10
5.2142545
20
20.5154
11
5.0560293
21
20.5154
0
LINE
8
DEFAULT_255_1_234
10
4.6994201
20
21.4944689
11
4.5010362
21
20.9475075
0
LINE
8
DEFAULT_255_1_234
10
4.5010362
20
20.9475075
11
4.8986072
21
20.9475075
0
LINE
8
DEFAULT_255_1_234
10
4.8986072
20
20.9475075
11
4.6994201
21
21.4944689
0
LINE
8
DEFAULT_255_1_234
10
5.5371304
20
21.6848211
11
5.5371304
21
20.5154
0
LINE
8
DEFAULT_255_1_234
10
5.5371304
20
20.5154
11
5.382921
21
20.5154
0
LINE
8
DEFAULT_255_1_234
10
5.382921
20
20.5154
11
5.382921
21
21.6848211
0
LINE
8
DEFAULT_255_1_234
10
5.382921
20
21.6848211
11
5.5371304
21
21.6848211
0
LINE
8
DEFAULT_255_1_234
10
6.2688218
20
21.6904433
11
6.2688218
21
20.5154
0
LINE
8
DEFAULT_255_1_234
10
6.2688218
20
20.5154
11
6.1194314
21
20.5154
0
LINE
8
DEFAULT_255_1_234
10
6.1194314
20
20.5154
11
6.1194314
21
21.5057133
0
LINE
8
DEFAULT_255_1_234
10
6.1194314
20
21.5057133
11
5.8198476
21
21.3956785
0
LINE
8
DEFAULT_255_1_234
10
5.8198476
20
21.3956785
11
5.8198476
21
21.5306117
0
LINE
8
DEFAULT_255_1_234
10
5.8198476
20
21.5306117
11
6.2455297
21
21.6904433
0
LINE
8
DEFAULT_255_1_234
10
6.2455297
20
21.6904433
11
6.2688218
21
21.6904433
0
LINE
8
DEFAULT_255_1_234
10
6.9201958
20
21.0511169
11
6.9201958
21
21.1723962
0
LINE
8
DEFAULT_255_1_234
10
6.9201958
20
21.1723962
11
7.0318369
21
21.1723962
0
LINE
8
DEFAULT_255_1_234
10
6.8414847
20
21.3780087
11
6.6928976
21
21.3780087
0
LINE
8
DEFAULT_255_1_234
10
6.6824563
20
20.8238188
11
6.8318466
21
20.8238188
0
LINE
8
DEFAULT_255_1_234
10
7.0318369
20
21.0511169
11
6.9201958
21
21.0511169
0
ARC
8
DEFAULT_255_1_234
10
7.0289236
20
21.5116713
40
0.3392876
50
270.4919872
51
281.8951556
0
ARC
8
DEFAULT_255_1_234
10
7.0530497
20
21.4014702
40
0.2264817
50
281.6691735
51
301.2943132
0
ARC
8
DEFAULT_255_1_234
10
7.0700708
20
21.3703304
40
0.1910381
50
301.7833094
51
311.7545298
0
ARC
8
DEFAULT_255_1_234
10
7.0792283
20
21.3601748
40
0.1773635
50
311.7323931
51
354.2802411
0
ARC
8
DEFAULT_255_1_234
10
7.0065909
20
21.3726722
40
0.2509385
50
353.0937916
51
0.1181479
0
ARC
8
DEFAULT_255_1_234
10
6.9604693
20
21.3774386
40
0.2970898
50
359.1805295
51
15.0453146
0
ARC
8
DEFAULT_255_1_234
10
7.095053
20
21.4166992
40
0.1569564
50
13.9577229
51
77.6713066
0
ARC
8
DEFAULT_255_1_234
10
7.0564059
20
21.2781949
40
0.3006298
50
76.1116566
51
90.7026153
0
ARC
8
DEFAULT_255_1_234
10
7.0504898
20
21.3055545
40
0.2732568
50
89.5324876
51
103.531937
0
ARC
8
DEFAULT_255_1_234
10
7.0304342
20
21.3854884
40
0.1908508
50
103.2931773
51
133.5619022
0
ARC
8
DEFAULT_255_1_234
10
7.025983
20
21.3914375
40
0.1834746
50
133.8349307
51
173.5344437
0
ARC
8
DEFAULT_255_1_234
10
7.0982873
20
21.3786213
40
0.2568033
50
172.5096846
51
180.1366907
0
ARC
8
DEFAULT_255_1_234
10
7.0031767
20
21.3820622
40
0.3103056
50
155.3484492
51
180.7484736
0
ARC
8
DEFAULT_255_1_234
10
6.9982856
20
21.3791846
40
0.3070957
50
131.5744599
51
154.4798489
0
ARC
8
DEFAULT_255_1_234
10
7.0296004
20
21.347531
40
0.3515643
50
96.9875458
51
131.9690667
0
ARC
8
DEFAULT_255_1_234
10
7.0515484
20
21.2229636
40
0.4779224
50
89.8596053
51
97.7825159
0
ARC
8
DEFAULT_255_1_234
10
7.0563547
20
21.1967616
40
0.5041361
50
78.3655447
51
90.4131539
0
ARC
8
DEFAULT_255_1_234
10
7.0921465
20
21.3626887
40
0.3344039
50
56.6229102
51
78.638727
0
ARC
8
DEFAULT_255_1_234
10
7.1136408
20
21.4002805
40
0.2912001
50
47.0253525
51
56.0854072
0
ARC
8
DEFAULT_255_1_234
10
7.1156188
20
21.4042223
40
0.2869704
50
10.9208013
51
46.7778124
0
ARC
8
DEFAULT_255_1_234
10
6.9792255
20
21.3726857
40
0.426899
50
359.6364486
51
11.6087304
0
ARC
8
DEFAULT_255_1_234
10
7.1627099
20
21.3711752
40
0.243409
50
332.3549906
51
359.7179418
0
ARC
8
DEFAULT_255_1_234
10
7.09767
20
21.4020142
40
0.3153459
50
325.2333722
51
332.8745602
0
ARC
8
DEFAULT_255_1_234
10
7.1129324
20
21.3913828
40
0.2967456
50
292.9802137
51
325.2392345
0
ARC
8
DEFAULT_255_1_234
10
7.0854698
20
21.4447863
40
0.3566604
50
292.5402179
51
293.6924929
0
ARC
8
DEFAULT_255_1_234
10
7.1247294
20
20.7993091
40
0.3307468
50
57.6435486
51
72.8625112
0
ARC
8
DEFAULT_255_1_234
10
7.1601794
20
20.8567549
40
0.2632492
50
36.7248896
51
57.4697979
0
ARC
8
DEFAULT_255_1_234
10
7.1590426
20
20.858022
40
0.2634081
50
8.0545065
51
36.356114
0
ARC
8
DEFAULT_255_1_234
10
7.0727611
20
20.8425174
40
0.3510261
50
359.8320645
51
8.5869982
0
ARC
8
DEFAULT_255_1_234
10
7.0352388
20
20.8377101
40
0.3885653
50
343.9829931
51
0.5571613
0
ARC
8
DEFAULT_255_1_234
10
7.1238585
20
20.8134438
40
0.2966924
50
311.6359546
51
343.7651759
0
ARC
8
DEFAULT_255_1_234
10
7.0860154
20
20.8561102
40
0.3537231
50
279.7829875
51
311.6255694
0
ARC
8
DEFAULT_255_1_234
10
7.055893
20
20.999828
40
0.5004971
50
269.7286406
51
280.3856417
0
ARC
8
DEFAULT_255_1_234
10
7.0497003
20
20.9956996
40
0.4963778
50
256.6828919
51
270.4412052
0
ARC
8
DEFAULT_255_1_234
10
7.0158299
20
20.8572394
40
0.3538406
50
229.4223008
51
256.8556159
0
ARC
8
DEFAULT_255_1_234
10
6.9743691
20
20.8105736
40
0.2914296
50
181.818294
51
229.6455059
0
ARC
8
DEFAULT_255_1_234
10
7.0783648
20
20.8236496
40
0.3959084
50
179.9755256
51
183.2323064
0
ARC
8
DEFAULT_255_1_234
10
7.0611393
20
20.8216037
40
0.2293034
50
179.4465117
51
196.2869258
0
ARC
8
DEFAULT_255_1_234
10
7.0123802
20
20.8082651
40
0.1787621
50
196.5661473
51
227.705904
0
ARC
8
DEFAULT_255_1_234
10
7.0287896
20
20.8266155
40
0.2033784
50
227.7652068
51
257.8762805
0
ARC
8
DEFAULT_255_1_234
10
7.0512867
20
20.9209156
40
0.3003081
50
257.4584385
51
270.426602
0
ARC
8
DEFAULT_255_1_234
10
7.0558433
20
20.9498996
40
0.329292
50
269.5962073
51
280.8789248
0
ARC
8
DEFAULT_255_1_234
10
7.0787961
20
20.8352685
40
0.2123908
50
280.6346389
51
299.8595945
0
ARC
8
DEFAULT_255_1_234
10
7.0978868
20
20.7990212
40
0.171457
50
300.3576302
51
314.5517981
0
ARC
8
DEFAULT_255_1_234
10
7.0895928
20
20.8050919
40
0.1816095
50
315.0728369
51
345.0431014
0
ARC
8
DEFAULT_255_1_234
10
6.9972743
20
20.8319841
40
0.2777492
50
344.5986631
51
357.9269593
0
ARC
8
DEFAULT_255_1_234
10
6.9077069
20
20.8381276
40
0.3674917
50
357.4748886
51
0.0231117
0
ARC
8
DEFAULT_255_1_234
10
7.0100178
20
20.8405679
40
0.2651907
50
359.5047933
51
13.4239635
0
ARC
8
DEFAULT_255_1_234
10
7.0966822
20
20.8627478
40
0.1757509
50
12.9498199
51
48.7551375
0
ARC
8
DEFAULT_255_1_234
10
7.0784556
20
20.83784
40
0.2065134
50
49.5088623
51
72.1836453
0
ARC
8
DEFAULT_255_1_234
10
7.0426708
20
20.7316291
40
0.3185836
50
71.9010081
51
84.3554254
0
ARC
8
DEFAULT_255_1_234
10
7.026534
20
20.5955326
40
0.4556151
50
84.0193428
51
89.333121
0
LINE
8
DEFAULT_255_1_234
10
5.0560293
20
28.4529
11
4.9443881
21
28.7581061
0
LINE
8
DEFAULT_255_1_234
10
4.9443881
20
28.7581061
11
4.4544521
21
28.7581061
0
LINE
8
DEFAULT_255_1_234
10
4.4544521
20
28.7581061
11
4.3444173
21
28.4529
0
LINE
8
DEFAULT_255_1_234
10
4.3444173
20
28.4529
11
4.1853889
21
28.4529
0
LINE
8
DEFAULT_255_1_234
10
4.1853889
20
28.4529
11
4.6319535
21
29.6223211
0
LINE
8
DEFAULT_255_1_234
10
4.6319535
20
29.6223211
11
4.7668867
21
29.6223211
0
LINE
8
DEFAULT_255_1_234
10
4.7668867
20
29.6223211
11
5.2142545
21
28.4529
0
LINE
8
DEFAULT_255_1_234
10
5.2142545
20
28.4529
11
5.0560293
21
28.4529
0
LINE
8
DEFAULT_255_1_234
10
4.6994201
20
29.4319689
11
4.5010362
21
28.8850075
0
LINE
8
DEFAULT_255_1_234
10
4.5010362
20
28.8850075
11
4.8986072
21
28.8850075
0
LINE
8
DEFAULT_255_1_234
10
4.8986072
20
28.8850075
11
4.6994201
21
29.4319689
0
LINE
8
DEFAULT_255_1_234
10
5.5371304
20
29.6223211
11
5.5371304
21
28.4529
0
LINE
8
DEFAULT_255_1_234
10
5.5371304
20
28.4529
11
5.382921
21
28.4529
0
LINE
8
DEFAULT_255_1_234
10
5.382921
20
28.4529
11
5.382921
21
29.6223211
0
LINE
8
DEFAULT_255_1_234
10
5.382921
20
29.6223211
11
5.5371304
21
29.6223211
0
LINE
8
DEFAULT_255_1_234
10
6.2688218
20
29.6279433
11
6.2688218
21
28.4529
0
LINE
8
DEFAULT_255_1_234
10
6.2688218
20
28.4529
11
6.1194314
21
28.4529
0
LINE
8
DEFAULT_255_1_234
10
6.1194314
20
28.4529
11
6.1194314
21
29.4432133
0
LINE
8
DEFAULT_255_1_234
10
6.1194314
20
29.4432133
11
5.8198476
21
29.3331785
0
LINE
8
DEFAULT_255_1_234
10
5.8198476
20
29.3331785
11
5.8198476
21
29.4681117
0
LINE
8
DEFAULT_255_1_234
10
5.8198476
20
29.4681117
11
6.2455297
21
29.6279433
0
LINE
8
DEFAULT_255_1_234
10
6.2455297
20
29.6279433
11
6.2688218
21
29.6279433
0
LINE
8
DEFAULT_255_1_234
10
7.4703698
20
28.5741792
11
7.4703698
21
28.4529
0
LINE
8
DEFAULT_255_1_234
10
7.4703698
20
28.4529
11
6.704142
21
28.4529
0
LINE
8
DEFAULT_255_1_234
10
6.704142
20
28.4529
11
6.704142
21
28.5597221
0
LINE
8
DEFAULT_255_1_234
10
6.704142
20
28.5597221
11
7.1089416
21
29.0094995
0
LINE
8
DEFAULT_255_1_234
10
6.8302403
20
29.2777595
11
6.6816531
21
29.2777595
0
LINE
8
DEFAULT_255_1_234
10
7.1964875
20
28.9139218
11
6.8832498
21
28.5741792
0
LINE
8
DEFAULT_255_1_234
10
6.8832498
20
28.5741792
11
7.4703698
21
28.5741792
0
ARC
8
DEFAULT_255_1_234
10
5.7599249
20
30.2024527
40
1.8008286
50
318.5132453
51
320.7828378
0
ARC
8
DEFAULT_255_1_234
10
6.2886224
20
29.7721426
40
1.1191493
50
320.7372736
51
323.9737074
0
ARC
8
DEFAULT_255_1_234
10
6.680608
20
29.4881361
40
0.6350923
50
323.8961724
51
328.6421089
0
ARC
8
DEFAULT_255_1_234
10
6.8852676
20
29.3619031
40
0.3946393
50
328.8299013
51
331.789948
0
ARC
8
DEFAULT_255_1_234
10
6.9849854
20
29.3104509
40
0.2824501
50
331.4255242
51
352.9364833
0
ARC
8
DEFAULT_255_1_234
10
6.9986355
20
29.3073976
40
0.2685315
50
353.2248685
51
0.0169286
0
ARC
8
DEFAULT_255_1_234
10
7.0196231
20
29.309695
40
0.2475536
50
359.4866256
51
15.9339782
0
ARC
8
DEFAULT_255_1_234
10
7.0703217
20
29.3233286
40
0.1950618
50
16.1714718
51
43.5284424
0
ARC
8
DEFAULT_255_1_234
10
7.0780525
20
29.3310573
40
0.184134
50
43.4415429
51
83.1661404
0
ARC
8
DEFAULT_255_1_234
10
7.0646444
20
29.2573771
40
0.258926
50
82.160215
51
90.1505798
0
ARC
8
DEFAULT_255_1_234
10
7.0614871
20
29.2036865
40
0.3126255
50
89.5460705
51
102.5418777
0
ARC
8
DEFAULT_255_1_234
10
7.0371957
20
29.3067665
40
0.2067346
50
102.1739365
51
129.2061916
0
ARC
8
DEFAULT_255_1_234
10
7.0293029
20
29.3192094
40
0.1921118
50
129.7279328
51
135.7542026
0
ARC
8
DEFAULT_255_1_234
10
7.0414556
20
29.3095045
40
0.2075944
50
136.175737
51
166.3674722
0
ARC
8
DEFAULT_255_1_234
10
7.1421476
20
29.2825182
40
0.3118201
50
165.9092917
51
178.8683903
0
ARC
8
DEFAULT_255_1_234
10
7.2286337
20
29.2778179
40
0.3983935
50
178.438168
51
180.0083905
0
ARC
8
DEFAULT_255_1_234
10
7.0884939
20
29.2817231
40
0.4068601
50
163.2878735
51
180.5581814
0
ARC
8
DEFAULT_255_1_234
10
7.00832
20
29.303784
40
0.3237344
50
133.454115
51
162.9470031
0
ARC
8
DEFAULT_255_1_234
10
7.0261742
20
29.2848
40
0.349795
50
100.7869394
51
133.4384016
0
ARC
8
DEFAULT_255_1_234
10
7.0609513
20
29.1299319
40
0.5084616
50
89.6605301
51
101.3704185
0
ARC
8
DEFAULT_255_1_234
10
7.0675852
20
29.1360496
40
0.502348
50
78.2171172
51
90.4130393
0
ARC
8
DEFAULT_255_1_234
10
7.103093
20
29.2984637
40
0.3361092
50
55.9268222
51
78.4888551
0
ARC
8
DEFAULT_255_1_234
10
7.1227371
20
29.3323324
40
0.2970617
50
47.9292255
51
55.4054003
0
ARC
8
DEFAULT_255_1_234
10
7.1328931
20
29.3426502
40
0.2825983
50
4.3347696
51
48.0560701
0
ARC
8
DEFAULT_255_1_234
10
7.0233325
20
29.3256601
40
0.393225
50
359.925209
51
5.5967654
0
ARC
8
DEFAULT_255_1_234
10
7.0662217
20
29.3312816
40
0.3503892
50
337.8914096
51
358.9967724
0
ARC
8
DEFAULT_255_1_234
10
6.7948629
20
29.4359706
40
0.6412172
50
326.9135351
51
338.3505194
0
ARC
8
DEFAULT_255_1_234
10
6.3962932
20
29.6914284
40
1.1146189
50
319.6472867
51
327.095818
0
ARC
8
DEFAULT_255_1_234
10
6.0129936
20
30.0076
40
1.6114559
50
317.2586784
51
319.9046139
0
LINE
8
DEFAULT_255_1_234
10
5.0476293
20
36.3904
11
4.9359881
21
36.6956061
0
LINE
8
DEFAULT_255_1_234
10
4.9359881
20
36.6956061
11
4.4460521
21
36.6956061
0
LINE
8
DEFAULT_255_1_234
10
4.4460521
20
36.6956061
11
4.3360173
21
36.3904
0
LINE
8
DEFAULT_255_1_234
10
4.3360173
20
36.3904
11
4.1769889
21
36.3904
0
LINE
8
DEFAULT_255_1_234
10
4.1769889
20
36.3904
11
4.6235535
21
37.5598211
0
LINE
8
DEFAULT_255_1_234
10
4.6235535
20
37.5598211
11
4.7584867
21
37.5598211
0
LINE
8
DEFAULT_255_1_234
10
4.7584867
20
37.5598211
11
5.2058545
21
36.3904
0
LINE
8
DEFAULT_255_1_234
10
5.2058545
20
36.3904
11
5.0476293
21
36.3904
0
LINE
8
DEFAULT_255_1_234
10
4.6910201
20
37.3694689
11
4.4926362
21
36.8225075
0
LINE
8
DEFAULT_255_1_234
10
4.4926362
20
36.8225075
11
4.8902072
21
36.8225075
0
LINE
8
DEFAULT_255_1_234
10
4.8902072
20
36.8225075
11
4.6910201
21
37.3694689
0
LINE
8
DEFAULT_255_1_234
10
5.5287304
20
37.5598211
11
5.5287304
21
36.3904
0
LINE
8
DEFAULT_255_1_234
10
5.5287304
20
36.3904
11
5.374521
21
36.3904
0
LINE
8
DEFAULT_255_1_234
10
5.374521
20
36.3904
11
5.374521
21
37.5598211
0
LINE
8
DEFAULT_255_1_234
10
5.374521
20
37.5598211
11
5.5287304
21
37.5598211
0
LINE
8
DEFAULT_255_1_234
10
6.2604218
20
37.5654433
11
6.2604218
21
36.3904
0
LINE
8
DEFAULT_255_1_234
10
6.2604218
20
36.3904
11
6.1110314
21
36.3904
0
LINE
8
DEFAULT_255_1_234
10
6.1110314
20
36.3904
11
6.1110314
21
37.3807133
0
LINE
8
DEFAULT_255_1_234
10
6.1110314
20
37.3807133
11
5.8114476
21
37.2706785
0
LINE
8
DEFAULT_255_1_234
10
5.8114476
20
37.2706785
11
5.8114476
21
37.4056117
0
LINE
8
DEFAULT_255_1_234
10
5.8114476
20
37.4056117
11
6.2371297
21
37.5654433
0
LINE
8
DEFAULT_255_1_234
10
6.2371297
20
37.5654433
11
6.2604218
21
37.5654433
0
LINE
8
DEFAULT_255_1_234
10
7.1840717
20
37.5654433
11
7.1840717
21
36.3904
0
LINE
8
DEFAULT_255_1_234
10
7.1840717
20
36.3904
11
7.0346813
21
36.3904
0
LINE
8
DEFAULT_255_1_234
10
7.0346813
20
36.3904
11
7.0346813
21
37.3807133
0
LINE
8
DEFAULT_255_1_234
10
7.0346813
20
37.3807133
11
6.7350975
21
37.2706785
0
LINE
8
DEFAULT_255_1_234
10
6.7350975
20
37.2706785
11
6.7350975
21
37.4056117
0
LINE
8
DEFAULT_255_1_234
10
6.7350975
20
37.4056117
11
7.1607796
21
37.5654433
0
LINE
8
DEFAULT_255_1_234
10
7.1607796
20
37.5654433
11
7.1840717
21
37.5654433
0
LINE
8
DEFAULT_255_1_234
10
5.0560293
20
44.3279
11
4.9443881
21
44.6331061
0
LINE
8
DEFAULT_255_1_234
10
4.9443881
20
44.6331061
11
4.4544521
21
44.6331061
0
LINE
8
DEFAULT_255_1_234
10
4.4544521
20
44.6331061
11
4.3444173
21
44.3279
0
LINE
8
DEFAULT_255_1_234
10
4.3444173
20
44.3279
11
4.1853889
21
44.3279
0
LINE
8
DEFAULT_255_1_234
10
4.1853889
20
44.3279
11
4.6319535
21
45.4973211
0
LINE
8
DEFAULT_255_1_234
10
4.6319535
20
45.4973211
11
4.7668867
21
45.4973211
0
LINE
8
DEFAULT_255_1_234
10
4.7668867
20
45.4973211
11
5.2142545
21
44.3279
0
LINE
8
DEFAULT_255_1_234
10
5.2142545
20
44.3279
11
5.0560293
21
44.3279
0
LINE
8
DEFAULT_255_1_234
10
4.6994201
20
45.3069689
11
4.5010362
21
44.7600075
0
LINE
8
DEFAULT_255_1_234
10
4.5010362
20
44.7600075
11
4.8986072
21
44.7600075
0
LINE
8
DEFAULT_255_1_234
10
4.8986072
20
44.7600075
11
4.6994201
21
45.3069689
0
LINE
8
DEFAULT_255_1_234
10
5.5371304
20
45.4973211
11
5.5371304
21
44.3279
0
LINE
8
DEFAULT_255_1_234
10
5.5371304
20
44.3279
11
5.382921
21
44.3279
0
LINE
8
DEFAULT_255_1_234
10
5.382921
20
44.3279
11
5.382921
21
45.4973211
0
LINE
8
DEFAULT_255_1_234
10
5.382921
20
45.4973211
11
5.5371304
21
45.4973211
0
LINE
8
DEFAULT_255_1_234
10
6.2688218
20
45.5029433
11
6.2688218
21
44.3279
0
LINE
8
DEFAULT_255_1_234
10
6.2688218
20
44.3279
11
6.1194314
21
44.3279
0
LINE
8
DEFAULT_255_1_234
10
6.1194314
20
44.3279
11
6.1194314
21
45.3182133
0
LINE
8
DEFAULT_255_1_234
10
6.1194314
20
45.3182133
11
5.8198476
21
45.2081785
0
LINE
8
DEFAULT_255_1_234
10
5.8198476
20
45.2081785
11
5.8198476
21
45.3431117
0
LINE
8
DEFAULT_255_1_234
10
5.8198476
20
45.3431117
11
6.2455297
21
45.5029433
0
LINE
8
DEFAULT_255_1_234
10
6.2455297
20
45.5029433
11
6.2688218
21
45.5029433
0
LINE
8
DEFAULT_255_1_234
10
7.4374397
20
45.0194327
11
7.4374397
21
44.8266709
0
LINE
8
DEFAULT_255_1_234
10
6.6993229
20
44.8065916
11
6.6993229
21
45.0049755
0
LINE
8
DEFAULT_255_1_234
10
7.2888525
20
44.7865123
11
7.2888525
21
45.0298739
0
LINE
8
DEFAULT_255_1_234
10
6.8479101
20
45.0411184
11
6.8479101
21
44.8033789
0
ARC
8
DEFAULT_255_1_234
10
6.2127287
20
44.8217805
40
1.2247208
50
353.8441951
51
0.2287902
0
ARC
8
DEFAULT_255_1_234
10
6.676679
20
44.7699806
40
0.7578929
50
344.4934747
51
353.9765454
0
ARC
8
DEFAULT_255_1_234
10
6.975938
20
44.6848981
40
0.4467846
50
329.2803592
51
344.7472793
0
ARC
8
DEFAULT_255_1_234
10
7.0752205
20
44.6304018
40
0.3336173
50
324.9352394
51
328.6160465
0
ARC
8
DEFAULT_255_1_234
10
7.1129314
20
44.6040427
40
0.2876076
50
280.580143
51
324.9173126
0
ARC
8
DEFAULT_255_1_234
10
7.0728107
20
44.7711099
40
0.4592847
50
269.5977311
51
281.6734359
0
ARC
8
DEFAULT_255_1_234
10
7.0656012
20
44.7591173
40
0.4472986
50
256.6228859
51
270.51044
0
ARC
8
DEFAULT_255_1_234
10
7.025399
20
44.6042877
40
0.2873874
50
215.8618325
51
257.2788573
0
ARC
8
DEFAULT_255_1_234
10
7.1275022
20
44.6727977
40
0.4102928
50
197.9693508
51
215.2623606
0
ARC
8
DEFAULT_255_1_234
10
7.3760137
20
44.7566709
40
0.6725652
50
187.8816417
51
198.2346507
0
ARC
8
DEFAULT_255_1_234
10
7.7718345
20
44.8138079
40
1.0724845
50
180.8976217
51
188.0055519
0
ARC
8
DEFAULT_255_1_234
10
8.0518534
20
44.8241777
40
1.3526448
50
180.7449369
51
181.1510016
0
ARC
8
DEFAULT_255_1_234
10
7.8941263
20
45.0098042
40
1.1948131
50
173.7675579
51
180.231553
0
ARC
8
DEFAULT_255_1_234
10
7.4423409
20
45.0608666
40
0.7401564
50
164.3058563
51
173.9002247
0
ARC
8
DEFAULT_255_1_234
10
7.1511478
20
45.1447656
40
0.4371288
50
148.7922025
51
164.568378
0
ARC
8
DEFAULT_255_1_234
10
7.055993
20
45.1978929
40
0.3282386
50
144.5883898
51
148.1176286
0
ARC
8
DEFAULT_255_1_234
10
7.0216828
20
45.2218315
40
0.2864044
50
101.6440918
51
144.514236
0
ARC
8
DEFAULT_255_1_234
10
7.0641895
20
45.0529069
40
0.4604934
50
89.5284041
51
102.5819763
0
ARC
8
DEFAULT_255_1_234
10
7.0720983
20
45.0490018
40
0.464401
50
77.0437873
51
90.5081339
0
ARC
8
DEFAULT_255_1_234
10
7.1122984
20
45.2132615
40
0.2953195
50
48.2778575
51
77.4994676
0
ARC
8
DEFAULT_255_1_234
10
7.1195616
20
45.2261746
40
0.2808655
50
36.3142134
51
47.6305865
0
ARC
8
DEFAULT_255_1_234
10
7.0326923
20
45.1676515
40
0.3855453
50
18.2931786
51
35.6769206
0
ARC
8
DEFAULT_255_1_234
10
6.7783682
20
45.0803593
40
0.654423
50
8.024666
51
18.5605216
0
ARC
8
DEFAULT_255_1_234
10
6.3620602
20
45.0188792
40
1.0752407
50
1.1274072
51
8.1718305
0
ARC
8
DEFAULT_255_1_234
10
6.0384792
20
45.0061885
40
1.3990231
50
0.5424119
51
1.3863029
0
ARC
8
DEFAULT_255_1_234
10
6.220617
20
45.0334342
40
1.0682415
50
359.8090433
51
4.9407866
0
ARC
8
DEFAULT_255_1_234
10
6.6416184
20
45.0710113
40
0.6455691
50
4.8362157
51
12.2904523
0
ARC
8
DEFAULT_255_1_234
10
6.9171299
20
45.1323965
40
0.3633074
50
12.0805627
51
23.8173984
0
ARC
8
DEFAULT_255_1_234
10
7.0345004
20
45.1820919
40
0.2358723
50
24.2871213
51
31.3935614
0
ARC
8
DEFAULT_255_1_234
10
7.0869701
20
45.2164233
40
0.1732111
50
30.7407893
51
82.4657128
0
ARC
8
DEFAULT_255_1_234
10
7.0689836
20
45.1280691
40
0.263235
50
81.1060089
51
90.2184952
0
ARC
8
DEFAULT_255_1_234
10
7.0654135
20
45.1538924
40
0.2374236
50
89.3806855
51
105.6762551
0
ARC
8
DEFAULT_255_1_234
10
7.0470765
20
45.2205567
40
0.1682847
50
105.7981136
51
149.7388061
0
ARC
8
DEFAULT_255_1_234
10
7.1534844
20
45.156595
40
0.2924306
50
149.4208916
51
163.6286378
0
ARC
8
DEFAULT_255_1_234
10
7.3625732
20
45.092825
40
0.5110213
50
163.3763315
51
172.1410975
0
ARC
8
DEFAULT_255_1_234
10
7.692645
20
45.0455518
40
0.8444586
50
172.0259487
51
178.0703232
0
ARC
8
DEFAULT_255_1_234
10
7.995654
20
45.0311906
40
1.1477868
50
177.8631668
51
179.5044149
0
ARC
8
DEFAULT_255_1_234
10
7.8883944
20
44.7997389
40
1.0404907
50
179.7995573
51
185.2460446
0
ARC
8
DEFAULT_255_1_234
10
7.4840984
20
44.7614513
40
0.6343885
50
185.1411642
51
193.0079639
0
ARC
8
DEFAULT_255_1_234
10
7.2197456
20
44.6989641
40
0.3627568
50
192.7897626
51
205.2507664
0
ARC
8
DEFAULT_255_1_234
10
7.1151003
20
44.6522415
40
0.2481908
50
205.8005384
51
211.2537509
0
ARC
8
DEFAULT_255_1_234
10
7.0627444
20
44.617158
40
0.1852521
50
210.3789793
51
238.4008143
0
ARC
8
DEFAULT_255_1_234
10
7.0607966
20
44.6218376
40
0.1882621
50
239.6520629
51
265.9793761
0
ARC
8
DEFAULT_255_1_234
10
7.0693166
20
44.6890427
40
0.2559272
50
265.1315437
51
270.060332
0
ARC
8
DEFAULT_255_1_234
10
7.0721945
20
44.6566534
40
0.2235528
50
269.3314664
51
287.2178029
0
ARC
8
DEFAULT_255_1_234
10
7.0859797
20
44.6063279
40
0.1714108
50
287.7958004
51
329.080874
0
ARC
8
DEFAULT_255_1_234
10
6.9902253
20
44.666093
40
0.2842745
50
328.6634704
51
343.3325132
0
ARC
8
DEFAULT_255_1_234
10
6.7729273
20
44.7337863
40
0.5118644
50
343.0499468
51
351.9393422
0
ARC
8
DEFAULT_255_1_234
10
6.4262573
20
44.7848949
40
0.8622784
50
351.8069023
51
357.7959224
0
ARC
8
DEFAULT_255_1_234
10
6.1027129
20
44.8016721
40
1.1862365
50
357.5871873
51
359.2677531
0
LINE
8
DEFAULT_255_1_234
10
4.9963293
20
52.2654
11
4.8846881
21
52.5706061
0
LINE
8
DEFAULT_255_1_234
10
4.8846881
20
52.5706061
11
4.3947521
21
52.5706061
0
LINE
8
DEFAULT_255_1_234
10
4.3947521
20
52.5706061
11
4.2847173
21
52.2654
0
LINE
8
DEFAULT_255_1_234
10
4.2847173
20
52.2654
11
4.1256889
21
52.2654
0
LINE
8
DEFAULT_255_1_234
10
4.1256889
20
52.2654
11
4.5722535
21
53.4348211
0
LINE
8
DEFAULT_255_1_234
10
4.5722535
20
53.4348211
11
4.7071867
21
53.4348211
0
LINE
8
DEFAULT_255_1_234
10
4.7071867
20
53.4348211
11
5.1545545
21
52.2654
0
LINE
8
DEFAULT_255_1_234
10
5.1545545
20
52.2654
11
4.9963293
21
52.2654
0
LINE
8
DEFAULT_255_1_234
10
4.6397201
20
53.2444689
11
4.4413362
21
52.6975075
0
LINE
8
DEFAULT_255_1_234
10
4.4413362
20
52.6975075
11
4.8389072
21
52.6975075
0
LINE
8
DEFAULT_255_1_234
10
4.8389072
20
52.6975075
11
4.6397201
21
53.2444689
0
LINE
8
DEFAULT_255_1_234
10
5.4774304
20
53.4348211
11
5.4774304
21
52.2654
0
LINE
8
DEFAULT_255_1_234
10
5.4774304
20
52.2654
11
5.323221
21
52.2654
0
LINE
8
DEFAULT_255_1_234
10
5.323221
20
52.2654
11
5.323221
21
53.4348211
0
LINE
8
DEFAULT_255_1_234
10
5.323221
20
53.4348211
11
5.4774304
21
53.4348211
0
LINE
8
DEFAULT_255_1_234
10
6.4396327
20
52.9673739
11
6.4396327
21
52.9240025
0
LINE
8
DEFAULT_255_1_234
10
5.8974903
20
52.2645968
11
5.8685761
21
52.2645968
0
LINE
8
DEFAULT_255_1_234
10
5.8685761
20
52.2645968
11
5.8685761
21
52.3898919
0
LINE
8
DEFAULT_255_1_234
10
5.8685761
20
52.3898919
11
5.8998999
21
52.3898919
0
LINE
8
DEFAULT_255_1_234
10
6.2910455
20
52.9384597
11
6.2910455
21
52.9978945
0
ARC
8
DEFAULT_255_1_234
10
6.0116725
20
53.0130403
40
0.3635579
50
297.4037347
51
320.016758
0
ARC
8
DEFAULT_255_1_234
10
6.0406673
20
52.957324
40
0.3007486
50
270.2633101
51
297.3851877
0
ARC
8
DEFAULT_255_1_234
10
6.0372629
20
53.0036904
40
0.3471448
50
269.9966443
51
270.7900392
0
ARC
8
DEFAULT_255_1_234
10
6.034711
20
53.0035143
40
0.3469779
50
254.5999133
51
270.4180344
0
ARC
8
DEFAULT_255_1_234
10
6.020447
20
52.9470647
40
0.2887697
50
236.4717942
51
254.3541279
0
ARC
8
DEFAULT_255_1_234
10
6.0360687
20
52.9680711
40
0.3149125
50
208.4727207
51
236.2134933
0
ARC
8
DEFAULT_255_1_234
10
6.0999463
20
53.0071455
40
0.3897115
50
204.3447514
51
209.0453999
0
ARC
8
DEFAULT_255_1_234
10
6.1679038
20
53.0359656
40
0.4635101
50
183.9375985
51
204.1276318
0
ARC
8
DEFAULT_255_1_234
10
6.258729
20
53.0457482
40
0.5548037
50
179.9652252
51
184.3013875
0
ARC
8
DEFAULT_255_1_234
10
6.2347336
20
53.0490507
40
0.5308164
50
166.7585989
51
180.3201225
0
ARC
8
DEFAULT_255_1_234
10
6.1500949
20
53.0674488
40
0.4442163
50
154.6955053
51
166.5679793
0
ARC
8
DEFAULT_255_1_234
10
6.064782
20
53.110421
40
0.3487299
50
136.3324195
51
155.0871442
0
ARC
8
DEFAULT_255_1_234
10
6.0366892
20
53.1344954
40
0.3117924
50
121.236733
51
135.9680508
0
ARC
8
DEFAULT_255_1_234
10
6.050739
20
53.1084743
40
0.3413302
50
96.845628
51
120.9881519
0
ARC
8
DEFAULT_255_1_234
10
6.0652972
20
53.0149515
40
0.4359341
50
89.8870174
51
97.2802754
0
ARC
8
DEFAULT_255_1_234
10
6.070541
20
53.0787095
40
0.3722009
50
70.6505584
51
90.6749113
0
ARC
8
DEFAULT_255_1_234
10
6.083669
20
53.1300361
40
0.3194571
50
36.7492984
51
69.8219918
0
ARC
8
DEFAULT_255_1_234
10
5.9837854
20
53.0521993
40
0.4460685
50
15.39587
51
37.0840084
0
ARC
8
DEFAULT_255_1_234
10
5.7708288
20
52.9901242
40
0.6678714
50
3.9488873
51
15.6798563
0
ARC
8
DEFAULT_255_1_234
10
5.5306916
20
52.9684964
40
0.9089418
50
359.929245
51
4.2665314
0
ARC
8
DEFAULT_255_1_234
10
5.0701353
20
52.9173513
40
1.3695135
50
352.8366322
51
0.2782669
0
ARC
8
DEFAULT_255_1_234
10
5.5989031
20
52.8486629
40
0.8363105
50
341.8359505
51
352.9884176
0
ARC
8
DEFAULT_255_1_234
10
5.920775
20
52.74017
40
0.4966642
50
322.8578092
51
342.1527901
0
ARC
8
DEFAULT_255_1_234
10
6.0071706
20
52.6812384
40
0.3922466
50
319.334325
51
322.0998941
0
ARC
8
DEFAULT_255_1_234
10
5.9762043
20
52.7123209
40
0.4360033
50
285.9541367
51
318.8878087
0
ARC
8
DEFAULT_255_1_234
10
5.9035305
20
52.94336
40
0.678149
50
272.9281676
51
286.4922826
0
ARC
8
DEFAULT_255_1_234
10
5.8845422
20
53.1684587
40
0.9039547
50
270.8207226
51
273.4012994
0
ARC
8
DEFAULT_255_1_234
10
5.8934273
20
52.9865666
40
0.5967098
50
270.6214993
51
281.4062806
0
ARC
8
DEFAULT_255_1_234
10
5.9364254
20
52.7809833
40
0.3866861
50
281.1852553
51
299.0621114
0
ARC
8
DEFAULT_255_1_234
10
5.9737826
20
52.7088798
40
0.3055236
50
299.5067782
51
313.1200873
0
ARC
8
DEFAULT_255_1_234
10
5.9759792
20
52.7009554
40
0.2982623
50
313.8526205
51
338.5989322
0
ARC
8
DEFAULT_255_1_234
10
5.8135866
20
52.7676781
40
0.4738131
50
338.2523585
51
351.2430902
0
ARC
8
DEFAULT_255_1_234
10
5.5725162
20
52.8086447
40
0.7183203
50
350.9409515
51
357.6691871
0
ARC
8
DEFAULT_255_1_234
10
6.0615592
20
53.0088764
40
0.2294452
50
269.9447023
51
306.8248917
0
ARC
8
DEFAULT_255_1_234
10
6.0378507
20
53.0511898
40
0.2775994
50
305.5072438
51
327.0773448
0
ARC
8
DEFAULT_255_1_234
10
6.0496948
20
53.0417025
40
0.2625056
50
327.4104943
51
336.840169
0
ARC
8
DEFAULT_255_1_234
10
5.7403013
20
53.0011302
40
0.5507537
50
359.6633817
51
10.117533
0
ARC
8
DEFAULT_255_1_234
10
5.9156811
20
53.0335777
40
0.372403
50
9.9430141
51
26.7700076
0
ARC
8
DEFAULT_255_1_234
10
5.9754024
20
53.0611187
40
0.3066865
50
27.2015464
51
34.6829435
0
ARC
8
DEFAULT_255_1_234
10
6.0243504
20
53.0978977
40
0.245519
50
34.1250343
51
50.3070065
0
ARC
8
DEFAULT_255_1_234
10
6.0690184
20
53.1513385
40
0.1758693
50
50.3851167
51
90.6705993
0
ARC
8
DEFAULT_255_1_234
10
6.0643417
20
53.1208799
40
0.2063326
50
89.272901
51
111.9140407
0
ARC
8
DEFAULT_255_1_234
10
6.0623944
20
53.134944
40
0.1925887
50
112.9382311
51
142.5320782
0
ARC
8
DEFAULT_255_1_234
10
6.1170124
20
53.0905969
40
0.2629232
50
142.1021256
51
166.3835592
0
ARC
8
DEFAULT_255_1_234
10
6.235143
20
53.0600915
40
0.3849193
50
166.1100289
51
178.665427
0
ARC
8
DEFAULT_255_1_234
10
6.3399019
20
53.0542117
40
0.4897989
50
178.2632126
51
180.0111093
0
ARC
8
DEFAULT_255_1_234
10
6.2597139
20
53.0513728
40
0.40962
50
179.6161962
51
191.8787166
0
ARC
8
DEFAULT_255_1_234
10
6.1376978
20
53.0243896
40
0.2846655
50
191.6191692
51
215.2972286
0
ARC
8
DEFAULT_255_1_234
10
6.1180169
20
53.0128918
40
0.2619665
50
215.7320102
51
216.5355409
0
ARC
8
DEFAULT_255_1_234
10
6.0641256
20
52.9696647
40
0.1929497
50
215.7486685
51
239.9727502
0
ARC
8
DEFAULT_255_1_234
10
6.0571171
20
52.9645894
40
0.1850822
50
241.0650169
51
269.2810483
0
ARC
8
DEFAULT_255_1_234
10
6.0613086
20
53.0136371
40
0.2342059
50
268.4062526
51
270.0071348
0
LINE
8
DEFAULT_255_1_234
10
4.9963293
20
60.2029
11
4.8846881
21
60.5081061
0
LINE
8
DEFAULT_255_1_234
10
4.8846881
20
60.5081061
11
4.3947521
21
60.5081061
0
LINE
8
DEFAULT_255_1_234
10
4.3947521
20
60.5081061
11
4.2847173
21
60.2029
0
LINE
8
DEFAULT_255_1_234
10
4.2847173
20
60.2029
11
4.1256889
21
60.2029
0
LINE
8
DEFAULT_255_1_234
10
4.1256889
20
60.2029
11
4.5722535
21
61.3723211
0
LINE
8
DEFAULT_255_1_234
10
4.5722535
20
61.3723211
11
4.7071867
21
61.3723211
0
LINE
8
DEFAULT_255_1_234
10
4.7071867
20
61.3723211
11
5.1545545
21
60.2029
0
LINE
8
DEFAULT_255_1_234
10
5.1545545
20
60.2029
11
4.9963293
21
60.2029
0
LINE
8
DEFAULT_255_1_234
10
4.6397201
20
61.1819689
11
4.4413362
21
60.6350075
0
LINE
8
DEFAULT_255_1_234
10
4.4413362
20
60.6350075
11
4.8389072
21
60.6350075
0
LINE
8
DEFAULT_255_1_234
10
4.8389072
20
60.6350075
11
4.6397201
21
61.1819689
0
LINE
8
DEFAULT_255_1_234
10
5.4774304
20
61.3723211
11
5.4774304
21
60.2029
0
LINE
8
DEFAULT_255_1_234
10
5.4774304
20
60.2029
11
5.323221
21
60.2029
0
LINE
8
DEFAULT_255_1_234
10
5.323221
20
60.2029
11
5.323221
21
61.3723211
0
LINE
8
DEFAULT_255_1_234
10
5.323221
20
61.3723211
11
5.4774304
21
61.3723211
0
ARC
8
DEFAULT_255_1_234
10
6.1477704
20
61.0645703
40
0.2822356
50
338.8763615
51
0.5166041
0
ARC
8
DEFAULT_255_1_234
10
6.1646359
20
61.0600208
40
0.2648703
50
325.8412414
51
338.4795939
0
ARC
8
DEFAULT_255_1_234
10
6.1255726
20
61.0871042
40
0.3124019
50
296.7586019
51
325.753654
0
ARC
8
DEFAULT_255_1_234
10
6.0967835
20
61.1355789
40
0.368668
50
296.0902311
51
297.3618122
0
ARC
8
DEFAULT_255_1_234
10
6.1225293
20
60.4801041
40
0.3518806
50
47.9009248
51
67.1946869
0
ARC
8
DEFAULT_255_1_234
10
6.1421535
20
60.5047395
40
0.320451
50
35.236241
51
47.551371
0
ARC
8
DEFAULT_255_1_234
10
6.1683152
20
60.5221993
40
0.2890103
50
359.2759738
51
35.4014081
0
ARC
8
DEFAULT_255_1_234
10
6.0938184
20
60.5148826
40
0.3635026
50
343.1294516
51
0.5776525
0
ARC
8
DEFAULT_255_1_234
10
6.1662728
20
60.494933
40
0.2883832
50
310.8497458
51
342.744803
0
ARC
8
DEFAULT_255_1_234
10
6.1244842
20
60.5426294
40
0.3517954
50
281.5473923
51
310.9169905
0
ARC
8
DEFAULT_255_1_234
10
6.0888291
20
60.6979084
40
0.5110832
50
269.6192722
51
281.9789957
0
ARC
8
DEFAULT_255_1_234
10
6.081608
20
60.6979828
40
0.5111606
50
257.4584469
51
270.4287458
0
ARC
8
DEFAULT_255_1_234
10
6.0435223
20
60.5376344
40
0.3463762
50
228.7553743
51
257.8484423
0
ARC
8
DEFAULT_255_1_234
10
6.0125422
20
60.5003442
40
0.297916
50
184.0104442
51
228.5071787
0
ARC
8
DEFAULT_255_1_234
10
6.1288366
20
60.5180512
40
0.4152734
50
179.9315461
51
185.3254504
0
ARC
8
DEFAULT_255_1_234
10
6.0112011
20
60.5217992
40
0.2976554
50
145.6795913
51
180.6259649
0
ARC
8
DEFAULT_255_1_234
10
6.0275361
20
60.5103929
40
0.3175776
50
115.5537925
51
145.6416199
0
ARC
8
DEFAULT_255_1_234
10
6.0616291
20
60.4493028
40
0.3874232
50
113.2437915
51
116.2054627
0
ARC
8
DEFAULT_255_1_234
10
6.0463503
20
61.089158
40
0.3154751
50
222.9548379
51
244.1372485
0
ARC
8
DEFAULT_255_1_234
10
6.0341579
20
61.0754834
40
0.2972382
50
213.3439227
51
222.6271327
0
ARC
8
DEFAULT_255_1_234
10
6.0149513
20
61.0624308
40
0.274019
50
180.4316517
51
213.2713999
0
ARC
8
DEFAULT_255_1_234
10
6.0724515
20
61.067111
40
0.33158
50
179.9992944
51
181.1655061
0
ARC
8
DEFAULT_255_1_234
10
6.1133932
20
61.0705561
40
0.3725376
50
164.6186108
51
180.5292368
0
ARC
8
DEFAULT_255_1_234
10
6.0235794
20
61.0947101
40
0.2795349
50
132.2454369
51
164.5092287
0
ARC
8
DEFAULT_255_1_234
10
6.0522898
20
61.0622028
40
0.3229019
50
100.7052766
51
132.1387266
0
ARC
8
DEFAULT_255_1_234
10
6.0827871
20
60.9244086
40
0.4639835
50
89.6732617
51
101.2449487
0
ARC
8
DEFAULT_255_1_234
10
6.0890069
20
60.941899
40
0.4464999
50
76.2876631
51
90.4586123
0
ARC
8
DEFAULT_255_1_234
10
6.1196301
20
61.064122
40
0.3205023
50
47.8240157
51
76.4266918
0
ARC
8
DEFAULT_255_1_234
10
6.141885
20
61.090159
40
0.2862661
50
6.9168658
51
47.6261438
0
ARC
8
DEFAULT_255_1_234
10
6.0232253
20
61.068237
40
0.4067708
50
359.8419705
51
7.9694496
0
ARC
8
DEFAULT_255_1_234
10
6.057415
20
60.5241925
40
0.2513121
50
359.4454068
51
16.9256425
0
ARC
8
DEFAULT_255_1_234
10
6.1042961
20
60.5371033
40
0.2027071
50
17.292259
51
45.462717
0
ARC
8
DEFAULT_255_1_234
10
6.0988897
20
60.5324434
40
0.2098212
50
45.3028762
51
83.1921472
0
ARC
8
DEFAULT_255_1_234
10
6.0845582
20
60.4522895
40
0.2911472
50
82.2614531
51
90.143954
0
ARC
8
DEFAULT_255_1_234
10
6.0814702
20
60.475595
40
0.2678513
50
89.4959189
51
104.8579811
0
ARC
8
DEFAULT_255_1_234
10
6.063796
20
60.542589
40
0.1985654
50
104.8855873
51
135.2448349
0
ARC
8
DEFAULT_255_1_234
10
6.0687733
20
60.5381336
40
0.2052373
50
135.3398955
51
172.104394
0
ARC
8
DEFAULT_255_1_234
10
6.1494791
20
60.5226925
40
0.2873299
50
171.2651929
51
180.1859362
0
ARC
8
DEFAULT_255_1_234
10
6.1325493
20
60.5194733
40
0.2704083
50
179.515471
51
193.6466734
0
ARC
8
DEFAULT_255_1_234
10
6.0509262
20
60.4986777
40
0.1861855
50
193.3540587
51
225.8256931
0
ARC
8
DEFAULT_255_1_234
10
6.0550019
20
60.5057524
40
0.1941102
50
226.418029
51
255.8553723
0
ARC
8
DEFAULT_255_1_234
10
6.0806451
20
60.5993998
40
0.2911917
50
255.4655572
51
268.7985967
0
ARC
8
DEFAULT_255_1_234
10
6.0853643
20
60.6832491
40
0.3751331
50
268.3464808
51
270.0104874
0
ARC
8
DEFAULT_255_1_234
10
6.0877031
20
60.6148138
40
0.3067064
50
269.575914
51
282.0823146
0
ARC
8
DEFAULT_255_1_234
10
6.1101941
20
60.5153803
40
0.2047712
50
281.7522535
51
306.6056425
0
ARC
8
DEFAULT_255_1_234
10
6.1200367
20
60.4992487
40
0.1859604
50
307.1350025
51
314.0277951
0
ARC
8
DEFAULT_255_1_234
10
6.1164451
20
60.5018766
40
0.1903475
50
314.2553419
51
350.169324
0
ARC
8
DEFAULT_255_1_234
10
6.0312919
20
60.5203409
40
0.2774269
50
349.4145679
51
0.2930737
0
ARC
8
DEFAULT_255_1_234
10
6.0833353
20
61.0362353
40
0.2300764
50
89.477591
51
105.729794
0
ARC
8
DEFAULT_255_1_234
10
6.0697266
20
61.0867637
40
0.1777519
50
105.922966
51
135.1662921
0
ARC
8
DEFAULT_255_1_234
10
6.0717768
20
61.0853419
40
0.1802087
50
135.3053131
51
168.9882338
0
ARC
8
DEFAULT_255_1_234
10
6.1545341
20
61.0663721
40
0.2650806
50
168.3802067
51
180.3602358
0
ARC
8
DEFAULT_255_1_234
10
6.131692
20
61.0626041
40
0.2422425
50
179.5029707
51
194.9126783
0
ARC
8
DEFAULT_255_1_234
10
6.0731581
20
61.047211
40
0.1817188
50
194.9722181
51
224.1943972
0
ARC
8
DEFAULT_255_1_234
10
6.0703449
20
61.0449169
40
0.1781027
50
224.2961434
51
262.0157375
0
ARC
8
DEFAULT_255_1_234
10
6.0845691
20
61.1180661
40
0.2525492
50
261.1250369
51
270.1959853
0
ARC
8
DEFAULT_255_1_234
10
6.0875447
20
61.0993339
40
0.233825
50
269.4825617
51
285.0988277
0
ARC
8
DEFAULT_255_1_234
10
6.1029606
20
61.041499
40
0.1739712
50
285.1585659
51
315.9484648
0
ARC
8
DEFAULT_255_1_234
10
6.0940617
20
61.0496886
40
0.1860616
50
316.0412958
51
351.9162715
0
ARC
8
DEFAULT_255_1_234
10
6.0207572
20
61.0638245
40
0.2606517
50
351.1056823
51
0.1936567
0
ARC
8
DEFAULT_255_1_234
10
6.0470401
20
61.0668369
40
0.234377
50
359.4789506
51
16.0679113
0
ARC
8
DEFAULT_255_1_234
10
6.094636
20
61.079681
40
0.1850875
50
16.3251951
51
44.791304
0
ARC
8
DEFAULT_255_1_234
10
6.0928642
20
61.0797339
40
0.186312
50
44.3958661
51
88.2498933
0
ARC
8
DEFAULT_255_1_234
10
6.0855195
20
61.0186154
40
0.2476868
50
86.9833827
51
90.0200148
0
LINE
8
DEFAULT_255_1_234
10
4.9963293
20
68.1404
11
4.8846881
21
68.4456061
0
LINE
8
DEFAULT_255_1_234
10
4.8846881
20
68.4456061
11
4.3947521
21
68.4456061
0
LINE
8
DEFAULT_255_1_234
10
4.3947521
20
68.4456061
11
4.2847173
21
68.1404
0
LINE
8
DEFAULT_255_1_234
10
4.2847173
20
68.1404
11
4.1256889
21
68.1404
0
LINE
8
DEFAULT_255_1_234
10
4.1256889
20
68.1404
11
4.5722535
21
69.3098211
0
LINE
8
DEFAULT_255_1_234
10
4.5722535
20
69.3098211
11
4.7071867
21
69.3098211
0
LINE
8
DEFAULT_255_1_234
10
4.7071867
20
69.3098211
11
5.1545545
21
68.1404
0
LINE
8
DEFAULT_255_1_234
10
5.1545545
20
68.1404
11
4.9963293
21
68.1404
0
LINE
8
DEFAULT_255_1_234
10
4.6397201
20
69.1194689
11
4.4413362
21
68.5725075
0
LINE
8
DEFAULT_255_1_234
10
4.4413362
20
68.5725075
11
4.8389072
21
68.5725075
0
LINE
8
DEFAULT_255_1_234
10
4.8389072
20
68.5725075
11
4.6397201
21
69.1194689
0
LINE
8
DEFAULT_255_1_234
10
5.4774304
20
69.3098211
11
5.4774304
21
68.1404
0
LINE
8
DEFAULT_255_1_234
10
5.4774304
20
68.1404
11
5.323221
21
68.1404
0
LINE
8
DEFAULT_255_1_234
10
5.323221
20
68.1404
11
5.323221
21
69.3098211
0
LINE
8
DEFAULT_255_1_234
10
5.323221
20
69.3098211
11
5.4774304
21
69.3098211
0
LINE
8
DEFAULT_255_1_234
10
6.4757755
20
69.3098211
11
6.4757755
21
69.226291
0
LINE
8
DEFAULT_255_1_234
10
6.4757755
20
69.226291
11
5.9914617
21
68.1404
0
LINE
8
DEFAULT_255_1_234
10
5.9914617
20
68.1404
11
5.8356459
21
68.1404
0
LINE
8
DEFAULT_255_1_234
10
5.8356459
20
68.1404
11
6.3183534
21
69.1877387
0
LINE
8
DEFAULT_255_1_234
10
6.3183534
20
69.1877387
11
5.6854524
21
69.1877387
0
LINE
8
DEFAULT_255_1_234
10
5.6854524
20
69.1877387
11
5.6854524
21
69.3098211
0
LINE
8
DEFAULT_255_1_234
10
5.6854524
20
69.3098211
11
6.4757755
21
69.3098211
0
LINE
8
DEFAULT_255_1_234
10
4.9963293
20
76.0779
11
4.8846881
21
76.3831061
0
LINE
8
DEFAULT_255_1_234
10
4.8846881
20
76.3831061
11
4.3947521
21
76.3831061
0
LINE
8
DEFAULT_255_1_234
10
4.3947521
20
76.3831061
11
4.2847173
21
76.0779
0
LINE
8
DEFAULT_255_1_234
10
4.2847173
20
76.0779
11
4.1256889
21
76.0779
0
LINE
8
DEFAULT_255_1_234
10
4.1256889
20
76.0779
11
4.5722535
21
77.2473211
0
LINE
8
DEFAULT_255_1_234
10
4.5722535
20
77.2473211
11
4.7071867
21
77.2473211
0
LINE
8
DEFAULT_255_1_234
10
4.7071867
20
77.2473211
11
5.1545545
21
76.0779
0
LINE
8
DEFAULT_255_1_234
10
5.1545545
20
76.0779
11
4.9963293
21
76.0779
0
LINE
8
DEFAULT_255_1_234
10
4.6397201
20
77.0569689
11
4.4413362
21
76.5100075
0
LINE
8
DEFAULT_255_1_234
10
4.4413362
20
76.5100075
11
4.8389072
21
76.5100075
0
LINE
8
DEFAULT_255_1_234
10
4.8389072
20
76.5100075
11
4.6397201
21
77.0569689
0
LINE
8
DEFAULT_255_1_234
10
5.4774304
20
77.2473211
11
5.4774304
21
76.0779
0
LINE
8
DEFAULT_255_1_234
10
5.4774304
20
76.0779
11
5.323221
21
76.0779
0
LINE
8
DEFAULT_255_1_234
10
5.323221
20
76.0779
11
5.323221
21
77.2473211
0
LINE
8
DEFAULT_255_1_234
10
5.323221
20
77.2473211
11
5.4774304
21
77.2473211
0
LINE
8
DEFAULT_255_1_234
10
6.2773916
20
77.2481243
11
6.3038963
21
77.2481243
0
LINE
8
DEFAULT_255_1_234
10
6.3038963
20
77.2481243
11
6.3038963
21
77.122026
0
LINE
8
DEFAULT_255_1_234
10
6.3038963
20
77.122026
11
6.2765884
21
77.122026
0
LINE
8
DEFAULT_255_1_234
10
5.729627
20
76.5228583
11
5.729627
21
76.5798836
0
LINE
8
DEFAULT_255_1_234
10
5.8790173
20
76.5606075
11
5.8790173
21
76.5059917
0
ARC
8
DEFAULT_255_1_234
10
6.2818232
20
76.6222455
40
0.4998079
50
90.6001036
51
104.514704
0
ARC
8
DEFAULT_255_1_234
10
6.2429747
20
76.7667131
40
0.3502176
50
104.2855254
51
133.862935
0
ARC
8
DEFAULT_255_1_234
10
6.2593505
20
76.755883
40
0.3693984
50
134.5302688
51
161.6210873
0
ARC
8
DEFAULT_255_1_234
10
6.4246693
20
76.6975895
40
0.5446739
50
161.2849839
51
174.2076652
0
ARC
8
DEFAULT_255_1_234
10
6.565363
20
76.6781787
40
0.6866274
50
173.7810589
51
174.9254635
0
ARC
8
DEFAULT_255_1_234
10
6.1103462
20
76.5398839
40
0.3033419
50
95.8330959
51
138.9954921
0
ARC
8
DEFAULT_255_1_234
10
6.1326818
20
76.4120375
40
0.4328947
50
89.8753725
51
97.0544009
0
ARC
8
DEFAULT_255_1_234
10
6.1374284
20
76.4955748
40
0.3493769
50
71.6407809
51
90.6240094
0
ARC
8
DEFAULT_255_1_234
10
6.1524858
20
76.5510082
40
0.2920396
50
39.6367836
51
71.019018
0
ARC
8
DEFAULT_255_1_234
10
6.0888331
20
76.4959998
40
0.3761538
50
10.658731
51
39.9043955
0
ARC
8
DEFAULT_255_1_234
10
5.9340414
20
76.4623686
40
0.5345136
50
359.682601
51
11.132623
0
ARC
8
DEFAULT_255_1_234
10
5.9300545
20
76.455301
40
0.5385081
50
347.2486944
51
0.4369317
0
ARC
8
DEFAULT_255_1_234
10
6.0968021
20
76.4151807
40
0.3670249
50
318.1409698
51
347.6118597
0
ARC
8
DEFAULT_255_1_234
10
6.1293015
20
76.3884702
40
0.3250007
50
275.6342139
51
317.8248465
0
ARC
8
DEFAULT_255_1_234
10
6.1072126
20
76.5184219
40
0.4565864
50
269.8874292
51
276.7917694
0
ARC
8
DEFAULT_255_1_234
10
6.1017196
20
76.4158743
40
0.3540676
50
246.9140195
51
270.7437342
0
ARC
8
DEFAULT_255_1_234
10
6.1023587
20
76.4016384
40
0.3412781
50
218.1665114
51
245.878116
0
ARC
8
DEFAULT_255_1_234
10
6.1903048
20
76.4752279
40
0.455911
50
191.4115814
51
218.6077802
0
ARC
8
DEFAULT_255_1_234
10
6.3841137
20
76.5186833
40
0.6545001
50
179.6345085
51
191.7836486
0
ARC
8
DEFAULT_255_1_234
10
6.9423473
20
76.5865697
40
1.2127388
50
171.4525249
51
180.3158839
0
ARC
8
DEFAULT_255_1_234
10
6.5028349
20
76.6549608
40
0.7679464
50
157.9802646
51
171.6246686
0
ARC
8
DEFAULT_255_1_234
10
6.281437
20
76.7432421
40
0.5296008
50
141.4298019
51
157.854097
0
ARC
8
DEFAULT_255_1_234
10
6.2172691
20
76.7886381
40
0.4511509
50
102.8715806
51
140.8564722
0
ARC
8
DEFAULT_255_1_234
10
6.2820306
20
76.5446552
40
0.7034845
50
90.3778349
51
103.5869322
0
ARC
8
DEFAULT_255_1_234
10
6.1082083
20
76.484173
40
0.2370698
50
89.8751008
51
126.2071704
0
ARC
8
DEFAULT_255_1_234
10
6.1127872
20
76.4687303
40
0.2522934
50
124.9745049
51
144.895901
0
ARC
8
DEFAULT_255_1_234
10
6.0952063
20
76.483056
40
0.2296779
50
145.2974905
51
160.2660252
0
ARC
8
DEFAULT_255_1_234
10
6.4024602
20
76.5028071
40
0.5234525
50
179.6514266
51
190.2855912
0
ARC
8
DEFAULT_255_1_234
10
6.2330739
20
76.4708786
40
0.3510893
50
190.0945431
51
207.5098196
0
ARC
8
DEFAULT_255_1_234
10
6.1765009
20
76.4439623
40
0.288489
50
207.9583163
51
216.3251085
0
ARC
8
DEFAULT_255_1_234
10
6.1425117
20
76.4160105
40
0.2445587
50
215.7661442
51
232.5456785
0
ARC
8
DEFAULT_255_1_234
10
6.1042099
20
76.3673482
40
0.1826382
50
232.8005391
51
270.6605633
0
ARC
8
DEFAULT_255_1_234
10
6.10878
20
76.4037612
40
0.2190529
50
269.35537
51
288.4744281
0
ARC
8
DEFAULT_255_1_234
10
6.1180697
20
76.3688118
40
0.1829749
50
289.1833337
51
322.9683818
0
ARC
8
DEFAULT_255_1_234
10
6.056922
20
76.4170391
40
0.2608399
50
322.6007884
51
346.5182367
0
ARC
8
DEFAULT_255_1_234
10
5.9411816
20
76.4465616
40
0.3802777
50
346.2582162
51
358.7741648
0
ARC
8
DEFAULT_255_1_234
10
5.8393485
20
76.4520965
40
0.4822176
50
358.3755224
51
0.0098023
0
ARC
8
DEFAULT_255_1_234
10
5.9149672
20
76.4548657
40
0.4066078
50
359.6214041
51
11.2839074
0
ARC
8
DEFAULT_255_1_234
10
6.0426819
20
76.4815066
40
0.2761514
50
11.0482309
51
31.8146458
0
ARC
8
DEFAULT_255_1_234
10
6.0735862
20
76.4982584
40
0.2410679
50
32.3035391
51
38.082671
0
ARC
8
DEFAULT_255_1_234
10
6.1156521
20
76.5363662
40
0.1844966
50
36.825067
51
85.7415724
0
ARC
8
DEFAULT_255_1_234
10
6.1089355
20
76.4863301
40
0.2349122
50
85.0140713
51
90.0513278
0
LINE
8
DEFAULT_255_1_234
10
4.9963293
20
84.0154
11
4.8846881
21
84.3206061
0
LINE
8
DEFAULT_255_1_234
10
4.8846881
20
84.3206061
11
4.3947521
21
84.3206061
0
LINE
8
DEFAULT_255_1_234
10
4.3947521
20
84.3206061
11
4.2847173
21
84.0154
0
LINE
8
DEFAULT_255_1_234
10
4.2847173
20
84.0154
11
4.1256889
21
84.0154
0
LINE
8
DEFAULT_255_1_234
10
4.1256889
20
84.0154
11
4.5722535
21
85.1848211
0
LINE
8
DEFAULT_255_1_234
10
4.5722535
20
85.1848211
11
4.7071867
21
85.1848211
0
LINE
8
DEFAULT_255_1_234
10
4.7071867
20
85.1848211
11
5.1545545
21
84.0154
0
LINE
8
DEFAULT_255_1_234
10
5.1545545
20
84.0154
11
4.9963293
21
84.0154
0
LINE
8
DEFAULT_255_1_234
10
4.6397201
20
84.9944689
11
4.4413362
21
84.4475075
0
LINE
8
DEFAULT_255_1_234
10
4.4413362
20
84.4475075
11
4.8389072
21
84.4475075
0
LINE
8
DEFAULT_255_1_234
10
4.8389072
20
84.4475075
11
4.6397201
21
84.9944689
0
LINE
8
DEFAULT_255_1_234
10
5.4774304
20
85.1848211
11
5.4774304
21
84.0154
0
LINE
8
DEFAULT_255_1_234
10
5.4774304
20
84.0154
11
5.323221
21
84.0154
0
LINE
8
DEFAULT_255_1_234
10
5.323221
20
84.0154
11
5.323221
21
85.1848211
0
LINE
8
DEFAULT_255_1_234
10
5.323221
20
85.1848211
11
5.4774304
21
85.1848211
0
LINE
8
DEFAULT_255_1_234
10
5.9079316
20
84.5711963
11
5.7890619
21
84.6017169
0
LINE
8
DEFAULT_255_1_234
10
5.7890619
20
84.6017169
11
5.8484967
21
85.1848211
0
LINE
8
DEFAULT_255_1_234
10
5.8484967
20
85.1848211
11
6.4476644
21
85.1848211
0
LINE
8
DEFAULT_255_1_234
10
6.4476644
20
85.1848211
11
6.4476644
21
85.0474784
0
LINE
8
DEFAULT_255_1_234
10
6.4476644
20
85.0474784
11
5.974595
21
85.0474784
0
LINE
8
DEFAULT_255_1_234
10
5.974595
20
85.0474784
11
5.9392554
21
84.7286184
0
LINE
8
DEFAULT_255_1_234
10
5.7472968
20
84.3230156
11
5.8878522
21
84.3230156
0
LINE
8
DEFAULT_255_1_234
10
5.9472871
20
84.6033232
11
5.9079316
21
84.5711963
0
ARC
8
DEFAULT_255_1_234
10
6.1247338
20
84.410623
40
0.3681349
50
93.7182161
51
120.2538958
0
ARC
8
DEFAULT_255_1_234
10
6.1341601
20
84.3298394
40
0.449379
50
89.9660152
51
94.2496022
0
ARC
8
DEFAULT_255_1_234
10
6.1382334
20
84.3887549
40
0.390482
50
73.8043271
51
90.5585896
0
ARC
8
DEFAULT_255_1_234
10
6.1617231
20
84.4745602
40
0.3015334
50
41.3071453
51
73.5430202
0
ARC
8
DEFAULT_255_1_234
10
6.1201059
20
84.4387324
40
0.3564457
50
13.5075983
51
41.2174222
0
ARC
8
DEFAULT_255_1_234
10
5.9559263
20
84.3957486
40
0.5261351
50
1.1331335
51
13.8829381
0
ARC
8
DEFAULT_255_1_234
10
5.8147632
20
84.3881665
40
0.6674378
50
359.9919444
51
1.544251
0
ARC
8
DEFAULT_255_1_234
10
5.9424458
20
84.384028
40
0.5397702
50
347.8572367
51
0.4293338
0
ARC
8
DEFAULT_255_1_234
10
6.1174776
20
84.3443736
40
0.3603188
50
323.673004
51
348.1672506
0
ARC
8
DEFAULT_255_1_234
10
6.1469284
20
84.3264168
40
0.3259678
50
316.8171152
51
323.1492751
0
ARC
8
DEFAULT_255_1_234
10
6.1530473
20
84.322746
40
0.3189975
50
281.8396411
51
316.5457803
0
ARC
8
DEFAULT_255_1_234
10
6.1154736
20
84.4782762
40
0.4789527
50
269.5770101
51
282.4214771
0
ARC
8
DEFAULT_255_1_234
10
6.1083548
20
84.4569125
40
0.45759
50
256.2427136
51
270.4486331
0
ARC
8
DEFAULT_255_1_234
10
6.078445
20
84.3369229
40
0.3339303
50
228.9023911
51
256.3314342
0
ARC
8
DEFAULT_255_1_234
10
6.0710683
20
84.3252746
40
0.32031
50
193.753695
51
228.5271154
0
ARC
8
DEFAULT_255_1_234
10
6.1948637
20
84.36158
40
0.4492253
50
184.924711
51
194.497588
0
ARC
8
DEFAULT_255_1_234
10
6.2141204
20
84.3651591
40
0.3289787
50
187.3600538
51
198.6732863
0
ARC
8
DEFAULT_255_1_234
10
6.1091498
20
84.3287674
40
0.217884
50
198.4451669
51
217.794479
0
ARC
8
DEFAULT_255_1_234
10
6.0795673
20
84.3078085
40
0.1816698
50
218.2887171
51
228.5612368
0
ARC
8
DEFAULT_255_1_234
10
6.089346
20
84.3209963
40
0.1980329
50
228.9654866
51
258.1234728
0
ARC
8
DEFAULT_255_1_234
10
6.109917
20
84.4090833
40
0.2884748
50
257.7258293
51
270.401361
0
ARC
8
DEFAULT_255_1_234
10
6.1144056
20
84.3645821
40
0.2439788
50
269.4204404
51
286.4209037
0
ARC
8
DEFAULT_255_1_234
10
6.1292544
20
84.3106657
40
0.1880666
50
286.7251356
51
320.600362
0
ARC
8
DEFAULT_255_1_234
10
6.0909369
20
84.3417595
40
0.2374121
50
320.6712579
51
344.5441685
0
ARC
8
DEFAULT_255_1_234
10
5.9752695
20
84.3757045
40
0.3579479
50
344.2412205
51
356.7357071
0
ARC
8
DEFAULT_255_1_234
10
5.8503843
20
84.3860444
40
0.4832297
50
356.3548756
51
0.0500261
0
ARC
8
DEFAULT_255_1_234
10
5.9840353
20
84.389165
40
0.3495889
50
359.5576869
51
12.953486
0
ARC
8
DEFAULT_255_1_234
10
6.089525
20
84.4147434
40
0.2410532
50
12.6490276
51
41.6081334
0
ARC
8
DEFAULT_255_1_234
10
6.1125621
20
84.4343321
40
0.2108218
50
41.7850273
51
85.9892764
0
ARC
8
DEFAULT_255_1_234
10
6.1002357
20
84.3530462
40
0.2928454
50
84.6957577
51
90.0676183
0
ARC
8
DEFAULT_255_1_234
10
6.0978842
20
84.2861716
40
0.3597255
50
89.6804936
51
99.1614436
0
ARC
8
DEFAULT_255_1_234
10
6.0773473
20
84.4089131
40
0.235281
50
98.9830931
51
113.8908934
0
ARC
8
DEFAULT_255_1_234
10
6.0543883
20
84.4630587
40
0.176479
50
114.1950727
51
127.3641004
0
LINE
8
DEFAULT_255_1_234
10
5.1021293
20
91.9529
11
4.9904881
21
92.2581061
0
LINE
8
DEFAULT_255_1_234
10
4.9904881
20
92.2581061
11
4.5005521
21
92.2581061
0
LINE
8
DEFAULT_255_1_234
10
4.5005521
20
92.2581061
11
4.3905173
21
91.9529
0
LINE
8
DEFAULT_255_1_234
10
4.3905173
20
91.9529
11
4.2314889
21
91.9529
0
LINE
8
DEFAULT_255_1_234
10
4.2314889
20
91.9529
11
4.6780535
21
93.1223211
0
LINE
8
DEFAULT_255_1_234
10
4.6780535
20
93.1223211
11
4.8129867
21
93.1223211
0
LINE
8
DEFAULT_255_1_234
10
4.8129867
20
93.1223211
11
5.2603545
21
91.9529
0
LINE
8
DEFAULT_255_1_234
10
5.2603545
20
91.9529
11
5.1021293
21
91.9529
0
LINE
8
DEFAULT_255_1_234
10
4.7455201
20
92.9319689
11
4.5471362
21
92.3850075
0
LINE
8
DEFAULT_255_1_234
10
4.5471362
20
92.3850075
11
4.9447072
21
92.3850075
0
LINE
8
DEFAULT_255_1_234
10
4.9447072
20
92.3850075
11
4.7455201
21
92.9319689
0
LINE
8
DEFAULT_255_1_234
10
5.5832304
20
93.1223211
11
5.5832304
21
91.9529
0
LINE
8
DEFAULT_255_1_234
10
5.5832304
20
91.9529
11
5.429021
21
91.9529
0
LINE
8
DEFAULT_255_1_234
10
5.429021
20
91.9529
11
5.429021
21
93.1223211
0
LINE
8
DEFAULT_255_1_234
10
5.429021
20
93.1223211
11
5.5832304
21
93.1223211
0
LINE
8
DEFAULT_255_1_234
10
6.4538708
20
93.1223211
11
6.4538708
21
92.345652
0
LINE
8
DEFAULT_255_1_234
10
6.4538708
20
92.345652
11
6.616112
21
92.345652
0
LINE
8
DEFAULT_255_1_234
10
6.616112
20
92.345652
11
6.616112
21
92.2243728
0
LINE
8
DEFAULT_255_1_234
10
6.616112
20
92.2243728
11
6.4538708
21
92.2243728
0
LINE
8
DEFAULT_255_1_234
10
6.4538708
20
92.2243728
11
6.4538708
21
91.9529
0
LINE
8
DEFAULT_255_1_234
10
6.4538708
20
91.9529
11
6.3044805
21
91.9529
0
LINE
8
DEFAULT_255_1_234
10
6.3044805
20
91.9529
11
6.3044805
21
92.2243728
0
LINE
8
DEFAULT_255_1_234
10
6.3044805
20
92.2243728
11
5.7719763
21
92.2243728
0
LINE
8
DEFAULT_255_1_234
10
5.7719763
20
92.2243728
11
5.7719763
21
92.3119187
0
LINE
8
DEFAULT_255_1_234
10
5.7719763
20
92.3119187
11
6.2956456
21
93.1223211
0
LINE
8
DEFAULT_255_1_234
10
6.2956456
20
93.1223211
11
6.4538708
21
93.1223211
0
LINE
8
DEFAULT_255_1_234
10
6.2868107
20
92.8869912
11
5.9406428
21
92.345652
0
LINE
8
DEFAULT_255_1_234
10
5.9406428
20
92.345652
11
6.3044805
21
92.345652
0
LINE
8
DEFAULT_255_1_234
10
6.3044805
20
92.345652
11
6.3044805
21
92.9191181
0
LINE
8
DEFAULT_255_1_234
10
6.3044805
20
92.9191181
11
6.2868107
21
92.8869912
0
LINE
8
DEFAULT_255_1_234
10
4.9963293
20
99.8904
11
4.8846881
21
100.1956061
0
LINE
8
DEFAULT_255_1_234
10
4.8846881
20
100.1956061
11
4.3947521
21
100.1956061
0
LINE
8
DEFAULT_255_1_234
10
4.3947521
20
100.1956061
11
4.2847173
21
99.8904
0
LINE
8
DEFAULT_255_1_234
10
4.2847173
20
99.8904
11
4.1256889
21
99.8904
0
LINE
8
DEFAULT_255_1_234
10
4.1256889
20
99.8904
11
4.5722535
21
101.0598211
0
LINE
8
DEFAULT_255_1_234
10
4.5722535
20
101.0598211
11
4.7071867
21
101.0598211
0
LINE
8
DEFAULT_255_1_234
10
4.7071867
20
101.0598211
11
5.1545545
21
99.8904
0
LINE
8
DEFAULT_255_1_234
10
5.1545545
20
99.8904
11
4.9963293
21
99.8904
0
LINE
8
DEFAULT_255_1_234
10
4.6397201
20
100.8694689
11
4.4413362
21
100.3225075
0
LINE
8
DEFAULT_255_1_234
10
4.4413362
20
100.3225075
11
4.8389072
21
100.3225075
0
LINE
8
DEFAULT_255_1_234
10
4.8389072
20
100.3225075
11
4.6397201
21
100.8694689
0
LINE
8
DEFAULT_255_1_234
10
5.4774304
20
101.0598211
11
5.4774304
21
99.8904
0
LINE
8
DEFAULT_255_1_234
10
5.4774304
20
99.8904
11
5.323221
21
99.8904
0
LINE
8
DEFAULT_255_1_234
10
5.323221
20
99.8904
11
5.323221
21
101.0598211
0
LINE
8
DEFAULT_255_1_234
10
5.323221
20
101.0598211
11
5.4774304
21
101.0598211
0
LINE
8
DEFAULT_255_1_234
10
5.9368458
20
100.4261169
11
5.9368458
21
100.5473962
0
LINE
8
DEFAULT_255_1_234
10
5.9368458
20
100.5473962
11
6.048487
21
100.5473962
0
LINE
8
DEFAULT_255_1_234
10
5.8581348
20
100.7530087
11
5.7095477
21
100.7530087
0
LINE
8
DEFAULT_255_1_234
10
5.6991064
20
100.1988188
11
5.8484967
21
100.1988188
0
LINE
8
DEFAULT_255_1_234
10
6.048487
20
100.4261169
11
5.9368458
21
100.4261169
0
ARC
8
DEFAULT_255_1_234
10
6.0455737
20
100.8866713
40
0.3392876
50
270.4919872
51
281.8951556
0
ARC
8
DEFAULT_255_1_234
10
6.0696998
20
100.7764702
40
0.2264817
50
281.6691735
51
301.2943132
0
ARC
8
DEFAULT_255_1_234
10
6.0867209
20
100.7453304
40
0.1910381
50
301.7833094
51
311.7545298
0
ARC
8
DEFAULT_255_1_234
10
6.0958784
20
100.7351748
40
0.1773635
50
311.7323931
51
354.2802411
0
ARC
8
DEFAULT_255_1_234
10
6.023241
20
100.7476722
40
0.2509385
50
353.0937916
51
0.1181479
0
ARC
8
DEFAULT_255_1_234
10
5.9771194
20
100.7524386
40
0.2970898
50
359.1805295
51
15.0453146
0
ARC
8
DEFAULT_255_1_234
10
6.1117031
20
100.7916992
40
0.1569564
50
13.9577229
51
77.6713066
0
ARC
8
DEFAULT_255_1_234
10
6.073056
20
100.6531949
40
0.3006298
50
76.1116566
51
90.7026153
0
ARC
8
DEFAULT_255_1_234
10
6.0671399
20
100.6805545
40
0.2732568
50
89.5324876
51
103.531937
0
ARC
8
DEFAULT_255_1_234
10
6.0470843
20
100.7604884
40
0.1908508
50
103.2931773
51
133.5619022
0
ARC
8
DEFAULT_255_1_234
10
6.0426331
20
100.7664375
40
0.1834746
50
133.8349307
51
173.5344437
0
ARC
8
DEFAULT_255_1_234
10
6.1149374
20
100.7536213
40
0.2568033
50
172.5096846
51
180.1366907
0
ARC
8
DEFAULT_255_1_234
10
6.0198268
20
100.7570622
40
0.3103056
50
155.3484492
51
180.7484736
0
ARC
8
DEFAULT_255_1_234
10
6.0149357
20
100.7541846
40
0.3070957
50
131.5744599
51
154.4798489
0
ARC
8
DEFAULT_255_1_234
10
6.0462505
20
100.722531
40
0.3515643
50
96.9875458
51
131.9690667
0
ARC
8
DEFAULT_255_1_234
10
6.0681985
20
100.5979636
40
0.4779224
50
89.8596053
51
97.7825159
0
ARC
8
DEFAULT_255_1_234
10
6.0730048
20
100.5717616
40
0.5041361
50
78.3655447
51
90.4131539
0
ARC
8
DEFAULT_255_1_234
10
6.1087966
20
100.7376887
40
0.3344039
50
56.6229102
51
78.638727
0
ARC
8
DEFAULT_255_1_234
10
6.1302909
20
100.7752805
40
0.2912001
50
47.0253525
51
56.0854072
0
ARC
8
DEFAULT_255_1_234
10
6.1322689
20
100.7792223
40
0.2869704
50
10.9208013
51
46.7778124
0
ARC
8
DEFAULT_255_1_234
10
5.9958756
20
100.7476857
40
0.426899
50
359.6364486
51
11.6087304
0
ARC
8
DEFAULT_255_1_234
10
6.17936
20
100.7461752
40
0.243409
50
332.3549906
51
359.7179418
0
ARC
8
DEFAULT_255_1_234
10
6.1143201
20
100.7770142
40
0.3153459
50
325.2333722
51
332.8745602
0
ARC
8
DEFAULT_255_1_234
10
6.1295825
20
100.7663828
40
0.2967456
50
292.9802137
51
325.2392345
0
ARC
8
DEFAULT_255_1_234
10
6.1021199
20
100.8197863
40
0.3566604
50
292.5402179
51
293.6924929
0
ARC
8
DEFAULT_255_1_234
10
6.1413795
20
100.1743091
40
0.3307468
50
57.6435486
51
72.8625112
0
ARC
8
DEFAULT_255_1_234
10
6.1768295
20
100.2317549
40
0.2632492
50
36.7248896
51
57.4697979
0
ARC
8
DEFAULT_255_1_234
10
6.1756927
20
100.233022
40
0.2634081
50
8.0545065
51
36.356114
0
ARC
8
DEFAULT_255_1_234
10
6.0894112
20
100.2175174
40
0.3510261
50
359.8320645
51
8.5869982
0
ARC
8
DEFAULT_255_1_234
10
6.0518889
20
100.2127101
40
0.3885653
50
343.9829931
51
0.5571613
0
ARC
8
DEFAULT_255_1_234
10
6.1405086
20
100.1884438
40
0.2966924
50
311.6359546
51
343.7651759
0
ARC
8
DEFAULT_255_1_234
10
6.1026655
20
100.2311102
40
0.3537231
50
279.7829875
51
311.6255694
0
ARC
8
DEFAULT_255_1_234
10
6.0725431
20
100.374828
40
0.5004971
50
269.7286406
51
280.3856417
0
ARC
8
DEFAULT_255_1_234
10
6.0663504
20
100.3706996
40
0.4963778
50
256.6828919
51
270.4412052
0
ARC
8
DEFAULT_255_1_234
10
6.03248
20
100.2322394
40
0.3538406
50
229.4223008
51
256.8556159
0
ARC
8
DEFAULT_255_1_234
10
5.9910192
20
100.1855736
40
0.2914296
50
181.818294
51
229.6455059
0
ARC
8
DEFAULT_255_1_234
10
6.0950149
20
100.1986496
40
0.3959084
50
179.9755256
51
183.2323064
0
ARC
8
DEFAULT_255_1_234
10
6.0777894
20
100.1966037
40
0.2293034
50
179.4465117
51
196.2869258
0
ARC
8
DEFAULT_255_1_234
10
6.0290302
20
100.1832651
40
0.1787621
50
196.5661473
51
227.705904
0
ARC
8
DEFAULT_255_1_234
10
6.0454397
20
100.2016155
40
0.2033784
50
227.7652068
51
257.8762805
0
ARC
8
DEFAULT_255_1_234
10
6.0679367
20
100.2959156
40
0.3003081
50
257.4584385
51
270.426602
0
ARC
8
DEFAULT_255_1_234
10
6.0724934
20
100.3248996
40
0.329292
50
269.5962073
51
280.8789248
0
ARC
8
DEFAULT_255_1_234
10
6.0954462
20
100.2102685
40
0.2123908
50
280.6346389
51
299.8595945
0
ARC
8
DEFAULT_255_1_234
10
6.1145369
20
100.1740212
40
0.171457
50
300.3576302
51
314.5517981
0
ARC
8
DEFAULT_255_1_234
10
6.1062429
20
100.1800919
40
0.1816095
50
315.0728369
51
345.0431014
0
ARC
8
DEFAULT_255_1_234
10
6.0139244
20
100.2069841
40
0.2777492
50
344.5986631
51
357.9269593
0
ARC
8
DEFAULT_255_1_234
10
5.924357
20
100.2131276
40
0.3674917
50
357.4748886
51
0.0231117
0
ARC
8
DEFAULT_255_1_234
10
6.0266679
20
100.2155679
40
0.2651907
50
359.5047933
51
13.4239635
0
ARC
8
DEFAULT_255_1_234
10
6.1133323
20
100.2377478
40
0.1757509
50
12.9498199
51
48.7551375
0
ARC
8
DEFAULT_255_1_234
10
6.0951057
20
100.21284
40
0.2065134
50
49.5088623
51
72.1836453
0
ARC
8
DEFAULT_255_1_234
10
6.0593209
20
100.1066291
40
0.3185836
50
71.9010081
51
84.3554254
0
ARC
8
DEFAULT_255_1_234
10
6.0431841
20
99.9705326
40
0.4556151
50
84.0193428
51
89.333121
0
LINE
8
DEFAULT_255_1_234
10
4.9963293
20
107.8279
11
4.8846881
21
108.1331061
0
LINE
8
DEFAULT_255_1_234
10
4.8846881
20
108.1331061
11
4.3947521
21
108.1331061
0
LINE
8
DEFAULT_255_1_234
10
4.3947521
20
108.1331061
11
4.2847173
21
107.8279
0
LINE
8
DEFAULT_255_1_234
10
4.2847173
20
107.8279
11
4.1256889
21
107.8279
0
LINE
8
DEFAULT_255_1_234
10
4.1256889
20
107.8279
11
4.5722535
21
108.9973211
0
LINE
8
DEFAULT_255_1_234
10
4.5722535
20
108.9973211
11
4.7071867
21
108.9973211
0
LINE
8
DEFAULT_255_1_234
10
4.7071867
20
108.9973211
11
5.1545545
21
107.8279
0
LINE
8
DEFAULT_255_1_234
10
5.1545545
20
107.8279
11
4.9963293
21
107.8279
0
LINE
8
DEFAULT_255_1_234
10
4.6397201
20
108.8069689
11
4.4413362
21
108.2600075
0
LINE
8
DEFAULT_255_1_234
10
4.4413362
20
108.2600075
11
4.8389072
21
108.2600075
0
LINE
8
DEFAULT_255_1_234
10
4.8389072
20
108.2600075
11
4.6397201
21
108.8069689
0
LINE
8
DEFAULT_255_1_234
10
5.4774304
20
108.9973211
11
5.4774304
21
107.8279
0
LINE
8
DEFAULT_255_1_234
10
5.4774304
20
107.8279
11
5.323221
21
107.8279
0
LINE
8
DEFAULT_255_1_234
10
5.323221
20
107.8279
11
5.323221
21
108.9973211
0
LINE
8
DEFAULT_255_1_234
10
5.323221
20
108.9973211
11
5.4774304
21
108.9973211
0
LINE
8
DEFAULT_255_1_234
10
6.4870199
20
107.9491792
11
6.4870199
21
107.8279
0
LINE
8
DEFAULT_255_1_234
10
6.4870199
20
107.8279
11
5.7207921
21
107.8279
0
LINE
8
DEFAULT_255_1_234
10
5.7207921
20
107.8279
11
5.7207921
21
107.9347221
0
LINE
8
DEFAULT_255_1_234
10
5.7207921
20
107.9347221
11
6.1255917
21
108.3844995
0
LINE
8
DEFAULT_255_1_234
10
5.8468904
20
108.6527595
11
5.6983032
21
108.6527595
0
LINE
8
DEFAULT_255_1_234
10
6.2131376
20
108.2889218
11
5.8998999
21
107.9491792
0
LINE
8
DEFAULT_255_1_234
10
5.8998999
20
107.9491792
11
6.4870199
21
107.9491792
0
ARC
8
DEFAULT_255_1_234
10
4.776575
20
109.5774527
40
1.8008286
50
318.5132453
51
320.7828378
0
ARC
8
DEFAULT_255_1_234
10
5.3052725
20
109.1471426
40
1.1191493
50
320.7372736
51
323.9737074
0
ARC
8
DEFAULT_255_1_234
10
5.6972581
20
108.8631361
40
0.6350923
50
323.8961724
51
328.6421089
0
ARC
8
DEFAULT_255_1_234
10
5.9019177
20
108.7369031
40
0.3946393
50
328.8299013
51
331.789948
0
ARC
8
DEFAULT_255_1_234
10
6.0016355
20
108.6854509
40
0.2824501
50
331.4255242
51
352.9364833
0
ARC
8
DEFAULT_255_1_234
10
6.0152856
20
108.6823976
40
0.2685315
50
353.2248685
51
0.0169286
0
ARC
8
DEFAULT_255_1_234
10
6.0362732
20
108.684695
40
0.2475536
50
359.4866256
51
15.9339782
0
ARC
8
DEFAULT_255_1_234
10
6.0869718
20
108.6983286
40
0.1950618
50
16.1714718
51
43.5284424
0
ARC
8
DEFAULT_255_1_234
10
6.0947026
20
108.7060573
40
0.184134
50
43.4415429
51
83.1661404
0
ARC
8
DEFAULT_255_1_234
10
6.0812945
20
108.6323771
40
0.258926
50
82.160215
51
90.1505798
0
ARC
8
DEFAULT_255_1_234
10
6.0781372
20
108.5786865
40
0.3126255
50
89.5460705
51
102.5418777
0
ARC
8
DEFAULT_255_1_234
10
6.0538458
20
108.6817665
40
0.2067346
50
102.1739365
51
129.2061916
0
ARC
8
DEFAULT_255_1_234
10
6.045953
20
108.6942094
40
0.1921118
50
129.7279328
51
135.7542026
0
ARC
8
DEFAULT_255_1_234
10
6.0581057
20
108.6845045
40
0.2075944
50
136.175737
51
166.3674722
0
ARC
8
DEFAULT_255_1_234
10
6.1587977
20
108.6575182
40
0.3118201
50
165.9092917
51
178.8683903
0
ARC
8
DEFAULT_255_1_234
10
6.2452838
20
108.6528179
40
0.3983935
50
178.438168
51
180.0083905
0
ARC
8
DEFAULT_255_1_234
10
6.105144
20
108.6567231
40
0.4068601
50
163.2878735
51
180.5581814
0
ARC
8
DEFAULT_255_1_234
10
6.0249701
20
108.678784
40
0.3237344
50
133.454115
51
162.9470031
0
ARC
8
DEFAULT_255_1_234
10
6.0428243
20
108.6598
40
0.349795
50
100.7869394
51
133.4384016
0
ARC
8
DEFAULT_255_1_234
10
6.0776014
20
108.5049319
40
0.5084616
50
89.6605301
51
101.3704185
0
ARC
8
DEFAULT_255_1_234
10
6.0842353
20
108.5110496
40
0.502348
50
78.2171172
51
90.4130393
0
ARC
8
DEFAULT_255_1_234
10
6.1197431
20
108.6734637
40
0.3361092
50
55.9268222
51
78.4888551
0
ARC
8
DEFAULT_255_1_234
10
6.1393872
20
108.7073324
40
0.2970617
50
47.9292255
51
55.4054003
0
ARC
8
DEFAULT_255_1_234
10
6.1495432
20
108.7176502
40
0.2825983
50
4.3347696
51
48.0560701
0
ARC
8
DEFAULT_255_1_234
10
6.0399826
20
108.7006601
40
0.393225
50
359.925209
51
5.5967654
0
ARC
8
DEFAULT_255_1_234
10
6.0828718
20
108.7062816
40
0.3503892
50
337.8914096
51
358.9967724
0
ARC
8
DEFAULT_255_1_234
10
5.811513
20
108.8109706
40
0.6412172
50
326.9135351
51
338.3505194
0
ARC
8
DEFAULT_255_1_234
10
5.4129433
20
109.0664284
40
1.1146189
50
319.6472867
51
327.095818
0
ARC
8
DEFAULT_255_1_234
10
5.0296437
20
109.3826
40
1.6114559
50
317.2586784
51
319.9046139
0
LINE
8
DEFAULT_255_1_234
10
4.9886293
20
115.7654
11
4.8769881
21
116.0706061
0
LINE
8
DEFAULT_255_1_234
10
4.8769881
20
116.0706061
11
4.3870521
21
116.0706061
0
LINE
8
DEFAULT_255_1_234
10
4.3870521
20
116.0706061
11
4.2770173
21
115.7654
0
LINE
8
DEFAULT_255_1_234
10
4.2770173
20
115.7654
11
4.1179889
21
115.7654
0
LINE
8
DEFAULT_255_1_234
10
4.1179889
20
115.7654
11
4.5645535
21
116.9348211
0
LINE
8
DEFAULT_255_1_234
10
4.5645535
20
116.9348211
11
4.6994867
21
116.9348211
0
LINE
8
DEFAULT_255_1_234
10
4.6994867
20
116.9348211
11
5.1468545
21
115.7654
0
LINE
8
DEFAULT_255_1_234
10
5.1468545
20
115.7654
11
4.9886293
21
115.7654
0
LINE
8
DEFAULT_255_1_234
10
4.6320201
20
116.7444689
11
4.4336362
21
116.1975075
0
LINE
8
DEFAULT_255_1_234
10
4.4336362
20
116.1975075
11
4.8312072
21
116.1975075
0
LINE
8
DEFAULT_255_1_234
10
4.8312072
20
116.1975075
11
4.6320201
21
116.7444689
0
LINE
8
DEFAULT_255_1_234
10
5.4697304
20
116.9348211
11
5.4697304
21
115.7654
0
LINE
8
DEFAULT_255_1_234
10
5.4697304
20
115.7654
11
5.315521
21
115.7654
0
LINE
8
DEFAULT_255_1_234
10
5.315521
20
115.7654
11
5.315521
21
116.9348211
0
LINE
8
DEFAULT_255_1_234
10
5.315521
20
116.9348211
11
5.4697304
21
116.9348211
0
LINE
8
DEFAULT_255_1_234
10
6.2014218
20
116.9404433
11
6.2014218
21
115.7654
0
LINE
8
DEFAULT_255_1_234
10
6.2014218
20
115.7654
11
6.0520314
21
115.7654
0
LINE
8
DEFAULT_255_1_234
10
6.0520314
20
115.7654
11
6.0520314
21
116.7557133
0
LINE
8
DEFAULT_255_1_234
10
6.0520314
20
116.7557133
11
5.7524476
21
116.6456785
0
LINE
8
DEFAULT_255_1_234
10
5.7524476
20
116.6456785
11
5.7524476
21
116.7806117
0
LINE
8
DEFAULT_255_1_234
10
5.7524476
20
116.7806117
11
6.1781297
21
116.9404433
0
LINE
8
DEFAULT_255_1_234
10
6.1781297
20
116.9404433
11
6.2014218
21
116.9404433
0
LINE
8
DEFAULT_255_1_234
10
4.9963293
20
123.7029
11
4.8846881
21
124.0081061
0
LINE
8
DEFAULT_255_1_234
10
4.8846881
20
124.0081061
11
4.3947521
21
124.0081061
0
LINE
8
DEFAULT_255_1_234
10
4.3947521
20
124.0081061
11
4.2847173
21
123.7029
0
LINE
8
DEFAULT_255_1_234
10
4.2847173
20
123.7029
11
4.1256889
21
123.7029
0
LINE
8
DEFAULT_255_1_234
10
4.1256889
20
123.7029
11
4.5722535
21
124.8723211
0
LINE
8
DEFAULT_255_1_234
10
4.5722535
20
124.8723211
11
4.7071867
21
124.8723211
0
LINE
8
DEFAULT_255_1_234
10
4.7071867
20
124.8723211
11
5.1545545
21
123.7029
0
LINE
8
DEFAULT_255_1_234
10
5.1545545
20
123.7029
11
4.9963293
21
123.7029
0
LINE
8
DEFAULT_255_1_234
10
4.6397201
20
124.6819689
11
4.4413362
21
124.1350075
0
LINE
8
DEFAULT_255_1_234
10
4.4413362
20
124.1350075
11
4.8389072
21
124.1350075
0
LINE
8
DEFAULT_255_1_234
10
4.8389072
20
124.1350075
11
4.6397201
21
124.6819689
0
LINE
8
DEFAULT_255_1_234
10
5.4774304
20
124.8723211
11
5.4774304
21
123.7029
0
LINE
8
DEFAULT_255_1_234
10
5.4774304
20
123.7029
11
5.323221
21
123.7029
0
LINE
8
DEFAULT_255_1_234
10
5.323221
20
123.7029
11
5.323221
21
124.8723211
0
LINE
8
DEFAULT_255_1_234
10
5.323221
20
124.8723211
11
5.4774304
21
124.8723211
0
LINE
8
DEFAULT_255_1_234
10
6.4540898
20
124.3944327
11
6.4540898
21
124.2016709
0
LINE
8
DEFAULT_255_1_234
10
5.715973
20
124.1815916
11
5.715973
21
124.3799755
0
LINE
8
DEFAULT_255_1_234
10
6.3055026
20
124.1615123
11
6.3055026
21
124.4048739
0
LINE
8
DEFAULT_255_1_234
10
5.8645602
20
124.4161184
11
5.8645602
21
124.1783789
0
ARC
8
DEFAULT_255_1_234
10
5.2293788
20
124.1967805
40
1.2247208
50
353.8441951
51
0.2287902
0
ARC
8
DEFAULT_255_1_234
10
5.6933291
20
124.1449806
40
0.7578929
50
344.4934747
51
353.9765454
0
ARC
8
DEFAULT_255_1_234
10
5.9925881
20
124.0598981
40
0.4467846
50
329.2803592
51
344.7472793
0
ARC
8
DEFAULT_255_1_234
10
6.0918706
20
124.0054018
40
0.3336173
50
324.9352394
51
328.6160465
0
ARC
8
DEFAULT_255_1_234
10
6.1295815
20
123.9790427
40
0.2876076
50
280.580143
51
324.9173126
0
ARC
8
DEFAULT_255_1_234
10
6.0894608
20
124.1461099
40
0.4592847
50
269.5977311
51
281.6734359
0
ARC
8
DEFAULT_255_1_234
10
6.0822513
20
124.1341173
40
0.4472986
50
256.6228859
51
270.51044
0
ARC
8
DEFAULT_255_1_234
10
6.0420491
20
123.9792877
40
0.2873874
50
215.8618325
51
257.2788573
0
ARC
8
DEFAULT_255_1_234
10
6.1441523
20
124.0477977
40
0.4102928
50
197.9693508
51
215.2623606
0
ARC
8
DEFAULT_255_1_234
10
6.3926638
20
124.1316709
40
0.6725652
50
187.8816417
51
198.2346507
0
ARC
8
DEFAULT_255_1_234
10
6.7884846
20
124.1888079
40
1.0724845
50
180.8976217
51
188.0055519
0
ARC
8
DEFAULT_255_1_234
10
7.0685035
20
124.1991777
40
1.3526448
50
180.7449369
51
181.1510016
0
ARC
8
DEFAULT_255_1_234
10
6.9107764
20
124.3848042
40
1.1948131
50
173.7675579
51
180.231553
0
ARC
8
DEFAULT_255_1_234
10
6.458991
20
124.4358666
40
0.7401564
50
164.3058563
51
173.9002247
0
ARC
8
DEFAULT_255_1_234
10
6.1677979
20
124.5197656
40
0.4371288
50
148.7922025
51
164.568378
0
ARC
8
DEFAULT_255_1_234
10
6.0726431
20
124.5728929
40
0.3282386
50
144.5883898
51
148.1176286
0
ARC
8
DEFAULT_255_1_234
10
6.0383329
20
124.5968315
40
0.2864044
50
101.6440918
51
144.514236
0
ARC
8
DEFAULT_255_1_234
10
6.0808396
20
124.4279069
40
0.4604934
50
89.5284041
51
102.5819763
0
ARC
8
DEFAULT_255_1_234
10
6.0887484
20
124.4240018
40
0.464401
50
77.0437873
51
90.5081339
0
ARC
8
DEFAULT_255_1_234
10
6.1289485
20
124.5882615
40
0.2953195
50
48.2778575
51
77.4994676
0
ARC
8
DEFAULT_255_1_234
10
6.1362117
20
124.6011746
40
0.2808655
50
36.3142134
51
47.6305865
0
ARC
8
DEFAULT_255_1_234
10
6.0493424
20
124.5426515
40
0.3855453
50
18.2931786
51
35.6769206
0
ARC
8
DEFAULT_255_1_234
10
5.7950183
20
124.4553593
40
0.654423
50
8.024666
51
18.5605216
0
ARC
8
DEFAULT_255_1_234
10
5.3787103
20
124.3938792
40
1.0752407
50
1.1274072
51
8.1718305
0
ARC
8
DEFAULT_255_1_234
10
5.0551293
20
124.3811885
40
1.3990231
50
0.5424119
51
1.3863029
0
ARC
8
DEFAULT_255_1_234
10
5.2372671
20
124.4084342
40
1.0682415
50
359.8090433
51
4.9407866
0
ARC
8
DEFAULT_255_1_234
10
5.6582685
20
124.4460113
40
0.6455691
50
4.8362157
51
12.2904523
0
ARC
8
DEFAULT_255_1_234
10
5.93378
20
124.5073965
40
0.3633074
50
12.0805627
51
23.8173984
0
ARC
8
DEFAULT_255_1_234
10
6.0511505
20
124.5570919
40
0.2358723
50
24.2871213
51
31.3935614
0
ARC
8
DEFAULT_255_1_234
10
6.1036202
20
124.5914233
40
0.1732111
50
30.7407893
51
82.4657128
0
ARC
8
DEFAULT_255_1_234
10
6.0856337
20
124.5030691
40
0.263235
50
81.1060089
51
90.2184952
0
ARC
8
DEFAULT_255_1_234
10
6.0820636
20
124.5288924
40
0.2374236
50
89.3806855
51
105.6762551
0
ARC
8
DEFAULT_255_1_234
10
6.0637266
20
124.5955567
40
0.1682847
50
105.7981136
51
149.7388061
0
ARC
8
DEFAULT_255_1_234
10
6.1701344
20
124.531595
40
0.2924306
50
149.4208916
51
163.6286378
0
ARC
8
DEFAULT_255_1_234
10
6.3792233
20
124.467825
40
0.5110213
50
163.3763315
51
172.1410975
0
ARC
8
DEFAULT_255_1_234
10
6.7092951
20
124.4205518
40
0.8444586
50
172.0259487
51
178.0703232
0
ARC
8
DEFAULT_255_1_234
10
7.0123041
20
124.4061906
40
1.1477868
50
177.8631668
51
179.5044149
0
ARC
8
DEFAULT_255_1_234
10
6.9050445
20
124.1747389
40
1.0404907
50
179.7995573
51
185.2460446
0
ARC
8
DEFAULT_255_1_234
10
6.5007485
20
124.1364513
40
0.6343885
50
185.1411642
51
193.0079639
0
ARC
8
DEFAULT_255_1_234
10
6.2363957
20
124.0739641
40
0.3627568
50
192.7897626
51
205.2507664
0
ARC
8
DEFAULT_255_1_234
10
6.1317504
20
124.0272415
40
0.2481908
50
205.8005384
51
211.2537509
0
ARC
8
DEFAULT_255_1_234
10
6.0793945
20
123.992158
40
0.1852521
50
210.3789793
51
238.4008143
0
ARC
8
DEFAULT_255_1_234
10
6.0774467
20
123.9968376
40
0.1882621
50
239.6520629
51
265.9793761
0
ARC
8
DEFAULT_255_1_234
10
6.0859667
20
124.0640427
40
0.2559272
50
265.1315437
51
270.060332
0
ARC
8
DEFAULT_255_1_234
10
6.0888446
20
124.0316534
40
0.2235528
50
269.3314664
51
287.2178029
0
ARC
8
DEFAULT_255_1_234
10
6.1026298
20
123.9813279
40
0.1714108
50
287.7958004
51
329.080874
0
ARC
8
DEFAULT_255_1_234
10
6.0068754
20
124.041093
40
0.2842745
50
328.6634704
51
343.3325132
0
ARC
8
DEFAULT_255_1_234
10
5.7895774
20
124.1087863
40
0.5118644
50
343.0499468
51
351.9393422
0
ARC
8
DEFAULT_255_1_234
10
5.4429074
20
124.1598949
40
0.8622784
50
351.8069023
51
357.7959224
0
ARC
8
DEFAULT_255_1_234
10
5.119363
20
124.1766721
40
1.1862365
50
357.5871873
51
359.2677531
0
LINE
8
DEFAULT_255_1_234
10
24.2614879
20
132.8098211
11
24.2614879
21
131.6404
0
LINE
8
DEFAULT_255_1_234
10
24.2614879
20
131.6404
11
24.1064753
21
131.6404
0
LINE
8
DEFAULT_255_1_234
10
24.1064753
20
131.6404
11
23.5177489
21
132.541561
0
LINE
8
DEFAULT_255_1_234
10
23.5177489
20
132.541561
11
23.5177489
21
131.6404
0
LINE
8
DEFAULT_255_1_234
10
23.5177489
20
131.6404
11
23.3627364
21
131.6404
0
LINE
8
DEFAULT_255_1_234
10
23.3627364
20
131.6404
11
23.3627364
21
132.8098211
0
LINE
8
DEFAULT_255_1_234
10
23.3627364
20
132.8098211
11
23.5177489
21
132.8098211
0
LINE
8
DEFAULT_255_1_234
10
23.5177489
20
132.8098211
11
24.1080817
21
131.9046442
0
LINE
8
DEFAULT_255_1_234
10
24.1080817
20
131.9046442
11
24.1080817
21
132.8098211
0
LINE
8
DEFAULT_255_1_234
10
24.1080817
20
132.8098211
11
24.2614879
21
132.8098211
0
ENDSEC
0
EOF