0
SECTION
2
HEADER
9
$MEASUREMENT
70
1
0
ENDSEC
0
SECTION
2
TABLES
0
TABLE
2
LTYPE
0
LTYPE
72
65
70
64
2
CONTINUOUS
3
______
73
0
40
0
0
ENDTAB
0
TABLE
2
LAYER
0
LAYER
2
DEFAULT_255_2_778
70
0
62
255
6
CONTINUOUS
0
LAYER
2
DEFAULT_255_1_388
70
0
62
255
6
CONTINUOUS
0
LAYER
2
DEFAULT_255_2_778_1
70
0
62
255
6
CONTINUOUS
0
ENDTAB
0
ENDSEC
0
SECTION
2
ENTITIES
0
ARC
8
DEFAULT_255_2_778
10
3.5700693
20
44.0552035
40
0.7914215
50
129.1312896
51
180.1450914
0
ARC
8
DEFAULT_255_2_778
10
3.5703345
20
44.0556906
40
0.7912112
50
89.854026
51
129.1684493
0
ARC
8
DEFAULT_255_2_778
10
25.7993937
20
44.0553771
40
0.7915249
50
39.4792447
51
90.147911
0
ARC
8
DEFAULT_255_2_778
10
25.7999935
20
44.0552238
40
0.7911595
50
359.8533901
51
39.5154338
0
ARC
8
DEFAULT_255_2_778
10
25.7996693
20
-1.9863488
40
0.7914836
50
309.4761667
51
0.1482649
0
ARC
8
DEFAULT_255_2_778
10
25.799398
20
-1.9867799
40
0.7913235
50
269.8517415
51
309.511178
0
ARC
8
DEFAULT_255_2_778
10
3.570342
20
-1.9867217
40
0.7913815
50
219.1282118
51
270.1454017
0
ARC
8
DEFAULT_255_2_778
10
3.5700247
20
-1.9863392
40
0.7913769
50
179.8524075
51
219.1641908
0
LINE
8
DEFAULT_255_2_778
10
3.5723503
20
44.8468993
11
25.7973503
21
44.8468993
0
LINE
8
DEFAULT_255_2_778
10
26.5911503
20
44.0531993
11
26.5911503
21
-1.9843007
0
LINE
8
DEFAULT_255_2_778
10
25.7973503
20
-2.7781007
11
3.5723503
21
-2.7781007
0
LINE
8
DEFAULT_255_2_778
10
2.7786503
20
-1.9843007
11
2.7786503
21
44.0531993
0
LINE
8
DEFAULT_255_1_388
10
10.2591318
20
-0.5033618
11
10.2591318
21
-0.6398
0
LINE
8
DEFAULT_255_1_388
10
10.2591318
20
-0.6398
11
9.3971313
21
-0.6398
0
LINE
8
DEFAULT_255_1_388
10
9.3971313
20
-0.6398
11
9.3971313
21
-0.5196259
0
LINE
8
DEFAULT_255_1_388
10
9.3971313
20
-0.5196259
11
9.8525278
21
-0.0136298
0
LINE
8
DEFAULT_255_1_388
10
9.5389909
20
0.2881607
11
9.3718315
21
0.2881607
0
LINE
8
DEFAULT_255_1_388
10
9.9510163
20
-0.121154
11
9.5986262
21
-0.5033618
0
LINE
8
DEFAULT_255_1_388
10
9.5986262
20
-0.5033618
11
10.2591318
21
-0.5033618
0
ARC
8
DEFAULT_255_1_388
10
8.3349337
20
1.3283983
40
2.0258655
50
318.5132526
51
320.7829045
0
ARC
8
DEFAULT_255_1_388
10
8.9297294
20
0.8442929
40
1.2589638
50
320.7372878
51
323.9739031
0
ARC
8
DEFAULT_255_1_388
10
9.3706226
20
0.5248554
40
0.7145141
50
323.8962701
51
328.64194
0
ARC
8
DEFAULT_255_1_388
10
9.6008484
20
0.3828545
40
0.4440242
50
328.8294576
51
331.7891185
0
ARC
8
DEFAULT_255_1_388
10
9.7130804
20
0.3249374
40
0.3177517
50
331.4254512
51
352.9365785
0
ARC
8
DEFAULT_255_1_388
10
9.7283804
20
0.321505
40
0.3021496
50
353.2257659
51
0.0166158
0
ARC
8
DEFAULT_255_1_388
10
9.7520564
20
0.3240894
40
0.2784847
50
359.486299
51
15.9343185
0
ARC
8
DEFAULT_255_1_388
10
9.8090831
20
0.3394269
40
0.2194403
50
16.1712913
51
43.5286088
0
ARC
8
DEFAULT_255_1_388
10
9.8177776
20
0.3481191
40
0.2071504
50
43.4417391
51
83.1661095
0
ARC
8
DEFAULT_255_1_388
10
9.8026937
20
0.2652316
40
0.2912888
50
82.160179
51
90.1505708
0
ARC
8
DEFAULT_255_1_388
10
9.7991418
20
0.2048279
40
0.3517025
50
89.5460741
51
102.5418361
0
ARC
8
DEFAULT_255_1_388
10
9.7718138
20
0.3207933
40
0.2325748
50
102.1738499
51
129.206123
0
ARC
8
DEFAULT_255_1_388
10
9.7629592
20
0.3347664
40
0.2161591
50
129.72865
51
135.753947
0
ARC
8
DEFAULT_255_1_388
10
9.7766074
20
0.3238728
40
0.2335433
50
136.1757367
51
166.3673339
0
ARC
8
DEFAULT_255_1_388
10
9.8898762
20
0.2935148
40
0.3507873
50
165.9090694
51
178.8684636
0
ARC
8
DEFAULT_255_1_388
10
9.9874534
20
0.2882263
40
0.4484624
50
178.4391136
51
180.0083808
0
ARC
8
DEFAULT_255_1_388
10
9.8295235
20
0.2926197
40
0.4577138
50
163.2878482
51
180.5581842
0
ARC
8
DEFAULT_255_1_388
10
9.7393276
20
0.3174393
40
0.3641968
50
133.4540601
51
162.947111
0
ARC
8
DEFAULT_255_1_388
10
9.7594158
20
0.2960789
40
0.3935189
50
100.7869829
51
133.4382499
0
ARC
8
DEFAULT_255_1_388
10
9.7985403
20
0.1218399
40
0.5720313
50
89.660664
51
101.3702276
0
ARC
8
DEFAULT_255_1_388
10
9.8060012
20
0.1287263
40
0.5651495
50
78.2172678
51
90.412935
0
ARC
8
DEFAULT_255_1_388
10
9.8459478
20
0.3114511
40
0.378122
50
55.9269121
51
78.4888449
0
ARC
8
DEFAULT_255_1_388
10
9.8680193
20
0.3495187
40
0.3342379
50
47.929771
51
55.4049217
0
ARC
8
DEFAULT_255_1_388
10
9.8794723
20
0.3611618
40
0.3179217
50
4.334829
51
48.0560205
0
ARC
8
DEFAULT_255_1_388
10
9.7562525
20
0.3420487
40
0.442341
50
359.9251713
51
5.5971671
0
ARC
8
DEFAULT_255_1_388
10
9.804468
20
0.3483728
40
0.3941854
50
337.8914027
51
358.9967534
0
ARC
8
DEFAULT_255_1_388
10
9.499225
20
0.4661295
40
0.7213271
50
326.9132501
51
338.3508308
0
ARC
8
DEFAULT_255_1_388
10
9.0508362
20
0.7535105
40
1.2538973
50
319.6471833
51
327.0959558
0
ARC
8
DEFAULT_255_1_388
10
8.619502
20
1.109305
40
1.8129975
50
317.2588228
51
319.9045804
0
LINE
8
DEFAULT_255_1_388
10
10.4796015
20
0.6757898
11
10.7036855
21
0.6757898
0
LINE
8
DEFAULT_255_1_388
10
10.7036855
20
0.6757898
11
11.1337822
21
-0.3976447
0
LINE
8
DEFAULT_255_1_388
10
11.1337822
20
-0.3976447
11
11.5638789
21
0.6757898
0
LINE
8
DEFAULT_255_1_388
10
11.5638789
20
0.6757898
11
11.7888664
21
0.6757898
0
LINE
8
DEFAULT_255_1_388
10
11.7888664
20
0.6757898
11
11.7888664
21
-0.6398
0
LINE
8
DEFAULT_255_1_388
10
11.7888664
20
-0.6398
11
11.615382
21
-0.6398
0
LINE
8
DEFAULT_255_1_388
10
11.615382
20
-0.6398
11
11.615382
21
-0.127479
0
LINE
8
DEFAULT_255_1_388
10
11.615382
20
-0.127479
11
11.6316462
21
0.4255025
0
LINE
8
DEFAULT_255_1_388
10
11.6316462
20
0.4255025
11
11.1997424
21
-0.6398
0
LINE
8
DEFAULT_255_1_388
10
11.1997424
20
-0.6398
11
11.0669184
21
-0.6398
0
LINE
8
DEFAULT_255_1_388
10
11.0669184
20
-0.6398
11
10.6359182
21
0.4227918
0
LINE
8
DEFAULT_255_1_388
10
10.6359182
20
0.4227918
11
10.6530859
21
-0.127479
0
LINE
8
DEFAULT_255_1_388
10
10.6530859
20
-0.127479
11
10.6530859
21
-0.6398
0
LINE
8
DEFAULT_255_1_388
10
10.6530859
20
-0.6398
11
10.4796015
21
-0.6398
0
LINE
8
DEFAULT_255_1_388
10
10.4796015
20
-0.6398
11
10.4796015
21
0.6757898
0
LINE
8
DEFAULT_255_1_388
10
12.2695627
20
0.6757898
11
12.2695627
21
-0.4979404
0
LINE
8
DEFAULT_255_1_388
10
12.2695627
20
-0.4979404
11
12.8930222
21
-0.4979404
0
LINE
8
DEFAULT_255_1_388
10
12.8930222
20
-0.4979404
11
12.8930222
21
-0.6398
0
LINE
8
DEFAULT_255_1_388
10
12.8930222
20
-0.6398
11
12.0951748
21
-0.6398
0
LINE
8
DEFAULT_255_1_388
10
12.0951748
20
-0.6398
11
12.0951748
21
0.6757898
0
LINE
8
DEFAULT_255_1_388
10
12.0951748
20
0.6757898
11
12.2695627
21
0.6757898
0
LINE
8
DEFAULT_255_1_388
10
13.816465
20
0.0830516
11
13.816465
21
-0.0588081
0
LINE
8
DEFAULT_255_1_388
10
13.816465
20
-0.0588081
11
13.2643872
21
-0.0588081
0
LINE
8
DEFAULT_255_1_388
10
13.2643872
20
-0.0588081
11
13.2643872
21
-0.6398
0
LINE
8
DEFAULT_255_1_388
10
13.2643872
20
-0.6398
11
13.0909028
21
-0.6398
0
LINE
8
DEFAULT_255_1_388
10
13.0909028
20
-0.6398
11
13.0909028
21
0.6757898
0
LINE
8
DEFAULT_255_1_388
10
13.0909028
20
0.6757898
11
13.9059179
21
0.6757898
0
LINE
8
DEFAULT_255_1_388
10
13.9059179
20
0.6757898
11
13.9059179
21
0.5330267
0
LINE
8
DEFAULT_255_1_388
10
13.9059179
20
0.5330267
11
13.2643872
21
0.5330267
0
LINE
8
DEFAULT_255_1_388
10
13.2643872
20
0.5330267
11
13.2643872
21
0.0830516
0
LINE
8
DEFAULT_255_1_388
10
13.2643872
20
0.0830516
11
13.816465
21
0.0830516
0
LINE
8
DEFAULT_255_1_388
10
14.4354067
20
-0.0127263
11
14.4354067
21
-0.1491645
0
LINE
8
DEFAULT_255_1_388
10
14.4354067
20
-0.1491645
11
13.9944672
21
-0.1491645
0
LINE
8
DEFAULT_255_1_388
10
13.9944672
20
-0.1491645
11
13.9944672
21
-0.0127263
0
LINE
8
DEFAULT_255_1_388
10
13.9944672
20
-0.0127263
11
14.4354067
21
-0.0127263
0
LINE
8
DEFAULT_255_1_388
10
15.4763129
20
-0.6398
11
15.3507175
21
-0.2964455
0
LINE
8
DEFAULT_255_1_388
10
15.3507175
20
-0.2964455
11
14.7995432
21
-0.2964455
0
LINE
8
DEFAULT_255_1_388
10
14.7995432
20
-0.2964455
11
14.6757548
21
-0.6398
0
LINE
8
DEFAULT_255_1_388
10
14.6757548
20
-0.6398
11
14.4968491
21
-0.6398
0
LINE
8
DEFAULT_255_1_388
10
14.4968491
20
-0.6398
11
14.9992309
21
0.6757898
0
LINE
8
DEFAULT_255_1_388
10
14.9992309
20
0.6757898
11
15.1510297
21
0.6757898
0
LINE
8
DEFAULT_255_1_388
10
15.1510297
20
0.6757898
11
15.6543151
21
-0.6398
0
LINE
8
DEFAULT_255_1_388
10
15.6543151
20
-0.6398
11
15.4763129
21
-0.6398
0
LINE
8
DEFAULT_255_1_388
10
15.0751303
20
0.4616451
11
14.8519499
21
-0.1536823
0
LINE
8
DEFAULT_255_1_388
10
14.8519499
20
-0.1536823
11
15.2992143
21
-0.1536823
0
LINE
8
DEFAULT_255_1_388
10
15.2992143
20
-0.1536823
11
15.0751303
21
0.4616451
0
LINE
8
DEFAULT_255_1_388
10
16.1955502
20
-0.6398
11
15.8314138
21
-0.6398
0
LINE
8
DEFAULT_255_1_388
10
15.8314138
20
-0.6398
11
15.8314138
21
0.6757898
0
LINE
8
DEFAULT_255_1_388
10
15.8314138
20
0.6757898
11
16.2027788
21
0.6757898
0
LINE
8
DEFAULT_255_1_388
10
16.7828671
20
0.0622696
11
16.7828671
21
-0.0217619
0
LINE
8
DEFAULT_255_1_388
10
16.2072966
20
0.5330267
11
16.0048981
21
0.5330267
0
LINE
8
DEFAULT_255_1_388
10
16.0048981
20
0.5330267
11
16.0048981
21
-0.4979404
0
LINE
8
DEFAULT_255_1_388
10
16.0048981
20
-0.4979404
11
16.1874182
21
-0.4979404
0
LINE
8
DEFAULT_255_1_388
10
16.6111899
20
-0.0181477
11
16.6111899
21
0.0586553
0
ARC
8
DEFAULT_255_1_388
10
16.2071582
20
0.0159436
40
0.6598608
50
75.4100343
51
90.3802731
0
ARC
8
DEFAULT_255_1_388
10
16.2329828
20
0.1235691
40
0.5492049
50
60.1455157
51
75.1889627
0
ARC
8
DEFAULT_255_1_388
10
16.2508419
20
0.1546914
40
0.5133226
50
26.525419
51
60.1451222
0
ARC
8
DEFAULT_255_1_388
10
16.1248206
20
0.0878642
40
0.6559324
50
7.4029944
51
26.832209
0
ARC
8
DEFAULT_255_1_388
10
15.9454603
20
0.0599229
40
0.8374103
50
0.1605597
51
7.7176135
0
ARC
8
DEFAULT_255_1_388
10
15.9639003
20
-0.0260679
40
0.8189782
50
348.7289744
51
0.30125
0
ARC
8
DEFAULT_255_1_388
10
16.1502467
20
-0.0630844
40
0.628991
50
333.0706936
51
348.7181455
0
ARC
8
DEFAULT_255_1_388
10
16.2590095
20
-0.1221551
40
0.5052808
50
299.2531435
51
333.4571133
0
ARC
8
DEFAULT_255_1_388
10
16.2184126
20
-0.0450371
40
0.5924066
50
278.1072193
51
299.0340218
0
ARC
8
DEFAULT_255_1_388
10
16.1896175
20
0.1245979
40
0.7644209
50
270.4446841
51
278.4508355
0
ARC
8
DEFAULT_255_1_388
10
16.1919658
20
0.02003
40
0.5179903
50
269.4969684
51
284.0204874
0
ARC
8
DEFAULT_255_1_388
10
16.2319377
20
-0.1335585
40
0.3592968
50
283.7699076
51
318.1557121
0
ARC
8
DEFAULT_255_1_388
10
16.1939922
20
-0.1051601
40
0.4065308
50
318.7417595
51
343.687252
0
ARC
8
DEFAULT_255_1_388
10
15.9910501
20
-0.0417725
40
0.6191194
50
343.3324891
51
355.8548594
0
ARC
8
DEFAULT_255_1_388
10
15.7549538
20
-0.0193281
40
0.856237
50
355.4988754
51
0.0789913
0
ARC
8
DEFAULT_255_1_388
10
15.8430337
20
0.063408
40
0.7681709
50
359.6455047
51
9.8607559
0
ARC
8
DEFAULT_255_1_388
10
16.1086061
20
0.1113664
40
0.498312
50
9.6573037
51
26.1931522
0
ARC
8
DEFAULT_255_1_388
10
16.2130136
20
0.1598587
40
0.3832303
50
26.5777895
51
40.1533752
0
ARC
8
DEFAULT_255_1_388
10
16.2417801
20
0.182302
40
0.3467742
50
40.3839958
51
80.1430923
0
ARC
8
DEFAULT_255_1_388
10
16.2050056
20
0.0192486
40
0.5137832
50
79.2153636
51
89.7445174
0
LINE
8
DEFAULT_255_1_388
10
17.7072136
20
0.6757898
11
17.7072136
21
-0.197957
0
LINE
8
DEFAULT_255_1_388
10
17.7072136
20
-0.197957
11
17.8897336
21
-0.197957
0
LINE
8
DEFAULT_255_1_388
10
17.8897336
20
-0.197957
11
17.8897336
21
-0.3343952
0
LINE
8
DEFAULT_255_1_388
10
17.8897336
20
-0.3343952
11
17.7072136
21
-0.3343952
0
LINE
8
DEFAULT_255_1_388
10
17.7072136
20
-0.3343952
11
17.7072136
21
-0.6398
0
LINE
8
DEFAULT_255_1_388
10
17.7072136
20
-0.6398
11
17.5391506
21
-0.6398
0
LINE
8
DEFAULT_255_1_388
10
17.5391506
20
-0.6398
11
17.5391506
21
-0.3343952
0
LINE
8
DEFAULT_255_1_388
10
17.5391506
20
-0.3343952
11
16.9400874
21
-0.3343952
0
LINE
8
DEFAULT_255_1_388
10
16.9400874
20
-0.3343952
11
16.9400874
21
-0.2359067
0
LINE
8
DEFAULT_255_1_388
10
16.9400874
20
-0.2359067
11
17.5292114
21
0.6757898
0
LINE
8
DEFAULT_255_1_388
10
17.5292114
20
0.6757898
11
17.7072136
21
0.6757898
0
LINE
8
DEFAULT_255_1_388
10
17.5192722
20
0.4110455
11
17.1298359
21
-0.197957
0
LINE
8
DEFAULT_255_1_388
10
17.1298359
20
-0.197957
11
17.5391506
21
-0.197957
0
LINE
8
DEFAULT_255_1_388
10
17.5391506
20
-0.197957
11
17.5391506
21
0.447188
0
LINE
8
DEFAULT_255_1_388
10
17.5391506
20
0.447188
11
17.5192722
21
0.4110455
0
LINE
8
DEFAULT_255_1_388
10
18.9568432
20
0.2953892
11
18.7824553
21
0.2953892
0
LINE
8
DEFAULT_255_1_388
10
18.0035827
20
-0.2584958
11
18.1779707
21
-0.2584958
0
ARC
8
DEFAULT_255_1_388
10
18.856528
20
1.3017821
40
1.4087688
50
248.9196578
51
254.1442424
0
ARC
8
DEFAULT_255_1_388
10
18.667516
20
0.8151805
40
0.8867498
50
241.6337352
51
249.0064643
0
ARC
8
DEFAULT_255_1_388
10
18.4955473
20
0.5000764
40
0.5277799
50
230.4982261
51
241.8087583
0
ARC
8
DEFAULT_255_1_388
10
18.4073244
20
0.3876686
40
0.3849419
50
227.4062979
51
229.9877433
0
ARC
8
DEFAULT_255_1_388
10
18.3524591
20
0.3341155
40
0.3084129
50
200.6782127
51
228.1765252
0
ARC
8
DEFAULT_255_1_388
10
18.360596
20
0.3324277
40
0.315461
50
179.506278
51
199.8695278
0
ARC
8
DEFAULT_255_1_388
10
18.3595549
20
0.3407671
40
0.3144584
50
132.4834401
51
181.0242352
0
ARC
8
DEFAULT_255_1_388
10
18.4264753
20
0.2775788
40
0.4063094
50
129.2526113
51
133.4249077
0
ARC
8
DEFAULT_255_1_388
10
18.4430345
20
0.2527619
40
0.436014
50
101.9878945
51
128.8741833
0
ARC
8
DEFAULT_255_1_388
10
18.4878761
20
0.059136
40
0.6347415
50
89.5906376
51
102.3170567
0
ARC
8
DEFAULT_255_1_388
10
18.4958072
20
0.0949586
40
0.5989122
50
77.2359491
51
90.3248968
0
ARC
8
DEFAULT_255_1_388
10
18.5191003
20
0.2037554
40
0.4876594
50
63.8379856
51
77.0808925
0
ARC
8
DEFAULT_255_1_388
10
18.5503537
20
0.2619882
40
0.4216191
50
45.9863127
51
64.1608798
0
ARC
8
DEFAULT_255_1_388
10
18.579693
20
0.295499
40
0.3771394
50
32.2747934
51
45.6544796
0
ARC
8
DEFAULT_255_1_388
10
18.5871737
20
0.2976426
40
0.3696765
50
359.6507495
51
32.6129943
0
ARC
8
DEFAULT_255_1_388
10
18.4810919
20
0.2981788
40
0.3013762
50
359.469654
51
14.983205
0
ARC
8
DEFAULT_255_1_388
10
18.5604172
20
0.3194288
40
0.2192542
50
14.9781954
51
48.2004799
0
ARC
8
DEFAULT_255_1_388
10
18.5419283
20
0.2961937
40
0.2489048
50
48.5926661
51
74.1242559
0
ARC
8
DEFAULT_255_1_388
10
18.5044085
20
0.1723607
40
0.3782845
50
73.7889321
51
86.6653996
0
ARC
8
DEFAULT_255_1_388
10
18.49289
20
0.0365955
40
0.5145025
50
86.2642725
51
90.0533288
0
ARC
8
DEFAULT_255_1_388
10
18.4896992
20
0.0810376
40
0.4700681
50
89.669455
51
99.2313411
0
ARC
8
DEFAULT_255_1_388
10
18.4624152
20
0.2435401
40
0.3052945
50
99.0695987
51
113.7659242
0
ARC
8
DEFAULT_255_1_388
10
18.4316146
20
0.3161772
40
0.226407
50
114.0402885
51
127.9848946
0
ARC
8
DEFAULT_255_1_388
10
18.4045623
20
0.3494884
40
0.1835045
50
127.7287217
51
176.7106493
0
ARC
8
DEFAULT_255_1_388
10
18.4809288
20
0.338121
40
0.2604907
50
175.1780759
51
180.0581213
0
ARC
8
DEFAULT_255_1_388
10
18.3860631
20
0.3367411
40
0.1656287
50
179.6140658
51
228.124674
0
ARC
8
DEFAULT_255_1_388
10
18.4357989
20
0.382794
40
0.2332038
50
226.5785315
51
230.8792476
0
ARC
8
DEFAULT_255_1_388
10
18.4887475
20
0.4530908
40
0.3211664
50
231.4636401
51
241.9261664
0
ARC
8
DEFAULT_255_1_388
10
18.6234259
20
0.7009349
40
0.6032345
50
241.7177136
51
248.3259138
0
ARC
8
DEFAULT_255_1_388
10
18.7792854
20
1.0870771
40
1.0196417
50
248.2007377
51
252.4527713
0
ARC
8
DEFAULT_255_1_388
10
18.914638
20
1.5055092
40
1.4594143
50
252.3388938
51
254.347037
0
ARC
8
DEFAULT_255_1_388
10
18.0661681
20
-1.5292905
40
1.6917621
50
71.0197462
51
74.4085467
0
ARC
8
DEFAULT_255_1_388
10
18.2568769
20
-0.9787856
40
1.1091618
50
66.1845203
51
71.086519
0
ARC
8
DEFAULT_255_1_388
10
18.4319317
20
-0.5846561
40
0.6779073
50
59.3537334
51
66.269255
0
ARC
8
DEFAULT_255_1_388
10
18.5319044
20
-0.4155223
40
0.4814366
50
49.1021732
51
59.3294421
0
ARC
8
DEFAULT_255_1_388
10
18.6240032
20
-0.3105425
40
0.3417875
50
32.7924183
51
49.2503526
0
ARC
8
DEFAULT_255_1_388
10
18.6589646
20
-0.2855689
40
0.2988789
50
31.121225
51
32.3977355
0
ARC
8
DEFAULT_255_1_388
10
18.6501824
20
-0.2888272
40
0.3080861
50
8.1116803
51
30.7958224
0
ARC
8
DEFAULT_255_1_388
10
18.559017
20
-0.3043563
40
0.4005385
50
359.8390945
51
8.4707348
0
ARC
8
DEFAULT_255_1_388
10
18.6294217
20
-0.3098249
40
0.3301608
50
337.4732479
51
0.7538283
0
ARC
8
DEFAULT_255_1_388
10
18.6495242
20
-0.3120446
40
0.3107929
50
307.5917028
51
336.4313755
0
ARC
8
DEFAULT_255_1_388
10
18.59843
20
-0.2552491
40
0.3870096
50
307.6560665
51
308.4561779
0
ARC
8
DEFAULT_255_1_388
10
18.5718516
20
-0.2144168
40
0.435591
50
284.3733666
51
307.1426212
0
ARC
8
DEFAULT_255_1_388
10
18.5161411
20
-0.0094609
40
0.6479685
50
272.4384566
51
284.6464689
0
ARC
8
DEFAULT_255_1_388
10
18.5018796
20
0.1929434
40
0.8508149
50
269.9708517
51
272.8180721
0
ARC
8
DEFAULT_255_1_388
10
18.4970478
20
-0.0362717
40
0.6216151
50
248.2707343
51
270.4054609
0
ARC
8
DEFAULT_255_1_388
10
18.490935
20
-0.0577327
40
0.5994203
50
246.1380358
51
248.054058
0
ARC
8
DEFAULT_255_1_388
10
18.4438492
20
-0.1566295
40
0.4899388
50
233.1671897
51
246.4951656
0
ARC
8
DEFAULT_255_1_388
10
18.3815127
20
-0.2407863
40
0.3852115
50
215.3403381
51
233.084328
0
ARC
8
DEFAULT_255_1_388
10
18.3508492
20
-0.2630907
40
0.3472969
50
179.2419235
51
215.2648426
0
ARC
8
DEFAULT_255_1_388
10
18.4372043
20
-0.2615021
40
0.259251
50
179.3355796
51
199.1045873
0
ARC
8
DEFAULT_255_1_388
10
18.3998184
20
-0.2712777
40
0.2207454
50
199.8830064
51
232.7061328
0
ARC
8
DEFAULT_255_1_388
10
18.4529459
20
-0.2044544
40
0.306101
50
232.3736206
51
255.5136621
0
ARC
8
DEFAULT_255_1_388
10
18.4912965
20
-0.0644823
40
0.4512213
50
255.2447928
51
267.5318292
0
ARC
8
DEFAULT_255_1_388
10
18.5011431
20
0.0741709
40
0.5901825
50
267.1564563
51
270.0294721
0
ARC
8
DEFAULT_255_1_388
10
18.5042757
20
0.0242623
40
0.5402814
50
269.6999944
51
278.1662446
0
ARC
8
DEFAULT_255_1_388
10
18.5330784
20
-0.1704026
40
0.3435003
50
278.0229022
51
290.6255326
0
ARC
8
DEFAULT_255_1_388
10
18.5721951
20
-0.2747453
40
0.2320666
50
290.6616368
51
307.0374127
0
ARC
8
DEFAULT_255_1_388
10
18.6059851
20
-0.316196
40
0.1786372
50
306.3942078
51
355.303191
0
ARC
8
DEFAULT_255_1_388
10
18.5484144
20
-0.3075814
40
0.2367516
50
354.3662092
51
0.0709489
0
ARC
8
DEFAULT_255_1_388
10
18.5644013
20
-0.3050439
40
0.2207761
50
359.4175379
51
16.1975911
0
ARC
8
DEFAULT_255_1_388
10
18.615613
20
-0.2910046
40
0.1676828
50
16.4721294
51
52.6261798
0
ARC
8
DEFAULT_255_1_388
10
18.5232638
20
-0.4129394
40
0.3206412
50
52.7381828
51
62.4979144
0
ARC
8
DEFAULT_255_1_388
10
18.3674391
20
-0.7061764
40
0.6527035
50
62.2517425
51
68.1219454
0
ARC
8
DEFAULT_255_1_388
10
18.1739879
20
-1.1816049
40
1.1659797
50
68.006043
51
71.8055127
0
ARC
8
DEFAULT_255_1_388
10
17.9719787
20
-1.7874277
40
1.8045908
50
71.718361
51
73.9260743
0
ARC
8
DEFAULT_255_2_778
10
12.6050348
20
42.3538041
40
0.3813723
50
156.9728279
51
180.9672924
0
ARC
8
DEFAULT_255_2_778
10
12.4650905
20
42.4164556
40
0.2280903
50
120.6143155
51
157.7057572
0
ARC
8
DEFAULT_255_2_778
10
12.423185
20
42.4783889
40
0.1535155
50
105.6024085
51
118.9253865
0
ARC
8
DEFAULT_255_2_778
10
12.4163051
20
42.503158
40
0.1278087
50
90.2188612
51
105.6183161
0
ARC
8
DEFAULT_255_2_778
10
12.4186564
20
42.3360412
40
0.2949385
50
82.1187511
51
90.5516271
0
ARC
8
DEFAULT_255_2_778
10
12.4470429
20
42.5007036
40
0.128059
50
23.164146
51
84.5981403
0
ARC
8
DEFAULT_255_2_778
10
12.3195078
20
42.4489267
40
0.2656921
50
1.2065942
51
22.6109196
0
ARC
8
DEFAULT_255_2_778
10
12.1068205
20
42.4310377
40
0.4788966
50
359.9555286
51
2.8107684
0
ARC
8
DEFAULT_255_2_778
10
12.4802764
20
42.4196207
40
0.6523641
50
359.5121336
51
18.1513483
0
ARC
8
DEFAULT_255_2_778
10
12.6313291
20
42.4706245
40
0.4929411
50
17.987628
51
47.7515239
0
ARC
8
DEFAULT_255_2_778
10
12.6654537
20
42.5023389
40
0.4465388
50
48.2567149
51
90.320171
0
ARC
8
DEFAULT_255_2_778
10
12.6638541
20
42.4542874
40
0.4945841
50
90.103751
51
104.0317339
0
ARC
8
DEFAULT_255_2_778
10
12.6706581
20
42.4229342
40
0.5266526
50
103.9228462
51
106.737064
0
ARC
8
DEFAULT_255_2_778
10
12.6850928
20
42.3802316
40
0.5717052
50
106.8899656
51
120.2615348
0
ARC
8
DEFAULT_255_2_778
10
12.7341581
20
42.2957122
40
0.6694339
50
120.2432243
51
131.2854864
0
ARC
8
DEFAULT_255_2_778
10
12.785036
20
42.234952
40
0.7486631
50
131.143212
51
134.0802792
0
ARC
8
DEFAULT_255_2_778
10
15.2709404
20
41.2619131
40
0.1197666
50
309.5218924
51
339.9060311
0
ARC
8
DEFAULT_255_2_778
10
15.3039085
20
41.2244254
40
0.0698871
50
287.710739
51
308.230668
0
ARC
8
DEFAULT_255_2_778
10
15.3092212
20
41.2087982
40
0.0533853
50
270.2503717
51
287.3813074
0
ARC
8
DEFAULT_255_2_778
10
15.3118783
20
41.2096536
40
0.0542942
50
194.7346052
51
267.4414086
0
ARC
8
DEFAULT_255_2_778
10
15.3603123
20
41.232672
40
0.107451
50
190.9475811
51
200.0439116
0
ARC
8
DEFAULT_255_2_778
10
14.9941035
20
41.2197621
40
0.2608211
50
358.353068
51
64.1268931
0
ARC
8
DEFAULT_255_2_778
10
15.0249058
20
41.2654249
40
0.206441
50
66.2890109
51
89.9969258
0
ARC
8
DEFAULT_255_2_778
10
15.0382115
20
41.2301645
40
0.2420668
50
93.1483498
51
177.0819403
0
ARC
8
DEFAULT_255_2_778
10
15.0906424
20
41.2123292
40
0.2957256
50
174.1467469
51
180.0122521
0
ARC
8
DEFAULT_255_2_778
10
15.0902349
20
41.215793
40
0.2953391
50
180.6842551
51
197.2976119
0
ARC
8
DEFAULT_255_2_778
10
15.1427344
20
41.2319135
40
0.3502574
50
197.2618666
51
237.3003567
0
ARC
8
DEFAULT_255_2_778
10
15.1574152
20
41.260555
40
0.3823034
50
237.7678185
51
267.0989043
0
ARC
8
DEFAULT_255_2_778
10
15.1676437
20
41.345885
40
0.468079
50
266.3770992
51
270.0209723
0
ARC
8
DEFAULT_255_2_778
10
15.1676985
20
41.3761308
40
0.4983248
50
270.0133909
51
272.716577
0
ARC
8
DEFAULT_255_2_778
10
15.1758148
20
41.2615424
40
0.3834899
50
272.3167324
51
299.1303886
0
ARC
8
DEFAULT_255_2_778
10
15.1234049
20
41.3350329
40
0.4733038
50
300.3417229
51
327.7658215
0
ARC
8
DEFAULT_255_2_778
10
14.9406676
20
41.4635134
40
0.6964958
50
326.843622
51
335.4998036
0
ARC
8
DEFAULT_255_2_778
10
14.8514976
20
41.5057766
40
0.7951648
50
335.3932154
51
340.0324022
0
ARC
8
DEFAULT_255_2_778
10
14.8370312
20
41.5113094
40
0.8106509
50
340.0140149
51
340.5492811
0
ARC
8
DEFAULT_255_2_778
10
10.7612214
20
42.2094581
40
0.768197
50
90.8730151
51
175.0627552
0
ARC
8
DEFAULT_255_2_778
10
10.8136126
20
42.1930058
40
0.8218958
50
174.2343992
51
180.0097514
0
ARC
8
DEFAULT_255_2_778
10
10.7889867
20
42.1897729
40
0.7972759
50
179.7777162
51
222.1414196
0
ARC
8
DEFAULT_255_2_778
10
10.7511509
20
42.151835
40
0.7437709
50
221.9300285
51
269.8741254
0
ARC
8
DEFAULT_255_2_778
10
10.7376549
20
42.1762244
40
0.7682501
50
270.8846918
51
355.0667038
0
ARC
8
DEFAULT_255_2_778
10
10.6852873
20
42.1927267
40
0.8219296
50
354.2345114
51
0.0097094
0
ARC
8
DEFAULT_255_2_778
10
10.7100678
20
42.1959703
40
0.7971551
50
359.7768758
51
42.1436072
0
ARC
8
DEFAULT_255_2_778
10
10.7478782
20
42.2338788
40
0.7436889
50
41.9327014
51
89.8737509
0
ARC
8
DEFAULT_255_2_778
10
10.7319112
20
41.8166045
40
0.2064136
50
282.3154686
51
2.5716381
0
ARC
8
DEFAULT_255_2_778
10
10.749558
20
41.7815913
40
0.1687253
50
269.98603
51
278.995025
0
ARC
8
DEFAULT_255_2_778
10
10.7617107
20
41.8130042
40
0.2005094
50
178.6786273
51
266.5134562
0
ARC
8
DEFAULT_255_2_778
10
10.8074017
20
41.8258655
40
0.2462849
50
179.9999044
51
181.9167359
0
ARC
8
DEFAULT_255_2_778
10
10.7673954
20
42.5691548
40
0.2064787
50
103.0315545
51
182.5228891
0
ARC
8
DEFAULT_255_2_778
10
10.7494718
20
42.6042048
40
0.1685611
50
89.9846994
51
99.7807169
0
ARC
8
DEFAULT_255_2_778
10
10.7371616
20
42.5722176
40
0.2009286
50
358.490526
51
86.4746259
0
ARC
8
DEFAULT_255_2_778
10
10.6939639
20
42.5600644
40
0.244153
50
0.0003602
51
1.6101146
0
ARC
8
DEFAULT_255_2_778
10
13.7769085
20
42.1923122
40
1.0339085
50
353.7729731
51
0.0306848
0
ARC
8
DEFAULT_255_2_778
10
14.0136678
20
42.1959703
40
0.7971551
50
359.7768758
51
42.1436072
0
ARC
8
DEFAULT_255_2_778
10
14.0514782
20
42.2338788
40
0.7436889
50
41.9327014
51
89.8737509
0
ARC
8
DEFAULT_255_2_778
10
14.0648214
20
42.2094581
40
0.768197
50
90.8730151
51
175.0627552
0
ARC
8
DEFAULT_255_2_778
10
14.1172126
20
42.1930058
40
0.8218958
50
174.2343992
51
180.0097514
0
ARC
8
DEFAULT_255_2_778
10
14.0925867
20
42.1897729
40
0.7972759
50
179.7777162
51
222.1414196
0
ARC
8
DEFAULT_255_2_778
10
14.0547509
20
42.151835
40
0.7437709
50
221.9300285
51
269.8741254
0
ARC
8
DEFAULT_255_2_778
10
14.0479775
20
42.1618375
40
0.753789
50
270.3906469
51
332.9011285
0
ARC
8
DEFAULT_255_2_778
10
14.0503073
20
42.1733988
40
0.5766383
50
270.2493497
51
330.3649047
0
ARC
8
DEFAULT_255_2_778
10
14.0738266
20
41.8017117
40
0.2060198
50
188.4673322
51
264.146848
0
ARC
8
DEFAULT_255_2_778
10
14.1170452
20
41.8258502
40
0.2529285
50
180.0643852
51
192.4374066
0
ARC
8
DEFAULT_255_2_778
10
14.070552
20
42.5693297
40
0.2060435
50
102.2220352
51
182.5768883
0
ARC
8
DEFAULT_255_2_778
10
14.0532765
20
42.6035306
40
0.1692354
50
89.9863487
51
98.9553742
0
ARC
8
DEFAULT_255_2_778
10
14.0410627
20
42.5724487
40
0.2006917
50
358.1298546
51
86.4993767
0
ARC
8
DEFAULT_255_2_778
10
13.9951604
20
42.5600582
40
0.2465564
50
0.0018041
51
1.3574921
0
ARC
8
DEFAULT_255_2_778
10
18.8395085
20
42.1923122
40
1.0339085
50
353.7729731
51
0.0306848
0
ARC
8
DEFAULT_255_2_778
10
19.0763127
20
42.1959756
40
0.7971102
50
359.7764759
51
42.1460177
0
ARC
8
DEFAULT_255_2_778
10
19.1140101
20
42.2337511
40
0.7438166
50
41.9370909
51
89.8762358
0
ARC
8
DEFAULT_255_2_778
10
19.1273214
20
42.2094581
40
0.768197
50
90.8730151
51
175.0627552
0
ARC
8
DEFAULT_255_2_778
10
19.1797126
20
42.1930058
40
0.8218958
50
174.2343992
51
180.0097514
0
ARC
8
DEFAULT_255_2_778
10
19.1550867
20
42.1897729
40
0.7972759
50
179.7777162
51
222.1414196
0
ARC
8
DEFAULT_255_2_778
10
19.1172509
20
42.151835
40
0.7437709
50
221.9300285
51
269.8741254
0
ARC
8
DEFAULT_255_2_778
10
19.1104966
20
42.1622973
40
0.7542487
50
270.3889576
51
332.8797533
0
ARC
8
DEFAULT_255_2_778
10
19.1131073
20
42.1733988
40
0.5766383
50
270.2493497
51
330.3649047
0
ARC
8
DEFAULT_255_2_778
10
19.1366787
20
41.801307
40
0.2056225
50
188.7424888
51
264.120891
0
ARC
8
DEFAULT_255_2_778
10
19.180402
20
41.8258673
40
0.2531853
50
180.0682018
51
192.7352383
0
ARC
8
DEFAULT_255_2_778
10
19.1332623
20
42.569031
40
0.2062492
50
102.479692
51
182.5468765
0
ARC
8
DEFAULT_255_2_778
10
19.1155784
20
42.6040755
40
0.1684904
50
89.986931
51
99.1816697
0
ARC
8
DEFAULT_255_2_778
10
19.1031384
20
42.5718685
40
0.201085
50
358.3379179
51
86.4421934
0
ARC
8
DEFAULT_255_2_778
10
19.0609425
20
42.5598683
40
0.2432745
50
359.9994511
51
1.4527903
0
LINE
8
DEFAULT_255_2_778
10
20.0578169
20
41.5043659
11
20.5605169
21
41.5043659
0
LINE
8
DEFAULT_255_2_778
10
20.5605169
20
41.5043659
11
20.5605169
21
43.5239659
0
LINE
8
DEFAULT_255_2_778
10
20.5605169
20
43.5239659
11
20.0578169
21
43.5239659
0
LINE
8
DEFAULT_255_2_778
10
20.0578169
20
43.5239659
11
20.0578169
21
41.5043659
0
LINE
8
DEFAULT_255_2_778
10
20.0578169
20
41.5043659
11
20.0578169
21
41.5043659
0
LINE
8
DEFAULT_255_2_778
10
20.0578169
20
41.5043659
11
20.0578169
21
41.5043659
0
LINE
8
DEFAULT_255_2_778
10
21.2995169
20
43.5239659
11
21.2995169
21
41.5043659
0
LINE
8
DEFAULT_255_2_778
10
21.2995169
20
41.5043659
11
20.7970169
21
41.5043659
0
LINE
8
DEFAULT_255_2_778
10
20.7970169
20
41.5043659
11
20.7970169
21
43.5239659
0
LINE
8
DEFAULT_255_2_778
10
20.7970169
20
43.5239659
11
21.2995169
21
43.5239659
0
LINE
8
DEFAULT_255_2_778
10
21.2995169
20
43.5239659
11
21.2995169
21
43.5239659
0
LINE
8
DEFAULT_255_2_778
10
21.2995169
20
43.5239659
11
21.2995169
21
43.5239659
0
LINE
8
DEFAULT_255_2_778
10
9.1419169
20
42.7394659
11
8.7355169
21
42.7394659
0
LINE
8
DEFAULT_255_2_778
10
8.7355169
20
42.7394659
11
8.7355169
21
43.5239659
0
LINE
8
DEFAULT_255_2_778
10
8.7355169
20
43.5239659
11
8.0703169
21
43.5239659
0
LINE
8
DEFAULT_255_2_778
10
8.0703169
20
43.5239659
11
8.0703169
21
41.5043659
0
LINE
8
DEFAULT_255_2_778
10
8.0703169
20
41.5043659
11
8.7355169
21
41.5043659
0
LINE
8
DEFAULT_255_2_778
10
8.7355169
20
41.5043659
11
8.7355169
21
42.5058659
0
LINE
8
DEFAULT_255_2_778
10
8.7355169
20
42.5058659
11
9.1419169
21
42.5058659
0
LINE
8
DEFAULT_255_2_778
10
9.1419169
20
42.5058659
11
9.1419169
21
41.5043659
0
LINE
8
DEFAULT_255_2_778
10
9.1419169
20
41.5043659
11
9.8070169
21
41.5043659
0
LINE
8
DEFAULT_255_2_778
10
9.8070169
20
41.5043659
11
9.8070169
21
43.5239659
0
LINE
8
DEFAULT_255_2_778
10
9.8070169
20
43.5239659
11
9.1419169
21
43.5239659
0
LINE
8
DEFAULT_255_2_778
10
9.1419169
20
43.5239659
11
9.1419169
21
42.7394659
0
LINE
8
DEFAULT_255_2_778
10
9.1419169
20
42.7394659
11
9.1419169
21
42.7394659
0
LINE
8
DEFAULT_255_2_778
10
9.1419169
20
42.7394659
11
9.1419169
21
42.7394659
0
LINE
8
DEFAULT_255_2_778
10
12.2645169
20
42.7730659
11
12.2237169
21
42.9066659
0
LINE
8
DEFAULT_255_2_778
10
12.2237169
20
42.9066659
11
11.6768169
21
42.9066659
0
LINE
8
DEFAULT_255_2_778
10
11.6768169
20
42.9066659
11
11.6768169
21
41.5046659
0
LINE
8
DEFAULT_255_2_778
10
11.6768169
20
41.5046659
11
12.2237169
21
41.5046659
0
LINE
8
DEFAULT_255_2_778
10
12.2237169
20
41.5046659
11
12.2237169
21
42.3473659
0
LINE
8
DEFAULT_255_2_778
10
12.2237169
20
42.3473659
11
12.2237169
21
42.3473659
0
LINE
8
DEFAULT_255_2_778
10
12.5857169
20
42.4306659
11
12.5857169
21
42.4306659
0
LINE
8
DEFAULT_255_2_778
10
12.5857169
20
42.4306659
11
12.5857169
21
41.5043659
0
LINE
8
DEFAULT_255_2_778
10
12.5857169
20
41.5043659
11
13.1326169
21
41.5043659
0
LINE
8
DEFAULT_255_2_778
10
13.1326169
20
41.5043659
11
13.1326169
21
42.4140659
0
LINE
8
DEFAULT_255_2_778
10
13.1326169
20
42.4140659
11
13.1326169
21
42.4140659
0
LINE
8
DEFAULT_255_2_778
10
12.2642169
20
42.7727659
11
12.2642169
21
42.7727659
0
LINE
8
DEFAULT_255_2_778
10
12.2642169
20
42.7727659
11
12.2642169
21
42.7727659
0
LINE
8
DEFAULT_255_2_778
10
12.2642169
20
42.7727659
11
12.2642169
21
42.7727659
0
LINE
8
DEFAULT_255_2_778
10
12.2642169
20
42.7727659
11
12.2645169
21
42.7730659
0
LINE
8
DEFAULT_255_2_778
10
17.8816169
20
42.0928659
11
17.6265169
21
42.9064659
0
LINE
8
DEFAULT_255_2_778
10
17.6265169
20
42.9064659
11
17.2532169
21
42.9064659
0
LINE
8
DEFAULT_255_2_778
10
17.2532169
20
42.9064659
11
16.9981169
21
42.0594659
0
LINE
8
DEFAULT_255_2_778
10
16.9981169
20
42.0594659
11
16.7322169
21
42.9064659
0
LINE
8
DEFAULT_255_2_778
10
16.7322169
20
42.9064659
11
16.2113169
21
42.9064659
0
LINE
8
DEFAULT_255_2_778
10
16.2113169
20
42.9064659
11
16.2076169
21
42.9064659
0
LINE
8
DEFAULT_255_2_778
10
16.2076169
20
42.9064659
11
16.0007169
21
42.9064659
0
LINE
8
DEFAULT_255_2_778
10
16.0007169
20
42.9064659
11
15.7382169
21
42.1930659
0
LINE
8
DEFAULT_255_2_778
10
15.7382169
20
42.1930659
11
15.3688169
21
42.9064659
0
LINE
8
DEFAULT_255_2_778
10
15.3688169
20
42.9064659
11
14.7441169
21
42.9064659
0
LINE
8
DEFAULT_255_2_778
10
14.7441169
20
42.9064659
11
15.4794169
21
41.4877659
0
LINE
8
DEFAULT_255_2_778
10
15.4794169
20
41.4877659
11
15.3834169
21
41.2207659
0
LINE
8
DEFAULT_255_2_778
10
15.3834169
20
41.2207659
11
15.3834169
21
41.2207659
0
LINE
8
DEFAULT_255_2_778
10
15.6014169
20
41.2413659
11
15.6014169
21
41.2413659
0
LINE
8
DEFAULT_255_2_778
10
15.6014169
20
41.2413659
11
16.2091169
21
42.9005659
0
LINE
8
DEFAULT_255_2_778
10
16.2091169
20
42.9005659
11
16.6473169
21
41.5041659
0
LINE
8
DEFAULT_255_2_778
10
16.6473169
20
41.5041659
11
17.0463169
21
41.5041659
0
LINE
8
DEFAULT_255_2_778
10
17.0463169
20
41.5041659
11
17.2902169
21
42.3095659
0
LINE
8
DEFAULT_255_2_778
10
17.2902169
20
42.3095659
11
17.5416169
21
41.5041659
0
LINE
8
DEFAULT_255_2_778
10
17.5416169
20
41.5041659
11
17.9186169
21
41.5041659
0
LINE
8
DEFAULT_255_2_778
10
17.9186169
20
41.5041659
11
18.3435169
21
42.9061659
0
LINE
8
DEFAULT_255_2_778
10
18.3435169
20
42.9061659
11
18.1255169
21
42.9061659
0
LINE
8
DEFAULT_255_2_778
10
18.1255169
20
42.9061659
11
17.8816169
21
42.0925659
0
LINE
8
DEFAULT_255_2_778
10
17.8816169
20
42.0925659
11
17.8816169
21
42.0925659
0
LINE
8
DEFAULT_255_2_778
10
17.8816169
20
42.0925659
11
17.8816169
21
42.0925659
0
LINE
8
DEFAULT_255_2_778
10
17.8816169
20
42.0925659
11
17.8816169
21
42.0928659
0
LINE
8
DEFAULT_255_2_778
10
10.7495169
20
42.9775659
11
10.7495169
21
42.9775659
0
LINE
8
DEFAULT_255_2_778
10
10.7495169
20
42.9775659
11
10.7495169
21
42.9775659
0
LINE
8
DEFAULT_255_2_778
10
10.7495169
20
42.9775659
11
10.7495169
21
42.9775659
0
LINE
8
DEFAULT_255_2_778
10
10.7495169
20
42.9775659
11
10.7495169
21
42.9775659
0
LINE
8
DEFAULT_255_2_778
10
10.5611169
20
41.8258659
11
10.5611169
21
41.8258659
0
LINE
8
DEFAULT_255_2_778
10
10.5611169
20
41.8258659
11
10.5611169
21
42.5600659
0
LINE
8
DEFAULT_255_2_778
10
10.5611169
20
42.5600659
11
10.5611169
21
42.5600659
0
LINE
8
DEFAULT_255_2_778
10
10.9381169
20
42.5600659
11
10.9381169
21
42.5600659
0
LINE
8
DEFAULT_255_2_778
10
10.9381169
20
42.5600659
11
10.9381169
21
41.8258659
0
LINE
8
DEFAULT_255_2_778
10
10.9381169
20
41.8258659
11
10.9381169
21
41.8258659
0
LINE
8
DEFAULT_255_2_778
10
10.9381169
20
41.8258659
11
10.9381169
21
41.8258659
0
LINE
8
DEFAULT_255_2_778
10
10.9381169
20
41.8258659
11
10.9381169
21
41.8258659
0
LINE
8
DEFAULT_255_2_778
10
14.7190169
20
41.8184659
11
14.7190169
21
41.8184659
0
LINE
8
DEFAULT_255_2_778
10
14.7190169
20
41.8184659
11
14.5515169
21
41.8882659
0
LINE
8
DEFAULT_255_2_778
10
14.5515169
20
41.8882659
11
14.5515169
21
41.8882659
0
LINE
8
DEFAULT_255_2_778
10
13.8641169
20
41.8255659
11
13.8641169
21
41.8255659
0
LINE
8
DEFAULT_255_2_778
10
13.8641169
20
41.8255659
11
13.8641169
21
42.0801659
0
LINE
8
DEFAULT_255_2_778
10
13.8641169
20
42.0801659
11
14.8042169
21
42.0801659
0
LINE
8
DEFAULT_255_2_778
10
14.8042169
20
42.0801659
11
14.8042169
21
42.0801659
0
LINE
8
DEFAULT_255_2_778
10
14.8042169
20
42.0801659
11
14.8042169
21
42.0801659
0
LINE
8
DEFAULT_255_2_778
10
14.8042169
20
42.0801659
11
14.8047169
21
42.0801659
0
LINE
8
DEFAULT_255_2_778
10
14.2417169
20
42.5600659
11
14.2417169
21
42.5600659
0
LINE
8
DEFAULT_255_2_778
10
14.2417169
20
42.5600659
11
14.2417169
21
42.2804659
0
LINE
8
DEFAULT_255_2_778
10
14.2417169
20
42.2804659
11
13.8647169
21
42.2804659
0
LINE
8
DEFAULT_255_2_778
10
13.8647169
20
42.2804659
11
13.8647169
21
42.5600659
0
LINE
8
DEFAULT_255_2_778
10
13.8647169
20
42.5600659
11
13.8647169
21
42.5600659
0
LINE
8
DEFAULT_255_2_778
10
13.8647169
20
42.5600659
11
13.8647169
21
42.5600659
0
LINE
8
DEFAULT_255_2_778
10
13.8647169
20
42.5600659
11
13.8647169
21
42.5600659
0
LINE
8
DEFAULT_255_2_778
10
19.7818169
20
41.8184659
11
19.7818169
21
41.8184659
0
LINE
8
DEFAULT_255_2_778
10
19.7818169
20
41.8184659
11
19.6143169
21
41.8882659
0
LINE
8
DEFAULT_255_2_778
10
19.6143169
20
41.8882659
11
19.6143169
21
41.8882659
0
LINE
8
DEFAULT_255_2_778
10
18.9272169
20
41.8255659
11
18.9272169
21
41.8255659
0
LINE
8
DEFAULT_255_2_778
10
18.9272169
20
41.8255659
11
18.9272169
21
42.0801659
0
LINE
8
DEFAULT_255_2_778
10
18.9272169
20
42.0801659
11
19.8673169
21
42.0801659
0
LINE
8
DEFAULT_255_2_778
10
19.8673169
20
42.0801659
11
19.8673169
21
42.0801659
0
LINE
8
DEFAULT_255_2_778
10
19.8673169
20
42.0801659
11
19.8673169
21
42.0801659
0
LINE
8
DEFAULT_255_2_778
10
19.8673169
20
42.0801659
11
19.8673169
21
42.0801659
0
LINE
8
DEFAULT_255_2_778
10
19.3042169
20
42.5598659
11
19.3042169
21
42.5598659
0
LINE
8
DEFAULT_255_2_778
10
19.3042169
20
42.5598659
11
19.3042169
21
42.2804659
0
LINE
8
DEFAULT_255_2_778
10
19.3042169
20
42.2804659
11
18.9272169
21
42.2804659
0
LINE
8
DEFAULT_255_2_778
10
18.9272169
20
42.2804659
11
18.9272169
21
42.5600659
0
LINE
8
DEFAULT_255_2_778
10
18.9272169
20
42.5600659
11
18.9272169
21
42.5600659
0
LINE
8
DEFAULT_255_2_778
10
18.9272169
20
42.5600659
11
18.9272169
21
42.5600659
0
LINE
8
DEFAULT_255_2_778
10
18.9272169
20
42.5600659
11
18.9272169
21
42.5598659
0
LINE
8
DEFAULT_255_1_388
10
9.1635024
20
39.7018898
11
9.3875864
21
39.7018898
0
LINE
8
DEFAULT_255_1_388
10
9.3875864
20
39.7018898
11
9.8176831
21
38.6284553
0
LINE
8
DEFAULT_255_1_388
10
9.8176831
20
38.6284553
11
10.2477797
21
39.7018898
0
LINE
8
DEFAULT_255_1_388
10
10.2477797
20
39.7018898
11
10.4727673
21
39.7018898
0
LINE
8
DEFAULT_255_1_388
10
10.4727673
20
39.7018898
11
10.4727673
21
38.3863
0
LINE
8
DEFAULT_255_1_388
10
10.4727673
20
38.3863
11
10.2992829
21
38.3863
0
LINE
8
DEFAULT_255_1_388
10
10.2992829
20
38.3863
11
10.2992829
21
38.898621
0
LINE
8
DEFAULT_255_1_388
10
10.2992829
20
38.898621
11
10.3155471
21
39.4516025
0
LINE
8
DEFAULT_255_1_388
10
10.3155471
20
39.4516025
11
9.8836433
21
38.3863
0
LINE
8
DEFAULT_255_1_388
10
9.8836433
20
38.3863
11
9.7508193
21
38.3863
0
LINE
8
DEFAULT_255_1_388
10
9.7508193
20
38.3863
11
9.319819
21
39.4488918
0
LINE
8
DEFAULT_255_1_388
10
9.319819
20
39.4488918
11
9.3369868
21
38.898621
0
LINE
8
DEFAULT_255_1_388
10
9.3369868
20
38.898621
11
9.3369868
21
38.3863
0
LINE
8
DEFAULT_255_1_388
10
9.3369868
20
38.3863
11
9.1635024
21
38.3863
0
LINE
8
DEFAULT_255_1_388
10
9.1635024
20
38.3863
11
9.1635024
21
39.7018898
0
LINE
8
DEFAULT_255_1_388
10
11.5317448
20
38.3863
11
11.3564533
21
38.3863
0
LINE
8
DEFAULT_255_1_388
10
11.1676083
20
38.9790383
11
11.33025
21
38.9790383
0
LINE
8
DEFAULT_255_1_388
10
11.33025
20
38.9790383
11
11.33025
21
39.0558413
0
LINE
8
DEFAULT_255_1_388
10
10.9128032
20
39.0928874
11
10.7447402
21
39.0928874
0
LINE
8
DEFAULT_255_1_388
10
11.4974094
20
39.0648769
11
11.4974094
21
38.6149018
0
LINE
8
DEFAULT_255_1_388
10
11.5317448
20
38.400757
11
11.5317448
21
38.3863
0
LINE
8
DEFAULT_255_1_388
10
11.33025
20
38.66008
11
11.33025
21
38.8606713
0
LINE
8
DEFAULT_255_1_388
10
11.33025
20
38.8606713
11
11.1992331
21
38.8606713
0
ARC
8
DEFAULT_255_1_388
10
11.4733683
20
38.44301
40
0.1299428
50
197.0784902
51
205.8758668
0
ARC
8
DEFAULT_255_1_388
10
11.6128269
20
38.4871959
40
0.2762313
50
192.2927663
51
197.3441989
0
ARC
8
DEFAULT_255_1_388
10
11.8323774
20
38.535976
40
0.5011345
50
189.1573793
51
192.3977084
0
ARC
8
DEFAULT_255_1_388
10
12.1488621
20
38.5875878
40
0.8217995
50
186.8686098
51
189.1982636
0
ARC
8
DEFAULT_255_1_388
10
11.0433712
20
38.761626
40
0.3975173
50
294.0079259
51
316.7603918
0
ARC
8
DEFAULT_255_1_388
10
11.0578894
20
38.7411902
40
0.3729755
50
269.5043226
51
293.2478373
0
ARC
8
DEFAULT_255_1_388
10
11.0511946
20
38.7862915
40
0.4180772
50
255.4034155
51
270.4753052
0
ARC
8
DEFAULT_255_1_388
10
11.0253159
20
38.6858652
40
0.3143705
50
228.6141063
51
255.3550831
0
ARC
8
DEFAULT_255_1_388
10
10.9879141
20
38.650054
40
0.2628114
50
181.8954381
51
229.5703134
0
ARC
8
DEFAULT_255_1_388
10
11.0544077
20
38.6572824
40
0.329546
50
179.9848815
51
182.7691528
0
ARC
8
DEFAULT_255_1_388
10
11.0451144
20
38.6611827
40
0.3202753
50
161.0342928
51
180.6822077
0
ARC
8
DEFAULT_255_1_388
10
10.9956758
20
38.6740422
40
0.2693695
50
125.0525065
51
160.2034058
0
ARC
8
DEFAULT_255_1_388
10
11.070148
20
38.5724275
40
0.3953338
50
106.2670809
51
125.4300189
0
ARC
8
DEFAULT_255_1_388
10
11.1345521
20
38.3619795
40
0.6154041
50
95.4857579
51
106.5348562
0
ARC
8
DEFAULT_255_1_388
10
11.1652809
20
38.0807993
40
0.8982419
50
89.8515405
51
95.7222579
0
ARC
8
DEFAULT_255_1_388
10
11.093339
20
39.0578925
40
0.2369198
50
359.5039339
51
14.3181205
0
ARC
8
DEFAULT_255_1_388
10
11.1579395
20
39.0746862
40
0.170173
50
14.2184556
51
45.2028524
0
ARC
8
DEFAULT_255_1_388
10
11.1620091
20
39.0762862
40
0.1661795
50
45.8098216
51
73.0032926
0
ARC
8
DEFAULT_255_1_388
10
11.1339917
20
38.990626
40
0.2562942
50
72.6112517
51
85.7231489
0
ARC
8
DEFAULT_255_1_388
10
11.1238701
20
38.8879339
40
0.3594635
50
85.335019
51
90.0855069
0
ARC
8
DEFAULT_255_1_388
10
11.1212135
20
38.9543472
40
0.2930574
50
89.5854741
51
103.459124
0
ARC
8
DEFAULT_255_1_388
10
11.1040674
20
39.0258134
40
0.2195632
50
103.448332
51
126.5403399
0
ARC
8
DEFAULT_255_1_388
10
11.077165
20
39.0602224
40
0.1759039
50
126.1730306
51
141.5008224
0
ARC
8
DEFAULT_255_1_388
10
11.0345965
20
39.0936266
40
0.1217955
50
141.3332087
51
180.3477313
0
ARC
8
DEFAULT_255_1_388
10
10.9587388
20
39.0916904
40
0.214002
50
151.6373605
51
179.6795088
0
ARC
8
DEFAULT_255_1_388
10
11.0264624
20
39.0579768
40
0.2896224
50
142.4981529
51
152.1330509
0
ARC
8
DEFAULT_255_1_388
10
11.0622629
20
39.0298781
40
0.3351307
50
120.8284906
51
142.4132156
0
ARC
8
DEFAULT_255_1_388
10
11.1090604
20
38.9566185
40
0.4220297
50
113.9634885
51
121.1871733
0
ARC
8
DEFAULT_255_1_388
10
11.1243913
20
38.9192705
40
0.4623867
50
93.3784336
51
113.8197902
0
ARC
8
DEFAULT_255_1_388
10
11.1330296
20
38.8331549
40
0.5488732
50
89.9745993
51
93.7488475
0
ARC
8
DEFAULT_255_1_388
10
11.1369542
20
38.8372587
40
0.5447818
50
79.1327128
51
90.3871707
0
ARC
8
DEFAULT_255_1_388
10
11.1735306
20
39.0200597
40
0.3583662
50
60.1434453
51
79.365517
0
ARC
8
DEFAULT_255_1_388
10
11.2024072
20
39.0755195
40
0.2959028
50
48.6191018
51
59.6466565
0
ARC
8
DEFAULT_255_1_388
10
11.2077784
20
39.0826356
40
0.2870136
50
9.0349502
51
48.4845487
0
ARC
8
DEFAULT_255_1_388
10
11.0867082
20
39.0562084
40
0.4107927
50
1.2091359
51
10.0234369
0
ARC
8
DEFAULT_255_1_388
10
12.356453
20
38.6121422
40
0.8590481
50
179.8159449
51
185.3205667
0
ARC
8
DEFAULT_255_1_388
10
12.0532376
20
38.5831945
40
0.5544553
50
185.2475628
51
192.7952551
0
ARC
8
DEFAULT_255_1_388
10
11.85502
20
38.5377024
40
0.3510853
50
192.7195981
51
202.9584216
0
ARC
8
DEFAULT_255_1_388
10
11.0790236
20
38.8074895
40
0.2937869
50
270.006916
51
300.503478
0
ARC
8
DEFAULT_255_1_388
10
11.0928171
20
38.7930888
40
0.2744162
50
299.5482616
51
315.609538
0
ARC
8
DEFAULT_255_1_388
10
11.1254467
20
38.7597072
40
0.2277499
50
315.8682065
51
334.0592465
0
ARC
8
DEFAULT_255_1_388
10
11.194344
20
38.07609
40
0.7845965
50
89.64297
51
97.2867877
0
ARC
8
DEFAULT_255_1_388
10
11.1447038
20
38.4477936
40
0.4096042
50
96.9938706
51
109.7783917
0
ARC
8
DEFAULT_255_1_388
10
11.06985
20
38.6481851
40
0.1957225
50
109.0087985
51
135.3265591
0
ARC
8
DEFAULT_255_1_388
10
11.039092
20
38.6862764
40
0.1471704
50
137.4537784
51
182.1083946
0
ARC
8
DEFAULT_255_1_388
10
11.0811619
20
38.6790101
40
0.1891498
50
179.4390335
51
195.7201623
0
ARC
8
DEFAULT_255_1_388
10
11.0348654
20
38.6663585
40
0.1411576
50
195.8683556
51
230.157074
0
ARC
8
DEFAULT_255_1_388
10
11.0621377
20
38.6990228
40
0.1837102
50
230.1532486
51
259.7486257
0
ARC
8
DEFAULT_255_1_388
10
11.077742
20
38.7725472
40
0.258848
50
259.2461118
51
270.2915316
0
LINE
8
DEFAULT_255_1_388
10
12.4868125
20
39.0766232
11
12.3187495
21
39.0766232
0
LINE
8
DEFAULT_255_1_388
10
11.7187827
20
38.687187
11
11.8859421
21
38.687187
0
ARC
8
DEFAULT_255_1_388
10
12.1850785
20
38.6472935
40
0.1436198
50
359.3335374
51
18.5869869
0
ARC
8
DEFAULT_255_1_388
10
12.2085525
20
38.6535015
40
0.1194022
50
19.3538149
51
54.6486387
0
ARC
8
DEFAULT_255_1_388
10
12.1518512
20
38.5753077
40
0.2159877
50
54.3821575
51
65.0627557
0
ARC
8
DEFAULT_255_1_388
10
12.0653859
20
38.3934032
40
0.4173927
50
64.8282172
51
71.4204388
0
ARC
8
DEFAULT_255_1_388
10
11.9638755
20
38.0955782
40
0.7320403
50
71.3166092
51
75.8005927
0
ARC
8
DEFAULT_255_1_388
10
11.8692641
20
37.7310881
40
1.108605
50
75.6810806
51
78.0063886
0
ARC
8
DEFAULT_255_1_388
10
12.3697229
20
40.091253
40
1.3040363
50
254.69024
51
258.0465557
0
ARC
8
DEFAULT_255_1_388
10
12.2529098
20
39.6682742
40
0.8652254
50
249.9010634
51
254.7555005
0
ARC
8
DEFAULT_255_1_388
10
12.140015
20
39.361668
40
0.5384962
50
243.3097375
51
249.970939
0
ARC
8
DEFAULT_255_1_388
10
12.0692565
20
39.2205721
40
0.380652
50
234.4047808
51
243.2861752
0
ARC
8
DEFAULT_255_1_388
10
11.9992201
20
39.1238645
40
0.2612502
50
220.8665526
51
234.5497192
0
ARC
8
DEFAULT_255_1_388
10
11.9607199
20
39.0888203
40
0.2092097
50
214.3063391
51
220.5075055
0
ARC
8
DEFAULT_255_1_388
10
11.9578313
20
39.0853577
40
0.2048755
50
186.9131438
51
213.9617385
0
ARC
8
DEFAULT_255_1_388
10
12.0176703
20
39.0950431
40
0.2654563
50
179.8802037
51
187.4338578
0
ARC
8
DEFAULT_255_1_388
10
12.0002667
20
39.0973049
40
0.2480581
50
132.0053393
51
180.3942351
0
ARC
8
DEFAULT_255_1_388
10
12.0741581
20
39.0290997
40
0.3483116
50
129.2317021
51
133.5294826
0
ARC
8
DEFAULT_255_1_388
10
12.0801549
20
39.0185383
40
0.360291
50
100.440976
51
128.9081567
0
ARC
8
DEFAULT_255_1_388
10
12.1109667
20
38.8739357
40
0.5080996
50
89.6985063
51
100.9029043
0
ARC
8
DEFAULT_255_1_388
10
12.1173822
20
38.8558739
40
0.5261675
50
77.6967144
51
90.4074623
0
ARC
8
DEFAULT_255_1_388
10
12.1546174
20
39.0164503
40
0.3613511
50
50.7278431
51
78.0397473
0
ARC
8
DEFAULT_255_1_388
10
12.2046217
20
39.0747173
40
0.2845966
50
25.754382
51
51.0957456
0
ARC
8
DEFAULT_255_1_388
10
12.2047584
20
39.0803311
40
0.2820785
50
359.2468358
51
24.7393861
0
ARC
8
DEFAULT_255_1_388
10
12.1727471
20
39.0771204
40
0.1460032
50
359.8048924
51
45.1543866
0
ARC
8
DEFAULT_255_1_388
10
12.1269205
20
39.0379291
40
0.2061641
50
43.8053172
51
49.625485
0
ARC
8
DEFAULT_255_1_388
10
12.1278648
20
39.0380849
40
0.2054344
50
49.7979696
51
82.121802
0
ARC
8
DEFAULT_255_1_388
10
12.114473
20
38.9653473
40
0.2793404
50
81.4458692
51
90.1707936
0
ARC
8
DEFAULT_255_1_388
10
12.1117307
20
38.9061478
40
0.3385438
50
89.6768097
51
99.1267111
0
ARC
8
DEFAULT_255_1_388
10
12.0924289
20
39.0224405
40
0.2206627
50
98.9679878
51
113.4573418
0
ARC
8
DEFAULT_255_1_388
10
12.0703969
20
39.0751193
40
0.1635691
50
113.7230234
51
127.4758155
0
ARC
8
DEFAULT_255_1_388
10
12.0514552
20
39.0976433
40
0.1341757
50
126.9086647
51
150.3160891
0
ARC
8
DEFAULT_255_1_388
10
12.0460883
20
39.103368
40
0.1266992
50
151.363328
51
180.0701537
0
ARC
8
DEFAULT_255_1_388
10
12.0771103
20
39.101023
40
0.1577364
50
179.2045432
51
180.0012892
0
ARC
8
DEFAULT_255_1_388
10
12.0402215
20
39.0995515
40
0.1208564
50
179.3040542
51
198.4225767
0
ARC
8
DEFAULT_255_1_388
10
12.0186356
20
39.0939337
40
0.0986126
50
199.2893055
51
238.6036855
0
ARC
8
DEFAULT_255_1_388
10
12.0864449
20
39.2003752
40
0.2248082
50
237.9844191
51
246.8751643
0
ARC
8
DEFAULT_255_1_388
10
12.1829309
20
39.4210861
40
0.4656832
50
246.6226408
51
251.8174794
0
ARC
8
DEFAULT_255_1_388
10
12.2989777
20
39.7695909
40
0.8329993
50
251.7140983
51
255.0775146
0
ARC
8
DEFAULT_255_1_388
10
12.4339301
20
40.2722708
40
1.3534786
50
255.0370864
51
257.4701577
0
ARC
8
DEFAULT_255_1_388
10
11.8591846
20
37.6828535
40
1.298957
50
73.6835762
51
77.5015749
0
ARC
8
DEFAULT_255_1_388
10
11.981676
20
38.0990699
40
0.8650912
50
68.7042835
51
73.7249997
0
ARC
8
DEFAULT_255_1_388
10
12.0832324
20
38.3607853
40
0.584363
50
63.5907059
51
68.6622978
0
ARC
8
DEFAULT_255_1_388
10
12.1700065
20
38.5338157
40
0.3907955
50
54.7106507
51
63.7018033
0
ARC
8
DEFAULT_255_1_388
10
12.2402453
20
38.6319287
40
0.2701345
50
41.0624597
51
54.8488532
0
ARC
8
DEFAULT_255_1_388
10
12.2786231
20
38.6671439
40
0.2180695
50
34.4952722
51
40.7097584
0
ARC
8
DEFAULT_255_1_388
10
12.2839196
20
38.6726204
40
0.2106083
50
9.3761233
51
34.0834046
0
ARC
8
DEFAULT_255_1_388
10
12.2104325
20
38.6585174
40
0.2854177
50
359.7695264
51
9.7660556
0
ARC
8
DEFAULT_255_1_388
10
12.2326618
20
38.6536841
40
0.2632121
50
335.8653103
51
0.8022272
0
ARC
8
DEFAULT_255_1_388
10
12.2411023
20
38.6551951
40
0.2561728
50
307.7357819
51
334.7849324
0
ARC
8
DEFAULT_255_1_388
10
12.1965664
20
38.7051553
40
0.3229737
50
307.0217048
51
308.5596894
0
ARC
8
DEFAULT_255_1_388
10
12.1670249
20
38.7493063
40
0.3760237
50
282.9361285
51
306.5649033
0
ARC
8
DEFAULT_255_1_388
10
12.1263311
20
38.9143871
40
0.5460314
50
271.1026197
51
283.2199962
0
ARC
8
DEFAULT_255_1_388
10
12.1191499
20
39.0544744
40
0.6862456
50
269.9926344
51
271.4770056
0
ARC
8
DEFAULT_255_1_388
10
12.116207
20
38.9327633
40
0.5645418
50
259.0723633
51
270.2897324
0
ARC
8
DEFAULT_255_1_388
10
12.0923294
20
38.8070887
40
0.4366198
50
245.4965026
51
259.0225745
0
ARC
8
DEFAULT_255_1_388
10
12.0610511
20
38.7416491
40
0.3641037
50
228.9686619
51
245.7042678
0
ARC
8
DEFAULT_255_1_388
10
12.0311786
20
38.7048573
40
0.3167435
50
214.4015391
51
228.6759028
0
ARC
8
DEFAULT_255_1_388
10
11.9986283
20
38.6870429
40
0.2798456
50
179.9704983
51
215.1574389
0
ARC
8
DEFAULT_255_1_388
10
12.0774495
20
38.6953148
40
0.1916798
50
182.430239
51
203.0329751
0
ARC
8
DEFAULT_255_1_388
10
12.0567091
20
38.6889675
40
0.1701248
50
203.7987464
51
232.5483345
0
ARC
8
DEFAULT_255_1_388
10
12.0878175
20
38.7285049
40
0.2204299
50
232.3784541
51
256.3934343
0
ARC
8
DEFAULT_255_1_388
10
12.1137323
20
38.8286359
40
0.3238512
50
256.1048329
51
268.4627478
0
ARC
8
DEFAULT_255_1_388
10
12.1189742
20
38.9190297
40
0.4143627
50
268.0734924
51
270.0121004
0
ARC
8
DEFAULT_255_1_388
10
12.121046
20
38.8876191
40
0.3829573
50
269.7031202
51
278.8338867
0
ARC
8
DEFAULT_255_1_388
10
12.1415325
20
38.7604553
40
0.2541568
50
278.6727378
51
292.82331
0
ARC
8
DEFAULT_255_1_388
10
12.1640871
20
38.7040546
40
0.1934264
50
293.1457581
51
303.6656964
0
ARC
8
DEFAULT_255_1_388
10
12.1938944
20
38.6617159
40
0.1416713
50
303.1245849
51
321.7434683
0
ARC
8
DEFAULT_255_1_388
10
12.2148026
20
38.643378
40
0.1139081
50
322.4747616
51
1.1293039
0
LINE
8
DEFAULT_255_1_388
10
12.7732424
20
39.6006906
11
12.9404018
21
39.6006906
0
LINE
8
DEFAULT_255_1_388
10
12.9404018
20
39.6006906
11
12.9404018
21
39.3639567
0
LINE
8
DEFAULT_255_1_388
10
12.9404018
20
39.3639567
11
13.1229218
21
39.3639567
0
LINE
8
DEFAULT_255_1_388
10
13.1229218
20
39.3639567
11
13.1229218
21
39.234747
0
LINE
8
DEFAULT_255_1_388
10
13.1229218
20
39.234747
11
12.9404018
21
39.234747
0
LINE
8
DEFAULT_255_1_388
10
12.9404018
20
39.234747
11
12.9404018
21
38.6284553
0
LINE
8
DEFAULT_255_1_388
10
13.1274396
20
38.5218347
11
13.1274396
21
38.3863
0
LINE
8
DEFAULT_255_1_388
10
12.7732424
20
38.6284553
11
12.7732424
21
39.234747
0
LINE
8
DEFAULT_255_1_388
10
12.7732424
20
39.234747
11
12.5952402
21
39.234747
0
LINE
8
DEFAULT_255_1_388
10
12.5952402
20
39.234747
11
12.5952402
21
39.3639567
0
LINE
8
DEFAULT_255_1_388
10
12.5952402
20
39.3639567
11
12.7732424
21
39.3639567
0
LINE
8
DEFAULT_255_1_388
10
12.7732424
20
39.3639567
11
12.7732424
21
39.6006906
0
ARC
8
DEFAULT_255_1_388
10
13.1662526
20
38.6272842
40
0.2258538
50
179.7029045
51
187.9180047
0
ARC
8
DEFAULT_255_1_388
10
13.0823099
20
38.6152019
40
0.1410477
50
187.7540838
51
200.2454047
0
ARC
8
DEFAULT_255_1_388
10
13.0350005
20
38.5975591
40
0.0905561
50
200.1304287
51
219.1733455
0
ARC
8
DEFAULT_255_1_388
10
13.0197172
20
38.5871695
40
0.0721626
50
220.4434631
51
249.6169985
0
ARC
8
DEFAULT_255_1_388
10
13.0371398
20
38.6309919
40
0.1193141
50
249.1038184
51
262.7745376
0
ARC
8
DEFAULT_255_1_388
10
13.047058
20
38.7017481
40
0.1907583
50
262.4921618
51
270.2607019
0
ARC
8
DEFAULT_255_1_388
10
13.0467662
20
38.7259817
40
0.2149929
50
270.309081
51
275.6615459
0
ARC
8
DEFAULT_255_1_388
10
13.030707
20
38.8948342
40
0.3846066
50
275.5607354
51
279.087751
0
ARC
8
DEFAULT_255_1_388
10
12.9935002
20
39.1309428
40
0.6236283
50
279.0369545
51
281.5000133
0
ARC
8
DEFAULT_255_1_388
10
12.954427
20
39.3286499
40
0.825157
50
281.4217093
51
282.1031556
0
ARC
8
DEFAULT_255_1_388
10
12.9920245
20
38.8743229
40
0.5064619
50
275.2597791
51
285.5081125
0
ARC
8
DEFAULT_255_1_388
10
12.9989259
20
38.8117452
40
0.4435166
50
270.0268175
51
275.1130565
0
ARC
8
DEFAULT_255_1_388
10
12.996671
20
38.6624367
40
0.2942182
50
257.3572424
51
270.4795428
0
ARC
8
DEFAULT_255_1_388
10
12.9726981
20
38.5613952
40
0.1903838
50
230.8036715
51
257.7414447
0
ARC
8
DEFAULT_255_1_388
10
12.9650477
20
38.5490723
40
0.1760087
50
219.9745381
51
230.1985446
0
ARC
8
DEFAULT_255_1_388
10
13.0023764
20
38.5776116
40
0.2229598
50
196.5081334
51
219.4319996
0
ARC
8
DEFAULT_255_1_388
10
13.1166375
20
38.6134617
40
0.3427033
50
184.6408645
51
196.8266009
0
ARC
8
DEFAULT_255_1_388
10
13.2567281
20
38.627601
40
0.4834863
50
179.8987586
51
184.9677262
0
LINE
8
DEFAULT_255_1_388
10
13.2756242
20
38.8480214
11
13.2756242
21
38.8787426
0
LINE
8
DEFAULT_255_1_388
10
14.1050964
20
38.8968139
11
14.1050964
21
38.8272395
0
LINE
8
DEFAULT_255_1_388
10
14.1050964
20
38.8272395
11
13.4427836
21
38.8272395
0
LINE
8
DEFAULT_255_1_388
10
13.9903437
20
38.6365874
11
14.0924465
21
38.5570737
0
LINE
8
DEFAULT_255_1_388
10
13.448205
20
38.9645813
11
13.937937
21
38.9645813
0
LINE
8
DEFAULT_255_1_388
10
13.937937
20
38.9645813
11
13.937937
21
38.9772312
0
ARC
8
DEFAULT_255_1_388
10
13.7188003
20
38.860521
40
0.4923176
50
252.326534
51
270.5809615
0
ARC
8
DEFAULT_255_1_388
10
13.6957468
20
38.777194
40
0.4059384
50
223.3000488
51
251.8562489
0
ARC
8
DEFAULT_255_1_388
10
13.7195248
20
38.8002898
40
0.4390832
50
190.9374369
51
223.3654369
0
ARC
8
DEFAULT_255_1_388
10
13.9135925
20
38.8441598
40
0.63798
50
179.6531919
51
191.4988561
0
ARC
8
DEFAULT_255_1_388
10
13.9272953
20
38.8823571
40
0.6516811
50
167.4005523
51
180.3177836
0
ARC
8
DEFAULT_255_1_388
10
13.8089624
20
38.9073853
40
0.5307402
50
154.1835149
51
167.2508278
0
ARC
8
DEFAULT_255_1_388
10
13.7379215
20
38.9447925
40
0.4505076
50
134.3150225
51
154.5315008
0
ARC
8
DEFAULT_255_1_388
10
13.713455
20
38.966255
40
0.4180662
50
122.8617482
51
133.9707159
0
ARC
8
DEFAULT_255_1_388
10
13.7018157
20
38.9912882
40
0.3907416
50
89.8248474
51
123.4199325
0
ARC
8
DEFAULT_255_1_388
10
13.7074455
20
38.9185352
40
0.4635141
50
74.7874349
51
90.5482648
0
ARC
8
DEFAULT_255_1_388
10
13.7404919
20
39.0405987
40
0.3370565
50
39.8178888
51
74.7634383
0
ARC
8
DEFAULT_255_1_388
10
13.6828161
20
38.9956356
40
0.4101553
50
16.8990848
51
39.4830125
0
ARC
8
DEFAULT_255_1_388
10
13.4696775
20
38.9273711
40
0.6339427
50
4.9634768
51
17.2027767
0
ARC
8
DEFAULT_255_1_388
10
13.197618
20
38.89866
40
0.9074803
50
359.8834402
51
5.2832409
0
ARC
8
DEFAULT_255_1_388
10
13.8768538
20
38.8346981
40
0.4341343
50
180.9844233
51
194.9402766
0
ARC
8
DEFAULT_255_1_388
10
13.7587704
20
38.802417
40
0.3117211
50
194.8030557
51
222.0412897
0
ARC
8
DEFAULT_255_1_388
10
13.7245576
20
38.7684715
40
0.2635903
50
221.541578
51
268.8616004
0
ARC
8
DEFAULT_255_1_388
10
13.7327697
20
38.844528
40
0.3398611
50
267.7321071
51
270.009808
0
ARC
8
DEFAULT_255_1_388
10
13.734776
20
38.8672178
40
0.3625561
50
269.6921218
51
280.4122297
0
ARC
8
DEFAULT_255_1_388
10
13.7546172
20
38.7638767
40
0.2573323
50
280.2257165
51
298.633539
0
ARC
8
DEFAULT_255_1_388
10
13.7671585
20
38.7374578
40
0.2281403
50
299.0485543
51
300.4624141
0
ARC
8
DEFAULT_255_1_388
10
13.6912566
20
38.8639796
40
0.3756797
50
300.6578578
51
322.037749
0
ARC
8
DEFAULT_255_1_388
10
13.6542087
20
38.8963266
40
0.4247956
50
321.671786
51
322.3059078
0
ARC
8
DEFAULT_255_1_388
10
13.756565
20
38.7669267
40
0.3960488
50
276.9729088
51
328.0035579
0
ARC
8
DEFAULT_255_1_388
10
13.725412
20
38.9334609
40
0.5652345
50
269.8358003
51
278.0581296
0
ARC
8
DEFAULT_255_1_388
10
13.699842
20
39.017282
40
0.2274263
50
89.2017936
51
117.2852353
0
ARC
8
DEFAULT_255_1_388
10
13.705817
20
39.0125637
40
0.2343798
50
118.0546404
51
137.4544511
0
ARC
8
DEFAULT_255_1_388
10
13.7479814
20
38.9742556
40
0.2913471
50
137.5109688
51
158.8516701
0
ARC
8
DEFAULT_255_1_388
10
13.8759914
20
38.9225902
40
0.4293804
50
158.5845496
51
170.1719753
0
ARC
8
DEFAULT_255_1_388
10
14.007625
20
38.8964519
40
0.5635533
50
169.8378964
51
173.0563877
0
ARC
8
DEFAULT_255_1_388
10
13.4791534
20
38.9539187
40
0.4593755
50
2.9089079
51
12.88469
0
ARC
8
DEFAULT_255_1_388
10
13.6333453
20
38.9902082
40
0.3009753
50
12.6957404
51
28.6405841
0
ARC
8
DEFAULT_255_1_388
10
13.694295
20
39.0217577
40
0.232366
50
29.016559
51
41.1492981
0
ARC
8
DEFAULT_255_1_388
10
13.7170929
20
39.041608
40
0.2021373
50
41.1646967
51
85.001362
0
ARC
8
DEFAULT_255_1_388
10
13.7034933
20
38.9589775
40
0.2857091
50
83.728216
51
90.0968824
0
LINE
8
DEFAULT_255_1_388
10
14.7710234
20
39.3693781
11
14.7710234
21
39.213965
0
LINE
8
DEFAULT_255_1_388
10
14.4656186
20
39.0802375
11
14.4656186
21
38.3863
0
LINE
8
DEFAULT_255_1_388
10
14.4656186
20
38.3863
11
14.2984592
21
38.3863
0
LINE
8
DEFAULT_255_1_388
10
14.2984592
20
38.3863
11
14.2984592
21
39.3639567
0
LINE
8
DEFAULT_255_1_388
10
14.2984592
20
39.3639567
11
14.4611008
21
39.3639567
0
LINE
8
DEFAULT_255_1_388
10
14.4611008
20
39.3639567
11
14.4638115
21
39.2510112
0
ARC
8
DEFAULT_255_1_388
10
14.6960394
20
38.7573068
40
0.4627735
50
80.6751522
51
86.893806
0
ARC
8
DEFAULT_255_1_388
10
14.6892223
20
38.6481103
40
0.5721798
50
86.8046851
51
90.0423898
0
ARC
8
DEFAULT_255_1_388
10
14.6850643
20
38.9248197
40
0.2954939
50
89.2758283
51
106.6212906
0
ARC
8
DEFAULT_255_1_388
10
14.6620668
20
39.0084009
40
0.2088351
50
107.1347109
51
157.6456887
0
ARC
8
DEFAULT_255_1_388
10
14.738873
20
38.9656908
40
0.296292
50
155.6557383
51
157.256838
0
ARC
8
DEFAULT_255_1_388
10
14.7168344
20
39.0967472
40
0.296341
50
127.8167201
51
148.6300223
0
ARC
8
DEFAULT_255_1_388
10
14.6883091
20
39.1260066
40
0.2557782
50
91.3329934
51
126.7875218
0
ARC
8
DEFAULT_255_1_388
10
14.6968479
20
39.0456718
40
0.3363561
50
89.9858247
51
92.4688453
0
ARC
8
DEFAULT_255_1_388
10
14.6977972
20
39.0765114
40
0.3055179
50
85.3587643
51
90.1624243
0
ARC
8
DEFAULT_255_1_388
10
14.7073037
20
39.1894458
40
0.1921848
50
78.4019195
51
85.4592653
0
ARC
8
DEFAULT_255_1_388
10
14.7236098
20
39.2672142
40
0.1127267
50
67.7849217
51
78.573798
0
ARC
8
DEFAULT_255_1_388
10
14.7357732
20
39.2987374
40
0.0789473
50
63.4805074
51
67.3074739
0
LINE
8
DEFAULT_255_1_388
10
15.1252207
20
39.7018898
11
15.1252207
21
38.5281596
0
LINE
8
DEFAULT_255_1_388
10
15.1252207
20
38.5281596
11
15.7486801
21
38.5281596
0
LINE
8
DEFAULT_255_1_388
10
15.7486801
20
38.5281596
11
15.7486801
21
38.3863
0
LINE
8
DEFAULT_255_1_388
10
15.7486801
20
38.3863
11
14.9508327
21
38.3863
0
LINE
8
DEFAULT_255_1_388
10
14.9508327
20
38.3863
11
14.9508327
21
39.7018898
0
LINE
8
DEFAULT_255_1_388
10
14.9508327
20
39.7018898
11
15.1252207
21
39.7018898
0
LINE
8
DEFAULT_255_1_388
10
15.8760827
20
38.8724177
11
15.8760827
21
38.884164
0
LINE
8
DEFAULT_255_1_388
10
16.7660937
20
38.8760319
11
16.7660937
21
38.8642856
0
ARC
8
DEFAULT_255_1_388
10
16.5045272
20
38.887804
40
0.628455
50
166.3005265
51
180.3318609
0
ARC
8
DEFAULT_255_1_388
10
16.4074621
20
38.9095267
40
0.52901
50
153.8608648
51
166.0965672
0
ARC
8
DEFAULT_255_1_388
10
16.3325787
20
38.9496652
40
0.4441126
50
135.1317053
51
154.2534962
0
ARC
8
DEFAULT_255_1_388
10
16.3012438
20
38.9773431
40
0.4023863
50
121.7042632
51
134.7771455
0
ARC
8
DEFAULT_255_1_388
10
16.308787
20
38.9628469
40
0.4186852
50
93.4001111
51
121.5399523
0
ARC
8
DEFAULT_255_1_388
10
16.3194704
20
38.8698759
40
0.5121521
50
89.9706387
51
93.9763381
0
ARC
8
DEFAULT_255_1_388
10
16.3247689
20
38.9138563
40
0.4681988
50
71.3321659
51
90.6162917
0
ARC
8
DEFAULT_255_1_388
10
16.3430722
20
38.9816003
40
0.3981841
50
41.1813875
51
70.7072086
0
ARC
8
DEFAULT_255_1_388
10
16.2893439
20
38.932813
40
0.4707474
50
12.1971434
51
41.3446641
0
ARC
8
DEFAULT_255_1_388
10
16.0726702
20
38.8812328
40
0.6934429
50
359.5702713
51
12.5803533
0
ARC
8
DEFAULT_255_1_388
10
16.1259018
20
38.8607207
40
0.6402018
50
347.0196754
51
0.3190452
0
ARC
8
DEFAULT_255_1_388
10
16.2337072
20
38.8375189
40
0.5299421
50
334.350439
51
346.8460534
0
ARC
8
DEFAULT_255_1_388
10
16.3288318
20
38.7881244
40
0.4228234
50
310.4228125
51
334.8045131
0
ARC
8
DEFAULT_255_1_388
10
16.3380296
20
38.7809301
40
0.4113892
50
301.8488154
51
310.0972985
0
ARC
8
DEFAULT_255_1_388
10
16.3344037
20
38.7894573
40
0.4205483
50
274.3078723
51
301.6554173
0
ARC
8
DEFAULT_255_1_388
10
16.3219492
20
38.8881943
40
0.5199658
50
269.954904
51
274.859116
0
ARC
8
DEFAULT_255_1_388
10
16.3164316
20
38.8318239
40
0.4636233
50
250.8887647
51
270.6313164
0
ARC
8
DEFAULT_255_1_388
10
16.2995477
20
38.7689405
40
0.398705
50
221.1701369
51
250.2227012
0
ARC
8
DEFAULT_255_1_388
10
16.3540142
20
38.8185716
40
0.4723796
50
191.6263861
51
221.3526879
0
ARC
8
DEFAULT_255_1_388
10
16.5663988
20
38.8677203
40
0.6903321
50
179.6101251
51
192.0694841
0
ARC
8
DEFAULT_255_1_388
10
16.6140335
20
38.8606681
40
0.5698993
50
179.636304
51
190.6161344
0
ARC
8
DEFAULT_255_1_388
10
16.4292667
20
38.8246635
40
0.3816643
50
190.4136062
51
208.7168709
0
ARC
8
DEFAULT_255_1_388
10
16.3718701
20
38.7961905
40
0.3176572
50
209.187109
51
217.4221816
0
ARC
8
DEFAULT_255_1_388
10
16.3123172
20
38.7437729
40
0.2385702
50
216.1156863
51
265.2575395
0
ARC
8
DEFAULT_255_1_388
10
16.3212208
20
38.8082608
40
0.3035941
50
264.5891546
51
270.0602378
0
ARC
8
DEFAULT_255_1_388
10
16.3249405
20
38.7655539
40
0.2609091
50
269.2532353
51
291.8793864
0
ARC
8
DEFAULT_255_1_388
10
16.3282284
20
38.7455359
40
0.241148
50
292.9269367
51
323.1777736
0
ARC
8
DEFAULT_255_1_388
10
16.2811569
20
38.7868762
40
0.3036446
50
322.25666
51
323.087958
0
ARC
8
DEFAULT_255_1_388
10
16.2508827
20
38.8051332
40
0.3388345
50
323.6941379
51
343.8493587
0
ARC
8
DEFAULT_255_1_388
10
16.0733263
20
38.8591698
40
0.5244204
50
343.5746655
51
355.008149
0
ARC
8
DEFAULT_255_1_388
10
15.8474955
20
38.8825797
40
0.7514406
50
354.728272
51
0.1208026
0
ARC
8
DEFAULT_255_1_388
10
16.046398
20
38.8877947
40
0.5525482
50
359.6235211
51
11.2016685
0
ARC
8
DEFAULT_255_1_388
10
16.2189807
20
38.9233284
40
0.3763527
50
10.9991302
51
30.8317616
0
ARC
8
DEFAULT_255_1_388
10
16.2635111
20
38.9467988
40
0.3260975
50
31.3007463
51
37.395541
0
ARC
8
DEFAULT_255_1_388
10
16.319383
20
38.9939773
40
0.253082
50
36.5918894
51
62.2439906
0
ARC
8
DEFAULT_255_1_388
10
16.3246122
20
38.9936378
40
0.2509927
50
63.3364883
51
89.7193846
0
ARC
8
DEFAULT_255_1_388
10
16.3197575
20
38.9288375
40
0.3158485
50
88.8962924
51
90.004475
0
ARC
8
DEFAULT_255_1_388
10
16.3162003
20
38.9941071
40
0.250604
50
89.1923115
51
114.7099029
0
ARC
8
DEFAULT_255_1_388
10
16.3194344
20
38.9983675
40
0.2481307
50
115.7996284
51
142.2901353
0
ARC
8
DEFAULT_255_1_388
10
16.3662615
20
38.9564752
40
0.310833
50
141.4607507
51
142.383894
0
ARC
8
DEFAULT_255_1_388
10
16.3810467
20
38.9496449
40
0.3267335
50
143.0176473
51
163.2340089
0
ARC
8
DEFAULT_255_1_388
10
16.5585755
20
38.8934553
40
0.5129308
50
162.9446504
51
174.3733893
0
ARC
8
DEFAULT_255_1_388
10
16.7999728
20
38.8663483
40
0.75583
50
174.1225809
51
180.1563667
0
LINE
8
DEFAULT_255_1_388
10
17.6009873
20
39.255529
11
17.6091193
21
39.3639567
0
LINE
8
DEFAULT_255_1_388
10
17.6091193
20
39.3639567
11
17.7618217
21
39.3639567
0
LINE
8
DEFAULT_255_1_388
10
17.7618217
20
39.3639567
11
17.7618217
21
38.4097927
0
LINE
8
DEFAULT_255_1_388
10
16.9856599
20
38.1703481
11
17.0724021
21
38.2706438
0
LINE
8
DEFAULT_255_1_388
10
17.5937587
20
38.3998535
11
17.5937587
21
38.483885
0
LINE
8
DEFAULT_255_1_388
10
17.5937587
20
38.6537551
11
17.5937587
21
39.1001159
0
ARC
8
DEFAULT_255_1_388
10
17.7398565
20
38.888122
40
0.8039074
50
169.8802333
51
180.3464902
0
ARC
8
DEFAULT_255_1_388
10
17.4751371
20
38.937287
40
0.5346711
50
152.8534324
51
170.0824729
0
ARC
8
DEFAULT_255_1_388
10
17.3813766
20
38.9816868
40
0.4309932
50
142.0147746
51
152.418569
0
ARC
8
DEFAULT_255_1_388
10
17.3097215
20
39.0469169
40
0.3344504
50
94.3317494
51
143.2674518
0
ARC
8
DEFAULT_255_1_388
10
17.3214074
20
38.9588903
40
0.423138
50
89.9487512
51
95.0093077
0
ARC
8
DEFAULT_255_1_388
10
17.3260871
20
38.9768021
40
0.4052487
50
72.9496911
51
90.6081488
0
ARC
8
DEFAULT_255_1_388
10
17.3491595
20
39.0603718
40
0.3185963
50
37.7743532
51
72.5099202
0
ARC
8
DEFAULT_255_1_388
10
17.2456461
20
38.4054774
40
0.5161937
50
346.3655403
51
0.4789834
0
ARC
8
DEFAULT_255_1_388
10
17.3995294
20
38.3663644
40
0.3574311
50
314.3365584
51
346.6438898
0
ARC
8
DEFAULT_255_1_388
10
17.3880439
20
38.38249
40
0.3770042
50
280.7144
51
313.872307
0
ARC
8
DEFAULT_255_1_388
10
17.3503174
20
38.5506099
40
0.5492378
50
269.6628653
51
281.3208129
0
ARC
8
DEFAULT_255_1_388
10
17.3484834
20
38.5042105
40
0.5028309
50
245.5258654
51
269.8407328
0
ARC
8
DEFAULT_255_1_388
10
17.305568
20
38.4237065
40
0.4118207
50
232.6664457
51
246.3200328
0
ARC
8
DEFAULT_255_1_388
10
17.2510923
20
38.3514386
40
0.3213227
50
214.3036526
51
232.5750527
0
ARC
8
DEFAULT_255_1_388
10
17.3768956
20
38.5118259
40
0.3884393
50
218.381912
51
236.3657409
0
ARC
8
DEFAULT_255_1_388
10
17.3318725
20
38.4490326
40
0.3112322
50
236.8637655
51
270.6382272
0
ARC
8
DEFAULT_255_1_388
10
17.3380408
20
38.4862587
40
0.3484494
50
269.5557858
51
282.3972101
0
ARC
8
DEFAULT_255_1_388
10
17.3645994
20
38.3720767
40
0.2312324
50
282.043923
51
308.3079272
0
ARC
8
DEFAULT_255_1_388
10
17.3742108
20
38.356747
40
0.2132542
50
308.8347234
51
315.2037678
0
ARC
8
DEFAULT_255_1_388
10
17.3653817
20
38.3632123
40
0.2240808
50
315.6213011
51
345.6795376
0
ARC
8
DEFAULT_255_1_388
10
17.2552242
20
38.3938736
40
0.3384084
50
345.2627538
51
358.6311244
0
ARC
8
DEFAULT_255_1_388
10
17.1553748
20
38.3997581
40
0.4383839
50
358.1739988
51
0.0124651
0
ARC
8
DEFAULT_255_1_388
10
17.3447924
20
38.6991381
40
0.3291173
50
275.6950404
51
319.1537182
0
ARC
8
DEFAULT_255_1_388
10
17.3209555
20
38.8369049
40
0.4686772
50
269.8805882
51
276.9235205
0
ARC
8
DEFAULT_255_1_388
10
17.3149855
20
38.71199
40
0.3437976
50
244.0748846
51
270.8321697
0
ARC
8
DEFAULT_255_1_388
10
17.3234363
20
38.7142423
40
0.3495805
50
217.781776
51
242.9905232
0
ARC
8
DEFAULT_255_1_388
10
17.3909794
20
38.7743567
40
0.4398355
50
217.5209891
51
218.58043
0
ARC
8
DEFAULT_255_1_388
10
17.4225633
20
38.792913
40
0.4762087
50
195.3497149
51
216.9773048
0
ARC
8
DEFAULT_255_1_388
10
17.6501522
20
38.8590667
40
0.7131994
50
183.9387193
51
195.6348167
0
ARC
8
DEFAULT_255_1_388
10
17.9061717
20
38.8820646
40
0.9702086
50
179.929381
51
184.2551265
0
ARC
8
DEFAULT_255_1_388
10
17.7575383
20
38.8608515
40
0.6535206
50
179.6989243
51
188.5749266
0
ARC
8
DEFAULT_255_1_388
10
17.5310574
20
38.8254789
40
0.4242988
50
188.4117627
51
202.0559679
0
ARC
8
DEFAULT_255_1_388
10
17.4220834
20
38.7826952
40
0.3072368
50
202.2924994
51
215.4475859
0
ARC
8
DEFAULT_255_1_388
10
17.3495905
20
38.7265576
40
0.2156547
50
214.4673097
51
264.3362727
0
ARC
8
DEFAULT_255_1_388
10
17.3610573
20
38.7981673
40
0.2880794
50
263.4723224
51
270.0965288
0
ARC
8
DEFAULT_255_1_388
10
17.3655808
20
38.7813896
40
0.2713313
50
269.1472473
51
291.7978484
0
ARC
8
DEFAULT_255_1_388
10
17.3726069
20
38.7500081
40
0.2396396
50
293.0243185
51
327.6232391
0
ARC
8
DEFAULT_255_1_388
10
17.2929502
20
38.8082435
40
0.3381603
50
326.5171836
51
332.8160011
0
ARC
8
DEFAULT_255_1_388
10
17.3324684
20
38.9612272
40
0.29591
50
27.9928465
51
47.6314088
0
ARC
8
DEFAULT_255_1_388
10
17.3731389
20
38.9999256
40
0.2399437
50
48.5793547
51
88.6245273
0
ARC
8
DEFAULT_255_1_388
10
17.3634507
20
38.9159448
40
0.3242237
50
87.2690754
51
90.0178312
0
ARC
8
DEFAULT_255_1_388
10
17.3602206
20
38.9897957
40
0.2503923
50
89.2839515
51
110.1847982
0
ARC
8
DEFAULT_255_1_388
10
17.3533007
20
39.0197002
40
0.2199699
50
111.180781
51
145.0423499
0
ARC
8
DEFAULT_255_1_388
10
17.3893868
20
38.9884759
40
0.2674811
50
143.9895932
51
144.106678
0
ARC
8
DEFAULT_255_1_388
10
17.4263939
20
38.966319
40
0.3104736
50
144.7981654
51
162.8715843
0
ARC
8
DEFAULT_255_1_388
10
17.6170538
20
38.9050138
40
0.5107383
50
162.598526
51
173.3417416
0
ARC
8
DEFAULT_255_1_388
10
17.9171911
20
38.8677767
40
0.8131718
50
173.1877249
51
180.2459848
0
LINE
8
DEFAULT_255_1_388
10
18.1955327
20
39.3639567
11
18.1955327
21
38.3863
0
LINE
8
DEFAULT_255_1_388
10
18.1955327
20
38.3863
11
18.0283732
21
38.3863
0
LINE
8
DEFAULT_255_1_388
10
18.0283732
20
38.3863
11
18.0283732
21
39.3639567
0
LINE
8
DEFAULT_255_1_388
10
18.0283732
20
39.3639567
11
18.1955327
21
39.3639567
0
ARC
8
DEFAULT_255_1_388
10
18.1249095
20
39.6243428
40
0.1100948
50
161.4148232
51
180.5532607
0
ARC
8
DEFAULT_255_1_388
10
18.1109404
20
39.6281875
40
0.0956324
50
138.1830164
51
160.9307633
0
ARC
8
DEFAULT_255_1_388
10
18.0985592
20
39.6389313
40
0.0792417
50
104.6371663
51
138.0036136
0
ARC
8
DEFAULT_255_1_388
10
18.110613
20
39.5976963
40
0.1221906
50
92.0601206
51
105.2198859
0
ARC
8
DEFAULT_255_1_388
10
18.1132494
20
39.5588583
40
0.161103
50
89.9790681
51
92.5006086
0
ARC
8
DEFAULT_255_1_388
10
18.1143671
20
39.5844998
40
0.1354654
50
78.0234649
51
90.4478111
0
ARC
8
DEFAULT_255_1_388
10
18.1247255
20
39.6310203
40
0.0878096
50
55.0521508
51
78.336297
0
ARC
8
DEFAULT_255_1_388
10
18.1303789
20
39.6405168
40
0.0767913
50
42.0506198
51
54.4508489
0
ARC
8
DEFAULT_255_1_388
10
18.1151822
20
39.6265821
40
0.0974091
50
1.7493657
51
42.1498724
0
ARC
8
DEFAULT_255_1_388
10
18.0865728
20
39.6233166
40
0.1261276
50
359.9832635
51
2.8353994
0
ARC
8
DEFAULT_255_1_388
10
18.1052138
20
39.6222412
40
0.1074916
50
342.1062453
51
0.5535864
0
ARC
8
DEFAULT_255_1_388
10
18.1212562
20
39.6178197
40
0.0908695
50
316.7110111
51
341.6513114
0
ARC
8
DEFAULT_255_1_388
10
18.1287994
20
39.6110607
40
0.0807447
50
285.4398289
51
316.5320129
0
ARC
8
DEFAULT_255_1_388
10
18.1164164
20
39.6522023
40
0.1237022
50
272.3543902
51
285.8951677
0
ARC
8
DEFAULT_255_1_388
10
18.1133875
20
39.6937742
40
0.1653687
50
269.9725761
51
272.8112722
0
ARC
8
DEFAULT_255_1_388
10
18.1122927
20
39.6686727
40
0.1402709
50
258.8433431
51
270.4148607
0
ARC
8
DEFAULT_255_1_388
10
18.1021706
20
39.6196739
40
0.0902407
50
238.54281
51
259.1289544
0
ARC
8
DEFAULT_255_1_388
10
18.0945028
20
39.6057694
40
0.0743817
50
222.5056676
51
237.9918132
0
ARC
8
DEFAULT_255_1_388
10
18.1088622
20
39.6188295
40
0.0937918
50
184.1070774
51
222.4604165
0
ARC
8
DEFAULT_255_1_388
10
18.1391035
20
39.6231538
40
0.1242838
50
179.9419581
51
185.0970785
0
LINE
8
DEFAULT_255_1_388
10
19.0855437
20
38.6944155
11
19.2436674
21
38.6944155
0
LINE
8
DEFAULT_255_1_388
10
18.4196167
20
38.8660927
11
18.4196167
21
38.8941032
0
LINE
8
DEFAULT_255_1_388
10
19.2436674
20
39.0278308
11
19.0855437
21
39.0278308
0
LINE
8
DEFAULT_255_1_388
10
18.5867761
20
38.8877783
11
18.5867761
21
38.8561535
0
ARC
8
DEFAULT_255_1_388
10
18.8591993
20
38.7454109
40
0.2407783
50
269.0327343
51
309.2224588
0
ARC
8
DEFAULT_255_1_388
10
18.8827997
20
38.721219
40
0.207135
50
308.3965377
51
329.6987678
0
ARC
8
DEFAULT_255_1_388
10
18.8983055
20
38.7094899
40
0.1878439
50
330.4013397
51
355.3970937
0
ARC
8
DEFAULT_255_1_388
10
18.949704
20
38.7114312
40
0.2944555
50
329.2357424
51
356.6872018
0
ARC
8
DEFAULT_255_1_388
10
18.8878935
20
38.7441153
40
0.3643032
50
324.8702872
51
329.7911998
0
ARC
8
DEFAULT_255_1_388
10
18.8790217
20
38.7517113
40
0.3759315
50
298.8769973
51
324.7015261
0
ARC
8
DEFAULT_255_1_388
10
18.8416761
20
38.811229
40
0.4461015
50
296.902888
51
299.3854973
0
ARC
8
DEFAULT_255_1_388
10
18.8562758
20
38.7788595
40
0.4106323
50
269.8407861
51
297.1298875
0
ARC
8
DEFAULT_255_1_388
10
18.8502754
20
38.8506354
40
0.4824312
50
253.3156606
51
270.5771301
0
ARC
8
DEFAULT_255_1_388
10
18.8224932
20
38.7500943
40
0.3781531
50
221.1002518
51
252.9743523
0
ARC
8
DEFAULT_255_1_388
10
18.8742402
20
38.7945131
40
0.4463481
50
194.5394284
51
221.0302764
0
ARC
8
DEFAULT_255_1_388
10
19.0822222
20
38.8524897
40
0.6622359
50
182.0498004
51
194.8774376
0
ARC
8
DEFAULT_255_1_388
10
19.2815312
20
38.8657778
40
0.8619146
50
179.9790673
51
182.4586753
0
ARC
8
DEFAULT_255_1_388
10
19.0858626
20
38.8974412
40
0.6662543
50
168.615001
51
180.2870547
0
ARC
8
DEFAULT_255_1_388
10
18.9506534
20
38.9239636
40
0.5284705
50
154.9162417
51
168.5402053
0
ARC
8
DEFAULT_255_1_388
10
18.846981
20
38.9751942
40
0.4128641
50
133.5745308
51
155.2559538
0
ARC
8
DEFAULT_255_1_388
10
18.8286653
20
38.9908116
40
0.3889328
50
122.0165845
51
133.2056002
0
ARC
8
DEFAULT_255_1_388
10
18.8326977
20
38.9808977
40
0.3994808
50
97.8732516
51
121.753124
0
ARC
8
DEFAULT_255_1_388
10
18.8528436
20
38.861959
40
0.5200708
50
89.8471322
51
98.2768545
0
ARC
8
DEFAULT_255_1_388
10
18.8583284
20
38.9305809
40
0.4514657
50
73.3760755
51
90.5199878
0
ARC
8
DEFAULT_255_1_388
10
18.88042
20
39.011855
40
0.3672743
50
47.7085939
51
73.0510707
0
ARC
8
DEFAULT_255_1_388
10
18.8950302
20
39.0245231
40
0.3480795
50
3.7442743
51
48.0844373
0
ARC
8
DEFAULT_255_1_388
10
18.7838296
20
39.0067946
40
0.4603187
50
2.6192831
51
5.0424684
0
ARC
8
DEFAULT_255_1_388
10
18.8353768
20
39.0112986
40
0.2507126
50
3.78087
51
23.9354314
0
ARC
8
DEFAULT_255_1_388
10
18.8611027
20
39.0203644
40
0.2235311
50
24.4867863
51
46.9439952
0
ARC
8
DEFAULT_255_1_388
10
18.8611973
20
39.0229874
40
0.2215567
50
46.4987715
51
89.3298168
0
ARC
8
DEFAULT_255_1_388
10
18.8542631
20
38.9563742
40
0.2883121
50
88.1066411
51
90.0063536
0
ARC
8
DEFAULT_255_1_388
10
18.8511607
20
38.9621548
40
0.2825481
50
89.3773571
51
107.2070287
0
ARC
8
DEFAULT_255_1_388
10
18.8350876
20
39.0203667
40
0.2221946
50
107.688418
51
143.3582986
0
ARC
8
DEFAULT_255_1_388
10
18.898917
20
38.9724064
40
0.3020337
50
143.2845866
51
162.9352432
0
ARC
8
DEFAULT_255_1_388
10
19.0683186
20
38.9180401
40
0.4799362
50
162.6652705
51
174.0802646
0
ARC
8
DEFAULT_255_1_388
10
19.3093667
20
38.8900287
40
0.7225942
50
173.8422673
51
180.1784414
0
ARC
8
DEFAULT_255_1_388
10
19.2477337
20
38.8527276
40
0.6609665
50
179.7030218
51
188.2277356
0
ARC
8
DEFAULT_255_1_388
10
19.0112945
20
38.8173143
40
0.4218948
50
188.0630838
51
201.115837
0
ARC
8
DEFAULT_255_1_388
10
18.8877829
20
38.770173
40
0.2896941
50
201.2186162
51
216.9761863
0
ARC
8
DEFAULT_255_1_388
10
18.8369987
20
38.7321225
40
0.2262366
50
217.0136373
51
265.2055518
0
ARC
8
DEFAULT_255_1_388
10
18.8545324
20
38.8358503
40
0.3311837
50
263.6824874
51
270.1042034
0
LINE
8
DEFAULT_255_2_778
10
9.3932417
20
28.9719082
11
10.7161417
21
28.9719082
0
LINE
8
DEFAULT_255_2_778
10
10.7161417
20
28.9719082
11
10.7161417
21
19.7115082
0
LINE
8
DEFAULT_255_2_778
10
9.3932834
20
19.7114333
11
12.0390834
21
19.7114333
0
LINE
8
DEFAULT_255_2_778
10
12.0390834
20
19.7114333
11
12.0390834
21
14.4197333
0
LINE
8
DEFAULT_255_2_778
10
12.0390834
20
14.4197333
11
9.3932834
21
14.4197333
0
LINE
8
DEFAULT_255_2_778
10
9.3932834
20
14.4197333
11
9.3932834
21
19.7114333
0
ARC
8
DEFAULT_255_2_778_1
10
13.1928591
20
14.522177
40
4.816461
50
120.9442904
51
122.351755
0
ARC
8
DEFAULT_255_2_778_1
10
12.7462523
20
15.2258039
40
3.9830657
50
122.3407904
51
124.1946752
0
ARC
8
DEFAULT_255_2_778_1
10
12.3063464
20
15.8723306
40
3.2010724
50
124.1855758
51
126.4338849
0
ARC
8
DEFAULT_255_2_778_1
10
11.9204129
20
16.3950611
40
2.5513094
50
126.4326926
51
128.8877368
0
ARC
8
DEFAULT_255_2_778_1
10
11.5855968
20
16.8094658
40
2.0185498
50
128.8749205
51
131.8726567
0
ARC
8
DEFAULT_255_2_778_1
10
11.2884677
20
17.1404854
40
1.5737356
50
131.8616166
51
135.4168838
0
ARC
8
DEFAULT_255_2_778_1
10
11.025668
20
17.3986765
40
1.2053256
50
135.3893975
51
139.9687014
0
ARC
8
DEFAULT_255_2_778_1
10
10.7927889
20
17.5935102
40
0.9016937
50
139.9301659
51
145.9260426
0
ARC
8
DEFAULT_255_2_778_1
10
10.596654
20
17.7255104
40
0.6652776
50
145.8787362
51
153.8146208
0
ARC
8
DEFAULT_255_2_778_1
10
10.4445553
20
17.7998797
40
0.4959714
50
153.770634
51
164.3484794
0
ARC
8
DEFAULT_255_2_778_1
10
10.3432387
20
17.8280786
40
0.3908039
50
164.3220276
51
179.8083066
0
ARC
8
DEFAULT_255_2_778_1
10
10.3642789
20
17.836215
40
0.4118985
50
180.9499449
51
213.8111542
0
ARC
8
DEFAULT_255_2_778_1
10
10.6401828
20
18.0057896
40
0.73561
50
212.8271214
51
224.258472
0
ARC
8
DEFAULT_255_2_778_1
10
11.0230335
20
18.3751236
40
1.267567
50
224.1376218
51
231.4508261
0
ARC
8
DEFAULT_255_2_778_1
10
11.6657195
20
19.1781168
40
2.2960809
50
231.3955893
51
236.1256478
0
ARC
8
DEFAULT_255_2_778_1
10
13.4980223
20
21.9246293
40
5.5976905
50
236.2233172
51
239.1314682
0
ARC
8
DEFAULT_255_2_778_1
10
25.447927
20
41.6523568
40
28.6623793
50
238.8606853
51
239.0711101
0
ARC
8
DEFAULT_255_2_778_1
10
6.2757281
20
9.5552653
40
8.7248518
50
57.2420924
51
59.4062964
0
ARC
8
DEFAULT_255_2_778_1
10
9.5034241
20
14.5862102
40
2.747542
50
52.8289294
51
57.079028
0
ARC
8
DEFAULT_255_2_778_1
10
10.2780783
20
15.6065488
40
1.466457
50
46.3041868
51
52.8596521
0
ARC
8
DEFAULT_255_2_778_1
10
10.7103073
20
16.0566842
40
0.8424061
50
36.2174211
51
46.4090895
0
ARC
8
DEFAULT_255_2_778_1
10
10.9948088
20
16.2615128
40
0.4918609
50
17.400375
51
36.5489745
0
ARC
8
DEFAULT_255_2_778_1
10
11.1088994
20
16.3013754
40
0.3710912
50
0.0676858
51
16.7951297
0
ARC
8
DEFAULT_255_2_778_1
10
11.0878613
20
16.3032428
40
0.3921317
50
343.8035191
51
359.7912046
0
ARC
8
DEFAULT_255_2_778_1
10
10.9815912
20
16.3337167
40
0.5026844
50
333.2506233
51
343.8465691
0
ARC
8
DEFAULT_255_2_778_1
10
10.8277757
20
16.4104313
40
0.6745679
50
325.6600948
51
333.3122657
0
ARC
8
DEFAULT_255_2_778_1
10
10.6323344
20
16.5432296
40
0.9108568
50
319.7560915
51
325.6976089
0
ARC
8
DEFAULT_255_2_778_1
10
10.404199
20
16.7350002
40
1.2088854
50
315.4577584
51
319.8037947
0
ARC
8
DEFAULT_255_2_778_1
10
10.1408127
20
16.9938507
40
1.5781764
50
311.7298824
51
315.4670864
0
ARC
8
DEFAULT_255_2_778_1
10
9.8317879
20
17.3394074
40
2.0417554
50
308.723055
51
311.7470879
0
ARC
8
DEFAULT_255_2_778_1
10
9.477589
20
17.7806492
40
2.6075745
50
306.1165163
51
308.7300151
0
ARC
8
DEFAULT_255_2_778_1
10
9.0746091
20
18.3319523
40
3.2904564
50
303.9559446
51
306.1266333
0
ARC
8
DEFAULT_255_2_778_1
10
8.6630432
20
18.941215
40
4.0257023
50
302.3733397
51
303.9712246
0
ARC
8
DEFAULT_255_2_778_1
10
8.2434347
20
19.6027058
40
4.8090549
50
300.9434827
51
302.3758078
0
LINE
8
DEFAULT_255_2_778
10
10.7161417
20
14.4198082
11
10.7161417
21
5.1594082
0
LINE
8
DEFAULT_255_2_778
10
10.7161417
20
5.1594082
11
9.3932417
21
5.1594082
0
LINE
8
DEFAULT_255_1_388
10
4.1650903
20
37.7174898
11
4.1650903
21
36.5437596
0
LINE
8
DEFAULT_255_1_388
10
4.1650903
20
36.5437596
11
4.7885498
21
36.5437596
0
LINE
8
DEFAULT_255_1_388
10
4.7885498
20
36.5437596
11
4.7885498
21
36.4019
0
LINE
8
DEFAULT_255_1_388
10
4.7885498
20
36.4019
11
3.9907024
21
36.4019
0
LINE
8
DEFAULT_255_1_388
10
3.9907024
20
36.4019
11
3.9907024
21
37.7174898
0
LINE
8
DEFAULT_255_1_388
10
3.9907024
20
37.7174898
11
4.1650903
21
37.7174898
0
LINE
8
DEFAULT_255_1_388
10
5.4924265
20
37.7238148
11
5.4924265
21
36.4019
0
LINE
8
DEFAULT_255_1_388
10
5.4924265
20
36.4019
11
5.3243635
21
36.4019
0
LINE
8
DEFAULT_255_1_388
10
5.3243635
20
36.4019
11
5.3243635
21
37.515995
0
LINE
8
DEFAULT_255_1_388
10
5.3243635
20
37.515995
11
4.987334
21
37.3922066
0
LINE
8
DEFAULT_255_1_388
10
4.987334
20
37.3922066
11
4.987334
21
37.5440055
0
LINE
8
DEFAULT_255_1_388
10
4.987334
20
37.5440055
11
5.4662231
21
37.7238148
0
LINE
8
DEFAULT_255_1_388
10
5.4662231
20
37.7238148
11
5.4924265
21
37.7238148
0
LINE
8
DEFAULT_255_1_388
10
4.9834637
20
4.6519
11
4.8578682
21
4.9952545
0
LINE
8
DEFAULT_255_1_388
10
4.8578682
20
4.9952545
11
4.3066939
21
4.9952545
0
LINE
8
DEFAULT_255_1_388
10
4.3066939
20
4.9952545
11
4.1829056
21
4.6519
0
LINE
8
DEFAULT_255_1_388
10
4.1829056
20
4.6519
11
4.0039998
21
4.6519
0
LINE
8
DEFAULT_255_1_388
10
4.0039998
20
4.6519
11
4.5063816
21
5.9674898
0
LINE
8
DEFAULT_255_1_388
10
4.5063816
20
5.9674898
11
4.6581805
21
5.9674898
0
LINE
8
DEFAULT_255_1_388
10
4.6581805
20
5.9674898
11
5.1614659
21
4.6519
0
LINE
8
DEFAULT_255_1_388
10
5.1614659
20
4.6519
11
4.9834637
21
4.6519
0
LINE
8
DEFAULT_255_1_388
10
4.5822811
20
5.7533451
11
4.3591006
21
5.1380177
0
LINE
8
DEFAULT_255_1_388
10
4.3591006
20
5.1380177
11
4.806365
21
5.1380177
0
LINE
8
DEFAULT_255_1_388
10
4.806365
20
5.1380177
11
4.5822811
21
5.7533451
0
LINE
8
DEFAULT_255_1_388
10
5.5246988
20
5.9674898
11
5.5246988
21
4.6519
0
LINE
8
DEFAULT_255_1_388
10
5.5246988
20
4.6519
11
5.3512144
21
4.6519
0
LINE
8
DEFAULT_255_1_388
10
5.3512144
20
4.6519
11
5.3512144
21
5.9674898
0
LINE
8
DEFAULT_255_1_388
10
5.3512144
20
5.9674898
11
5.5246988
21
5.9674898
0
LINE
8
DEFAULT_255_1_388
10
6.0415376
20
5.2545775
11
6.0415376
21
5.3910157
0
LINE
8
DEFAULT_255_1_388
10
6.0415376
20
5.3910157
11
6.1671331
21
5.3910157
0
LINE
8
DEFAULT_255_1_388
10
5.9529883
20
5.6223282
11
5.7858289
21
5.6223282
0
LINE
8
DEFAULT_255_1_388
10
5.7740826
20
4.9988687
11
5.9421456
21
4.9988687
0
LINE
8
DEFAULT_255_1_388
10
6.1671331
20
5.2545775
11
6.0415376
21
5.2545775
0
ARC
8
DEFAULT_255_1_388
10
6.1638558
20
5.7726922
40
0.3816905
50
270.491971
51
281.8953028
0
ARC
8
DEFAULT_255_1_388
10
6.1909985
20
5.6487199
40
0.2547877
50
281.6690378
51
301.2943765
0
ARC
8
DEFAULT_255_1_388
10
6.2101436
20
5.6136926
40
0.2149197
50
301.7834992
51
311.754567
0
ARC
8
DEFAULT_255_1_388
10
6.2204477
20
5.602265
40
0.1995326
50
311.7325027
51
354.2803031
0
ARC
8
DEFAULT_255_1_388
10
6.1386893
20
5.616328
40
0.2823461
50
353.0941646
51
0.1174696
0
ARC
8
DEFAULT_255_1_388
10
6.0868451
20
5.6216874
40
0.3342238
50
359.1804452
51
15.0452323
0
ARC
8
DEFAULT_255_1_388
10
6.2382509
20
5.6658546
40
0.1765747
50
13.957816
51
77.6713812
0
ARC
8
DEFAULT_255_1_388
10
6.1947745
20
5.5100464
40
0.3381982
50
76.111571
51
90.7028736
0
ARC
8
DEFAULT_255_1_388
10
6.1881157
20
5.540825
40
0.3074046
50
89.5321574
51
103.5319393
0
ARC
8
DEFAULT_255_1_388
10
6.1655541
20
5.6307443
40
0.2147041
50
103.2930114
51
133.5619756
0
ARC
8
DEFAULT_255_1_388
10
6.1605482
20
5.6374351
40
0.2064084
50
133.8349761
51
173.5343225
0
ARC
8
DEFAULT_255_1_388
10
6.241914
20
5.6230144
40
0.2889266
50
172.5097183
51
180.1360699
0
ARC
8
DEFAULT_255_1_388
10
6.1348904
20
5.626888
40
0.3490913
50
155.3483706
51
180.7484035
0
ARC
8
DEFAULT_255_1_388
10
6.129388
20
5.6236519
40
0.3454798
50
131.5745177
51
154.4799474
0
ARC
8
DEFAULT_255_1_388
10
6.1646162
20
5.5880422
40
0.3955058
50
96.9874487
51
131.9690874
0
ARC
8
DEFAULT_255_1_388
10
6.1893055
20
5.4479407
40
0.537622
50
89.8592909
51
97.7827481
0
ARC
8
DEFAULT_255_1_388
10
6.1947164
20
5.418436
40
0.5671399
50
78.3654493
51
90.4132586
0
ARC
8
DEFAULT_255_1_388
10
6.2349805
20
5.6050918
40
0.3762034
50
56.6229818
51
78.6387103
0
ARC
8
DEFAULT_255_1_388
10
6.2591634
20
5.6473846
40
0.3275964
50
47.0254604
51
56.085558
0
ARC
8
DEFAULT_255_1_388
10
6.2613885
20
5.6518189
40
0.3228382
50
10.9207523
51
46.777927
0
ARC
8
DEFAULT_255_1_388
10
6.1079479
20
5.6163401
40
0.4802559
50
359.6364235
51
11.6087615
0
ARC
8
DEFAULT_255_1_388
10
6.3143645
20
5.6146404
40
0.273833
50
332.3549969
51
359.7179765
0
ARC
8
DEFAULT_255_1_388
10
6.2412045
20
5.6493285
40
0.3547505
50
325.2332381
51
332.8746682
0
ARC
8
DEFAULT_255_1_388
10
6.2583628
20
5.6373763
40
0.3338396
50
292.9803892
51
325.2391113
0
ARC
8
DEFAULT_255_1_388
10
6.2272824
20
5.6978679
40
0.4016959
50
292.542178
51
293.6931461
0
ARC
8
DEFAULT_255_1_388
10
6.2716396
20
4.9713036
40
0.372079
50
57.643292
51
72.8626085
0
ARC
8
DEFAULT_255_1_388
10
6.3115231
20
5.0359273
40
0.2961455
50
36.7246661
51
57.4701329
0
ARC
8
DEFAULT_255_1_388
10
6.3102387
20
5.037347
40
0.2963321
50
8.054535
51
36.3561529
0
ARC
8
DEFAULT_255_1_388
10
6.213206
20
5.0199073
40
0.3948682
50
359.8316595
51
8.5873361
0
ARC
8
DEFAULT_255_1_388
10
6.1709534
20
5.014497
40
0.4371398
50
343.9831631
51
0.557075
0
ARC
8
DEFAULT_255_1_388
10
6.2706584
20
4.9871963
40
0.3337749
50
311.6358204
51
343.7652116
0
ARC
8
DEFAULT_255_1_388
10
6.2280837
20
5.0351955
40
0.3979351
50
279.7829743
51
311.625622
0
ARC
8
DEFAULT_255_1_388
10
6.1941973
20
5.1968642
40
0.5630417
50
269.7285092
51
280.3857694
0
ARC
8
DEFAULT_255_1_388
10
6.1872286
20
5.1922241
40
0.5584119
50
256.6827433
51
270.4412869
0
ARC
8
DEFAULT_255_1_388
10
6.1491272
20
5.0364698
40
0.3980715
50
229.4223821
51
256.8554507
0
ARC
8
DEFAULT_255_1_388
10
6.1024825
20
4.9839683
40
0.3278564
50
181.8183354
51
229.6455015
0
ARC
8
DEFAULT_255_1_388
10
6.2194435
20
4.9986825
40
0.4453611
50
179.9760419
51
183.2330638
0
ARC
8
DEFAULT_255_1_388
10
6.2000987
20
4.9963781
40
0.2579652
50
179.4467996
51
196.2871626
0
ARC
8
DEFAULT_255_1_388
10
6.1452441
20
4.9813709
40
0.2011057
50
196.5661293
51
227.7059371
0
ARC
8
DEFAULT_255_1_388
10
6.1637048
20
5.0020155
40
0.2287994
50
227.7653015
51
257.8763321
0
ARC
8
DEFAULT_255_1_388
10
6.1890131
20
5.1080961
40
0.3378385
50
257.4583525
51
270.4267406
0
ARC
8
DEFAULT_255_1_388
10
6.1941381
20
5.140723
40
0.3704652
50
269.5965319
51
280.8788143
0
ARC
8
DEFAULT_255_1_388
10
6.2199609
20
5.0117529
40
0.2389415
50
280.6347277
51
299.8594068
0
ARC
8
DEFAULT_255_1_388
10
6.2414379
20
4.9709736
40
0.19289
50
300.3575552
51
314.5515667
0
ARC
8
DEFAULT_255_1_388
10
6.2321054
20
4.9778025
40
0.204312
50
315.0730962
51
345.0429362
0
ARC
8
DEFAULT_255_1_388
10
6.1282562
20
5.0080539
40
0.31246
50
344.598526
51
357.9270698
0
ARC
8
DEFAULT_255_1_388
10
6.0272867
20
5.0149705
40
0.4136265
50
357.4755098
51
0.0224936
0
ARC
8
DEFAULT_255_1_388
10
6.1425744
20
5.0177099
40
0.2983498
50
359.5051035
51
13.4236939
0
ARC
8
DEFAULT_255_1_388
10
6.2400834
20
5.0426637
40
0.1977186
50
12.9497905
51
48.7550905
0
ARC
8
DEFAULT_255_1_388
10
6.2195756
20
5.0146373
40
0.2323321
50
49.509109
51
72.1832965
0
ARC
8
DEFAULT_255_1_388
10
6.1793224
20
4.8951632
40
0.358397
50
71.9008458
51
84.3555134
0
ARC
8
DEFAULT_255_1_388
10
6.1611619
20
4.7419712
40
0.512641
50
84.019632
51
89.3326067
0
LINE
8
DEFAULT_255_1_388
10
4.9834637
20
12.5894
11
4.8578682
21
12.9327545
0
LINE
8
DEFAULT_255_1_388
10
4.8578682
20
12.9327545
11
4.3066939
21
12.9327545
0
LINE
8
DEFAULT_255_1_388
10
4.3066939
20
12.9327545
11
4.1829056
21
12.5894
0
LINE
8
DEFAULT_255_1_388
10
4.1829056
20
12.5894
11
4.0039998
21
12.5894
0
LINE
8
DEFAULT_255_1_388
10
4.0039998
20
12.5894
11
4.5063816
21
13.9049898
0
LINE
8
DEFAULT_255_1_388
10
4.5063816
20
13.9049898
11
4.6581805
21
13.9049898
0
LINE
8
DEFAULT_255_1_388
10
4.6581805
20
13.9049898
11
5.1614659
21
12.5894
0
LINE
8
DEFAULT_255_1_388
10
5.1614659
20
12.5894
11
4.9834637
21
12.5894
0
LINE
8
DEFAULT_255_1_388
10
4.5822811
20
13.6908451
11
4.3591006
21
13.0755177
0
LINE
8
DEFAULT_255_1_388
10
4.3591006
20
13.0755177
11
4.806365
21
13.0755177
0
LINE
8
DEFAULT_255_1_388
10
4.806365
20
13.0755177
11
4.5822811
21
13.6908451
0
LINE
8
DEFAULT_255_1_388
10
5.5246988
20
13.9049898
11
5.5246988
21
12.5894
0
LINE
8
DEFAULT_255_1_388
10
5.5246988
20
12.5894
11
5.3512144
21
12.5894
0
LINE
8
DEFAULT_255_1_388
10
5.3512144
20
12.5894
11
5.3512144
21
13.9049898
0
LINE
8
DEFAULT_255_1_388
10
5.3512144
20
13.9049898
11
5.5246988
21
13.9049898
0
LINE
8
DEFAULT_255_1_388
10
6.6604793
20
12.7258382
11
6.6604793
21
12.5894
0
LINE
8
DEFAULT_255_1_388
10
6.6604793
20
12.5894
11
5.7984788
21
12.5894
0
LINE
8
DEFAULT_255_1_388
10
5.7984788
20
12.5894
11
5.7984788
21
12.7095741
0
LINE
8
DEFAULT_255_1_388
10
5.7984788
20
12.7095741
11
6.2538753
21
13.2155702
0
LINE
8
DEFAULT_255_1_388
10
5.9403384
20
13.5173607
11
5.773179
21
13.5173607
0
LINE
8
DEFAULT_255_1_388
10
6.3523638
20
13.108046
11
5.9999737
21
12.7258382
0
LINE
8
DEFAULT_255_1_388
10
5.9999737
20
12.7258382
11
6.6604793
21
12.7258382
0
ARC
8
DEFAULT_255_1_388
10
4.7362812
20
14.5575983
40
2.0258655
50
318.5132526
51
320.7829045
0
ARC
8
DEFAULT_255_1_388
10
5.3310769
20
14.0734929
40
1.2589638
50
320.7372878
51
323.9739031
0
ARC
8
DEFAULT_255_1_388
10
5.7719701
20
13.7540554
40
0.7145141
50
323.8962701
51
328.64194
0
ARC
8
DEFAULT_255_1_388
10
6.0021959
20
13.6120545
40
0.4440242
50
328.8294576
51
331.7891185
0
ARC
8
DEFAULT_255_1_388
10
6.1144279
20
13.5541374
40
0.3177517
50
331.4254512
51
352.9365785
0
ARC
8
DEFAULT_255_1_388
10
6.1297279
20
13.550705
40
0.3021496
50
353.2257659
51
0.0166158
0
ARC
8
DEFAULT_255_1_388
10
6.1534039
20
13.5532894
40
0.2784847
50
359.486299
51
15.9343185
0
ARC
8
DEFAULT_255_1_388
10
6.2104306
20
13.5686269
40
0.2194403
50
16.1712913
51
43.5286088
0
ARC
8
DEFAULT_255_1_388
10
6.2191251
20
13.5773191
40
0.2071504
50
43.4417391
51
83.1661095
0
ARC
8
DEFAULT_255_1_388
10
6.2040412
20
13.4944316
40
0.2912888
50
82.160179
51
90.1505708
0
ARC
8
DEFAULT_255_1_388
10
6.2004893
20
13.4340279
40
0.3517025
50
89.5460741
51
102.5418361
0
ARC
8
DEFAULT_255_1_388
10
6.1731613
20
13.5499933
40
0.2325748
50
102.1738499
51
129.206123
0
ARC
8
DEFAULT_255_1_388
10
6.1643067
20
13.5639664
40
0.2161591
50
129.72865
51
135.753947
0
ARC
8
DEFAULT_255_1_388
10
6.1779549
20
13.5530728
40
0.2335433
50
136.1757367
51
166.3673339
0
ARC
8
DEFAULT_255_1_388
10
6.2912237
20
13.5227148
40
0.3507873
50
165.9090694
51
178.8684636
0
ARC
8
DEFAULT_255_1_388
10
6.3888009
20
13.5174263
40
0.4484624
50
178.4391136
51
180.0083808
0
ARC
8
DEFAULT_255_1_388
10
6.230871
20
13.5218197
40
0.4577138
50
163.2878482
51
180.5581842
0
ARC
8
DEFAULT_255_1_388
10
6.1406752
20
13.5466393
40
0.3641968
50
133.4540601
51
162.947111
0
ARC
8
DEFAULT_255_1_388
10
6.1607633
20
13.5252789
40
0.3935189
50
100.7869829
51
133.4382499
0
ARC
8
DEFAULT_255_1_388
10
6.1998878
20
13.3510399
40
0.5720313
50
89.660664
51
101.3702276
0
ARC
8
DEFAULT_255_1_388
10
6.2073487
20
13.3579263
40
0.5651495
50
78.2172678
51
90.412935
0
ARC
8
DEFAULT_255_1_388
10
6.2472953
20
13.5406511
40
0.378122
50
55.9269121
51
78.4888449
0
ARC
8
DEFAULT_255_1_388
10
6.2693668
20
13.5787187
40
0.3342379
50
47.929771
51
55.4049217
0
ARC
8
DEFAULT_255_1_388
10
6.2808198
20
13.5903618
40
0.3179217
50
4.334829
51
48.0560205
0
ARC
8
DEFAULT_255_1_388
10
6.1576
20
13.5712487
40
0.442341
50
359.9251713
51
5.5971671
0
ARC
8
DEFAULT_255_1_388
10
6.2058155
20
13.5775728
40
0.3941854
50
337.8914027
51
358.9967534
0
ARC
8
DEFAULT_255_1_388
10
5.9005725
20
13.6953295
40
0.7213271
50
326.9132501
51
338.3508308
0
ARC
8
DEFAULT_255_1_388
10
5.4521837
20
13.9827105
40
1.2538973
50
319.6471833
51
327.0959558
0
ARC
8
DEFAULT_255_1_388
10
5.0208495
20
14.338505
40
1.8129975
50
317.2588228
51
319.9045804
0
LINE
8
DEFAULT_255_1_388
10
4.9750637
20
20.5269
11
4.8494682
21
20.8702545
0
LINE
8
DEFAULT_255_1_388
10
4.8494682
20
20.8702545
11
4.2982939
21
20.8702545
0
LINE
8
DEFAULT_255_1_388
10
4.2982939
20
20.8702545
11
4.1745056
21
20.5269
0
LINE
8
DEFAULT_255_1_388
10
4.1745056
20
20.5269
11
3.9955998
21
20.5269
0
LINE
8
DEFAULT_255_1_388
10
3.9955998
20
20.5269
11
4.4979816
21
21.8424898
0
LINE
8
DEFAULT_255_1_388
10
4.4979816
20
21.8424898
11
4.6497805
21
21.8424898
0
LINE
8
DEFAULT_255_1_388
10
4.6497805
20
21.8424898
11
5.1530659
21
20.5269
0
LINE
8
DEFAULT_255_1_388
10
5.1530659
20
20.5269
11
4.9750637
21
20.5269
0
LINE
8
DEFAULT_255_1_388
10
4.5738811
20
21.6283451
11
4.3507006
21
21.0130177
0
LINE
8
DEFAULT_255_1_388
10
4.3507006
20
21.0130177
11
4.797965
21
21.0130177
0
LINE
8
DEFAULT_255_1_388
10
4.797965
20
21.0130177
11
4.5738811
21
21.6283451
0
LINE
8
DEFAULT_255_1_388
10
5.5162988
20
21.8424898
11
5.5162988
21
20.5269
0
LINE
8
DEFAULT_255_1_388
10
5.5162988
20
20.5269
11
5.3428144
21
20.5269
0
LINE
8
DEFAULT_255_1_388
10
5.3428144
20
20.5269
11
5.3428144
21
21.8424898
0
LINE
8
DEFAULT_255_1_388
10
5.3428144
20
21.8424898
11
5.5162988
21
21.8424898
0
LINE
8
DEFAULT_255_1_388
10
6.339446
20
21.8488148
11
6.339446
21
20.5269
0
LINE
8
DEFAULT_255_1_388
10
6.339446
20
20.5269
11
6.171383
21
20.5269
0
LINE
8
DEFAULT_255_1_388
10
6.171383
20
20.5269
11
6.171383
21
21.640995
0
LINE
8
DEFAULT_255_1_388
10
6.171383
20
21.640995
11
5.8343535
21
21.5172066
0
LINE
8
DEFAULT_255_1_388
10
5.8343535
20
21.5172066
11
5.8343535
21
21.6690055
0
LINE
8
DEFAULT_255_1_388
10
5.8343535
20
21.6690055
11
6.3132426
21
21.8488148
0
LINE
8
DEFAULT_255_1_388
10
6.3132426
20
21.8488148
11
6.339446
21
21.8488148
0
LINE
8
DEFAULT_255_1_388
10
4.9834637
20
28.4644
11
4.8578682
21
28.8077545
0
LINE
8
DEFAULT_255_1_388
10
4.8578682
20
28.8077545
11
4.3066939
21
28.8077545
0
LINE
8
DEFAULT_255_1_388
10
4.3066939
20
28.8077545
11
4.1829056
21
28.4644
0
LINE
8
DEFAULT_255_1_388
10
4.1829056
20
28.4644
11
4.0039998
21
28.4644
0
LINE
8
DEFAULT_255_1_388
10
4.0039998
20
28.4644
11
4.5063816
21
29.7799898
0
LINE
8
DEFAULT_255_1_388
10
4.5063816
20
29.7799898
11
4.6581805
21
29.7799898
0
LINE
8
DEFAULT_255_1_388
10
4.6581805
20
29.7799898
11
5.1614659
21
28.4644
0
LINE
8
DEFAULT_255_1_388
10
5.1614659
20
28.4644
11
4.9834637
21
28.4644
0
LINE
8
DEFAULT_255_1_388
10
4.5822811
20
29.5658451
11
4.3591006
21
28.9505177
0
LINE
8
DEFAULT_255_1_388
10
4.3591006
20
28.9505177
11
4.806365
21
28.9505177
0
LINE
8
DEFAULT_255_1_388
10
4.806365
20
28.9505177
11
4.5822811
21
29.5658451
0
LINE
8
DEFAULT_255_1_388
10
5.5246988
20
29.7799898
11
5.5246988
21
28.4644
0
LINE
8
DEFAULT_255_1_388
10
5.5246988
20
28.4644
11
5.3512144
21
28.4644
0
LINE
8
DEFAULT_255_1_388
10
5.3512144
20
28.4644
11
5.3512144
21
29.7799898
0
LINE
8
DEFAULT_255_1_388
10
5.3512144
20
29.7799898
11
5.5246988
21
29.7799898
0
LINE
8
DEFAULT_255_1_388
10
6.6234332
20
29.242369
11
6.6234332
21
29.0255135
0
LINE
8
DEFAULT_255_1_388
10
5.7930574
20
29.0029244
11
5.7930574
21
29.2261048
0
LINE
8
DEFAULT_255_1_388
10
6.4562737
20
28.9803353
11
6.4562737
21
29.2541153
0
LINE
8
DEFAULT_255_1_388
10
5.9602168
20
29.2667652
11
5.9602168
21
28.9993102
0
ARC
8
DEFAULT_255_1_388
10
5.2456666
20
29.0200118
40
1.3777776
50
353.8440855
51
0.2287917
0
ARC
8
DEFAULT_255_1_388
10
5.7675683
20
28.9617414
40
0.852639
50
344.4934746
51
353.9763743
0
ARC
8
DEFAULT_255_1_388
10
6.104249
20
28.8660191
40
0.5026273
50
329.2803599
51
344.7473406
0
ARC
8
DEFAULT_255_1_388
10
6.2157986
20
28.8048038
40
0.3754848
50
324.9361395
51
328.6153007
0
ARC
8
DEFAULT_255_1_388
10
6.2583636
20
28.7750586
40
0.3235566
50
280.5801797
51
324.9173226
0
ARC
8
DEFAULT_255_1_388
10
6.2132264
20
28.9630236
40
0.5167077
50
269.5979457
51
281.6732777
0
ARC
8
DEFAULT_255_1_388
10
6.2051168
20
28.9495113
40
0.5032026
50
256.6228565
51
270.5105488
0
ARC
8
DEFAULT_255_1_388
10
6.1598911
20
28.7753345
40
0.3233092
50
215.8618351
51
257.2787793
0
ARC
8
DEFAULT_255_1_388
10
6.2747618
20
28.8524106
40
0.4615831
50
197.9695203
51
215.2622745
0
ARC
8
DEFAULT_255_1_388
10
6.5543293
20
28.9467641
40
0.7566307
50
187.8816486
51
198.2346584
0
ARC
8
DEFAULT_255_1_388
10
6.9996531
20
29.0110453
40
1.2065653
50
180.8977266
51
188.0054894
0
ARC
8
DEFAULT_255_1_388
10
7.3046745
20
29.02254
40
1.5117443
50
180.7434591
51
181.152202
0
ARC
8
DEFAULT_255_1_388
10
7.1371741
20
29.2315371
40
1.3441277
50
173.7674302
51
180.2315596
0
ARC
8
DEFAULT_255_1_388
10
6.628961
20
29.2889779
40
0.8326847
50
164.3058537
51
173.9000553
0
ARC
8
DEFAULT_255_1_388
10
6.301361
20
29.3833652
40
0.4917711
50
148.7922028
51
164.5682288
0
ARC
8
DEFAULT_255_1_388
10
6.1944347
20
29.4430457
40
0.3694204
50
144.5883979
51
148.1161588
0
ARC
8
DEFAULT_255_1_388
10
6.1557093
20
29.4700667
40
0.322202
50
101.6440149
51
144.5142619
0
ARC
8
DEFAULT_255_1_388
10
6.2035285
20
29.2800337
40
0.5180451
50
89.528284
51
102.5820197
0
ARC
8
DEFAULT_255_1_388
10
6.2124277
20
29.2756376
40
0.5224441
50
77.0437914
51
90.508231
0
ARC
8
DEFAULT_255_1_388
10
6.2576531
20
29.4604272
40
0.3322297
50
48.2777708
51
77.4996087
0
ARC
8
DEFAULT_255_1_388
10
6.265827
20
29.4749557
40
0.315966
50
36.3141586
51
47.6307332
0
ARC
8
DEFAULT_255_1_388
10
6.1680993
20
29.4091159
40
0.4337313
50
18.2931065
51
35.6770203
0
ARC
8
DEFAULT_255_1_388
10
5.8819834
20
29.3109107
40
0.7362203
50
8.0246996
51
18.5605636
0
ARC
8
DEFAULT_255_1_388
10
5.4136189
20
29.2417432
40
1.2096583
50
1.127539
51
8.1718423
0
ARC
8
DEFAULT_255_1_388
10
5.0487322
20
29.2274374
40
1.5747719
50
0.5432713
51
1.38669
0
ARC
8
DEFAULT_255_1_388
10
5.2544701
20
29.2581163
40
1.2018103
50
359.8092569
51
4.9408001
0
ARC
8
DEFAULT_255_1_388
10
5.7281282
20
29.30039
40
0.7262727
50
4.8364937
51
12.2906017
0
ARC
8
DEFAULT_255_1_388
10
6.0380747
20
29.3694485
40
0.4087324
50
12.0806994
51
23.8171225
0
ARC
8
DEFAULT_255_1_388
10
6.1701143
20
29.4253508
40
0.2653719
50
24.2874621
51
31.3934353
0
ARC
8
DEFAULT_255_1_388
10
6.2291579
20
29.4639822
40
0.1948607
50
30.7407708
51
82.4658033
0
ARC
8
DEFAULT_255_1_388
10
6.208924
20
29.3646017
40
0.2961198
50
81.1057101
51
90.2187368
0
ARC
8
DEFAULT_255_1_388
10
6.2049052
20
29.3936421
40
0.2670929
50
89.380395
51
105.6763916
0
ARC
8
DEFAULT_255_1_388
10
6.1842774
20
29.468632
40
0.1893189
50
105.7980655
51
149.7387869
0
ARC
8
DEFAULT_255_1_388
10
6.3039914
20
29.3966719
40
0.3289892
50
149.4208441
51
163.628295
0
ARC
8
DEFAULT_255_1_388
10
6.5392144
20
29.3249345
40
0.5749004
50
163.3764549
51
172.141138
0
ARC
8
DEFAULT_255_1_388
10
6.9104865
20
29.2717582
40
0.9499585
50
172.0258462
51
178.0705453
0
ARC
8
DEFAULT_255_1_388
10
7.2526418
20
29.2555682
40
1.2924734
50
177.8639301
51
179.5036263
0
ARC
8
DEFAULT_255_1_388
10
7.1307436
20
28.9952151
40
1.170534
50
179.7995545
51
185.246089
0
ARC
8
DEFAULT_255_1_388
10
6.675903
20
28.9521404
40
0.7136613
50
185.1411911
51
193.0082205
0
ARC
8
DEFAULT_255_1_388
10
6.378529
20
28.8818441
40
0.4080987
50
192.7897338
51
205.2507384
0
ARC
8
DEFAULT_255_1_388
10
6.26075
20
28.8292538
40
0.2791522
50
205.8001921
51
211.2545876
0
ARC
8
DEFAULT_255_1_388
10
6.2019039
20
28.7898132
40
0.2084074
50
210.3789935
51
238.4007996
0
ARC
8
DEFAULT_255_1_388
10
6.1997125
20
28.7950786
40
0.2117943
50
239.6521916
51
265.9793852
0
ARC
8
DEFAULT_255_1_388
10
6.2092974
20
28.8707358
40
0.2879689
50
265.1324455
51
270.0603288
0
ARC
8
DEFAULT_255_1_388
10
6.2125351
20
28.8342418
40
0.2514919
50
269.3314378
51
287.2180039
0
ARC
8
DEFAULT_255_1_388
10
6.2280433
20
28.7776291
40
0.1928357
50
287.7957942
51
329.0808983
0
ARC
8
DEFAULT_255_1_388
10
6.1203191
20
28.8448651
40
0.319808
50
328.6635261
51
343.3325043
0
ARC
8
DEFAULT_255_1_388
10
5.8758649
20
28.9210195
40
0.5758408
50
343.0498092
51
351.9392499
0
ARC
8
DEFAULT_255_1_388
10
5.4857971
20
28.9785205
40
0.9701202
50
351.8071632
51
357.7957897
0
ARC
8
DEFAULT_255_1_388
10
5.1223448
20
28.9973724
40
1.3340376
50
357.5870923
51
359.2682493
0
LINE
8
DEFAULT_255_1_388
10
24.318491
20
37.7174898
11
24.318491
21
36.4019
0
LINE
8
DEFAULT_255_1_388
10
24.318491
20
36.4019
11
24.1441031
21
36.4019
0
LINE
8
DEFAULT_255_1_388
10
24.1441031
20
36.4019
11
23.4817903
21
37.4156993
0
LINE
8
DEFAULT_255_1_388
10
23.4817903
20
37.4156993
11
23.4817903
21
36.4019
0
LINE
8
DEFAULT_255_1_388
10
23.4817903
20
36.4019
11
23.3074024
21
36.4019
0
LINE
8
DEFAULT_255_1_388
10
23.3074024
20
36.4019
11
23.3074024
21
37.7174898
0
LINE
8
DEFAULT_255_1_388
10
23.3074024
20
37.7174898
11
23.4817903
21
37.7174898
0
LINE
8
DEFAULT_255_1_388
10
23.4817903
20
37.7174898
11
24.1459102
21
36.6991727
0
LINE
8
DEFAULT_255_1_388
10
24.1459102
20
36.6991727
11
24.1459102
21
37.7174898
0
LINE
8
DEFAULT_255_1_388
10
24.1459102
20
37.7174898
11
24.318491
21
37.7174898
0
ENDSEC
0
EOF