0
SECTION
2
HEADER
9
$MEASUREMENT
70
1
0
ENDSEC
0
SECTION
2
TABLES
0
TABLE
2
LTYPE
0
LTYPE
72
65
70
64
2
CONTINUOUS
3
______
73
0
40
0
0
ENDTAB
0
TABLE
2
LAYER
0
LAYER
2
DEFAULT_255_2_778
70
0
62
255
6
CONTINUOUS
0
ENDTAB
0
ENDSEC
0
SECTION
2
ENTITIES
0
LINE
8
DEFAULT_255_2_778
10
13.4567716
20
6.1816039
11
13.4567716
21
5.1667039
0
LINE
8
DEFAULT_255_2_778
10
13.4567716
20
5.1667039
11
11.6485716
21
5.1667039
0
LINE
8
DEFAULT_255_2_778
10
11.6485716
20
5.1667039
11
11.6485716
21
0.2496039
0
LINE
8
DEFAULT_255_2_778
10
11.6485716
20
0.2496039
11
10.5066716
21
0.2496039
0
LINE
8
DEFAULT_255_2_778
10
10.5066716
20
0.2496039
11
10.5066716
21
5.1346039
0
LINE
8
DEFAULT_255_2_778
10
10.5066716
20
5.1346039
11
8.6984716
21
5.1346039
0
LINE
8
DEFAULT_255_2_778
10
8.6984716
20
5.1346039
11
8.6984716
21
6.1816039
0
LINE
8
DEFAULT_255_2_778
10
8.6984716
20
6.1816039
11
13.4567716
21
6.1816039
0
LINE
8
DEFAULT_255_2_778
10
13.9329716
20
0.2179039
11
15.0749716
21
0.2179039
0
LINE
8
DEFAULT_255_2_778
10
15.0749716
20
0.2179039
11
15.0749716
21
6.1816039
0
LINE
8
DEFAULT_255_2_778
10
15.0749716
20
6.1816039
11
13.9329716
21
6.1816039
0
LINE
8
DEFAULT_255_2_778
10
13.9329716
20
6.1816039
11
13.9329716
21
3.1997039
0
LINE
8
DEFAULT_255_2_778
10
13.9329716
20
3.1997039
11
13.9329716
21
0.2179039
0
LINE
8
DEFAULT_255_2_778
10
21.0383716
20
0.2179039
11
19.8646716
21
0.2179039
0
LINE
8
DEFAULT_255_2_778
10
19.8646716
20
0.2179039
11
19.2614716
21
1.6768039
0
LINE
8
DEFAULT_255_2_778
10
19.2614716
20
1.6768039
11
17.2632716
21
1.6768039
0
LINE
8
DEFAULT_255_2_778
10
17.2632716
20
1.6768039
11
16.6288716
21
0.2179039
0
LINE
8
DEFAULT_255_2_778
10
16.6288716
20
0.2179039
11
15.4868716
21
0.2179039
0
LINE
8
DEFAULT_255_2_778
10
15.4868716
20
0.2179039
11
18.0247716
21
6.2451039
0
LINE
8
DEFAULT_255_2_778
10
18.0247716
20
6.2451039
11
18.5319716
21
6.2451039
0
LINE
8
DEFAULT_255_2_778
10
18.5319716
20
6.2451039
11
21.0383716
21
0.2179039
0
LINE
8
DEFAULT_255_2_778
10
26.5893716
20
0.2179039
11
25.4153716
21
0.2179039
0
LINE
8
DEFAULT_255_2_778
10
25.4153716
20
0.2179039
11
24.8126716
21
1.6768039
0
LINE
8
DEFAULT_255_2_778
10
24.8126716
20
1.6768039
11
22.8142716
21
1.6768039
0
LINE
8
DEFAULT_255_2_778
10
22.8142716
20
1.6768039
11
22.2117716
21
0.2179039
0
LINE
8
DEFAULT_255_2_778
10
22.2117716
20
0.2179039
11
21.0695716
21
0.2179039
0
LINE
8
DEFAULT_255_2_778
10
21.0695716
20
0.2179039
11
23.6074716
21
6.2451039
0
LINE
8
DEFAULT_255_2_778
10
23.6074716
20
6.2451039
11
24.1149716
21
6.2451039
0
LINE
8
DEFAULT_255_2_778
10
24.1149716
20
6.2451039
11
26.5893716
21
0.2179039
0
LINE
8
DEFAULT_255_2_778
10
18.8491716
20
2.6605039
11
18.2149716
21
4.1509039
0
LINE
8
DEFAULT_255_2_778
10
18.2149716
20
4.1509039
11
17.6125716
21
2.6605039
0
LINE
8
DEFAULT_255_2_778
10
17.6125716
20
2.6605039
11
18.8491716
21
2.6605039
0
LINE
8
DEFAULT_255_2_778
10
24.4001716
20
2.6605039
11
23.7979716
21
4.1509039
0
LINE
8
DEFAULT_255_2_778
10
23.7979716
20
4.1509039
11
23.1952716
21
2.6605039
0
LINE
8
DEFAULT_255_2_778
10
23.1952716
20
2.6605039
11
24.4001716
21
2.6605039
0
ARC
8
DEFAULT_255_2_778
10
4.4957483
20
1.7136907
40
1.8760242
50
270.4691139
51
314.5615707
0
ARC
8
DEFAULT_255_2_778
10
5.8535807
20
3.1073699
40
1.9011506
50
315.398231
51
341.8296702
0
ARC
8
DEFAULT_255_2_778
10
6.0523144
20
3.0508454
40
1.6947205
50
341.5501454
51
359.6782778
0
ARC
8
DEFAULT_255_2_778
10
3.379568
20
5.5963785
40
1.8542771
50
90.3046602
51
118.1076604
0
ARC
8
DEFAULT_255_2_778
10
3.3625152
20
5.6054224
40
1.8382974
50
117.7716458
51
134.7201045
0
ARC
8
DEFAULT_255_2_778
10
2.0267077
20
4.1496031
40
1.9006964
50
135.3980323
51
161.67321
0
ARC
8
DEFAULT_255_2_778
10
1.8328573
20
4.2048309
40
1.6993342
50
161.3857037
51
179.3450311
0
ARC
8
DEFAULT_255_2_778
10
1.6660808
20
4.215295
40
1.5324727
50
179.6649612
51
179.998715
0
LINE
8
DEFAULT_255_2_778
10
5.8121082
20
0.3770294
11
7.2072082
21
1.7724294
0
LINE
8
DEFAULT_255_2_778
10
7.7470082
20
3.0413294
11
7.7470082
21
7.4506294
0
LINE
8
DEFAULT_255_2_778
10
7.7470082
20
7.4506294
11
3.3697082
21
7.4506294
0
LINE
8
DEFAULT_255_2_778
10
2.0690082
20
6.9116294
11
0.6734082
21
5.4842294
0
LINE
8
DEFAULT_255_2_778
10
0.1336082
20
4.2153294
11
0.1336082
21
-0.1622706
0
LINE
8
DEFAULT_255_2_778
10
0.1336082
20
-0.1622706
11
4.5111082
21
-0.1622706
0
LINE
8
DEFAULT_255_2_778
10
4.5111082
20
-0.1622706
11
4.5111082
21
-0.1622706
0
ARC
8
DEFAULT_255_2_778
10
3.8701323
20
5.645589
40
1.4243075
50
89.7284249
51
89.9999672
0
ARC
8
DEFAULT_255_2_778
10
3.8703232
20
5.6488328
40
1.4210638
50
90.0076658
51
134.9940742
0
ARC
8
DEFAULT_255_2_778
10
3.8705311
20
5.6490406
40
1.4210638
50
135.0059258
51
179.9923342
0
ARC
8
DEFAULT_255_2_778
10
3.8737748
20
5.6492316
40
1.4243075
50
180.0000328
51
180.2715751
0
ARC
8
DEFAULT_255_2_778
10
5.9482388
20
3.6105363
40
1.4261717
50
269.7286017
51
269.9999672
0
ARC
8
DEFAULT_255_2_778
10
5.9482182
20
3.6050062
40
1.4206417
50
270.0007948
51
315.0011244
0
ARC
8
DEFAULT_255_2_778
10
5.9482577
20
3.6050456
40
1.4206417
50
314.9988756
51
359.9992052
0
ARC
8
DEFAULT_255_2_778
10
5.9427276
20
3.6050251
40
1.4261718
50
0.0000328
51
0.2713983
0
LINE
8
DEFAULT_255_2_778
10
2.4494833
20
5.6424805
11
2.4494833
21
5.1661805
0
LINE
8
DEFAULT_255_2_778
10
2.4494833
20
5.1661805
11
5.4657833
21
5.1661805
0
LINE
8
DEFAULT_255_2_778
10
5.4657833
20
5.1661805
11
5.4657833
21
2.1843805
0
LINE
8
DEFAULT_255_2_778
10
5.4657833
20
2.1843805
11
5.9414833
21
2.1843805
0
LINE
8
DEFAULT_255_2_778
10
7.3688833
20
3.6117805
11
7.3688833
21
7.0693805
0
LINE
8
DEFAULT_255_2_778
10
7.3688833
20
7.0693805
11
3.8768833
21
7.0698805
0
ARC
8
DEFAULT_255_2_778
10
5.8116199
20
3.9669007
40
2.204469
50
282.5173553
51
296.5010502
0
ARC
8
DEFAULT_255_2_778
10
5.8984858
20
3.5666209
40
1.7948777
50
270.2745132
51
282.5797191
0
ARC
8
DEFAULT_255_2_778
10
4.5492554
20
1.616865
40
1.3677148
50
269.7457105
51
317.5462003
0
LINE
8
DEFAULT_255_2_778
10
5.9070853
20
1.7717637
11
2.0690853
21
1.7717637
0
LINE
8
DEFAULT_255_2_778
10
2.0690853
20
1.7717637
11
0.5463853
21
0.2491637
0
LINE
8
DEFAULT_255_2_778
10
0.5463853
20
0.2491637
11
4.5431853
21
0.2491637
0
LINE
8
DEFAULT_255_2_778
10
5.5583853
20
0.6936637
11
6.8587853
21
1.9937637
0
LINE
8
DEFAULT_255_2_778
10
6.8587853
20
1.9937637
11
6.7952853
21
1.9940637
0
ARC
8
DEFAULT_255_2_778
10
3.652848
20
5.6982115
40
1.5799553
50
149.5512486
51
177.4170304
0
ARC
8
DEFAULT_255_2_778
10
4.3509065
20
5.6125098
40
2.2818095
50
176.0570587
51
179.9586139
0
ARC
8
DEFAULT_255_2_778
10
4.2839398
20
5.6113303
40
2.214844
50
179.9268499
51
180.00385
0
ARC
8
DEFAULT_255_2_778
10
1.7023159
20
4.3114749
40
1.1599158
50
179.9947538
51
184.7570808
0
ARC
8
DEFAULT_255_2_778
10
1.7827414
20
4.3026587
40
1.2403734
50
131.6018087
51
179.5878489
0
LINE
8
DEFAULT_255_2_778
10
2.0690958
20
5.6111815
11
2.0690958
21
1.7408815
0
LINE
8
DEFAULT_255_2_778
10
2.0690958
20
1.7408815
11
0.5463958
21
0.2181815
0
LINE
8
DEFAULT_255_2_778
10
0.5463958
20
0.2181815
11
0.5463958
21
4.2152815
0
LINE
8
DEFAULT_255_2_778
10
0.9591958
20
5.2301815
11
2.2595958
21
6.5303815
0
LINE
8
DEFAULT_255_2_778
10
2.2595958
20
6.5303815
11
2.2907958
21
6.4988815
0
ENDSEC
0
EOF