0
SECTION
2
HEADER
9
$MEASUREMENT
70
1
0
ENDSEC
0
SECTION
2
TABLES
0
TABLE
2
LTYPE
0
LTYPE
72
65
70
64
2
CONTINUOUS
3
______
73
0
40
0
0
ENDTAB
0
TABLE
2
LAYER
0
LAYER
2
DEFAULT_255_2_778
70
0
62
255
6
CONTINUOUS
0
ENDTAB
0
ENDSEC
0
SECTION
2
ENTITIES
0
ARC
8
DEFAULT_255_2_778
10
15.8991215
20
2.9778296
40
3.1156597
50
89.9918717
51
111.2425347
0
ARC
8
DEFAULT_255_2_778
10
15.92725
20
2.9066214
40
3.1922211
50
111.2500283
51
165.681208
0
ARC
8
DEFAULT_255_2_778
10
15.8674978
20
2.936224
40
3.1270348
50
165.9359907
51
180.0336189
0
ARC
8
DEFAULT_255_2_778
10
15.8350545
20
2.9307729
40
3.0945932
50
179.9330454
51
197.4820436
0
ARC
8
DEFAULT_255_2_778
10
15.8936728
20
2.9685767
40
3.1619144
50
197.8163398
51
255.5510582
0
ARC
8
DEFAULT_255_2_778
10
15.8983838
20
2.9750078
40
3.169319
50
255.4975938
51
270.0213255
0
ARC
8
DEFAULT_255_2_778
10
15.9011549
20
2.9720445
40
3.1663557
50
269.9712032
51
290.1671918
0
ARC
8
DEFAULT_255_2_778
10
15.9132238
20
2.9604097
40
3.1512819
50
290.0341409
51
345.833124
0
ARC
8
DEFAULT_255_2_778
10
15.9533834
20
2.9317495
40
3.1053811
50
346.1644899
51
0.0487033
0
ARC
8
DEFAULT_255_2_778
10
15.7610506
20
2.8803517
40
3.2981555
50
0.9387856
51
18.2314633
0
ARC
8
DEFAULT_255_2_778
10
15.8476724
20
2.9100574
40
3.2065886
50
18.2115518
51
49.9613406
0
ARC
8
DEFAULT_255_2_778
10
15.9119572
20
2.9845833
40
3.1081764
50
49.9848308
51
77.2575551
0
ARC
8
DEFAULT_255_2_778
10
15.9024275
20
2.9288575
40
3.1646331
50
77.3118055
51
90.0518536
0
ARC
8
DEFAULT_255_2_778
10
15.9554376
20
2.9353487
40
1.7734744
50
153.5689378
51
180.0309971
0
ARC
8
DEFAULT_255_2_778
10
15.9637029
20
2.9311624
40
1.7827392
50
99.1431945
51
153.5667019
0
ARC
8
DEFAULT_255_2_778
10
15.9619843
20
2.9199599
40
1.7935297
50
90.0326118
51
99.0321219
0
ARC
8
DEFAULT_255_2_778
10
15.9619261
20
2.940049
40
1.7734404
50
63.5685062
51
90.0310995
0
ARC
8
DEFAULT_255_2_778
10
15.9576887
20
2.9317274
40
1.7827784
50
9.1413231
51
63.5656065
0
ARC
8
DEFAULT_255_2_778
10
15.9462119
20
2.9333694
40
1.7938519
50
0.032574
51
9.0313079
0
ARC
8
DEFAULT_255_2_778
10
15.9663686
20
2.4366582
40
1.796119
50
9.0631805
51
17.4032289
0
ARC
8
DEFAULT_255_2_778
10
16.2307704
20
2.5195592
40
1.5190253
50
17.4022882
51
27.5207568
0
ARC
8
DEFAULT_255_2_778
10
16.3646923
20
2.5883611
40
1.3684666
50
27.556965
51
39.6711964
0
ARC
8
DEFAULT_255_2_778
10
16.3660433
20
2.5863135
40
1.368736
50
39.7732753
51
53.5840363
0
ARC
8
DEFAULT_255_2_778
10
16.2798516
20
2.4687401
40
1.5145179
50
53.6005198
51
63.9534524
0
ARC
8
DEFAULT_255_2_778
10
16.1918769
20
2.2900366
40
1.7137017
50
63.9343674
51
72.4003859
0
ARC
8
DEFAULT_255_2_778
10
16.1479823
20
2.1570729
40
1.8537145
50
72.3497979
51
78.3653892
0
ARC
8
DEFAULT_255_2_778
10
16.1515578
20
2.1793446
40
1.8311795
50
78.3344284
51
82.7364818
0
ARC
8
DEFAULT_255_2_778
10
16.1796491
20
2.4072894
40
1.6015125
50
82.7023587
51
86.6243045
0
ARC
8
DEFAULT_255_2_778
10
16.204076
20
2.8269229
40
1.1811689
50
86.6085525
51
89.8793404
0
ARC
8
DEFAULT_255_2_778
10
16.1962681
20
-0.0594123
40
4.0675145
50
89.8549769
51
91.8347145
0
ARC
8
DEFAULT_255_2_778
10
16.1079887
20
2.4752434
40
1.5313484
50
91.5696743
51
97.0822859
0
ARC
8
DEFAULT_255_2_778
10
15.9878732
20
3.394054
40
0.6047676
50
96.5219289
51
112.5185089
0
ARC
8
DEFAULT_255_2_778
10
15.9675254
20
3.4632253
40
0.5331329
50
113.3455134
51
121.5145965
0
ARC
8
DEFAULT_255_2_778
10
16.130555
20
3.2026729
40
0.8404786
50
121.7047271
51
128.0970556
0
ARC
8
DEFAULT_255_2_778
10
16.6771263
20
2.4929684
40
1.7362418
50
127.8412727
51
129.9495369
0
ARC
8
DEFAULT_255_2_778
10
15.7746562
20
2.337505
40
0.3354022
50
127.009166
51
129.2901515
0
ARC
8
DEFAULT_255_2_778
10
15.9931623
20
2.0499018
40
0.696594
50
123.6446526
51
127.1214458
0
ARC
8
DEFAULT_255_2_778
10
16.0680985
20
1.9390001
40
0.8304368
50
118.1977087
51
123.7094794
0
ARC
8
DEFAULT_255_2_778
10
16.0615911
20
1.9509879
40
0.8167968
50
117.7581321
51
118.1927476
0
ARC
8
DEFAULT_255_2_778
10
16.021635
20
2.0328267
40
0.7257722
50
106.7365192
51
117.9758312
0
ARC
8
DEFAULT_255_2_778
10
15.9652742
20
2.2249036
40
0.5256032
50
90.4699203
51
106.882511
0
ARC
8
DEFAULT_255_2_778
10
15.9573532
20
2.1572955
40
0.5932047
50
81.7169839
51
89.651294
0
ARC
8
DEFAULT_255_2_778
10
15.9295709
20
1.9540211
40
0.798363
50
73.5020842
51
81.8455724
0
ARC
8
DEFAULT_255_2_778
10
15.9209675
20
1.9199451
40
0.8334803
50
65.6642047
51
73.600233
0
ARC
8
DEFAULT_255_2_778
10
15.9769253
20
2.0294163
40
0.7107011
50
42.2252819
51
66.1377969
0
ARC
8
DEFAULT_255_2_778
10
16.0404393
20
2.0947349
40
0.6197974
50
19.1447725
51
41.699782
0
ARC
8
DEFAULT_255_2_778
10
15.9322639
20
2.0594568
40
0.7335627
50
3.084187
51
18.9768556
0
ARC
8
DEFAULT_255_2_778
10
15.776159
20
2.0455846
40
0.8902045
50
359.9745531
51
3.4351725
0
ARC
8
DEFAULT_255_2_778
10
15.6719195
20
2.0355028
40
0.9944911
50
344.3324268
51
0.5580704
0
ARC
8
DEFAULT_255_2_778
10
15.9594362
20
1.9528949
40
0.6953509
50
315.9158636
51
344.4884183
0
ARC
8
DEFAULT_255_2_778
10
15.9116313
20
2.0397586
40
0.7906595
50
271.1599436
51
313.8039263
0
ARC
8
DEFAULT_255_2_778
10
15.8692055
20
2.3345503
40
1.0868611
50
269.9872411
51
273.0818051
0
ARC
8
DEFAULT_255_2_778
10
15.7417408
20
2.4354224
40
1.1945274
50
269.9910853
51
276.1138588
0
ARC
8
DEFAULT_255_2_778
10
15.7742176
20
2.6729679
40
1.4324453
50
229.6092012
51
268.6934275
0
ARC
8
DEFAULT_255_2_778
10
15.9701693
20
2.9731413
40
1.7886192
50
181.2318499
51
231.0594024
0
ARC
8
DEFAULT_255_2_778
10
9.8755227
20
1.3091025
40
0.3589602
50
180.1298138
51
183.0710785
0
ARC
8
DEFAULT_255_2_778
10
10.1707213
20
1.3243365
40
0.6545513
50
183.0182871
51
187.090979
0
ARC
8
DEFAULT_255_2_778
10
10.385816
20
1.3505277
40
0.8712343
50
187.054051
51
192.1053875
0
ARC
8
DEFAULT_255_2_778
10
10.5177412
20
1.3784281
40
1.006077
50
192.0834009
51
198.1845929
0
ARC
8
DEFAULT_255_2_778
10
10.5967449
20
1.404216
40
1.0891829
50
198.176412
51
205.5521517
0
ARC
8
DEFAULT_255_2_778
10
10.6585508
20
1.4338376
40
1.1577205
50
205.555393
51
213.7668386
0
ARC
8
DEFAULT_255_2_778
10
10.7327454
20
1.4837295
40
1.2471297
50
213.7777302
51
222.0268498
0
ARC
8
DEFAULT_255_2_778
10
10.8367547
20
1.5781006
40
1.3875706
50
222.0462471
51
230.3006066
0
ARC
8
DEFAULT_255_2_778
10
10.9736648
20
1.7433007
40
1.6021293
50
230.3071748
51
237.8686451
0
ARC
8
DEFAULT_255_2_778
10
11.1315859
20
1.9943337
40
1.8987042
50
237.8620807
51
244.4452238
0
ARC
8
DEFAULT_255_2_778
10
11.2984181
20
2.3424953
40
2.2847736
50
244.4371041
51
250.1911739
0
ARC
8
DEFAULT_255_2_778
10
11.4636381
20
2.7996357
40
2.7708546
50
250.1802838
51
255.1602145
0
ARC
8
DEFAULT_255_2_778
10
11.6155757
20
3.3703235
40
3.3614215
50
255.1481649
51
259.4184722
0
ARC
8
DEFAULT_255_2_778
10
11.744105
20
4.0541592
40
4.0572307
50
259.4076284
51
263.0727653
0
ARC
8
DEFAULT_255_2_778
10
11.8426706
20
4.8605677
40
4.8696403
50
263.0658687
51
266.295607
0
ARC
8
DEFAULT_255_2_778
10
11.9042819
20
5.802707
40
5.8137919
50
266.289575
51
269.143274
0
ARC
8
DEFAULT_255_2_778
10
11.919138
20
6.5163173
40
6.5275459
50
269.106545
51
270.0042072
0
ARC
8
DEFAULT_255_2_778
10
11.9195293
20
6.7838572
40
6.7950856
50
270.0007417
51
270.3530501
0
ARC
8
DEFAULT_255_2_778
10
11.9186621
20
6.9354773
40
6.9467083
50
270.3524972
51
270.7011006
0
ARC
8
DEFAULT_255_2_778
10
11.9785019
20
1.5989389
40
0.2917368
50
274.4803534
51
274.9477687
0
ARC
8
DEFAULT_255_2_778
10
11.9399886
20
2.0850709
40
0.779392
50
273.9133454
51
274.5112516
0
ARC
8
DEFAULT_255_2_778
10
11.9125476
20
2.4811997
40
1.17647
50
273.3982391
51
273.9300078
0
ARC
8
DEFAULT_255_2_778
10
11.8957741
20
2.7621275
40
1.4578979
50
272.8342328
51
273.4018469
0
ARC
8
DEFAULT_255_2_778
10
11.8837
20
3.0043325
40
1.7004036
50
272.1955646
51
272.837035
0
ARC
8
DEFAULT_255_2_778
10
11.8758016
20
3.211209
40
1.9074309
50
271.2865026
51
272.1945748
0
ARC
8
DEFAULT_255_2_778
10
11.8724057
20
3.3565255
40
2.052787
50
270.3337766
51
271.2901993
0
ARC
8
DEFAULT_255_2_778
10
11.8719078
20
3.4119075
40
2.108171
50
270.0003462
51
270.33854
0
ARC
8
DEFAULT_255_2_778
10
11.8719578
20
3.4367215
40
2.1329849
50
267.7746677
51
269.9989991
0
ARC
8
DEFAULT_255_2_778
10
11.8667224
20
3.3193655
40
2.0155142
50
264.7184946
51
267.7938417
0
ARC
8
DEFAULT_255_2_778
10
11.8318651
20
2.9733117
40
1.6677234
50
258.788533
51
264.8165938
0
ARC
8
DEFAULT_255_2_778
10
11.7826105
20
2.7054725
40
1.395424
50
257.5663552
51
258.6340839
0
ARC
8
DEFAULT_255_2_778
10
11.6379172
20
2.1764968
40
0.8481441
50
233.0632544
51
259.4181111
0
ARC
8
DEFAULT_255_2_778
10
11.4006
20
1.8421468
40
0.4384305
50
193.9214288
51
231.5949283
0
ARC
8
DEFAULT_255_2_778
10
11.4757433
20
1.8575767
40
0.5150882
50
179.6760276
51
193.5763685
0
LINE
8
DEFAULT_255_2_778
10
5.6544635
20
8.1482892
11
0.2558635
21
8.1482892
0
LINE
8
DEFAULT_255_2_778
10
0.2558635
20
8.1482892
11
0.2558635
21
6.6147892
0
LINE
8
DEFAULT_255_2_778
10
0.2558635
20
6.6147892
11
2.1269635
21
6.6147892
0
LINE
8
DEFAULT_255_2_778
10
2.1269635
20
6.6147892
11
2.1269635
21
-0.0104108
0
LINE
8
DEFAULT_255_2_778
10
2.1269635
20
-0.0104108
11
3.8139635
21
-0.0104108
0
LINE
8
DEFAULT_255_2_778
10
3.8139635
20
-0.0104108
11
3.8139635
21
6.6147892
0
LINE
8
DEFAULT_255_2_778
10
3.8139635
20
6.6147892
11
5.6544635
21
6.6147892
0
LINE
8
DEFAULT_255_2_778
10
5.6544635
20
6.6147892
11
5.6544635
21
8.1482892
0
LINE
8
DEFAULT_255_2_778
10
6.4825635
20
8.1482892
11
8.0160635
21
8.1482892
0
LINE
8
DEFAULT_255_2_778
10
8.0160635
20
8.1482892
11
8.0160635
21
6.6758892
0
LINE
8
DEFAULT_255_2_778
10
8.0160635
20
6.6758892
11
6.4825635
21
6.6758892
0
LINE
8
DEFAULT_255_2_778
10
6.4825635
20
6.6758892
11
6.4825635
21
8.1482892
0
LINE
8
DEFAULT_255_2_778
10
6.4825635
20
5.8786892
11
8.0160635
21
5.8786892
0
LINE
8
DEFAULT_255_2_778
10
8.0160635
20
5.8786892
11
8.0160635
21
-0.0411108
0
LINE
8
DEFAULT_255_2_778
10
8.0160635
20
-0.0411108
11
6.4825635
21
-0.0411108
0
LINE
8
DEFAULT_255_2_778
10
6.4825635
20
-0.0411108
11
6.4825635
21
5.8786892
0
LINE
8
DEFAULT_255_2_778
10
15.8995635
20
6.0934892
11
15.8995635
21
6.0934892
0
LINE
8
DEFAULT_255_2_778
10
17.7400635
20
2.9343892
11
17.7400635
21
2.7195892
0
LINE
8
DEFAULT_255_2_778
10
15.5622635
20
3.8239892
11
15.5622635
21
2.5970892
0
LINE
8
DEFAULT_255_2_778
10
14.1819635
20
2.9346892
11
14.1819635
21
2.9343892
0
LINE
8
DEFAULT_255_2_778
10
12.1266635
20
4.6822892
11
12.1266635
21
6.0011892
0
LINE
8
DEFAULT_255_2_778
10
12.1266635
20
6.0011892
11
10.9889635
21
6.0011892
0
LINE
8
DEFAULT_255_2_778
10
10.9889635
20
6.0011892
11
10.9889635
21
8.1482892
0
LINE
8
DEFAULT_255_2_778
10
10.9889635
20
8.1482892
11
9.5165635
21
8.1482892
0
LINE
8
DEFAULT_255_2_778
10
9.5165635
20
8.1482892
11
9.5165635
21
6.0011892
0
LINE
8
DEFAULT_255_2_778
10
9.5165635
20
6.0011892
11
8.8111635
21
6.0011892
0
LINE
8
DEFAULT_255_2_778
10
8.8111635
20
6.0011892
11
8.8111635
21
4.6822892
0
LINE
8
DEFAULT_255_2_778
10
8.8111635
20
4.6822892
11
9.5165635
21
4.6822892
0
LINE
8
DEFAULT_255_2_778
10
9.5165635
20
4.6822892
11
9.5165635
21
1.3082892
0
LINE
8
DEFAULT_255_2_778
10
12.0036635
20
-0.0107108
11
12.0036635
21
1.3082892
0
LINE
8
DEFAULT_255_2_778
10
10.9606635
20
1.8604892
11
10.9606635
21
4.6822892
0
LINE
8
DEFAULT_255_2_778
10
10.9606635
20
4.6822892
11
12.1266635
21
4.6822892
0
ENDSEC
0
EOF