0
SECTION
2
HEADER
9
$MEASUREMENT
70
1
0
ENDSEC
0
SECTION
2
TABLES
0
TABLE
2
LTYPE
0
LTYPE
72
65
70
64
2
CONTINUOUS
3
______
73
0
40
0
0
ENDTAB
0
TABLE
2
LAYER
0
LAYER
2
DEFAULT_255_2_778
70
0
62
255
6
CONTINUOUS
0
ENDTAB
0
ENDSEC
0
SECTION
2
ENTITIES
0
ARC
8
DEFAULT_255_2_778
10
16.309644
20
3.1364608
40
2.6096368
50
227.7969947
51
230.3366551
0
ARC
8
DEFAULT_255_2_778
10
16.1842828
20
2.9881421
40
2.4154457
50
230.3802035
51
230.5591253
0
ARC
8
DEFAULT_255_2_778
10
15.7499662
20
2.428858
40
1.7077238
50
229.891828
51
244.5160517
0
ARC
8
DEFAULT_255_2_778
10
15.5962959
20
2.1450773
40
1.385535
50
245.2033565
51
266.3375298
0
ARC
8
DEFAULT_255_2_778
10
15.6349312
20
2.5361587
40
1.7783376
50
265.9001655
51
270.0536329
0
ARC
8
DEFAULT_255_2_778
10
15.6459503
20
1.7476577
40
0.9898801
50
269.4585438
51
286.851157
0
ARC
8
DEFAULT_255_2_778
10
15.7504931
20
1.4189937
40
0.6450407
50
286.4266933
51
313.5954541
0
ARC
8
DEFAULT_255_2_778
10
15.868398
20
1.2898331
40
0.4702109
50
314.0431782
51
0.4251069
0
ARC
8
DEFAULT_255_2_778
10
15.9279994
20
1.3314181
40
0.4116261
50
355.9465995
51
53.7515399
0
ARC
8
DEFAULT_255_2_778
10
15.6905911
20
1.0120473
40
0.8095671
50
53.5660918
51
67.0782215
0
ARC
8
DEFAULT_255_2_778
10
15.3219757
20
0.1697417
40
1.7289661
50
66.6987005
51
73.8180494
0
ARC
8
DEFAULT_255_2_778
10
14.8732341
20
-1.3312219
40
3.2955473
50
73.5979141
51
77.2978234
0
ARC
8
DEFAULT_255_2_778
10
14.5327206
20
-2.7845299
40
4.7881773
50
77.1467906
51
78.104487
0
ARC
8
DEFAULT_255_2_778
10
16.308037
20
5.6012595
40
3.7834799
50
253.1030571
51
257.9735032
0
ARC
8
DEFAULT_255_2_778
10
15.7769521
20
3.8732502
40
1.9757187
50
244.7347986
51
253.2744361
0
ARC
8
DEFAULT_255_2_778
10
15.3641676
20
3.0130582
40
1.0216495
50
228.9000598
51
245.0803099
0
ARC
8
DEFAULT_255_2_778
10
15.1454299
20
2.7505504
40
0.6800844
50
183.4036224
51
228.2485536
0
ARC
8
DEFAULT_255_2_778
10
15.5417829
20
2.8081098
40
1.0796886
50
179.9038421
51
185.2043012
0
ARC
8
DEFAULT_255_2_778
10
15.2746674
20
2.8130397
40
0.8125928
50
115.706674
51
179.5852501
0
ARC
8
DEFAULT_255_2_778
10
15.4588849
20
2.5052848
40
1.1702462
50
96.8599215
51
117.297691
0
ARC
8
DEFAULT_255_2_778
10
15.4957103
20
2.276582
40
1.4017408
50
89.939276
51
97.2378097
0
ARC
8
DEFAULT_255_2_778
10
15.5098729
20
1.7282587
40
1.9501043
50
79.2174012
51
90.3724649
0
ARC
8
DEFAULT_255_2_778
10
15.5499485
20
2.0415187
40
1.6349909
50
49.8490789
51
78.5432326
0
ARC
8
DEFAULT_255_2_778
10
15.3423443
20
1.7434071
40
1.6534038
50
50.3535529
51
63.7585961
0
ARC
8
DEFAULT_255_2_778
10
15.4981264
20
2.0443082
40
1.3146511
50
64.0498335
51
90.4327995
0
ARC
8
DEFAULT_255_2_778
10
15.4793918
20
2.4289393
40
0.9300242
50
89.4575985
51
107.2928606
0
ARC
8
DEFAULT_255_2_778
10
15.3829889
20
2.7244164
40
0.6192613
50
106.9030616
51
134.2274347
0
ARC
8
DEFAULT_255_2_778
10
15.2622716
20
2.8504132
40
0.4447758
50
134.40529
51
179.9988827
0
ARC
8
DEFAULT_255_2_778
10
15.2291778
20
2.8124933
40
0.412697
50
175.9804787
51
233.2294265
0
ARC
8
DEFAULT_255_2_778
10
15.4687009
20
3.1291153
40
0.8097085
50
233.0643003
51
246.5006151
0
ARC
8
DEFAULT_255_2_778
10
15.839147
20
3.950859
40
1.7110541
50
246.096728
51
252.9878831
0
ARC
8
DEFAULT_255_2_778
10
16.3348677
20
5.5434049
40
3.3789595
50
252.8506697
51
257.0299955
0
ARC
8
DEFAULT_255_2_778
10
16.7694104
20
7.3506433
40
5.2376507
50
256.8348583
51
257.912242
0
ARC
8
DEFAULT_255_2_778
10
14.9967469
20
-0.9384604
40
3.2388808
50
72.434048
51
77.9557271
0
ARC
8
DEFAULT_255_2_778
10
15.4266079
20
0.4024647
40
1.8307565
50
63.5211763
51
72.5943153
0
ARC
8
DEFAULT_255_2_778
10
15.8022476
20
1.1427127
40
1.0006949
50
47.019744
51
63.8751659
0
ARC
8
DEFAULT_255_2_778
10
16.0071129
20
1.3755057
40
0.6907764
50
0.3162041
51
46.2874476
0
ARC
8
DEFAULT_255_2_778
10
15.6696241
20
1.3383188
40
1.0290719
50
359.9834673
51
2.2833192
0
ARC
8
DEFAULT_255_2_778
10
15.8660828
20
1.3191885
40
0.8326711
50
330.3547199
51
0.6766471
0
ARC
8
DEFAULT_255_2_778
10
15.8338115
20
1.3590592
40
0.8806378
50
293.5207184
51
329.1386584
0
ARC
8
DEFAULT_255_2_778
10
15.6676046
20
1.7080232
40
1.2670064
50
275.8177563
51
294.1146203
0
ARC
8
DEFAULT_255_2_778
10
15.6247898
20
2.0157704
40
1.5775495
50
269.9384766
51
276.2317861
0
ARC
8
DEFAULT_255_2_778
10
15.6084929
20
2.3281292
40
1.8899637
50
252.9718808
51
270.4427062
0
ARC
8
DEFAULT_255_2_778
10
15.6260574
20
2.3075805
40
1.8755982
50
230.8652903
51
252.2750041
0
ARC
8
DEFAULT_255_2_778
10
15.9692542
20
2.7708135
40
2.451658
50
228.2329499
51
231.476714
0
ARC
8
DEFAULT_255_2_778
10
18.5017597
20
1.7370249
40
1.1457017
50
111.5076639
51
148.1374452
0
ARC
8
DEFAULT_255_2_778
10
18.4119925
20
1.865144
40
0.9942648
50
89.8881561
51
109.4012461
0
ARC
8
DEFAULT_255_2_778
10
18.4198306
20
1.7002279
40
1.1591939
50
90.0017151
51
90.291487
0
ARC
8
DEFAULT_255_2_778
10
18.4152605
20
1.7673389
40
1.0920923
50
42.5616851
51
89.7620564
0
ARC
8
DEFAULT_255_2_778
10
18.374961
20
1.7326689
40
1.1452264
50
18.2023077
51
42.4755428
0
ARC
8
DEFAULT_255_2_778
10
18.1729976
20
1.6666987
40
1.3576908
50
1.4630031
51
18.1846317
0
ARC
8
DEFAULT_255_2_778
10
17.9744578
20
1.6530482
40
1.556538
50
359.9953469
51
1.7787205
0
ARC
8
DEFAULT_255_2_778
10
18.1311049
20
1.6361647
40
1.3999124
50
343.9772869
51
0.3174847
0
ARC
8
DEFAULT_255_2_778
10
18.3538181
20
1.5721504
40
1.1681819
50
320.5749907
51
343.9799631
0
ARC
8
DEFAULT_255_2_778
10
18.4146221
20
1.5236124
40
1.0903892
50
272.6880137
51
320.5160824
0
ARC
8
DEFAULT_255_2_778
10
18.4197784
20
1.4899589
40
1.056537
50
270.0009493
51
272.4942842
0
ARC
8
DEFAULT_255_2_778
10
18.4130116
20
1.4800757
40
1.0466759
50
252.0747217
51
270.3713777
0
ARC
8
DEFAULT_255_2_778
10
18.4175402
20
1.455414
40
1.0246742
50
223.7468713
51
251.4093577
0
ARC
8
DEFAULT_255_2_778
10
18.664371
20
1.7073821
40
1.3772612
50
214.4531121
51
224.2188513
0
ARC
8
DEFAULT_255_2_778
10
18.1355753
20
1.6594297
40
1.0425506
50
359.5654032
51
19.2417567
0
ARC
8
DEFAULT_255_2_778
10
18.3305774
20
1.7294823
40
0.835358
50
19.1131293
51
52.0018517
0
ARC
8
DEFAULT_255_2_778
10
18.36265
20
1.7606697
40
0.7910597
50
52.4417996
51
90.2501806
0
ARC
8
DEFAULT_255_2_778
10
18.3716592
20
1.7123001
40
0.8395143
50
90.8506381
51
148.7202115
0
ARC
8
DEFAULT_255_2_778
10
18.4334249
20
1.6686554
40
0.9149779
50
148.3926635
51
175.904778
0
ARC
8
DEFAULT_255_2_778
10
18.5296818
20
1.6563026
40
1.011886
50
175.5963402
51
180.0158949
0
ARC
8
DEFAULT_255_2_778
10
18.4776847
20
1.6406302
40
0.9599101
50
179.6184887
51
203.1427012
0
ARC
8
DEFAULT_255_2_778
10
18.3881102
20
1.6034551
40
0.8629336
50
203.2105063
51
243.3050066
0
ARC
8
DEFAULT_255_2_778
10
18.361592
20
1.5517035
40
0.8047854
50
243.336527
51
269.8294139
0
ARC
8
DEFAULT_255_2_778
10
18.3759387
20
1.5293689
40
0.7826262
50
268.7741698
51
336.7009583
0
ARC
8
DEFAULT_255_2_778
10
18.1751505
20
1.6172539
40
1.0018027
50
336.6265808
51
356.3984366
0
ARC
8
DEFAULT_255_2_778
10
17.9485081
20
1.6418828
40
1.229588
50
355.916471
51
0.0297794
0
ARC
8
DEFAULT_255_2_778
10
21.0698771
20
1.6482064
40
1.221387
50
137.5971179
51
180.1775336
0
ARC
8
DEFAULT_255_2_778
10
21.0450808
20
1.667628
40
1.1899826
50
101.0825868
51
137.48254
0
ARC
8
DEFAULT_255_2_778
10
21.0621733
20
1.5885701
40
1.2708528
50
89.9268474
51
101.153681
0
ARC
8
DEFAULT_255_2_778
10
21.0697534
20
1.6264746
40
1.2329617
50
65.4983506
51
90.2768495
0
ARC
8
DEFAULT_255_2_778
10
21.0772394
20
1.6627153
40
1.196908
50
0.0930566
51
65.1049591
0
ARC
8
DEFAULT_255_2_778
10
21.0125731
20
1.6534047
40
1.2616229
50
0.0007782
51
0.5111261
0
ARC
8
DEFAULT_255_2_778
10
21.0654235
20
1.6380718
40
1.208789
50
286.8823506
51
0.3009908
0
ARC
8
DEFAULT_255_2_778
10
21.0599983
20
1.6781651
40
1.2487467
50
269.8668306
51
286.5863173
0
ARC
8
DEFAULT_255_2_778
10
21.0509765
20
1.6585311
40
1.2291245
50
245.804854
51
270.2852557
0
ARC
8
DEFAULT_255_2_778
10
21.0459214
20
1.6234824
40
1.1951227
50
180.7795012
51
245.3372532
0
ARC
8
DEFAULT_255_2_778
10
21.1187914
20
1.6354068
40
1.2681955
50
179.99932
51
181.2734012
0
ARC
8
DEFAULT_255_2_778
10
20.9754019
20
1.6496444
40
0.9453084
50
359.6834572
51
34.6596367
0
ARC
8
DEFAULT_255_2_778
10
21.0577631
20
1.7106248
40
0.8428896
50
34.4339369
51
89.6157738
0
ARC
8
DEFAULT_255_2_778
10
21.0565996
20
1.6736387
40
0.8798831
50
89.5561642
51
90.0002447
0
ARC
8
DEFAULT_255_2_778
10
21.0496032
20
1.7208971
40
0.8326541
50
89.5188186
51
119.7851427
0
ARC
8
DEFAULT_255_2_778
10
21.0866373
20
1.6919625
40
0.8763432
50
120.9469354
51
171.3760395
0
ARC
8
DEFAULT_255_2_778
10
21.2209748
20
1.6541443
40
1.0149792
50
170.4023986
51
180.0407809
0
ARC
8
DEFAULT_255_2_778
10
21.1521277
20
1.6383992
40
0.946151
50
179.6352894
51
213.1725788
0
ARC
8
DEFAULT_255_2_778
10
21.0622044
20
1.5767126
40
0.8371337
50
213.0062167
51
268.7790849
0
ARC
8
DEFAULT_255_2_778
10
21.0652932
20
1.6253634
40
0.8858416
50
268.6463948
51
270.0001726
0
ARC
8
DEFAULT_255_2_778
10
21.0723058
20
1.5826446
40
0.8431519
50
269.523638
51
299.818771
0
ARC
8
DEFAULT_255_2_778
10
21.0429634
20
1.6012317
40
0.8740194
50
300.881799
51
352.1155794
0
ARC
8
DEFAULT_255_2_778
10
20.9184951
20
1.6345034
40
1.002001
50
351.2073176
51
0.0353652
0
ARC
8
DEFAULT_255_2_778
10
23.703685
20
1.1341798
40
0.5189044
50
178.7917272
51
198.7549993
0
ARC
8
DEFAULT_255_2_778
10
23.5119102
20
1.0809674
40
0.3204021
50
200.771273
51
270.7925957
0
ARC
8
DEFAULT_255_2_778
10
23.5753225
20
1.4620681
40
0.7039472
50
265.1938417
51
270.095502
0
ARC
8
DEFAULT_255_2_778
10
23.5808232
20
1.4895673
40
0.7314583
50
269.6610374
51
269.9999684
0
ARC
8
DEFAULT_255_2_778
10
23.5807233
20
1.4853352
40
0.7272262
50
270.0078335
51
297.2849724
0
ARC
8
DEFAULT_255_2_778
10
23.5099171
20
1.3175089
40
0.8744058
50
269.9995404
51
297.5312592
0
ARC
8
DEFAULT_255_2_778
10
23.5098893
20
1.3150848
40
0.8719818
50
269.054201
51
270.0013671
0
ARC
8
DEFAULT_255_2_778
10
23.4775067
20
1.2505679
40
0.8075464
50
247.1417595
51
271.2764491
0
ARC
8
DEFAULT_255_2_778
10
23.3697197
20
0.9764052
40
0.5130941
50
198.6804801
51
246.3403182
0
ARC
8
DEFAULT_255_2_778
10
23.6460175
20
1.0752374
40
0.8065077
50
181.8785487
51
199.0449406
0
ARC
8
DEFAULT_255_2_778
10
23.9578327
20
1.0994679
40
1.119037
50
179.9767603
51
182.5951706
0
ARC
8
DEFAULT_255_2_778
10
25.6438976
20
3.0194267
40
1.1556551
50
166.4460119
51
180.5505719
0
ARC
8
DEFAULT_255_2_778
10
25.2012984
20
3.1315457
40
0.6991258
50
141.8141554
51
166.8777658
0
ARC
8
DEFAULT_255_2_778
10
25.0886098
20
3.2090557
40
0.5627015
50
134.9746386
51
140.9239728
0
ARC
8
DEFAULT_255_2_778
10
25.1192598
20
3.1611195
40
0.6183961
50
99.8566761
51
133.8443391
0
ARC
8
DEFAULT_255_2_778
10
25.1867817
20
2.8755463
40
0.9114831
50
89.7665278
51
100.9655719
0
ARC
8
DEFAULT_255_2_778
10
25.2029291
20
2.3784133
40
1.4086634
50
82.6816307
51
90.5057129
0
ARC
8
DEFAULT_255_2_778
10
25.2597112
20
2.8658624
40
0.9179702
50
71.8634218
51
82.3213008
0
ARC
8
DEFAULT_255_2_778
10
25.2183007
20
2.7351855
40
1.0550458
50
70.3551201
51
71.9353448
0
ARC
8
DEFAULT_255_2_778
10
25.0340811
20
1.6211741
40
1.8847381
50
73.3851849
51
78.6828818
0
ARC
8
DEFAULT_255_2_778
10
25.2142549
20
2.4659505
40
1.0210886
50
79.2940869
51
80.9706518
0
ARC
8
DEFAULT_255_2_778
10
25.2360331
20
2.6111983
40
0.8742238
50
80.8863076
51
90.0417601
0
ARC
8
DEFAULT_255_2_778
10
25.2219957
20
3.0415632
40
0.4440608
50
88.270751
51
115.8430428
0
ARC
8
DEFAULT_255_2_778
10
25.1924405
20
3.140247
40
0.3427564
50
118.5884739
51
165.6373239
0
ARC
8
DEFAULT_255_2_778
10
25.5913376
20
3.0140985
40
0.7608338
50
163.8857393
51
179.2459062
0
ARC
8
DEFAULT_255_2_778
10
25.9928105
20
2.9909207
40
1.1627146
50
178.3641973
51
180.0147255
0
ARC
8
DEFAULT_255_2_778
10
28.2134608
20
1.767582
40
1.1269378
50
122.0454706
51
157.302882
0
ARC
8
DEFAULT_255_2_778
10
28.0814587
20
1.9432514
40
0.9081886
50
89.6954686
51
120.8669148
0
ARC
8
DEFAULT_255_2_778
10
28.0862018
20
1.8528057
40
0.9986214
50
87.6989883
51
89.9951836
0
ARC
8
DEFAULT_255_2_778
10
28.0742236
20
1.617334
40
0.8601533
50
88.3296676
51
149.6905669
0
ARC
8
DEFAULT_255_2_778
10
28.2700911
20
1.5099735
40
1.0834471
50
150.0164688
51
168.3661905
0
ARC
8
DEFAULT_255_2_778
10
28.6874312
20
1.4195208
40
1.5104603
50
168.1979474
51
180.3299772
0
ARC
8
DEFAULT_255_2_778
10
29.4086226
20
1.7087833
40
0.9780022
50
269.4770276
51
288.5274851
0
ARC
8
DEFAULT_255_2_778
10
29.366929
20
1.7550077
40
1.0353776
50
289.9024539
51
317.7550609
0
ARC
8
DEFAULT_255_2_778
10
29.4138894
20
1.6458556
40
1.2185794
50
284.1184001
51
320.1627026
0
ARC
8
DEFAULT_255_2_778
10
29.400551
20
1.8050854
40
1.3764967
50
269.6022719
51
283.0400641
0
ARC
8
DEFAULT_255_2_778
10
29.3822895
20
1.5807824
40
1.1521934
50
233.6086321
51
270.4329488
0
ARC
8
DEFAULT_255_2_778
10
29.3838088
20
1.5670347
40
1.1420667
50
199.0267629
51
233.1380753
0
ARC
8
DEFAULT_255_2_778
10
29.5760915
20
1.6352276
40
1.3460768
50
179.9537213
51
199.1025813
0
ARC
8
DEFAULT_255_2_778
10
29.7352835
20
1.6439176
40
1.5052877
50
179.9998398
51
180.2893854
0
ARC
8
DEFAULT_255_2_778
10
29.5706819
20
1.6508521
40
1.340704
50
156.1907214
51
180.296172
0
ARC
8
DEFAULT_255_2_778
10
29.3490387
20
1.7685914
40
1.090546
50
94.0437203
51
157.1492327
0
ARC
8
DEFAULT_255_2_778
10
29.3458103
20
1.7265365
40
1.1322853
50
89.9906068
51
93.7306925
0
ARC
8
DEFAULT_255_2_778
10
29.3552416
20
1.7469065
40
1.1119538
50
70.3856903
51
90.4764104
0
ARC
8
DEFAULT_255_2_778
10
29.3570024
20
1.8228013
40
1.0401444
50
16.7085984
51
69.0735621
0
ARC
8
DEFAULT_255_2_778
10
28.8772989
20
1.6369769
40
1.5535363
50
359.5922765
51
18.1862836
0
ARC
8
DEFAULT_255_2_778
10
29.5276765
20
1.5912926
40
0.9505767
50
185.255535
51
206.4821955
0
ARC
8
DEFAULT_255_2_778
10
29.3872997
20
1.5260735
40
0.7958578
50
206.7860706
51
270.9356721
0
ARC
8
DEFAULT_255_2_778
10
29.034327
20
1.7015273
40
1.0485639
50
4.4739746
51
31.1645673
0
ARC
8
DEFAULT_255_2_778
10
29.3629304
20
1.8996031
40
0.6648796
50
31.2129273
51
81.3327062
0
ARC
8
DEFAULT_255_2_778
10
29.3390967
20
1.7633494
40
0.8031744
50
81.1166594
51
90.1284658
0
ARC
8
DEFAULT_255_2_778
10
29.3497941
20
1.8350105
40
0.7316181
50
90.9788279
51
155.8199566
0
ARC
8
DEFAULT_255_2_778
10
29.6176001
20
1.674856
40
1.042164
50
153.8179106
51
174.0259791
0
LINE
8
DEFAULT_255_2_778
10
14.3361959
20
0.9422218
11
14.5565959
21
1.2033218
0
LINE
8
DEFAULT_255_2_778
10
16.3385959
20
1.2933218
11
16.3385959
21
1.3023218
0
LINE
8
DEFAULT_255_2_778
10
14.4620959
20
2.8099218
11
14.4620959
21
2.8189218
0
LINE
8
DEFAULT_255_2_778
10
16.6041959
20
3.2912218
11
16.3972959
21
3.0165218
0
LINE
8
DEFAULT_255_2_778
10
14.8174959
20
2.8504218
11
14.8174959
21
2.8414218
0
LINE
8
DEFAULT_255_2_778
10
16.6986959
20
1.3380218
11
16.6986959
21
1.3290218
0
LINE
8
DEFAULT_255_2_778
10
17.1846959
20
2.8102218
11
17.5286959
21
2.8102218
0
LINE
8
DEFAULT_255_2_778
10
17.5286959
20
2.8102218
11
17.5286959
21
2.3418218
0
LINE
8
DEFAULT_255_2_778
10
19.5309959
20
1.6529218
11
19.5309959
21
1.6439218
0
LINE
8
DEFAULT_255_2_778
10
17.5286959
20
0.9282218
11
17.5286959
21
-0.2369782
0
LINE
8
DEFAULT_255_2_778
10
17.5286959
20
-0.2369782
11
17.1846959
21
-0.2369782
0
LINE
8
DEFAULT_255_2_778
10
17.1846959
20
-0.2369782
11
17.1846959
21
2.8102218
0
LINE
8
DEFAULT_255_2_778
10
19.1780959
20
1.6425218
11
19.1780959
21
1.6515218
0
LINE
8
DEFAULT_255_2_778
10
17.5177959
20
1.6560218
11
17.5177959
21
1.6470218
0
LINE
8
DEFAULT_255_2_778
10
19.8484959
20
1.6354218
11
19.8484959
21
1.6444218
0
LINE
8
DEFAULT_255_2_778
10
22.2741959
20
1.6534218
11
22.2741959
21
1.6444218
0
LINE
8
DEFAULT_255_2_778
10
21.9206959
20
1.6354218
11
21.9206959
21
1.6444218
0
LINE
8
DEFAULT_255_2_778
10
20.2059959
20
1.6534218
11
20.2059959
21
1.6444218
0
LINE
8
DEFAULT_255_2_778
10
22.8464959
20
1.1002218
11
22.8464959
21
2.5046218
0
LINE
8
DEFAULT_255_2_778
10
22.8464959
20
2.5046218
11
22.5170959
21
2.5046218
0
LINE
8
DEFAULT_255_2_778
10
22.5170959
20
2.5046218
11
22.5170959
21
2.8104218
0
LINE
8
DEFAULT_255_2_778
10
22.5170959
20
2.8104218
11
22.8409959
21
2.8104218
0
LINE
8
DEFAULT_255_2_778
10
22.8409959
20
2.8104218
11
22.8409959
21
3.5124218
0
LINE
8
DEFAULT_255_2_778
10
22.8409959
20
3.5124218
11
23.1848959
21
3.5124218
0
LINE
8
DEFAULT_255_2_778
10
23.1848959
20
3.5124218
11
23.1848959
21
2.8104218
0
LINE
8
DEFAULT_255_2_778
10
23.1848959
20
2.8104218
11
23.9257959
21
2.8104218
0
LINE
8
DEFAULT_255_2_778
10
23.9257959
20
2.8104218
11
23.9257959
21
2.5043218
0
LINE
8
DEFAULT_255_2_778
10
23.9257959
20
2.5043218
11
23.1848959
21
2.5043218
0
LINE
8
DEFAULT_255_2_778
10
23.1848959
20
2.5043218
11
23.1848959
21
1.1451218
0
LINE
8
DEFAULT_255_2_778
10
23.9140959
20
0.8390218
11
23.9140959
21
0.5421218
0
LINE
8
DEFAULT_255_2_778
10
24.4882959
20
2.5040218
11
24.1688959
21
2.5040218
0
LINE
8
DEFAULT_255_2_778
10
24.1688959
20
2.5040218
11
24.1688959
21
2.8057218
0
LINE
8
DEFAULT_255_2_778
10
24.1688959
20
2.8057218
11
24.4882959
21
2.8057218
0
LINE
8
DEFAULT_255_2_778
10
24.4882959
20
2.8057218
11
24.4882959
21
3.0083218
0
LINE
8
DEFAULT_255_2_778
10
25.5729959
20
3.7288218
11
25.5729959
21
3.4272218
0
LINE
8
DEFAULT_255_2_778
10
24.8300959
20
2.9906218
11
24.8300959
21
2.8020218
0
LINE
8
DEFAULT_255_2_778
10
24.8300959
20
2.8020218
11
25.5708959
21
2.8020218
0
LINE
8
DEFAULT_255_2_778
10
25.5708959
20
2.8020218
11
25.5708959
21
2.5048218
0
LINE
8
DEFAULT_255_2_778
10
25.5708959
20
2.5048218
11
24.8348959
21
2.5048218
0
LINE
8
DEFAULT_255_2_778
10
24.8348959
20
2.5048218
11
24.8348959
21
0.4839218
0
LINE
8
DEFAULT_255_2_778
10
24.8348959
20
0.4839218
11
24.4908959
21
0.4839218
0
LINE
8
DEFAULT_255_2_778
10
24.4908959
20
0.4839218
11
24.4882959
21
2.5040218
0
LINE
8
DEFAULT_255_2_778
10
25.8381959
20
3.7010218
11
26.2341959
21
3.7010218
0
LINE
8
DEFAULT_255_2_778
10
26.2341959
20
3.7010218
11
26.2341959
21
3.3184218
0
LINE
8
DEFAULT_255_2_778
10
26.2341959
20
3.3184218
11
25.8381959
21
3.3184218
0
LINE
8
DEFAULT_255_2_778
10
25.8381959
20
3.3184218
11
25.8381959
21
3.7010218
0
LINE
8
DEFAULT_255_2_778
10
25.8606959
20
2.8099218
11
26.2045959
21
2.8099218
0
LINE
8
DEFAULT_255_2_778
10
26.2045959
20
2.8099218
11
26.2045959
21
0.4831218
0
LINE
8
DEFAULT_255_2_778
10
26.2045959
20
0.4831218
11
25.8606959
21
0.4831218
0
LINE
8
DEFAULT_255_2_778
10
25.8606959
20
0.4831218
11
25.8606959
21
2.8099218
0
LINE
8
DEFAULT_255_2_778
10
26.8297959
20
2.8099218
11
27.1737959
21
2.8099218
0
LINE
8
DEFAULT_255_2_778
10
27.1737959
20
2.8099218
11
27.1737959
21
2.2024218
0
LINE
8
DEFAULT_255_2_778
10
28.1262959
20
2.8506218
11
28.1262959
21
2.4771218
0
LINE
8
DEFAULT_255_2_778
10
28.1262959
20
2.4771218
11
28.0992959
21
2.4771218
0
LINE
8
DEFAULT_255_2_778
10
27.1769959
20
1.4108218
11
27.1769959
21
0.4837218
0
LINE
8
DEFAULT_255_2_778
10
27.1769959
20
0.4837218
11
26.8329959
21
0.4837218
0
LINE
8
DEFAULT_255_2_778
10
26.8329959
20
0.4837218
11
26.8297959
21
2.8099218
0
LINE
8
DEFAULT_255_2_778
10
30.1333959
20
1.0589218
11
30.3495959
21
0.8652218
0
LINE
8
DEFAULT_255_2_778
10
30.4307959
20
1.6259218
11
30.4262959
21
1.5042218
0
LINE
8
DEFAULT_255_2_778
10
30.4262959
20
1.5042218
11
28.5810959
21
1.5042218
0
LINE
8
DEFAULT_255_2_778
10
28.5810959
20
1.7833218
11
30.0796959
21
1.7833218
0
ARC
8
DEFAULT_255_2_778
10
5.8986063
20
1.3579972
40
0.9116338
50
335.809134
51
1.0459631
0
ARC
8
DEFAULT_255_2_778
10
6.0525176
20
1.3058762
40
0.750041
50
299.180859
51
334.6230596
0
ARC
8
DEFAULT_255_2_778
10
5.8645143
20
1.6272918
40
1.1223532
50
284.0897161
51
299.5602075
0
ARC
8
DEFAULT_255_2_778
10
5.7083849
20
2.2229769
40
1.7381378
50
274.4706029
51
284.3012858
0
ARC
8
DEFAULT_255_2_778
10
5.6442996
20
2.9167936
40
2.4348586
50
269.9009019
51
274.7014243
0
ARC
8
DEFAULT_255_2_778
10
5.6206978
20
1.5718887
40
2.0622766
50
81.6108907
51
90.2919851
0
ARC
8
DEFAULT_255_2_778
10
5.7303441
20
2.291668
40
1.3342066
50
69.1129593
51
81.7595178
0
ARC
8
DEFAULT_255_2_778
10
5.9041238
20
2.7360504
40
0.8570785
50
48.2987893
51
69.3753829
0
ARC
8
DEFAULT_255_2_778
10
5.9652507
20
2.833303
40
0.744047
50
359.3023757
51
46.8310484
0
ARC
8
DEFAULT_255_2_778
10
5.645854
20
2.7971226
40
1.0637343
50
359.9954755
51
1.4609864
0
ARC
8
DEFAULT_255_2_778
10
6.0510438
20
2.782002
40
0.6587162
50
302.3024267
51
1.3080136
0
ARC
8
DEFAULT_255_2_778
10
5.8150777
20
3.1142733
40
1.0658871
50
289.4378603
51
303.4789645
0
ARC
8
DEFAULT_255_2_778
10
5.9174719
20
1.0671953
40
1.0720585
50
59.6361805
51
76.3873392
0
ARC
8
DEFAULT_255_2_778
10
6.1064542
20
1.3783052
40
0.7081177
50
25.5210414
51
60.1052819
0
ARC
8
DEFAULT_255_2_778
10
6.0906393
20
1.3853187
40
0.7194879
50
359.4043156
51
24.4743528
0
ARC
8
DEFAULT_255_2_778
10
5.5872712
20
3.45191
40
1.196819
50
269.4885628
51
282.2048448
0
ARC
8
DEFAULT_255_2_778
10
5.6976125
20
2.9638415
40
0.6964706
50
281.8209916
51
302.5976781
0
ARC
8
DEFAULT_255_2_778
10
5.8332039
20
2.7517818
40
0.4447675
50
302.5992355
51
1.6435829
0
ARC
8
DEFAULT_255_2_778
10
5.840864
20
2.7793621
40
0.4371756
50
358.0568713
51
37.7371043
0
ARC
8
DEFAULT_255_2_778
10
5.8243879
20
2.7409174
40
0.4741705
50
40.1930872
51
72.2116909
0
ARC
8
DEFAULT_255_2_778
10
5.6840647
20
2.3439713
40
0.8950934
50
71.4213109
51
86.7853771
0
ARC
8
DEFAULT_255_2_778
10
5.6434743
20
1.9025676
40
1.3381717
50
86.1099638
51
90.0636251
0
ARC
8
DEFAULT_255_2_778
10
5.690065
20
2.3333994
40
1.4581133
50
269.5136587
51
279.465988
0
ARC
8
DEFAULT_255_2_778
10
5.8118288
20
1.6359026
40
0.7501078
50
279.0539656
51
296.5652824
0
ARC
8
DEFAULT_255_2_778
10
5.9604976
20
1.3398705
40
0.4188424
50
296.4856034
51
2.8321255
0
ARC
8
DEFAULT_255_2_778
10
5.6959499
20
1.369618
40
0.6829385
50
359.2405032
51
0.0017259
0
ARC
8
DEFAULT_255_2_778
10
5.9323295
20
1.3808282
40
0.4466989
50
358.5646207
51
29.395279
0
ARC
8
DEFAULT_255_2_778
10
5.9238239
20
1.348564
40
0.470555
50
32.3109751
51
71.5943531
0
ARC
8
DEFAULT_255_2_778
10
5.7092202
20
0.7927413
40
1.0660751
50
70.0824088
51
84.9801485
0
ARC
8
DEFAULT_255_2_778
10
5.6182091
20
-0.0027246
40
1.8665724
50
84.3337431
51
90.1786757
0
ARC
8
DEFAULT_255_2_778
10
8.5133886
20
1.4057141
40
1.97986
50
56.6337946
51
61.6213778
0
ARC
8
DEFAULT_255_2_778
10
8.6518346
20
1.6552682
40
1.6944961
50
61.7294564
51
63.0235067
0
ARC
8
DEFAULT_255_2_778
10
8.7672445
20
1.8962979
40
1.427354
50
62.763206
51
90.0302281
0
ARC
8
DEFAULT_255_2_778
10
8.73978
20
1.4119196
40
1.9119189
50
89.1994932
51
90.0027496
0
ARC
8
DEFAULT_255_2_778
10
8.7282153
20
2.0651366
40
1.2587543
50
89.4777664
51
109.1864614
0
ARC
8
DEFAULT_255_2_778
10
8.6582446
20
2.2869395
40
1.0262989
50
109.5666502
51
159.1804551
0
ARC
8
DEFAULT_255_2_778
10
9.0398473
20
2.1217819
40
1.4418078
50
158.4356459
51
174.2081592
0
ARC
8
DEFAULT_255_2_778
10
9.4362145
20
2.0707963
40
1.841328
50
173.8743981
51
180.0826986
0
ARC
8
DEFAULT_255_2_778
10
9.2908384
20
2.0579389
40
1.6959808
50
179.6554202
51
193.5799074
0
ARC
8
DEFAULT_255_2_778
10
8.8597741
20
1.9500323
40
1.2516364
50
193.4116555
51
214.265481
0
ARC
8
DEFAULT_255_2_778
10
8.6883521
20
1.8428742
40
1.049664
50
214.6997595
51
262.0005822
0
ARC
8
DEFAULT_255_2_778
10
8.7472146
20
2.117214
40
1.3296778
50
261.1339343
51
270.1108997
0
ARC
8
DEFAULT_255_2_778
10
8.7296938
20
2.291717
40
1.5043127
50
270.7653738
51
297.519031
0
ARC
8
DEFAULT_255_2_778
10
8.7790772
20
2.2225803
40
1.4202304
50
297.0408922
51
307.4405073
0
ARC
8
DEFAULT_255_2_778
10
8.83168
20
2.120718
40
1.7005139
50
288.1410562
51
301.2116645
0
ARC
8
DEFAULT_255_2_778
10
8.7242909
20
2.4122034
40
2.0109784
50
273.0499521
51
288.4628673
0
ARC
8
DEFAULT_255_2_778
10
8.7392729
20
2.2158941
40
1.8141556
50
270.0131186
51
272.9073318
0
ARC
8
DEFAULT_255_2_778
10
8.7291987
20
2.1666696
40
1.7649622
50
253.0170267
51
270.3405251
0
ARC
8
DEFAULT_255_2_778
10
8.6290358
20
1.8532406
40
1.4359512
50
201.0300532
51
253.1864568
0
ARC
8
DEFAULT_255_2_778
10
8.9727471
20
1.9981257
40
1.8088009
50
185.6903777
51
201.4067241
0
ARC
8
DEFAULT_255_2_778
10
9.3319707
20
2.0435915
40
2.1707836
50
179.9406912
51
185.9443906
0
ARC
8
DEFAULT_255_2_778
10
9.1905538
20
2.0553684
40
2.0293879
50
166.4451749
51
180.2690565
0
ARC
8
DEFAULT_255_2_778
10
8.7976549
20
2.1526841
40
1.6246263
50
146.6061411
51
166.5340179
0
ARC
8
DEFAULT_255_2_778
10
8.654734
20
2.2353514
40
1.4598331
50
101.0069952
51
146.2276714
0
ARC
8
DEFAULT_255_2_778
10
8.7350231
20
1.9217125
40
1.7831322
50
89.8500991
51
101.6152475
0
ARC
8
DEFAULT_255_2_778
10
8.7380261
20
1.6820412
40
2.0227981
50
84.8084936
51
89.9529203
0
ARC
8
DEFAULT_255_2_778
10
8.7391511
20
1.6222888
40
2.0822139
50
68.1802419
51
84.988097
0
ARC
8
DEFAULT_255_2_778
10
8.9790215
20
2.2324089
40
1.426653
50
57.8456814
51
68.0160336
0
ARC
8
DEFAULT_255_2_778
10
11.557718
20
2.2148073
40
1.4931799
50
58.4916349
51
64.8506614
0
ARC
8
DEFAULT_255_2_778
10
7.3608689
20
6.0881682
40
5.4499297
50
329.7501245
51
332.4379698
0
ARC
8
DEFAULT_255_2_778
10
7.008106
20
6.2933191
40
5.8580084
50
326.9284014
51
329.7549676
0
ARC
8
DEFAULT_255_2_778
10
6.8365419
20
6.4040288
40
6.0621902
50
324.7286093
51
326.9364043
0
ARC
8
DEFAULT_255_2_778
10
6.836414
20
6.4022657
40
6.0612766
50
318.642811
51
324.7429144
0
ARC
8
DEFAULT_255_2_778
10
7.3415376
20
5.9386523
40
5.3758142
50
307.5590671
51
318.7944697
0
ARC
8
DEFAULT_255_2_778
10
7.9497263
20
5.1593967
40
4.3873451
50
298.4703114
51
307.4662314
0
ARC
8
DEFAULT_255_2_778
10
11.4039998
20
1.9076917
40
1.4910884
50
203.9399852
51
219.659751
0
ARC
8
DEFAULT_255_2_778
10
7.2834057
20
5.2439738
40
5.2175885
50
304.7322796
51
313.2893061
0
ARC
8
DEFAULT_255_2_778
10
6.1981657
20
6.3824772
40
6.7904424
50
313.367736
51
332.0993907
0
ARC
8
DEFAULT_255_2_778
10
7.0208022
20
5.9236824
40
5.8487766
50
332.300418
51
334.4700224
0
ARC
8
DEFAULT_255_2_778
10
7.2834037
20
5.797172
40
5.5572919
50
334.4801373
51
335.4494343
0
ARC
8
DEFAULT_255_2_778
10
11.49795
20
2.0521815
40
1.6661756
50
66.7752351
51
86.1830171
0
ARC
8
DEFAULT_255_2_778
10
11.4708862
20
1.8047688
40
1.91487
50
85.8678351
51
90.020883
0
ARC
8
DEFAULT_255_2_778
10
11.462074
20
2.0815517
40
1.6381069
50
89.7161865
51
109.1763611
0
ARC
8
DEFAULT_255_2_778
10
11.439046
20
2.188851
40
1.5292568
50
109.6819831
51
163.592688
0
ARC
8
DEFAULT_255_2_778
10
11.7566863
20
2.0709424
40
1.8674136
50
162.8751662
51
180.233299
0
ARC
8
DEFAULT_255_2_778
10
11.9037863
20
2.0579526
40
2.0145053
50
179.8468138
51
179.9999994
0
ARC
8
DEFAULT_255_2_778
10
11.9152934
20
2.057757
40
2.0260122
50
179.9944691
51
192.6277499
0
ARC
8
DEFAULT_255_2_778
10
8.1441985
20
5.7788592
40
4.5340738
50
293.3090432
51
314.8829211
0
ARC
8
DEFAULT_255_2_778
10
7.6142708
20
6.4092134
40
5.3551093
50
314.1410591
51
321.1296113
0
ARC
8
DEFAULT_255_2_778
10
7.8745207
20
6.1939399
40
5.0173917
50
321.1785138
51
322.1995684
0
ARC
8
DEFAULT_255_2_778
10
8.0855599
20
6.0319283
40
4.7513403
50
322.1834673
51
324.8226327
0
ARC
8
DEFAULT_255_2_778
10
8.4807425
20
5.7542425
40
4.2683517
50
324.8132948
51
327.7422704
0
ARC
8
DEFAULT_255_2_778
10
8.8701566
20
5.5070485
40
3.8071071
50
327.7603246
51
329.6491025
0
ARC
8
DEFAULT_255_2_778
10
3.2948452
20
7.1456262
40
9.7965159
50
333.8571016
51
337.9340786
0
ARC
8
DEFAULT_255_2_778
10
4.7442732
20
6.4332042
40
8.1814662
50
328.636377
51
333.8634412
0
ARC
8
DEFAULT_255_2_778
10
5.5371845
20
5.9514558
40
7.2536796
50
321.1080344
51
328.6258818
0
ARC
8
DEFAULT_255_2_778
10
5.3290666
20
6.1355376
40
7.5312512
50
313.7643587
51
321.0121088
0
ARC
8
DEFAULT_255_2_778
10
11.4078321
20
1.9650943
40
1.5379097
50
235.5740044
51
260.2373099
0
ARC
8
DEFAULT_255_2_778
10
11.4664943
20
2.2497742
40
1.8284393
50
259.9383601
51
270.1157533
0
ARC
8
DEFAULT_255_2_778
10
11.4782325
20
2.0523716
40
1.6310528
50
269.7174208
51
289.2739659
0
ARC
8
DEFAULT_255_2_778
10
11.4967768
20
1.955057
40
1.5331411
50
289.8202412
51
343.3944575
0
ARC
8
DEFAULT_255_2_778
10
11.1772885
20
2.0752814
40
1.8738154
50
342.6634381
51
0.2341336
0
ARC
8
DEFAULT_255_2_778
10
11.0512139
20
2.0922155
40
1.9998959
50
359.7342223
51
13.2084899
0
ARC
8
DEFAULT_255_2_778
10
11.4451003
20
2.1875741
40
1.5946433
50
13.106636
51
33.1636855
0
ARC
8
DEFAULT_255_2_778
10
11.5964191
20
2.2802174
40
1.4173034
50
33.3748555
51
56.7610569
0
LINE
8
DEFAULT_255_2_778
10
1.3649883
20
0.4822386
11
1.3649883
21
3.2307386
0
LINE
8
DEFAULT_255_2_778
10
1.3649883
20
3.2307386
11
0.2608883
21
3.2307386
0
LINE
8
DEFAULT_255_2_778
10
0.2608883
20
3.2307386
11
0.2608883
21
3.6341386
0
LINE
8
DEFAULT_255_2_778
10
0.2608883
20
3.6341386
11
2.8934883
21
3.6341386
0
LINE
8
DEFAULT_255_2_778
10
2.8934883
20
3.6341386
11
2.8934883
21
3.2307386
0
LINE
8
DEFAULT_255_2_778
10
2.8934883
20
3.2307386
11
1.7888883
21
3.2307386
0
LINE
8
DEFAULT_255_2_778
10
1.7888883
20
3.2307386
11
1.7888883
21
0.4822386
0
LINE
8
DEFAULT_255_2_778
10
1.7888883
20
0.4822386
11
1.3649883
21
0.4822386
0
LINE
8
DEFAULT_255_2_778
10
3.3969883
20
3.6341386
11
3.8202883
21
3.6341386
0
LINE
8
DEFAULT_255_2_778
10
3.8202883
20
3.6341386
11
3.8202883
21
0.4822386
0
LINE
8
DEFAULT_255_2_778
10
3.8202883
20
0.4822386
11
3.3969883
21
0.4822386
0
LINE
8
DEFAULT_255_2_778
10
3.3969883
20
0.4822386
11
3.3969883
21
3.6341386
0
LINE
8
DEFAULT_255_2_778
10
5.6400883
20
0.4819386
11
4.5658883
21
0.4819386
0
LINE
8
DEFAULT_255_2_778
10
4.5658883
20
0.4819386
11
4.5658883
21
3.6341386
0
LINE
8
DEFAULT_255_2_778
10
4.5658883
20
3.6341386
11
5.6101883
21
3.6341386
0
LINE
8
DEFAULT_255_2_778
10
5.6453883
20
3.2436386
11
4.9945883
21
3.2436386
0
LINE
8
DEFAULT_255_2_778
10
4.9945883
20
3.2436386
11
4.9945883
21
2.2551386
0
LINE
8
DEFAULT_255_2_778
10
4.9945883
20
2.2551386
11
5.5765883
21
2.2551386
0
LINE
8
DEFAULT_255_2_778
10
5.6117883
20
1.8643386
11
4.9918883
21
1.8643386
0
LINE
8
DEFAULT_255_2_778
10
4.9918883
20
1.8643386
11
4.9918883
21
0.8753386
0
LINE
8
DEFAULT_255_2_778
10
4.9918883
20
0.8753386
11
5.6776883
21
0.8753386
0
LINE
8
DEFAULT_255_2_778
10
9.6424883
20
1.0949386
11
9.7128883
21
0.6663386
0
LINE
8
DEFAULT_255_2_778
10
9.7382883
20
3.4402386
11
9.6022883
21
3.0592386
0
ENDSEC
0
EOF