0
SECTION
2
HEADER
9
$MEASUREMENT
70
1
0
ENDSEC
0
SECTION
2
TABLES
0
TABLE
2
LTYPE
0
LTYPE
72
65
70
64
2
CONTINUOUS
3
______
73
0
40
0
0
ENDTAB
0
TABLE
2
LAYER
0
LAYER
2
DEFAULT_255_2_778
70
0
62
255
6
CONTINUOUS
0
ENDTAB
0
ENDSEC
0
SECTION
2
ENTITIES
0
ARC
8
DEFAULT_255_2_778
10
0.3748419
20
10.8847954
40
0.270755
50
87.440011
51
132.3508535
0
ARC
8
DEFAULT_255_2_778
10
0.3412622
20
10.9382805
40
0.2089074
50
135.4281402
51
181.5910199
0
ARC
8
DEFAULT_255_2_778
10
0.3458167
20
9.0248687
40
0.2133874
50
180.4265389
51
252.2141142
0
ARC
8
DEFAULT_255_2_778
10
5.1400779
20
-0.0130276
40
0.2345429
50
180.0713781
51
274.8812115
0
ARC
8
DEFAULT_255_2_778
10
7.8316475
20
-0.0129783
40
0.2345881
50
265.1307634
51
359.9165916
0
ARC
8
DEFAULT_255_2_778
10
7.8232287
20
10.9513385
40
0.2437372
50
355.5625036
51
359.9675168
0
ARC
8
DEFAULT_255_2_778
10
7.8616837
20
10.9479529
40
0.2053077
50
0.9063058
51
90.1566485
0
ARC
8
DEFAULT_255_2_778
10
7.822731
20
10.7895567
40
0.3657237
50
83.9743535
51
90.0620012
0
LINE
8
DEFAULT_255_2_778
10
7.8220352
20
11.1552802
11
0.3869352
21
11.1552802
0
LINE
8
DEFAULT_255_2_778
10
0.1324352
20
10.9324802
11
0.1324352
21
9.0232802
0
LINE
8
DEFAULT_255_2_778
10
0.2806352
20
8.8216802
11
0.3864352
21
8.7898802
0
LINE
8
DEFAULT_255_2_778
10
0.3864352
20
8.7898802
11
4.9055352
21
8.7898802
0
LINE
8
DEFAULT_255_2_778
10
4.9055352
20
8.7898802
11
4.9055352
21
-0.0133198
0
LINE
8
DEFAULT_255_2_778
10
5.1600352
20
-0.2467198
11
7.8117352
21
-0.2467198
0
LINE
8
DEFAULT_255_2_778
10
8.0662352
20
-0.0133198
11
8.0662352
21
10.9324802
0
ARC
8
DEFAULT_255_2_778
10
9.3741171
20
10.8952145
40
0.270842
50
87.4350295
51
132.3262514
0
ARC
8
DEFAULT_255_2_778
10
9.3404245
20
10.948899
40
0.2087676
50
135.4122223
51
181.5958067
0
ARC
8
DEFAULT_255_2_778
10
9.3542376
20
-0.0107481
40
0.2224997
50
179.9914325
51
272.9313808
0
ARC
8
DEFAULT_255_2_778
10
9.3861313
20
0.1437425
40
0.3772573
50
266.8827509
51
270.0161952
0
ARC
8
DEFAULT_255_2_778
10
12.0474514
20
0.0312607
40
0.2649464
50
267.9422165
51
316.6320863
0
ARC
8
DEFAULT_255_2_778
10
12.083926
20
-0.0124575
40
0.2085193
50
318.4830279
51
0.4788591
0
ARC
8
DEFAULT_255_2_778
10
16.8031829
20
9.1023898
40
0.312396
50
271.3857767
51
291.2757427
0
ARC
8
DEFAULT_255_2_778
10
16.8487798
20
9.0164585
40
0.2160723
50
288.2757117
51
1.8635915
0
ARC
8
DEFAULT_255_2_778
10
16.8208906
20
10.9515757
40
0.2445779
50
355.5702178
51
359.9753879
0
ARC
8
DEFAULT_255_2_778
10
16.8481192
20
10.9479797
40
0.2173772
50
0.9201712
51
91.1786246
0
ARC
8
DEFAULT_255_2_778
10
16.8208508
20
10.8301517
40
0.3359336
50
86.1088202
51
90.0192604
0
LINE
8
DEFAULT_255_2_778
10
16.8210379
20
11.1657852
11
9.3862379
21
11.1657852
0
LINE
8
DEFAULT_255_2_778
10
9.1317379
20
10.9430852
11
9.1317379
21
-0.0107148
0
LINE
8
DEFAULT_255_2_778
10
9.3862379
20
-0.2335148
11
12.0379379
21
-0.2335148
0
LINE
8
DEFAULT_255_2_778
10
12.2924379
20
-0.0107148
11
12.2924379
21
8.7900852
0
LINE
8
DEFAULT_255_2_778
10
12.2924379
20
8.7900852
11
16.8107379
21
8.7900852
0
LINE
8
DEFAULT_255_2_778
10
17.0647379
20
9.0234852
11
17.0647379
21
10.9326852
0
ENDSEC
0
EOF