0
SECTION
2
HEADER
9
$MEASUREMENT
70
1
0
ENDSEC
0
SECTION
2
TABLES
0
TABLE
2
LTYPE
0
LTYPE
72
65
70
64
2
CONTINUOUS
3
______
73
0
40
0
0
ENDTAB
0
TABLE
2
LAYER
0
LAYER
2
DEFAULT_255_2_778
70
0
62
255
6
CONTINUOUS
0
ENDTAB
0
ENDSEC
0
SECTION
2
ENTITIES
0
ARC
8
DEFAULT_255_2_778
10
1.85647
20
0.8442948
40
1.0381742
50
250.9922529
51
270.7506707
0
ARC
8
DEFAULT_255_2_778
10
1.7902118
20
0.6281908
40
0.8123101
50
222.3177504
51
250.4463903
0
ARC
8
DEFAULT_255_2_778
10
1.8415122
20
0.6560775
40
0.8691287
50
197.8972598
51
221.4002288
0
ARC
8
DEFAULT_255_2_778
10
2.3775526
20
0.8397044
40
1.4356951
50
185.8859069
51
198.296734
0
ARC
8
DEFAULT_255_2_778
10
3.1416806
20
0.9303356
40
2.2051203
50
179.8187891
51
186.192346
0
ARC
8
DEFAULT_255_2_778
10
0.4693793
20
3.3760528
40
0.2959507
50
237.0891395
51
272.6129702
0
ARC
8
DEFAULT_255_2_778
10
0.420158
20
3.2830239
40
0.1913302
50
228.417039
51
234.325962
0
ARC
8
DEFAULT_255_2_778
10
0.4383831
20
3.2901476
40
0.2089446
50
177.2946368
51
225.9746012
0
ARC
8
DEFAULT_255_2_778
10
0.4326977
20
3.3083052
40
0.2031957
50
179.9983557
51
182.3397366
0
ARC
8
DEFAULT_255_2_778
10
0.432998
20
3.3082614
40
0.203496
50
133.4027244
51
179.9860265
0
ARC
8
DEFAULT_255_2_778
10
0.4549131
20
3.2797895
40
0.2392681
50
89.5745855
51
132.5307016
0
ARC
8
DEFAULT_255_2_778
10
0.4789226
20
3.0772507
40
0.4423592
50
89.9677782
51
92.8809051
0
ARC
8
DEFAULT_255_2_778
10
1.3158126
20
4.5577914
40
0.2903388
50
129.7210621
51
176.3233104
0
ARC
8
DEFAULT_255_2_778
10
1.3522403
20
4.5357628
40
0.3308555
50
90.410237
51
132.1360881
0
ARC
8
DEFAULT_255_2_778
10
1.3577974
20
4.6062152
40
0.2605152
50
90.0026591
51
91.7434482
0
ARC
8
DEFAULT_255_2_778
10
1.3578176
20
4.6072258
40
0.2595046
50
46.6754649
51
90.0071491
0
ARC
8
DEFAULT_255_2_778
10
1.3649658
20
4.6207589
40
0.2447889
50
358.6131266
51
45.7191948
0
ARC
8
DEFAULT_255_2_778
10
1.171408
20
4.598937
40
0.4385633
50
359.983378
51
2.0773372
0
ARC
8
DEFAULT_255_2_778
10
2.3080489
20
3.2505429
40
0.2691096
50
54.8988694
51
92.8920016
0
ARC
8
DEFAULT_255_2_778
10
2.3508453
20
3.3269043
40
0.1822438
50
45.0176365
51
52.1008936
0
ARC
8
DEFAULT_255_2_778
10
2.3216369
20
3.3003262
40
0.2216981
50
357.7984734
51
44.5338336
0
ARC
8
DEFAULT_255_2_778
10
2.3403845
20
3.2773095
40
0.2033046
50
316.7171021
51
4.0899808
0
ARC
8
DEFAULT_255_2_778
10
2.3388061
20
3.3102495
40
0.2281891
50
273.140181
51
310.958136
0
ARC
8
DEFAULT_255_2_778
10
2.2991426
20
3.5676453
40
0.4880382
50
269.8155441
51
276.1357267
0
ARC
8
DEFAULT_255_2_778
10
3.6060548
20
1.0391954
40
1.9937221
50
179.6432315
51
186.7896583
0
ARC
8
DEFAULT_255_2_778
10
2.6061066
20
0.9148493
40
0.9860998
50
186.484298
51
198.5852173
0
ARC
8
DEFAULT_255_2_778
10
2.1600559
20
0.767723
40
0.5164263
50
198.8857962
51
211.6147406
0
ARC
8
DEFAULT_255_2_778
10
2.0273746
20
0.6970299
40
0.3664975
50
213.0766958
51
269.8720709
0
ARC
8
DEFAULT_255_2_778
10
2.0619995
20
0.9436998
40
0.6141901
50
266.6917843
51
270.0346963
0
ARC
8
DEFAULT_255_2_778
10
2.3899764
20
0.0905882
40
0.2502815
50
43.4177211
51
92.6117949
0
ARC
8
DEFAULT_255_2_778
10
2.3779091
20
0.0827064
40
0.2644765
50
0.0086267
51
42.8611807
0
ARC
8
DEFAULT_255_2_778
10
2.3747833
20
0.0827666
40
0.2676022
50
359.4097292
51
359.9956392
0
ARC
8
DEFAULT_255_2_778
10
2.378115
20
0.0692013
40
0.2644774
50
327.5801284
51
2.3421856
0
ARC
8
DEFAULT_255_2_778
10
2.428533
20
0.0623059
40
0.2192489
50
282.2015153
51
322.0288373
0
ARC
8
DEFAULT_255_2_778
10
2.2412635
20
0.5782715
40
0.766717
50
274.9462986
51
287.7392709
0
ARC
8
DEFAULT_255_2_778
10
2.1506532
20
1.6013533
40
1.7938026
50
270.6283478
51
275.0121193
0
ARC
8
DEFAULT_255_2_778
10
2.0950658
20
4.1639152
40
4.3569067
50
269.9566771
51
270.9897503
0
ARC
8
DEFAULT_255_2_778
10
3.7511188
20
0.2202283
40
0.3620081
50
231.2990845
51
271.2746079
0
ARC
8
DEFAULT_255_2_778
10
3.7079636
20
0.1496324
40
0.280126
50
177.1062367
51
229.1588912
0
ARC
8
DEFAULT_255_2_778
10
3.8819924
20
0.168383
40
0.453821
50
179.9966134
51
180.5818603
0
ARC
8
DEFAULT_255_2_778
10
3.6981471
20
3.2568557
40
0.2704581
50
128.7743527
51
183.4225055
0
ARC
8
DEFAULT_255_2_778
10
3.759001
20
3.1849673
40
0.3646217
50
89.961936
51
129.1550031
0
ARC
8
DEFAULT_255_2_778
10
3.7592398
20
3.1818675
40
0.3677216
50
88.8108109
51
89.9994554
0
ARC
8
DEFAULT_255_2_778
10
3.7750472
20
3.187955
40
0.3616472
50
51.2782919
51
91.295403
0
ARC
8
DEFAULT_255_2_778
10
3.8394921
20
3.2632745
40
0.2625897
50
357.2136984
51
51.9687358
0
ARC
8
DEFAULT_255_2_778
10
5.1660772
20
2.523471
40
1.1042112
50
129.0736926
51
165.2873141
0
ARC
8
DEFAULT_255_2_778
10
5.117809
20
2.6039954
40
1.0113601
50
88.7018685
51
129.8262725
0
ARC
8
DEFAULT_255_2_778
10
5.1468242
20
2.2656651
40
1.3494446
50
89.9979952
51
90.2591285
0
ARC
8
DEFAULT_255_2_778
10
5.1559141
20
3.3957337
40
0.2195624
50
36.2974861
51
92.3604075
0
ARC
8
DEFAULT_255_2_778
10
5.077279
20
3.3228045
40
0.3263403
50
359.0176809
51
38.4447535
0
ARC
8
DEFAULT_255_2_778
10
5.0947931
20
3.3105877
40
0.3088492
50
0.0022734
51
1.2285846
0
ARC
8
DEFAULT_255_2_778
10
5.0963061
20
3.3105924
40
0.3073363
50
322.5732565
51
0.0014114
0
ARC
8
DEFAULT_255_2_778
10
5.1685682
20
3.2725585
40
0.2272499
50
266.5950844
51
319.1136964
0
ARC
8
DEFAULT_255_2_778
10
5.1421744
20
1.5183394
40
1.5274248
50
89.5162089
51
102.3152211
0
ARC
8
DEFAULT_255_2_778
10
5.0162155
20
2.0658747
40
0.9656436
50
101.942799
51
126.8334205
0
ARC
8
DEFAULT_255_2_778
10
4.9509437
20
2.1691023
40
0.8439474
50
127.4880059
51
133.1209541
0
ARC
8
DEFAULT_255_2_778
10
4.975425
20
2.1534625
40
0.8721264
50
133.5925809
51
174.7150893
0
ARC
8
DEFAULT_255_2_778
10
5.3445106
20
2.0916488
40
1.2456414
50
173.4475371
51
180.107589
0
ARC
8
DEFAULT_255_2_778
10
3.8237243
20
0.1583031
40
0.2755345
50
308.3468087
51
3.0388013
0
ARC
8
DEFAULT_255_2_778
10
3.7640868
20
0.2259523
40
0.3656215
50
270.0125978
51
309.0991889
0
ARC
8
DEFAULT_255_2_778
10
3.7641802
20
0.2267826
40
0.3664518
50
268.8102629
51
269.9979732
0
ARC
8
DEFAULT_255_2_778
10
12.8498756
20
0.2112473
40
0.3530129
50
269.9989672
51
271.1842297
0
ARC
8
DEFAULT_255_2_778
10
12.8500139
20
0.2129142
40
0.3546799
50
229.3519137
51
269.9766357
0
ARC
8
DEFAULT_255_2_778
10
12.8388572
20
0.1718716
40
0.3167996
50
177.0655493
51
226.0456579
0
ARC
8
DEFAULT_255_2_778
10
13.1422
20
0.1894109
40
0.6197286
50
180.0093471
51
180.1221462
0
ARC
8
DEFAULT_255_2_778
10
12.0223573
20
3.3651867
40
0.2871811
50
238.3917405
51
272.6372882
0
ARC
8
DEFAULT_255_2_778
10
11.9737679
20
3.2698387
40
0.1807161
50
226.9356551
51
235.6668038
0
ARC
8
DEFAULT_255_2_778
10
12.0101495
20
3.2881111
40
0.2193617
50
179.9916644
51
223.2494531
0
ARC
8
DEFAULT_255_2_778
10
12.0102012
20
3.2881535
40
0.2194134
50
178.4183048
51
180.0027227
0
ARC
8
DEFAULT_255_2_778
10
12.0154945
20
3.3018366
40
0.2247525
50
137.2808987
51
181.9446674
0
ARC
8
DEFAULT_255_2_778
10
12.0029445
20
3.2976215
40
0.2187002
50
91.3894566
51
134.2376534
0
ARC
8
DEFAULT_255_2_778
10
12.0347659
20
3.0733407
40
0.4444699
50
89.8961658
51
94.7912263
0
ARC
8
DEFAULT_255_2_778
10
15.0034122
20
4.0027271
40
2.4809719
50
172.7253758
51
180.2867684
0
ARC
8
DEFAULT_255_2_778
10
14.0329789
20
4.1308681
40
1.5021299
50
161.4687558
51
172.8866469
0
ARC
8
DEFAULT_255_2_778
10
13.4453521
20
4.3336771
40
0.8805315
50
141.5221078
51
161.8287848
0
ARC
8
DEFAULT_255_2_778
10
13.2843473
20
4.4497114
40
0.6823551
50
134.618672
51
140.7376622
0
ARC
8
DEFAULT_255_2_778
10
13.4644703
20
4.2667784
40
0.9390819
50
101.1921741
51
134.6016892
0
ARC
8
DEFAULT_255_2_778
10
13.5761697
20
3.7885416
40
1.4300025
50
89.6032681
51
101.8632747
0
ARC
8
DEFAULT_255_2_778
10
14.0495266
20
5.0207516
40
0.1979937
50
37.1823179
51
92.7951381
0
ARC
8
DEFAULT_255_2_778
10
14.0048937
20
4.9678673
40
0.2659467
50
358.6948603
51
40.4501396
0
ARC
8
DEFAULT_255_2_778
10
14.0055196
20
4.9556263
40
0.2653239
50
319.4993154
51
1.3354299
0
ARC
8
DEFAULT_255_2_778
10
14.0489967
20
4.9141669
40
0.2053642
50
266.391519
51
320.4170187
0
ARC
8
DEFAULT_255_2_778
10
13.7081583
20
3.6116132
40
1.0976601
50
89.383367
51
98.406162
0
ARC
8
DEFAULT_255_2_778
10
13.6228105
20
4.206762
40
0.4964348
50
98.7031879
51
107.8462179
0
ARC
8
DEFAULT_255_2_778
10
13.5663158
20
4.3903708
40
0.3043577
50
108.3155503
51
145.560475
0
ARC
8
DEFAULT_255_2_778
10
13.710334
20
4.2653013
40
0.4943407
50
143.0445272
51
143.9079275
0
ARC
8
DEFAULT_255_2_778
10
13.7059263
20
4.2870524
40
0.4782005
50
145.7030453
51
166.6456775
0
ARC
8
DEFAULT_255_2_778
10
14.1888409
20
4.1505915
40
0.9798059
50
165.4040586
51
172.1266095
0
ARC
8
DEFAULT_255_2_778
10
15.6929717
20
3.9835607
40
2.4929686
50
173.0594442
51
177.1458167
0
ARC
8
DEFAULT_255_2_778
10
18.2604728
20
3.8455927
40
5.0641645
50
177.0332442
51
179.4880778
0
ARC
8
DEFAULT_255_2_778
10
20.6895808
20
3.8097184
40
7.4935095
50
179.3797349
51
180.0092412
0
ARC
8
DEFAULT_255_2_778
10
13.8374466
20
3.2558236
40
0.2627969
50
58.3519348
51
92.78639
0
ARC
8
DEFAULT_255_2_778
10
13.8879917
20
3.3527288
40
0.1539802
50
41.5251273
51
55.4417091
0
ARC
8
DEFAULT_255_2_778
10
13.8388455
20
3.3024558
40
0.2241598
50
358.0197121
51
42.8176223
0
ARC
8
DEFAULT_255_2_778
10
13.8454235
20
3.2812398
40
0.2178646
50
321.3773725
51
3.5447122
0
ARC
8
DEFAULT_255_2_778
10
13.8626994
20
3.2950051
40
0.214046
50
272.3945355
51
315.6023495
0
ARC
8
DEFAULT_255_2_778
10
13.8258699
20
3.5280741
40
0.4492658
50
269.8471551
51
275.8475958
0
ARC
8
DEFAULT_255_2_778
10
12.8845124
20
0.1731126
40
0.311465
50
312.5090592
51
2.9256466
0
ARC
8
DEFAULT_255_2_778
10
12.8639379
20
0.2126226
40
0.3546804
50
269.9792597
51
310.646115
0
ARC
8
DEFAULT_255_2_778
10
12.8637921
20
0.2122299
40
0.3542877
50
268.8807079
51
270.0028141
0
ARC
8
DEFAULT_255_2_778
10
15.1897721
20
4.8983151
40
0.4814148
50
241.1695112
51
271.6901788
0
ARC
8
DEFAULT_255_2_778
10
15.1506785
20
4.8080805
40
0.383625
50
226.7389787
51
239.7856298
0
ARC
8
DEFAULT_255_2_778
10
15.1689686
20
4.8137471
40
0.4003975
50
178.1877091
51
225.3885635
0
ARC
8
DEFAULT_255_2_778
10
15.1649755
20
4.8405733
40
0.3964572
50
134.3631027
51
182.0473424
0
ARC
8
DEFAULT_255_2_778
10
15.1796185
20
4.8130803
40
0.426441
50
88.171221
51
133.1867643
0
ARC
8
DEFAULT_255_2_778
10
15.2052422
20
4.5558567
40
0.683553
50
89.9975557
51
91.0071378
0
ARC
8
DEFAULT_255_2_778
10
15.2203055
20
4.7925501
40
0.4471125
50
56.006692
51
91.9269313
0
ARC
8
DEFAULT_255_2_778
10
15.2424004
20
4.8412437
40
0.3944881
50
45.7903184
51
54.7131449
0
ARC
8
DEFAULT_255_2_778
10
15.2492442
20
4.8440327
40
0.3877279
50
357.3949017
51
46.227856
0
ARC
8
DEFAULT_255_2_778
10
15.2410623
20
4.8119659
40
0.3957727
50
314.2990691
51
2.0914991
0
ARC
8
DEFAULT_255_2_778
10
15.2293775
20
4.8482701
40
0.4302521
50
271.1037169
51
312.0356807
0
ARC
8
DEFAULT_255_2_778
10
15.201702
20
5.072075
40
0.6549653
50
269.9710764
51
273.1476017
0
ARC
8
DEFAULT_255_2_778
10
15.1919304
20
0.2006356
40
0.3424274
50
270.0007489
51
271.395771
0
ARC
8
DEFAULT_255_2_778
10
15.1918506
20
0.1992897
40
0.3410816
50
228.5063332
51
270.0141562
0
ARC
8
DEFAULT_255_2_778
10
15.1857939
20
0.1706374
40
0.3159378
50
179.8229847
51
225.8855118
0
ARC
8
DEFAULT_255_2_778
10
15.3972855
20
0.1964924
40
0.5280143
50
179.9764146
51
182.7006583
0
ARC
8
DEFAULT_255_2_778
10
15.180186
20
3.2381662
40
0.3113238
50
132.4968285
51
182.9378926
0
ARC
8
DEFAULT_255_2_778
10
15.2072794
20
3.1976961
40
0.3595413
50
90.009173
51
131.3233676
0
ARC
8
DEFAULT_255_2_778
10
15.2072367
20
3.1983486
40
0.3588887
50
89.2919944
51
90.0023737
0
ARC
8
DEFAULT_255_2_778
10
15.2170471
20
3.2288426
40
0.3284112
50
90.0003711
51
90.9379009
0
ARC
8
DEFAULT_255_2_778
10
15.2170359
20
3.2289553
40
0.3282984
50
46.6562296
51
89.9984261
0
ARC
8
DEFAULT_255_2_778
10
15.2316936
20
3.2381441
40
0.3115855
50
357.0686419
51
47.4566716
0
ARC
8
DEFAULT_255_2_778
10
15.2274026
20
0.1798342
40
0.3158008
50
311.9894821
51
2.627226
0
ARC
8
DEFAULT_255_2_778
10
15.2063357
20
0.2021143
40
0.3464552
50
270.0233938
51
312.1140144
0
ARC
8
DEFAULT_255_2_778
10
15.2064796
20
0.2019791
40
0.3463197
50
269.0224927
51
269.9996097
0
ARC
8
DEFAULT_255_2_778
10
16.9805304
20
0.2006356
40
0.3424274
50
270.0007489
51
271.395771
0
ARC
8
DEFAULT_255_2_778
10
16.9804506
20
0.1992897
40
0.3410816
50
228.5063332
51
270.0141562
0
ARC
8
DEFAULT_255_2_778
10
16.9743939
20
0.1706374
40
0.3159378
50
179.8229847
51
225.8855118
0
ARC
8
DEFAULT_255_2_778
10
17.1858855
20
0.1964924
40
0.5280143
50
179.9764146
51
182.7006583
0
ARC
8
DEFAULT_255_2_778
10
16.9691935
20
4.8536849
40
0.3117266
50
132.5555149
51
182.9191317
0
ARC
8
DEFAULT_255_2_778
10
16.9957903
20
4.8128648
40
0.3598725
50
89.99711
51
131.279335
0
ARC
8
DEFAULT_255_2_778
10
16.9958391
20
4.8168636
40
0.3558738
50
89.2863865
51
90.0049331
0
ARC
8
DEFAULT_255_2_778
10
17.0060147
20
4.8454942
40
0.327266
50
90.0004166
51
91.0055564
0
ARC
8
DEFAULT_255_2_778
10
17.0059416
20
4.8449814
40
0.3277787
50
46.6439625
51
89.9876293
0
ARC
8
DEFAULT_255_2_778
10
17.0201488
20
4.8536848
40
0.3117272
50
357.0808995
51
47.4444312
0
ARC
8
DEFAULT_255_2_778
10
19.1993693
20
3.346491
40
0.2628608
50
91.0240674
51
133.0081382
0
ARC
8
DEFAULT_255_2_778
10
19.1945285
20
3.3294174
40
0.2798924
50
41.8645435
51
89.9707555
0
ARC
8
DEFAULT_255_2_778
10
19.2074883
20
3.3045778
40
0.2881002
50
0.622884
51
47.2715471
0
ARC
8
DEFAULT_255_2_778
10
19.2378476
20
3.3130741
40
0.2577796
50
310.8250315
51
358.8076059
0
ARC
8
DEFAULT_255_2_778
10
19.3414783
20
0.1582865
40
0.2728968
50
0.2988151
51
45.5537878
0
ARC
8
DEFAULT_255_2_778
10
19.3265321
20
0.1626554
40
0.2878544
50
311.6333632
51
359.4136894
0
ARC
8
DEFAULT_255_2_778
10
19.3019695
20
0.150751
40
0.2964413
50
270.0390194
51
316.7168997
0
ARC
8
DEFAULT_255_2_778
10
19.3022749
20
0.1452887
40
0.290979
50
219.9078349
51
269.9796251
0
ARC
8
DEFAULT_255_2_778
10
17.0219843
20
0.1771241
40
0.3094647
50
311.4331892
51
3.1834754
0
ARC
8
DEFAULT_255_2_778
10
16.9944131
20
0.2021735
40
0.3465142
50
270.0116928
51
312.1102389
0
ARC
8
DEFAULT_255_2_778
10
16.9944863
20
0.2027756
40
0.3471162
50
269.0236216
51
269.9995828
0
LINE
8
DEFAULT_255_2_778
10
0.9365714
20
0.9373098
11
0.9365714
21
3.0804098
0
LINE
8
DEFAULT_255_2_778
10
0.9365714
20
3.0804098
11
0.4828714
21
3.0804098
0
LINE
8
DEFAULT_255_2_778
10
0.4791714
20
3.5196098
11
0.9368714
21
3.5196098
0
LINE
8
DEFAULT_255_2_778
10
0.9368714
20
3.5196098
11
1.0260714
21
4.5764098
0
LINE
8
DEFAULT_255_2_778
10
1.6099714
20
4.5988098
11
1.6099714
21
3.5193098
0
LINE
8
DEFAULT_255_2_778
10
1.6099714
20
3.5193098
11
2.2944714
21
3.5193098
0
LINE
8
DEFAULT_255_2_778
10
2.2975714
20
3.0796098
11
1.6123714
21
3.0796098
0
LINE
8
DEFAULT_255_2_778
10
1.6123714
20
3.0796098
11
1.6123714
21
1.0516098
0
LINE
8
DEFAULT_255_2_778
10
2.0623714
20
0.3295098
11
2.1033714
21
0.3295098
0
LINE
8
DEFAULT_255_2_778
10
2.1033714
20
0.3295098
11
2.3563714
21
0.3406098
0
LINE
8
DEFAULT_255_2_778
10
2.3563714
20
0.3406098
11
2.3785714
21
0.3406098
0
LINE
8
DEFAULT_255_2_778
10
2.0917714
20
-0.1929902
11
1.8700714
21
-0.1937902
0
LINE
8
DEFAULT_255_2_778
10
3.4281714
20
0.1684098
11
3.4281714
21
3.2407098
0
LINE
8
DEFAULT_255_2_778
10
4.1017714
20
3.2505098
11
4.0980714
21
2.8039098
0
LINE
8
DEFAULT_255_2_778
10
4.0988714
20
2.0893098
11
4.0988714
21
0.1729098
0
LINE
8
DEFAULT_255_2_778
10
3.7565714
20
-0.1395902
11
3.7591714
21
-0.1416902
0
LINE
8
DEFAULT_255_2_778
10
12.5224714
20
0.1893098
11
12.5224714
21
3.0783098
0
LINE
8
DEFAULT_255_2_778
10
12.5224714
20
3.0783098
11
12.0355714
21
3.0783098
0
LINE
8
DEFAULT_255_2_778
10
12.0355714
20
3.5178098
11
12.5224714
21
3.5178098
0
LINE
8
DEFAULT_255_2_778
10
12.5224714
20
3.5178098
11
12.5224714
21
3.9903098
0
LINE
8
DEFAULT_255_2_778
10
13.5860714
20
5.2185098
11
14.0398714
21
5.2185098
0
LINE
8
DEFAULT_255_2_778
10
14.0360714
20
4.7092098
11
13.7199714
21
4.7092098
0
LINE
8
DEFAULT_255_2_778
10
13.1960714
20
3.8085098
11
13.1960714
21
3.5183098
0
LINE
8
DEFAULT_255_2_778
10
13.1960714
20
3.5183098
11
13.8246714
21
3.5183098
0
LINE
8
DEFAULT_255_2_778
10
13.8246714
20
3.0788098
11
13.1955714
21
3.0788098
0
LINE
8
DEFAULT_255_2_778
10
13.1955714
20
3.0788098
11
13.1955714
21
0.1890098
0
LINE
8
DEFAULT_255_2_778
10
12.8568714
20
-0.1419902
11
12.8571714
21
-0.1416902
0
LINE
8
DEFAULT_255_2_778
10
15.2013714
20
4.4171098
11
15.2039714
21
4.4171098
0
LINE
8
DEFAULT_255_2_778
10
14.8692714
20
0.1967098
11
14.8692714
21
3.2222098
0
LINE
8
DEFAULT_255_2_778
10
15.5428714
20
3.2222098
11
15.5428714
21
0.1943098
0
LINE
8
DEFAULT_255_2_778
10
15.2005714
20
-0.1442902
11
15.2002714
21
-0.1416902
0
LINE
8
DEFAULT_255_2_778
10
16.6578714
20
0.1967098
11
16.6578714
21
4.8378098
0
LINE
8
DEFAULT_255_2_778
10
17.3314714
20
4.8378098
11
17.3314714
21
1.9908098
0
LINE
8
DEFAULT_255_2_778
10
17.3314714
20
1.9908098
11
19.0200714
21
3.5387098
0
LINE
8
DEFAULT_255_2_778
10
19.4063714
20
3.1180098
11
18.0561714
21
1.9088098
0
LINE
8
DEFAULT_255_2_778
10
18.0561714
20
1.9088098
11
19.5325714
21
0.3531098
0
LINE
8
DEFAULT_255_2_778
10
19.0790714
20
-0.0413902
11
17.3309714
21
1.8189098
0
LINE
8
DEFAULT_255_2_778
10
17.3309714
20
1.8189098
11
17.3309714
21
0.1943098
0
LINE
8
DEFAULT_255_2_778
10
16.9885714
20
-0.1442902
11
16.9888714
21
-0.1416902
0
ARC
8
DEFAULT_255_2_778
10
7.0637404
20
2.0867651
40
2.2345585
50
255.2616229
51
265.4104229
0
ARC
8
DEFAULT_255_2_778
10
6.8708701
20
1.3721462
40
1.4943923
50
238.4071765
51
255.4426378
0
ARC
8
DEFAULT_255_2_778
10
6.7448968
20
1.1507737
40
1.2398643
50
226.4621453
51
238.0065525
0
ARC
8
DEFAULT_255_2_778
10
6.5623077
20
0.9725286
40
0.9849242
50
178.8935978
51
227.0195148
0
ARC
8
DEFAULT_255_2_778
10
6.8770583
20
0.989867
40
1.2994922
50
173.6509347
51
179.9259423
0
ARC
8
DEFAULT_255_2_778
10
6.8329178
20
1.0016082
40
1.2543424
50
156.5702396
51
173.9609945
0
ARC
8
DEFAULT_255_2_778
10
6.5768751
20
1.1021446
40
0.9794818
50
115.122161
51
156.0108981
0
ARC
8
DEFAULT_255_2_778
10
6.9340384
20
0.4271888
40
1.7426125
50
116.2111113
51
116.3330338
0
ARC
8
DEFAULT_255_2_778
10
6.8600032
20
0.5841229
40
1.5691185
50
97.5357239
51
116.3167192
0
ARC
8
DEFAULT_255_2_778
10
7.0159293
20
-0.4792281
40
2.6437777
50
92.1345422
51
97.8635564
0
ARC
8
DEFAULT_255_2_778
10
7.0939539
20
-2.2089748
40
4.3752513
50
89.9177278
51
92.3119077
0
ARC
8
DEFAULT_255_2_778
10
7.1029441
20
-1.0924092
40
3.2586822
50
89.9841425
51
90.047607
0
ARC
8
DEFAULT_255_2_778
10
7.1093011
20
-2.399536
40
4.5658124
50
87.1851644
51
90.0684556
0
ARC
8
DEFAULT_255_2_778
10
7.1078606
20
-2.2591945
40
4.4257187
50
82.8779056
51
87.0773137
0
ARC
8
DEFAULT_255_2_778
10
6.8263913
20
-4.532341
40
6.7162242
50
80.7478508
51
82.8995449
0
ARC
8
DEFAULT_255_2_778
10
6.2638088
20
-8.0675009
40
10.2958531
50
80.1075084
51
80.8208525
0
ARC
8
DEFAULT_255_2_778
10
8.2143928
20
2.0494904
40
0.0041257
50
273.3861853
51
324.2270801
0
ARC
8
DEFAULT_255_2_778
10
8.1464753
20
2.086323
40
0.0813561
50
331.1591653
51
353.4988517
0
ARC
8
DEFAULT_255_2_778
10
7.1670291
20
2.2882095
40
1.0810893
50
348.73985
51
351.2139264
0
ARC
8
DEFAULT_255_2_778
10
3.0341973
20
2.9434755
40
5.2655387
50
351.036509
51
351.8408352
0
ARC
8
DEFAULT_255_2_778
10
0.4387571
20
3.3410554
40
7.8911732
50
351.6578523
51
352.4320961
0
ARC
8
DEFAULT_255_2_778
10
5.5358348
20
2.670549
40
2.7501953
50
352.2940793
51
354.6293447
0
ARC
8
DEFAULT_255_2_778
10
7.2639353
20
2.5101961
40
1.0146746
50
354.5108467
51
359.6867306
0
ARC
8
DEFAULT_255_2_778
10
7.5670429
20
2.5048337
40
0.7115517
50
359.9850752
51
4.1253766
0
ARC
8
DEFAULT_255_2_778
10
7.4465858
20
2.49633
40
0.8323084
50
4.1127125
51
5.5185798
0
ARC
8
DEFAULT_255_2_778
10
7.4051026
20
2.5007885
40
0.8732112
50
4.96562
51
11.6961368
0
ARC
8
DEFAULT_255_2_778
10
7.8065895
20
2.5787611
40
0.4642811
50
12.3176682
51
18.6857327
0
ARC
8
DEFAULT_255_2_778
10
7.6329763
20
2.5137365
40
0.649603
50
19.2127845
51
26.6364715
0
ARC
8
DEFAULT_255_2_778
10
7.7287733
20
2.5578675
40
0.5441993
50
27.0050939
51
61.7586698
0
ARC
8
DEFAULT_255_2_778
10
7.492806
20
2.1504017
40
1.0149298
50
60.90783
51
75.2797407
0
ARC
8
DEFAULT_255_2_778
10
7.2822408
20
1.3907612
40
1.8031732
50
74.94199
51
83.0466047
0
ARC
8
DEFAULT_255_2_778
10
7.2451348
20
0.4142079
40
2.7782284
50
84.7253702
51
89.9966775
0
ARC
8
DEFAULT_255_2_778
10
7.245319
20
0.4240682
40
2.7683681
50
90.0004771
51
90.5056349
0
ARC
8
DEFAULT_255_2_778
10
7.245171
20
0.4321191
40
2.7603164
50
90.5040382
51
94.3805507
0
ARC
8
DEFAULT_255_2_778
10
7.2696714
20
1.0397928
40
2.1574527
50
96.2622853
51
99.5315193
0
ARC
8
DEFAULT_255_2_778
10
7.1548324
20
1.748356
40
1.439661
50
99.6937933
51
102.4040172
0
ARC
8
DEFAULT_255_2_778
10
7.2041492
20
1.5571421
40
1.6370203
50
102.6522456
51
108.5552528
0
ARC
8
DEFAULT_255_2_778
10
7.8110262
20
-0.2903745
40
3.5816397
50
108.3539279
51
110.2902367
0
ARC
8
DEFAULT_255_2_778
10
8.8301471
20
-3.0845431
40
6.5558441
50
110.1760294
51
110.5812497
0
ARC
8
DEFAULT_255_2_778
10
4.1421871
20
9.3715631
40
6.7532372
50
290.0221888
51
290.6659914
0
ARC
8
DEFAULT_255_2_778
10
6.2695876
20
3.5113057
40
0.5188416
50
284.5141458
51
290.8656754
0
ARC
8
DEFAULT_255_2_778
10
6.367171
20
3.1433108
40
0.1381529
50
273.8602368
51
283.5840427
0
ARC
8
DEFAULT_255_2_778
10
6.3670378
20
3.1557269
40
0.1505514
50
269.8886687
51
273.5927217
0
ARC
8
DEFAULT_255_2_778
10
6.3726314
20
3.4656396
40
0.4605015
50
265.9785437
51
269.267614
0
ARC
8
DEFAULT_255_2_778
10
6.3419003
20
3.2168766
40
0.2106105
50
203.2107806
51
269.5745537
0
ARC
8
DEFAULT_255_2_778
10
6.3288883
20
3.2282845
40
0.2037467
50
197.7224846
51
207.6055882
0
ARC
8
DEFAULT_255_2_778
10
6.3242344
20
3.2146705
40
0.195511
50
177.304167
51
194.3353289
0
ARC
8
DEFAULT_255_2_778
10
7.0602304
20
3.2263841
40
0.931294
50
179.9945987
51
180.1549144
0
ARC
8
DEFAULT_255_2_778
10
6.3020859
20
3.2365034
40
0.1734398
50
146.6830072
51
183.3157635
0
ARC
8
DEFAULT_255_2_778
10
6.3925367
20
3.1661559
40
0.2878083
50
132.0484153
51
144.8704047
0
ARC
8
DEFAULT_255_2_778
10
6.5825515
20
2.970732
40
0.560283
50
131.9742235
51
133.0930017
0
ARC
8
DEFAULT_255_2_778
10
6.8843851
20
2.6368604
40
1.0103641
50
116.4444515
51
132.0368794
0
ARC
8
DEFAULT_255_2_778
10
7.1041682
20
2.2266358
40
1.4756088
50
101.5096167
51
116.9919861
0
ARC
8
DEFAULT_255_2_778
10
7.2856665
20
1.3481487
40
2.3726468
50
99.199073
51
101.571484
0
ARC
8
DEFAULT_255_2_778
10
7.1261428
20
2.3115897
40
1.3960987
50
96.8904377
51
99.0574289
0
ARC
8
DEFAULT_255_2_778
10
7.1355266
20
2.1764498
40
1.5314038
50
91.1814177
51
96.6323976
0
ARC
8
DEFAULT_255_2_778
10
7.2071619
20
-0.5016759
40
4.210469
50
89.8668393
51
91.4046164
0
ARC
8
DEFAULT_255_2_778
10
7.2169907
20
-4.4500454
40
8.1588271
50
89.9111945
51
90.000304
0
ARC
8
DEFAULT_255_2_778
10
7.2301434
20
-0.0406185
40
3.7493904
50
87.4950832
51
90.0077466
0
ARC
8
DEFAULT_255_2_778
10
7.2886849
20
1.3572004
40
2.3503501
50
83.8820975
51
87.4315493
0
ARC
8
DEFAULT_255_2_778
10
7.2548024
20
1.1136095
40
2.5961761
50
79.7385444
51
83.7115248
0
ARC
8
DEFAULT_255_2_778
10
7.051486
20
-0.073707
40
3.8007379
50
79.4904781
51
79.91107
0
ARC
8
DEFAULT_255_2_778
10
7.3945215
20
1.7104347
40
1.9839919
50
70.0591972
51
79.8328538
0
ARC
8
DEFAULT_255_2_778
10
7.6508947
20
2.4027
40
1.2458046
50
52.6244863
51
70.2848314
0
ARC
8
DEFAULT_255_2_778
10
7.7580872
20
2.558647
40
1.0568505
50
49.3158189
51
52.1104037
0
ARC
8
DEFAULT_255_2_778
10
7.7976874
20
2.6315595
40
0.9759019
50
34.1059353
51
48.2882455
0
ARC
8
DEFAULT_255_2_778
10
8.8408664
20
3.3339493
40
0.2817199
50
213.4233848
51
213.9468625
0
ARC
8
DEFAULT_255_2_778
10
8.6896305
20
3.2235004
40
0.0948553
50
209.6119234
51
230.0612453
0
ARC
8
DEFAULT_255_2_778
10
8.5979985
20
3.1960185
40
0.0546999
50
304.18997
51
322.7011823
0
ARC
8
DEFAULT_255_2_778
10
8.2269384
20
3.532963
40
0.5557322
50
318.2445725
51
322.1635909
0
ARC
8
DEFAULT_255_2_778
10
9.6802853
20
2.3776912
40
1.3008929
50
110.8229305
51
141.2431529
0
ARC
8
DEFAULT_255_2_778
10
9.848091
20
1.9702956
40
1.741372
50
94.0230866
51
111.2185461
0
ARC
8
DEFAULT_255_2_778
10
9.8809776
20
1.6711736
40
2.0420985
50
89.9759018
51
94.3547156
0
ARC
8
DEFAULT_255_2_778
10
9.8912252
20
1.7523733
40
1.9609211
50
73.788032
51
90.2743285
0
ARC
8
DEFAULT_255_2_778
10
10.0356217
20
2.2390519
40
1.4532834
50
56.6608852
51
73.8975543
0
ARC
8
DEFAULT_255_2_778
10
10.2085877
20
2.5102195
40
1.1316893
50
25.6121691
51
56.4315117
0
ARC
8
DEFAULT_255_2_778
10
10.4771318
20
2.6548931
40
0.8271179
50
19.8403404
51
24.6165111
0
ARC
8
DEFAULT_255_2_778
10
10.54187
20
2.6788463
40
0.7580928
50
17.9810853
51
19.7980723
0
ARC
8
DEFAULT_255_2_778
10
10.0247195
20
2.5026983
40
1.3043863
50
15.0606751
51
18.3280437
0
ARC
8
DEFAULT_255_2_778
10
10.670265
20
2.6793743
40
0.6351132
50
11.3257524
51
14.8019722
0
ARC
8
DEFAULT_255_2_778
10
10.5998377
20
2.6727456
40
0.7055089
50
1.408292
51
10.7303503
0
ARC
8
DEFAULT_255_2_778
10
8.4915432
20
2.5929502
40
2.8152665
50
0.002622
51
1.9772562
0
ARC
8
DEFAULT_255_2_778
10
4.4139905
20
2.5652572
40
6.8928753
50
0.1671995
51
0.2312643
0
ARC
8
DEFAULT_255_2_778
10
10.001945
20
2.5935337
40
1.3144704
50
335.9312463
51
350.5127451
0
ARC
8
DEFAULT_255_2_778
10
10.3340837
20
2.4513624
40
0.9532436
50
303.0845416
51
335.591854
0
ARC
8
DEFAULT_255_2_778
10
10.1402312
20
2.73807
40
1.2992991
50
285.8384184
51
303.3454054
0
ARC
8
DEFAULT_255_2_778
10
9.9353581
20
3.4334897
40
2.0242458
50
276.7077887
51
286.0449714
0
ARC
8
DEFAULT_255_2_778
10
9.8334352
20
4.1580043
40
2.7557559
50
275.3094064
51
277.0528806
0
ARC
8
DEFAULT_255_2_778
10
9.9009811
20
3.4659077
40
2.060381
50
272.5528222
51
275.2200421
0
ARC
8
DEFAULT_255_2_778
10
9.8108576
20
5.4531323
40
4.0496478
50
270.1998048
51
272.5743586
0
ARC
8
DEFAULT_255_2_778
10
9.7994988
20
6.4759694
40
5.0725241
50
269.999377
51
270.2878172
0
ARC
8
DEFAULT_255_2_778
10
9.7996667
20
6.6756119
40
5.2721666
50
269.2279691
51
269.997575
0
ARC
8
DEFAULT_255_2_778
10
9.7855493
20
6.0646632
40
4.6610867
50
266.62976
51
269.3002993
0
ARC
8
DEFAULT_255_2_778
10
9.6838525
20
4.2712882
40
2.8648374
50
265.0415751
51
266.5516055
0
ARC
8
DEFAULT_255_2_778
10
10.1458681
20
1.0890321
40
1.5293125
50
169.6506719
51
180.0017638
0
ARC
8
DEFAULT_255_2_778
10
10.1521952
20
1.0890053
40
1.5356394
50
180.0007575
51
180.587036
0
ARC
8
DEFAULT_255_2_778
10
15.4892407
20
1.0349732
40
6.872711
50
179.6807133
51
179.9510105
0
ARC
8
DEFAULT_255_2_778
10
13.5135875
20
1.0383732
40
4.8970558
50
179.9710266
51
179.9940864
0
ARC
8
DEFAULT_255_2_778
10
10.059796
20
1.0295862
40
1.4432941
50
179.6311072
51
182.3114363
0
ARC
8
DEFAULT_255_2_778
10
8.9773053
20
0.9851227
40
0.3598917
50
182.1889837
51
190.2166604
0
ARC
8
DEFAULT_255_2_778
10
9.1171443
20
1.0165318
40
0.5031216
50
190.9122266
51
195.2055308
0
ARC
8
DEFAULT_255_2_778
10
9.1571864
20
1.0143929
40
0.5413467
50
193.8753964
51
245.047434
0
ARC
8
DEFAULT_255_2_778
10
9.3799929
20
1.3746951
40
0.963311
50
242.0716479
51
243.7171786
0
ARC
8
DEFAULT_255_2_778
10
9.4655256
20
1.5485649
40
1.1570802
50
243.7320163
51
262.4584748
0
ARC
8
DEFAULT_255_2_778
10
9.6121191
20
2.5463949
40
2.1655663
50
262.0783949
51
268.4359886
0
ARC
8
DEFAULT_255_2_778
10
9.6639555
20
3.702432
40
3.3226493
50
268.0865444
51
268.7511063
0
ARC
8
DEFAULT_255_2_778
10
9.6105131
20
2.7627353
40
2.3872987
50
275.8741069
51
278.5229079
0
ARC
8
DEFAULT_255_2_778
10
9.7596699
20
1.7470082
40
1.3606862
50
278.6503301
51
281.8917425
0
ARC
8
DEFAULT_255_2_778
10
9.7268053
20
1.8689861
40
1.4868351
50
282.16242
51
287.9225511
0
ARC
8
DEFAULT_255_2_778
10
9.0898729
20
3.8691598
40
3.5859636
50
287.7708972
51
289.852408
0
ARC
8
DEFAULT_255_2_778
10
7.4708751
20
8.4141399
40
8.4106724
50
289.7114875
51
290.1997916
0
ARC
8
DEFAULT_255_2_778
10
10.5344754
20
0.3075182
40
0.2600663
50
90.0000747
51
94.2424504
0
ARC
8
DEFAULT_255_2_778
10
10.5344603
20
0.3077254
40
0.2598591
50
64.913617
51
89.9967493
0
ARC
8
DEFAULT_255_2_778
10
10.5247319
20
0.3369879
40
0.2384276
50
3.7957767
51
59.8081355
0
ARC
8
DEFAULT_255_2_778
10
10.5601953
20
0.3453543
40
0.202577
50
319.4348635
51
2.0984286
0
ARC
8
DEFAULT_255_2_778
10
10.4207924
20
0.463077
40
0.3850352
50
309.0534262
51
319.6171904
0
ARC
8
DEFAULT_255_2_778
10
10.2645338
20
0.644551
40
0.6244496
50
308.4734803
51
309.6963879
0
ARC
8
DEFAULT_255_2_778
10
9.8604405
20
1.1686766
40
1.2862297
50
285.3681801
51
308.0403671
0
ARC
8
DEFAULT_255_2_778
10
9.7271322
20
1.6062403
40
1.7435222
50
276.0943965
51
285.7815256
0
ARC
8
DEFAULT_255_2_778
10
9.655949
20
3.201877
40
3.3391549
50
270.414173
51
274.4019061
0
ARC
8
DEFAULT_255_2_778
10
9.6557923
20
3.2086109
40
3.3458898
50
269.9995342
51
270.4160227
0
ARC
8
DEFAULT_255_2_778
10
9.6557781
20
3.2142221
40
3.3515011
50
266.4445503
51
269.9997779
0
ARC
8
DEFAULT_255_2_778
10
9.7191854
20
3.1583276
40
3.3003214
50
260.3613414
51
265.2856188
0
ARC
8
DEFAULT_255_2_778
10
9.4767739
20
1.7645669
40
1.8856562
50
250.548409
51
260.5323063
0
ARC
8
DEFAULT_255_2_778
10
9.3697305
20
1.4351854
40
1.5394532
50
243.4753178
51
250.2226074
0
ARC
8
DEFAULT_255_2_778
10
9.1553427
20
1.0407283
40
1.0908862
50
225.3238209
51
244.298045
0
ARC
8
DEFAULT_255_2_778
10
9.0323063
20
0.9029559
40
0.9064592
50
216.3822582
51
224.7310775
0
ARC
8
DEFAULT_255_2_778
10
8.2593499
20
0.4233984
40
0.0001135
50
40.316519
51
93.7011071
0
ARC
8
DEFAULT_255_2_778
10
8.3017671
20
0.3728611
40
0.0660706
50
129.9493252
51
143.7513142
0
ARC
8
DEFAULT_255_2_778
10
9.0408876
20
-0.2486327
40
1.0316219
50
140.1848527
51
142.1918303
0
ARC
8
DEFAULT_255_2_778
10
7.2009519
20
1.198126
40
1.3090306
50
302.902741
51
321.5300027
0
ARC
8
DEFAULT_255_2_778
10
7.1802082
20
1.2567833
40
1.3696234
50
288.8971204
51
302.298356
0
ARC
8
DEFAULT_255_2_778
10
7.0066907
20
1.7211552
40
1.8652144
50
277.7258145
51
289.3200836
0
ARC
8
DEFAULT_255_2_778
10
6.962424
20
3.0338939
40
3.1747586
50
270.036676
51
275.331867
0
ARC
8
DEFAULT_255_2_778
10
6.9626678
20
2.2282893
40
2.369154
50
269.985586
51
270.0432518
0
ARC
8
DEFAULT_255_2_778
10
6.9621009
20
3.0601034
40
3.2009683
50
268.5416679
51
269.9994775
0
ARC
8
DEFAULT_255_2_778
10
7.1035328
20
1.2836306
40
0.9737721
50
281.9245229
51
316.6330248
0
ARC
8
DEFAULT_255_2_778
10
7.0355991
20
1.3053579
40
1.0385358
50
318.3354208
51
336.0197537
0
ARC
8
DEFAULT_255_2_778
10
6.6188354
20
1.5074285
40
1.50153
50
335.4379351
51
346.0431115
0
ARC
8
DEFAULT_255_2_778
10
6.8914076
20
1.4381975
40
1.2203078
50
346.110957
51
348.2986325
0
ARC
8
DEFAULT_255_2_778
10
5.2632608
20
1.7781922
40
2.8835741
50
348.2445202
51
349.7122292
0
ARC
8
DEFAULT_255_2_778
10
4.4428142
20
1.9320843
40
3.7183176
50
349.6368371
51
349.6563513
0
ARC
8
DEFAULT_255_2_778
10
3.3501851
20
2.1288707
40
4.8285239
50
349.6871456
51
350.7501955
0
ARC
8
DEFAULT_255_2_778
10
3.5603272
20
2.1012977
40
4.616687
50
350.6687371
51
352.4920926
0
ARC
8
DEFAULT_255_2_778
10
6.5282261
20
1.7127646
40
1.6234676
50
352.4005966
51
354.7871957
0
ARC
8
DEFAULT_255_2_778
10
7.8138213
20
1.5965693
40
0.3326343
50
354.5997536
51
359.1161079
0
ARC
8
DEFAULT_255_2_778
10
8.09665
20
1.59251
40
0.0497775
50
358.7659924
51
8.1370111
0
ARC
8
DEFAULT_255_2_778
10
8.1418279
20
1.5993832
40
0.0041023
50
2.4086147
51
42.8277164
0
ARC
8
DEFAULT_255_2_778
10
8.0709618
20
1.3326187
40
0.2794931
50
74.6736453
51
86.7850196
0
ARC
8
DEFAULT_255_2_778
10
7.3008975
20
-1.9793521
40
3.6834238
50
93.015352
51
95.3759842
0
ARC
8
DEFAULT_255_2_778
10
7.0816164
20
0.2833107
40
1.4101832
50
95.1189797
51
101.6288991
0
ARC
8
DEFAULT_255_2_778
10
6.981986
20
0.7936503
40
0.890252
50
101.9690271
51
109.7828842
0
ARC
8
DEFAULT_255_2_778
10
7.0845278
20
0.5229883
40
1.1796564
50
110.0200322
51
115.561826
0
ARC
8
DEFAULT_255_2_778
10
7.3321575
20
-0.0157695
40
1.7725522
50
115.2685175
51
115.5328718
0
ARC
8
DEFAULT_255_2_778
10
6.7571887
20
1.1384777
40
0.483672
50
113.0085668
51
139.1985664
0
ARC
8
DEFAULT_255_2_778
10
6.6918061
20
1.2100297
40
0.3875927
50
140.889889
51
142.6878158
0
ARC
8
DEFAULT_255_2_778
10
6.8998402
20
1.0275801
40
0.6639168
50
141.0471332
51
167.1555693
0
ARC
8
DEFAULT_255_2_778
10
7.3257739
20
0.9889446
40
1.0892746
50
170.1560961
51
180.001852
0
ARC
8
DEFAULT_255_2_778
10
7.3634342
20
0.9889094
40
1.126935
50
180
51
180.0682702
0
ARC
8
DEFAULT_255_2_778
10
7.3290021
20
0.9889623
40
1.092503
50
180.0731973
51
188.7232106
0
ARC
8
DEFAULT_255_2_778
10
6.7528687
20
0.9419076
40
0.5175139
50
193.2524312
51
226.9108145
0
ARC
8
DEFAULT_255_2_778
10
6.9771716
20
1.1487588
40
0.8221127
50
225.3425884
51
255.0309717
0
ARC
8
DEFAULT_255_2_778
10
7.0771562
20
1.4408005
40
1.1302678
50
253.9583542
51
258.3612985
0
ARC
8
DEFAULT_255_2_778
10
7.3585284
20
2.7427115
40
2.4622084
50
258.0601818
51
259.2376065
0
ARC
8
DEFAULT_255_2_778
10
6.9914068
20
0.8163812
40
0.5012081
50
259.3459397
51
262.7987611
0
ARC
8
DEFAULT_255_2_778
10
6.9862625
20
0.8167385
40
0.5009442
50
263.3876382
51
269.9367024
0
ARC
8
DEFAULT_255_2_778
10
7.0022286
20
1.7195647
40
1.4038672
50
269.3257755
51
270.0304066
0
ARC
8
DEFAULT_255_2_778
10
6.9977215
20
3.8149123
40
3.4992184
50
270.085998
51
270.7670135
0
ARC
8
DEFAULT_255_2_778
10
6.7595546
20
22.6707848
40
22.3565942
50
270.7304452
51
270.8611267
0
ARC
8
DEFAULT_255_2_778
10
8.6277152
20
-104.7494766
40
105.0773631
50
90.8333575
51
90.8354767
0
ARC
8
DEFAULT_255_2_778
10
7.0598955
20
3.4212633
40
3.1047432
50
270.7297185
51
272.5512486
0
ARC
8
DEFAULT_255_2_778
10
7.1774603
20
0.9546373
40
0.6353751
50
271.8612555
51
280.8536618
0
ARC
8
DEFAULT_255_2_778
10
7.1843511
20
0.8922553
40
0.5728332
50
281.3516933
51
282.1111409
0
ARC
8
DEFAULT_255_2_778
10
9.7978731
20
3.3947099
40
1.5167576
50
274.615955
51
280.9941964
0
ARC
8
DEFAULT_255_2_778
10
9.9062045
20
2.8119438
40
0.9240398
50
281.2915718
51
289.8137798
0
ARC
8
DEFAULT_255_2_778
10
9.8396307
20
2.9864279
40
1.1107659
50
289.9937375
51
295.3805374
0
ARC
8
DEFAULT_255_2_778
10
10.1253856
20
2.4402718
40
0.4954272
50
292.5950436
51
326.6724415
0
ARC
8
DEFAULT_255_2_778
10
9.8702874
20
2.6203025
40
0.8075513
50
325.9440437
51
329.2847227
0
ARC
8
DEFAULT_255_2_778
10
10.0070044
20
2.538818
40
0.6483936
50
329.3043638
51
358.8727439
0
ARC
8
DEFAULT_255_2_778
10
9.4892324
20
2.5806783
40
1.1673186
50
357.3182823
51
0.0570739
0
ARC
8
DEFAULT_255_2_778
10
9.3089854
20
2.5817853
40
1.347565
50
0.0023715
51
0.2630423
0
ARC
8
DEFAULT_255_2_778
10
9.6282658
20
2.5949897
40
1.0282946
50
359.6089682
51
5.383841
0
ARC
8
DEFAULT_255_2_778
10
10.2319701
20
2.6501009
40
0.4220864
50
5.6249266
51
16.8471485
0
ARC
8
DEFAULT_255_2_778
10
10.090833
20
2.5995356
40
0.5718699
50
17.5976816
51
26.0123801
0
ARC
8
DEFAULT_255_2_778
10
9.6118717
20
2.3801259
40
1.0986132
50
25.3410278
51
25.6723624
0
ARC
8
DEFAULT_255_2_778
10
10.0329952
20
2.5662097
40
0.6386142
50
26.993698
51
60.6332099
0
ARC
8
DEFAULT_255_2_778
10
9.8335905
20
2.237588
40
1.0228731
50
59.9259986
51
78.8488948
0
ARC
8
DEFAULT_255_2_778
10
9.7737612
20
2.0010454
40
1.2665868
50
78.2629346
51
80.6408636
0
ARC
8
DEFAULT_255_2_778
10
9.8201173
20
1.6602019
40
1.598559
50
84.269358
51
88.8494445
0
ARC
8
DEFAULT_255_2_778
10
9.8205453
20
1.673553
40
1.585202
50
88.8552226
51
89.9991895
0
ARC
8
DEFAULT_255_2_778
10
9.8202128
20
1.6952886
40
1.5634664
50
89.986991
51
97.0087768
0
ARC
8
DEFAULT_255_2_778
10
9.7868272
20
2.2902228
40
0.9697072
50
99.3408557
51
123.6683379
0
ARC
8
DEFAULT_255_2_778
10
9.8088516
20
2.2785427
40
0.9917089
50
124.3532604
51
157.336726
0
ARC
8
DEFAULT_255_2_778
10
10.1215466
20
2.12939
40
1.33784
50
156.6022247
51
164.9102649
0
ARC
8
DEFAULT_255_2_778
10
10.7264172
20
1.9254551
40
1.9753384
50
163.7663194
51
166.0000086
0
ARC
8
DEFAULT_255_2_778
10
10.0760463
20
2.0918277
40
1.3040437
50
166.1797906
51
166.6251503
0
ARC
8
DEFAULT_255_2_778
10
10.1161517
20
2.0833605
40
1.3450204
50
166.6694374
51
169.4762975
0
ARC
8
DEFAULT_255_2_778
10
11.5075662
20
1.8277461
40
2.7597178
50
169.5347679
51
171.2031906
0
ARC
8
DEFAULT_255_2_778
10
17.8055697
20
0.8387781
40
9.1348919
50
171.1142769
51
171.6141379
0
ARC
8
DEFAULT_255_2_778
10
32.9163977
20
-1.4084327
40
24.4118988
50
171.5685169
51
171.6426065
0
ARC
8
DEFAULT_255_2_778
10
9.677494
20
5.3814121
40
3.5063924
50
266.4967685
51
270.0028232
0
ARC
8
DEFAULT_255_2_778
10
9.6774596
20
5.4140444
40
3.5390248
50
270.0033536
51
270.2246625
0
ARC
8
DEFAULT_255_2_778
10
9.6774969
20
5.3833064
40
3.5082868
50
270.2260214
51
273.9543872
0
LINE
8
DEFAULT_255_2_778
10
8.0326365
20
2.0752719
11
8.2146365
21
2.0453719
0
LINE
8
DEFAULT_255_2_778
10
11.3068365
20
2.5853719
11
11.2984365
21
2.3768719
0
LINE
8
DEFAULT_255_2_778
10
9.4362365
20
1.4171719
11
8.9864365
21
1.4740719
0
LINE
8
DEFAULT_255_2_778
10
8.9864365
20
1.4740719
11
8.6674365
21
1.5269719
0
LINE
8
DEFAULT_255_2_778
10
8.6674365
20
1.5269719
11
8.6414365
21
1.3637719
0
LINE
8
DEFAULT_255_2_778
10
9.5915365
20
0.3805719
11
9.8548365
21
0.3879719
0
LINE
8
DEFAULT_255_2_778
10
10.3750365
20
0.5207719
11
10.5152365
21
0.5668719
0
LINE
8
DEFAULT_255_2_778
10
8.3025365
20
0.3652719
11
8.2594365
21
0.4234719
0
LINE
8
DEFAULT_255_2_778
10
6.8806365
20
-0.1398281
11
6.8849365
21
-0.1406281
0
LINE
8
DEFAULT_255_2_778
10
8.0866365
20
1.6116719
11
7.9104365
21
1.6328719
0
LINE
8
DEFAULT_255_2_778
10
7.9104365
20
1.6328719
11
7.1071365
21
1.6989719
0
LINE
8
DEFAULT_255_2_778
10
7.3045365
20
0.3321719
11
7.3047365
21
0.3308719
0
LINE
8
DEFAULT_255_2_778
10
8.7637365
20
2.1397719
11
8.7385365
21
1.9669719
0
LINE
8
DEFAULT_255_2_778
10
8.7385365
20
1.9669719
11
8.7721365
21
1.9633719
0
LINE
8
DEFAULT_255_2_778
10
8.7721365
20
1.9633719
11
9.2352365
21
1.9072719
0
LINE
8
DEFAULT_255_2_778
10
9.2352365
20
1.9072719
11
9.4632365
21
1.8815719
0
LINE
8
DEFAULT_255_2_778
10
9.9194365
20
1.8833719
11
9.9199365
21
1.8828719
0
ENDSEC
0
EOF