0
SECTION
2
HEADER
9
$MEASUREMENT
70
1
0
ENDSEC
0
SECTION
2
TABLES
0
TABLE
2
LTYPE
0
LTYPE
72
65
70
64
2
CONTINUOUS
3
______
73
0
40
0
0
ENDTAB
0
TABLE
2
LAYER
0
LAYER
2
DEFAULT_255_2_778
70
0
62
255
6
CONTINUOUS
0
ENDTAB
0
ENDSEC
0
SECTION
2
ENTITIES
0
ARC
8
DEFAULT_255_2_778
10
0.6021936
20
5.8286788
40
0.4698601
50
89.9585411
51
180.0048763
0
ARC
8
DEFAULT_255_2_778
10
0.6025135
20
0.2766187
40
0.4701799
50
179.9975481
51
270.0024519
0
ARC
8
DEFAULT_255_2_778
10
22.4327632
20
3.5074712
40
3.7010441
50
269.8555696
51
274.6115368
0
ARC
8
DEFAULT_255_2_778
10
22.5255152
20
2.3814804
40
2.571242
50
274.5686976
51
281.1103328
0
ARC
8
DEFAULT_255_2_778
10
22.661252
20
1.6956587
40
1.872118
50
281.0786348
51
290.4003115
0
ARC
8
DEFAULT_255_2_778
10
22.7149327
20
1.5262789
40
1.6946723
50
290.695401
51
305.7907656
0
ARC
8
DEFAULT_255_2_778
10
22.0359141
20
2.4718018
40
2.8587502
50
305.7471575
51
311.3265161
0
ARC
8
DEFAULT_255_2_778
10
19.1419584
20
5.8092556
40
7.2761259
50
311.0852074
51
312.3973805
0
ARC
8
DEFAULT_255_2_778
10
11.8773064
20
13.8195834
40
18.0900054
50
312.2825112
51
312.3596675
0
ARC
8
DEFAULT_255_2_778
10
26.2579243
20
3.0515048
40
0.3327095
50
314.1893938
51
0.0575289
0
ARC
8
DEFAULT_255_2_778
10
26.4172103
20
3.0521183
40
0.1734236
50
359.9076859
51
0.0307702
0
ARC
8
DEFAULT_255_2_778
10
26.2551998
20
3.0523245
40
0.335434
50
359.9806882
51
45.6136507
0
ARC
8
DEFAULT_255_2_778
10
17.82601
20
-1.134505
40
9.2184116
50
47.3999808
51
48.2934498
0
ARC
8
DEFAULT_255_2_778
10
20.5383764
20
1.8988454
40
5.1492517
50
48.3692731
51
48.891089
0
ARC
8
DEFAULT_255_2_778
10
22.5831075
20
4.3344844
40
1.9706348
50
47.1233873
51
67.3090168
0
ARC
8
DEFAULT_255_2_778
10
22.676424
20
4.4616658
40
1.8176767
50
68.4764024
51
77.9543767
0
ARC
8
DEFAULT_255_2_778
10
22.5413813
20
3.8321043
40
2.4615587
50
77.9384125
51
84.734234
0
ARC
8
DEFAULT_255_2_778
10
22.4411466
20
2.7770355
40
3.5213751
50
84.6857137
51
89.533818
0
ARC
8
DEFAULT_255_2_778
10
22.4236108
20
1.9413902
40
4.3571486
50
89.3926386
51
90.0023291
0
LINE
8
DEFAULT_255_2_778
10
0.1323336
20
5.8286389
11
0.1323336
21
0.2766389
0
LINE
8
DEFAULT_255_2_778
10
0.6025336
20
-0.1935611
11
22.4234336
21
-0.1935611
0
LINE
8
DEFAULT_255_2_778
10
24.0660336
20
0.4523389
11
26.4898336
21
2.8129389
0
LINE
8
DEFAULT_255_2_778
10
26.4898336
20
3.2920389
11
24.0657336
21
5.6511389
0
LINE
8
DEFAULT_255_2_778
10
22.4234336
20
6.2985389
11
0.6025336
21
6.2985389
0
LINE
8
DEFAULT_255_2_778
10
0.6025336
20
6.2985389
11
0.6025336
21
6.2985389
0
ARC
8
DEFAULT_255_2_778
10
3.1471497
20
3.5017773
40
0.077047
50
0.8527482
51
90.1201546
0
ARC
8
DEFAULT_255_2_778
10
2.7145982
20
4.0588437
40
0.0764899
50
359.985232
51
45.4186391
0
ARC
8
DEFAULT_255_2_778
10
2.7143776
20
4.0589783
40
0.0765494
50
45.2303278
51
90.0290575
0
ARC
8
DEFAULT_255_2_778
10
2.7143599
20
4.057226
40
0.0783017
50
90.0154234
51
90.564699
0
ARC
8
DEFAULT_255_2_778
10
2.2901262
20
4.0586734
40
0.0768519
50
90.3266132
51
172.1844747
0
ARC
8
DEFAULT_255_2_778
10
2.8344348
20
2.1652799
40
0.880825
50
173.209764
51
179.7717408
0
ARC
8
DEFAULT_255_2_778
10
2.4509324
20
2.159439
40
0.4974035
50
178.9229162
51
197.8557883
0
ARC
8
DEFAULT_255_2_778
10
2.3217567
20
2.1135129
40
0.3603915
50
197.2030366
51
231.5366612
0
ARC
8
DEFAULT_255_2_778
10
2.4143806
20
2.2265817
40
0.5065433
50
231.2884007
51
256.9483294
0
ARC
8
DEFAULT_255_2_778
10
2.5537656
20
2.7470035
40
1.0451577
50
255.9473987
51
269.9968766
0
ARC
8
DEFAULT_255_2_778
10
2.5537076
20
2.7436082
40
1.0417625
50
270.0000547
51
270.7029317
0
ARC
8
DEFAULT_255_2_778
10
2.560826
20
3.6823238
40
1.9804079
50
270.1638132
51
276.1528391
0
ARC
8
DEFAULT_255_2_778
10
2.6827261
20
2.5905689
40
0.8818865
50
275.8811054
51
286.3911201
0
ARC
8
DEFAULT_255_2_778
10
2.9115506
20
1.8168594
40
0.0750594
50
285.483231
51
353.2399555
0
ARC
8
DEFAULT_255_2_778
10
2.9512279
20
2.1235417
40
0.0774058
50
352.0411951
51
354.1596895
0
ARC
8
DEFAULT_255_2_778
10
2.9517198
20
2.1234813
40
0.0769103
50
354.1671668
51
359.9992317
0
ARC
8
DEFAULT_255_2_778
10
2.9515159
20
2.1234567
40
0.0771143
50
0.0174958
51
45.9956753
0
ARC
8
DEFAULT_255_2_778
10
2.9507855
20
2.1229247
40
0.0780045
50
45.8812588
51
89.3369926
0
ARC
8
DEFAULT_255_2_778
10
2.9518204
20
2.1587448
40
0.0421794
50
90.1796106
51
94.1764723
0
ARC
8
DEFAULT_255_2_778
10
2.956239
20
2.1032058
40
0.0978934
50
94.3884003
51
97.2432369
0
ARC
8
DEFAULT_255_2_778
10
2.9267076
20
2.3337384
40
0.134523
50
275.4516876
51
277.3410979
0
ARC
8
DEFAULT_255_2_778
10
2.7948604
20
2.5617022
40
0.3741559
50
251.9279251
51
271.7655583
0
ARC
8
DEFAULT_255_2_778
10
2.7460404
20
2.3902619
40
0.1961455
50
244.4321972
51
249.9495439
0
ARC
8
DEFAULT_255_2_778
10
2.7185523
20
2.3446508
40
0.1432288
50
204.4695925
51
246.477397
0
ARC
8
DEFAULT_255_2_778
10
2.8285668
20
2.3886653
40
0.2616512
50
178.6512578
51
203.2633733
0
ARC
8
DEFAULT_255_2_778
10
3.5365927
20
2.3887016
40
0.9696239
50
171.3145668
51
179.6382193
0
ARC
8
DEFAULT_255_2_778
10
3.1030363
20
3.192046
40
0.076422
50
269.9638968
51
351.859086
0
ARC
8
DEFAULT_255_2_778
10
3.2708778
20
3.485503
40
0.0484252
50
168.9058888
51
175.7117162
0
ARC
8
DEFAULT_255_2_778
10
2.6557999
20
3.5964486
40
0.5765846
50
349.8481407
51
349.9291883
0
ARC
8
DEFAULT_255_2_778
10
3.1883079
20
3.5026321
40
0.0358838
50
348.7377506
51
359.1886894
0
ARC
8
DEFAULT_255_2_778
10
4.7508342
20
3.1756937
40
0.0792147
50
257.2770163
51
264.6441712
0
ARC
8
DEFAULT_255_2_778
10
4.7497079
20
3.1618937
40
0.06537
50
264.4980217
51
269.8073793
0
ARC
8
DEFAULT_255_2_778
10
4.7495022
20
3.1769265
40
0.0804025
50
269.9899886
51
274.8475839
0
ARC
8
DEFAULT_255_2_778
10
4.7501022
20
3.172444
40
0.0758856
50
274.6821461
51
305.0550694
0
ARC
8
DEFAULT_255_2_778
10
4.7496314
20
3.1728717
40
0.0765063
50
305.1597449
51
352.5289698
0
ARC
8
DEFAULT_255_2_778
10
4.8012312
20
3.5440065
40
0.0760113
50
351.9209962
51
359.6781729
0
ARC
8
DEFAULT_255_2_778
10
4.794771
20
3.5440616
40
0.0824718
50
359.6650896
51
359.9742363
0
ARC
8
DEFAULT_255_2_778
10
4.8013122
20
3.5441957
40
0.0759306
50
359.8708928
51
38.5582497
0
ARC
8
DEFAULT_255_2_778
10
4.8010196
20
3.5447185
40
0.0758359
50
38.1115273
51
83.8924729
0
ARC
8
DEFAULT_255_2_778
10
4.6800281
20
2.9940783
40
0.6314935
50
88.7605222
51
118.4976023
0
ARC
8
DEFAULT_255_2_778
10
4.6400196
20
3.0871632
40
0.5306785
50
119.496549
51
121.7095143
0
ARC
8
DEFAULT_255_2_778
10
4.7896747
20
2.8741161
40
0.7907321
50
122.8207362
51
143.0530868
0
ARC
8
DEFAULT_255_2_778
10
5.1216155
20
2.5982251
40
1.2220279
50
142.0698963
51
146.2287626
0
ARC
8
DEFAULT_255_2_778
10
4.052227
20
3.5016673
40
0.0763625
50
0.3427152
51
90.704437
0
ARC
8
DEFAULT_255_2_778
10
3.6278782
20
3.5005064
40
0.07752
50
89.549182
51
89.9997304
0
ARC
8
DEFAULT_255_2_778
10
3.6279247
20
3.5012759
40
0.0767505
50
90.0344528
51
171.6481933
0
ARC
8
DEFAULT_255_2_778
10
3.3873885
20
1.7784123
40
0.0774173
50
172.1962695
51
174.72915
0
ARC
8
DEFAULT_255_2_778
10
3.3873438
20
1.778416
40
0.0773723
50
174.728861
51
179.9982415
0
ARC
8
DEFAULT_255_2_778
10
3.3866683
20
1.7783306
40
0.0766968
50
179.9343941
51
220.8901463
0
ARC
8
DEFAULT_255_2_778
10
3.3875183
20
1.7795738
40
0.0781541
50
221.1712052
51
269.3913533
0
ARC
8
DEFAULT_255_2_778
10
3.8108769
20
1.7785887
40
0.0771658
50
270.3053452
51
351.9810372
0
ARC
8
DEFAULT_255_2_778
10
5.793074
20
2.2519351
40
1.8217017
50
164.4458027
51
172.6139
0
ARC
8
DEFAULT_255_2_778
10
4.6315954
20
2.5790863
40
0.6150453
50
144.1468873
51
164.7923246
0
ARC
8
DEFAULT_255_2_778
10
4.4571983
20
2.6939857
40
0.4064952
50
112.7980064
51
142.8757425
0
ARC
8
DEFAULT_255_2_778
10
4.5299286
20
2.5104294
40
0.6039069
50
94.1835159
51
112.4112248
0
ARC
8
DEFAULT_255_2_778
10
4.567758
20
2.1827462
40
0.933579
50
89.9060892
51
95.0319375
0
ARC
8
DEFAULT_255_2_778
10
4.574014
20
2.4023167
40
0.714023
50
80.3920735
51
90.3792248
0
ARC
8
DEFAULT_255_2_778
10
6.1644293
20
3.0941822
40
0.5007039
50
34.131462
51
69.352272
0
ARC
8
DEFAULT_255_2_778
10
6.0345418
20
2.7739541
40
0.8462076
50
68.7682688
51
83.2841858
0
ARC
8
DEFAULT_255_2_778
10
5.9369761
20
2.0617949
40
1.5649495
50
82.7857879
51
90.2924575
0
ARC
8
DEFAULT_255_2_778
10
5.9310233
20
2.1820343
40
1.4446911
50
90.0807143
51
108.5555457
0
ARC
8
DEFAULT_255_2_778
10
5.8765261
20
2.3399666
40
1.2776273
50
108.4924743
51
125.8597421
0
ARC
8
DEFAULT_255_2_778
10
5.1726892
20
3.3144459
40
0.0755486
50
126.1827687
51
173.0984823
0
ARC
8
DEFAULT_255_2_778
10
5.1729567
20
3.3139662
40
0.075873
50
172.7631518
51
180.0237841
0
ARC
8
DEFAULT_255_2_778
10
5.1747088
20
3.313935
40
0.0776249
50
180.0001955
51
183.3545229
0
ARC
8
DEFAULT_255_2_778
10
5.1719528
20
3.3132377
40
0.0748349
50
182.9450462
51
220.311265
0
ARC
8
DEFAULT_255_2_778
10
5.3353149
20
3.1186631
40
0.0766392
50
219.394002
51
269.9799581
0
ARC
8
DEFAULT_255_2_778
10
5.3346061
20
3.1186011
40
0.0765802
50
270.510267
51
310.4480184
0
ARC
8
DEFAULT_255_2_778
10
5.9503813
20
2.37291
40
0.8905052
50
115.9657402
51
129.4718366
0
ARC
8
DEFAULT_255_2_778
10
5.8259073
20
2.6113405
40
0.6216893
50
89.9824479
51
115.2730211
0
ARC
8
DEFAULT_255_2_778
10
5.8261425
20
2.6298323
40
0.6031975
50
89.7486998
51
90.0042551
0
ARC
8
DEFAULT_255_2_778
10
5.8410917
20
2.884598
40
0.3486432
50
47.6655037
51
92.0223731
0
ARC
8
DEFAULT_255_2_778
10
5.9048993
20
2.9575985
40
0.2517155
50
358.1539011
51
47.2115035
0
ARC
8
DEFAULT_255_2_778
10
5.7534182
20
2.9507597
40
0.4030678
50
352.3387043
51
359.8194401
0
ARC
8
DEFAULT_255_2_778
10
5.8387345
20
1.1353208
40
1.7523569
50
92.9062046
51
107.0652057
0
ARC
8
DEFAULT_255_2_778
10
5.6111107
20
1.8861024
40
0.9678366
50
107.2263699
51
131.2802066
0
ARC
8
DEFAULT_255_2_778
10
5.3478357
20
2.2052882
40
0.5544237
50
132.596001
51
167.4443379
0
ARC
8
DEFAULT_255_2_778
10
5.6526409
20
2.1129823
40
0.8723314
50
165.8784719
51
171.8184435
0
ARC
8
DEFAULT_255_2_778
10
5.4978816
20
2.1459052
40
0.7144763
50
172.7053197
51
179.8397262
0
ARC
8
DEFAULT_255_2_778
10
5.2723053
20
2.1415195
40
0.4889387
50
179.2518495
51
198.6672734
0
ARC
8
DEFAULT_255_2_778
10
5.2025766
20
2.1193814
40
0.4157945
50
198.8525662
51
229.3273386
0
ARC
8
DEFAULT_255_2_778
10
5.2896949
20
2.2157816
40
0.5456965
50
228.9864224
51
252.8945133
0
ARC
8
DEFAULT_255_2_778
10
5.3733389
20
2.4744888
40
0.8175713
50
252.6247027
51
270.2277075
0
ARC
8
DEFAULT_255_2_778
10
5.3764104
20
2.6051126
40
0.9481886
50
270.0107423
51
291.5367253
0
ARC
8
DEFAULT_255_2_778
10
5.4887835
20
2.3343075
40
0.6550587
50
291.0892704
51
322.9058341
0
ARC
8
DEFAULT_255_2_778
10
6.0737749
20
1.7808756
40
0.0760017
50
172.7066346
51
174.4559145
0
ARC
8
DEFAULT_255_2_778
10
6.0741325
20
1.7808306
40
0.0763619
50
174.448212
51
180.0014408
0
ARC
8
DEFAULT_255_2_778
10
6.0742448
20
1.7808439
40
0.0764742
50
180.0114405
51
221.7471772
0
ARC
8
DEFAULT_255_2_778
10
6.0755455
20
1.7803196
40
0.0771058
50
220.8128143
51
269.0656001
0
LINE
8
DEFAULT_255_2_778
10
6.4531881
20
1.703224
11
6.453391
21
1.7032238
0
ARC
8
DEFAULT_255_2_778
10
6.4533757
20
1.7799795
40
0.0767558
50
270.0114282
51
352.0202193
0
ARC
8
DEFAULT_255_2_778
10
4.4534799
20
2.9933379
40
2.2230273
50
351.3271963
51
357.9135191
0
ARC
8
DEFAULT_255_2_778
10
4.8942818
20
2.9718876
40
1.7817448
50
358.0867615
51
359.9838936
0
ARC
8
DEFAULT_255_2_778
10
5.1406721
20
2.9730423
40
1.5353553
50
359.9382184
51
3.7225016
0
ARC
8
DEFAULT_255_2_778
10
6.0292958
20
3.0400824
40
0.6443197
50
2.9038834
51
27.7441317
0
ARC
8
DEFAULT_255_2_778
10
6.1414362
20
3.0906486
40
0.5215848
50
28.5626696
51
33.1179698
0
ARC
8
DEFAULT_255_2_778
10
5.736085
20
2.4440867
40
0.3496464
50
325.8926222
51
353.2225772
0
ARC
8
DEFAULT_255_2_778
10
5.7067442
20
2.4713618
40
0.389283
50
301.6631341
51
324.9902572
0
ARC
8
DEFAULT_255_2_778
10
5.6100622
20
2.6242817
40
0.5701948
50
285.3486421
51
301.866052
0
ARC
8
DEFAULT_255_2_778
10
5.5969051
20
2.654145
40
0.6024945
50
275.3674105
51
285.8035274
0
ARC
8
DEFAULT_255_2_778
10
5.5929871
20
2.6862729
40
0.6348488
50
270.0000906
51
275.4482273
0
ARC
8
DEFAULT_255_2_778
10
5.5894547
20
2.4274596
40
0.3760521
50
270.0032993
51
270.5383638
0
ARC
8
DEFAULT_255_2_778
10
5.5893665
20
2.4228109
40
0.3714033
50
255.7569803
51
270.016956
0
ARC
8
DEFAULT_255_2_778
10
5.5440685
20
2.2677776
40
0.2100699
50
232.3630728
51
257.3287065
0
ARC
8
DEFAULT_255_2_778
10
5.5217276
20
2.2465963
40
0.1797169
50
206.9222212
51
233.8799007
0
ARC
8
DEFAULT_255_2_778
10
5.4804922
20
2.2241119
40
0.1327771
50
178.9948061
51
206.3280296
0
ARC
8
DEFAULT_255_2_778
10
5.5506125
20
2.2256377
40
0.2028786
50
171.6430497
51
179.7730655
0
ARC
8
DEFAULT_255_2_778
10
5.5575458
20
2.239666
40
0.2083819
50
126.7080321
51
175.2217752
0
ARC
8
DEFAULT_255_2_778
10
5.7286133
20
2.0117941
40
0.4933193
50
105.2580406
51
126.8167214
0
ARC
8
DEFAULT_255_2_778
10
5.8544173
20
1.5754797
40
0.9473837
50
93.7601379
51
105.6539364
0
ARC
8
DEFAULT_255_2_778
10
8.4246461
20
3.1957042
40
0.4072698
50
25.8098963
51
63.5441565
0
ARC
8
DEFAULT_255_2_778
10
8.3461129
20
3.0408127
40
0.5809296
50
63.4155781
51
83.0913607
0
ARC
8
DEFAULT_255_2_778
10
8.2647283
20
2.5137266
40
1.1141139
50
82.1968878
51
90.3106324
0
ARC
8
DEFAULT_255_2_778
10
8.2575646
20
2.8952703
40
0.7325545
50
89.9121209
51
105.5170239
0
ARC
8
DEFAULT_255_2_778
10
8.2709332
20
2.8681444
40
0.762289
50
105.9397829
51
119.5583981
0
ARC
8
DEFAULT_255_2_778
10
8.2664979
20
2.891716
40
0.739638
50
120.1603141
51
132.7756427
0
ARC
8
DEFAULT_255_2_778
10
8.1447417
20
3.0152127
40
0.5663275
50
132.2190836
51
146.6655416
0
ARC
8
DEFAULT_255_2_778
10
7.665268
20
3.4996967
40
0.0220719
50
339.1034694
51
349.4721812
0
ARC
8
DEFAULT_255_2_778
10
7.6397146
20
3.5028824
40
0.0478018
50
351.3144948
51
1.9679926
0
ARC
8
DEFAULT_255_2_778
10
7.6107546
20
3.5036868
40
0.0767381
50
0.6251165
51
89.9222232
0
ARC
8
DEFAULT_255_2_778
10
7.610766
20
3.5231988
40
0.0572262
50
89.9071642
51
90.2782094
0
ARC
8
DEFAULT_255_2_778
10
7.2083612
20
3.500373
40
0.0800604
50
89.1219167
51
89.9898028
0
ARC
8
DEFAULT_255_2_778
10
7.2085021
20
3.5034787
40
0.0769548
50
90.0942788
51
171.5221094
0
ARC
8
DEFAULT_255_2_778
10
6.9646095
20
1.7779277
40
0.0729315
50
170.4529075
51
172.293516
0
ARC
8
DEFAULT_255_2_778
10
6.9643217
20
1.7779539
40
0.0726429
50
172.2835519
51
179.9959123
0
ARC
8
DEFAULT_255_2_778
10
6.9652677
20
1.7781504
40
0.0735892
50
180.1489361
51
221.7758311
0
ARC
8
DEFAULT_255_2_778
10
6.969425
20
1.7810296
40
0.07861
50
221.3221455
51
269.3900536
0
ARC
8
DEFAULT_255_2_778
10
7.3927914
20
1.7535123
40
0.0510892
50
269.6598812
51
270.1134816
0
ARC
8
DEFAULT_255_2_778
10
7.3928356
20
1.7792086
40
0.0767856
50
270.0425385
51
352.076785
0
ARC
8
DEFAULT_255_2_778
10
8.8802845
20
2.4812791
40
1.2986151
50
165.1078353
51
173.058514
0
ARC
8
DEFAULT_255_2_778
10
8.14976
20
2.6689597
40
0.5444314
50
146.6295646
51
164.4375873
0
ARC
8
DEFAULT_255_2_778
10
7.9733635
20
2.7748661
40
0.3389717
50
117.3582392
51
145.1789668
0
ARC
8
DEFAULT_255_2_778
10
7.9895025
20
2.7337491
40
0.3829337
50
88.7009616
51
116.6757197
0
ARC
8
DEFAULT_255_2_778
10
8.0051526
20
2.5003434
40
0.6162804
50
89.9966952
51
90.6478992
0
ARC
8
DEFAULT_255_2_778
10
8.0177046
20
2.826276
40
0.2906177
50
64.6139805
51
92.4684082
0
ARC
8
DEFAULT_255_2_778
10
8.0721946
20
2.9571033
40
0.1492202
50
48.593629
51
61.979362
0
ARC
8
DEFAULT_255_2_778
10
8.0245844
20
2.8972949
40
0.2256007
50
13.5688834
51
49.5708267
0
ARC
8
DEFAULT_255_2_778
10
7.8376912
20
2.8428931
40
0.4201379
50
359.5532116
51
14.8011899
0
ARC
8
DEFAULT_255_2_778
10
7.712443
20
2.8402677
40
0.5453737
50
354.7034612
51
359.9316336
0
ARC
8
DEFAULT_255_2_778
10
8.2010775
20
1.7799408
40
0.0805613
50
173.1681662
51
177.600868
0
ARC
8
DEFAULT_255_2_778
10
8.2016816
20
1.7799189
40
0.0811659
50
177.6032642
51
179.9957887
0
ARC
8
DEFAULT_255_2_778
10
8.1987209
20
1.7795221
40
0.0782063
50
179.7049283
51
220.3144294
0
ARC
8
DEFAULT_255_2_778
10
8.1979396
20
1.780128
40
0.0780086
50
221.0250219
51
269.3745913
0
ARC
8
DEFAULT_255_2_778
10
8.6213337
20
1.780418
40
0.078294
50
270.0398296
51
351.1139895
0
ARC
8
DEFAULT_255_2_778
10
6.5599443
20
3.0695759
40
2.2964477
50
351.6912899
51
359.7056696
0
ARC
8
DEFAULT_255_2_778
10
7.0780961
20
3.0579309
40
1.7782657
50
359.9951089
51
1.0050963
0
ARC
8
DEFAULT_255_2_778
10
8.1853344
20
3.0894639
40
0.6707538
50
359.9709639
51
23.7950747
0
ARC
8
DEFAULT_255_2_778
10
8.3122279
20
3.1358352
40
0.5360094
50
24.7323334
51
26.073489
0
ARC
8
DEFAULT_255_2_778
10
10.0598924
20
2.348052
40
1.278172
50
73.2859781
51
89.9732932
0
ARC
8
DEFAULT_255_2_778
10
10.0606537
20
2.443427
40
1.1827971
50
90.0080206
51
94.9569708
0
ARC
8
DEFAULT_255_2_778
10
10.063919
20
2.4103506
40
1.216032
50
94.9755843
51
104.1042386
0
ARC
8
DEFAULT_255_2_778
10
9.9760626
20
2.7241443
40
0.8903313
50
103.5417492
51
122.4542208
0
ARC
8
DEFAULT_255_2_778
10
9.881243
20
2.8673632
40
0.7186045
50
122.2025989
51
145.0986141
0
ARC
8
DEFAULT_255_2_778
10
9.8243638
20
2.9138361
40
0.6453896
50
145.5930981
51
172.9253292
0
ARC
8
DEFAULT_255_2_778
10
9.8620601
20
2.8818618
40
0.6871093
50
170.7487778
51
179.6718977
0
ARC
8
DEFAULT_255_2_778
10
9.5611486
20
2.8769832
40
0.386287
50
178.6926563
51
202.0215354
0
ARC
8
DEFAULT_255_2_778
10
9.4527569
20
2.8397655
40
0.2719176
50
203.3153145
51
208.7625414
0
ARC
8
DEFAULT_255_2_778
10
9.5863727
20
2.9101909
40
0.4229431
50
208.4161586
51
239.8884057
0
ARC
8
DEFAULT_255_2_778
10
9.7929335
20
3.2963193
40
0.8607233
50
240.8889368
51
256.9504777
0
ARC
8
DEFAULT_255_2_778
10
9.6878216
20
1.735691
40
0.6816692
50
62.6981753
51
78.2285146
0
ARC
8
DEFAULT_255_2_778
10
9.9599191
20
2.2524417
40
0.0977942
50
0.6034445
51
65.4906707
0
ARC
8
DEFAULT_255_2_778
10
9.9365966
20
2.253906
40
0.1211119
50
349.7832338
51
359.7945314
0
ARC
8
DEFAULT_255_2_778
10
9.9284393
20
2.2499504
40
0.1287038
50
284.2812142
51
351.6787465
0
ARC
8
DEFAULT_255_2_778
10
9.7775156
20
2.6739692
40
0.5783516
50
270.0025225
51
288.4121546
0
ARC
8
DEFAULT_255_2_778
10
9.7775008
20
2.6529694
40
0.5573519
50
269.7211404
51
270.0041436
0
ARC
8
DEFAULT_255_2_778
10
9.7611127
20
2.537299
40
0.4418867
50
242.6818876
51
271.7734689
0
ARC
8
DEFAULT_255_2_778
10
9.7123482
20
2.4211862
40
0.3165009
50
239.6629542
51
240.8782036
0
ARC
8
DEFAULT_255_2_778
10
9.7816497
20
2.5421218
40
0.4558816
50
221.7221215
51
239.8226789
0
ARC
8
DEFAULT_255_2_778
10
9.3841733
20
2.1846072
40
0.0787539
50
43.4060527
51
88.2428363
0
ARC
8
DEFAULT_255_2_778
10
9.3841278
20
2.1849001
40
0.0784248
50
89.7367334
51
133.3547558
0
ARC
8
DEFAULT_255_2_778
10
9.0999796
20
1.9060749
40
0.0826958
50
135.7066077
51
179.4116502
0
ARC
8
DEFAULT_255_2_778
10
9.0943133
20
1.9080264
40
0.077033
50
180.8199514
51
227.6185951
0
ARC
8
DEFAULT_255_2_778
10
9.4656485
20
2.3228109
40
0.633749
50
228.0973106
51
254.6314651
0
ARC
8
DEFAULT_255_2_778
10
9.6933727
20
3.0665871
40
1.4114603
50
253.7196817
51
266.6016289
0
ARC
8
DEFAULT_255_2_778
10
9.6883043
20
3.0083796
40
1.3530557
50
266.669763
51
269.9950797
0
ARC
8
DEFAULT_255_2_778
10
9.6855401
20
3.3227532
40
1.6674313
50
270.0909921
51
280.7756062
0
ARC
8
DEFAULT_255_2_778
10
9.825812
20
2.6568205
40
0.9871047
50
280.0039609
51
297.9709784
0
ARC
8
DEFAULT_255_2_778
10
9.9364545
20
2.4450725
40
0.7481998
50
298.0932846
51
321.0698137
0
ARC
8
DEFAULT_255_2_778
10
10.0810571
20
2.32183
40
0.5582917
50
321.5837195
51
351.6259262
0
ARC
8
DEFAULT_255_2_778
10
9.8625027
20
2.3728071
40
0.7821612
50
350.2629714
51
352.737069
0
ARC
8
DEFAULT_255_2_778
10
9.8838589
20
2.3749181
40
0.7612583
50
352.3762455
51
359.7464721
0
ARC
8
DEFAULT_255_2_778
10
10.2166277
20
2.3806959
40
0.4285797
50
358.7771696
51
19.8839365
0
ARC
8
DEFAULT_255_2_778
10
10.349031
20
2.4220781
40
0.2900597
50
21.0923895
51
27.7254373
0
ARC
8
DEFAULT_255_2_778
10
10.2317099
20
2.3649286
40
0.4205177
50
27.1812491
51
58.9052706
0
ARC
8
DEFAULT_255_2_778
10
10.0588155
20
2.0941021
40
0.7417675
50
58.2732286
51
76.9198202
0
ARC
8
DEFAULT_255_2_778
10
10.2476362
20
3.9018046
40
1.0606298
50
247.278012
51
256.5361688
0
ARC
8
DEFAULT_255_2_778
10
10.0553892
20
3.4163157
40
0.538659
50
244.8997335
51
246.1931758
0
ARC
8
DEFAULT_255_2_778
10
9.8562704
20
3.0124669
40
0.0889367
50
180.6837728
51
250.7085711
0
ARC
8
DEFAULT_255_2_778
10
9.8826029
20
3.0109938
40
0.1152634
50
170.5976082
51
179.7953004
0
ARC
8
DEFAULT_255_2_778
10
9.915395
20
3.0178508
40
0.147089
50
114.8472346
51
174.9008339
0
ARC
8
DEFAULT_255_2_778
10
10.0190738
20
2.7952521
40
0.3926483
50
103.556095
51
114.9268141
0
ARC
8
DEFAULT_255_2_778
10
10.0012113
20
2.8674445
40
0.3182804
50
90.1301779
51
103.4763132
0
ARC
8
DEFAULT_255_2_778
10
10.0159426
20
2.8044579
40
0.3815792
50
56.8677434
51
92.3211896
0
ARC
8
DEFAULT_255_2_778
10
10.0389193
20
2.857063
40
0.3251078
50
44.2263698
51
55.1912089
0
ARC
8
DEFAULT_255_2_778
10
10.325971
20
3.1368734
40
0.0757575
50
224.4473387
51
269.9394889
0
ARC
8
DEFAULT_255_2_778
10
10.3258905
20
3.1364173
40
0.0753013
50
270.0003287
51
270.8351914
0
ARC
8
DEFAULT_255_2_778
10
10.3268488
20
3.1402284
40
0.0791045
50
270.1009487
51
309.9923549
0
ARC
8
DEFAULT_255_2_778
10
10.6105046
20
3.3836687
40
0.0749836
50
310.5860736
51
359.9658274
0
ARC
8
DEFAULT_255_2_778
10
10.6104473
20
3.384678
40
0.0750483
50
359.1953201
51
0.0104331
0
ARC
8
DEFAULT_255_2_778
10
10.6080865
20
3.3847192
40
0.0774089
50
359.9796426
51
46.9909548
0
ARC
8
DEFAULT_255_2_778
10
10.2687628
20
3.0127915
40
0.5808635
50
47.5401716
51
74.3877494
0
ARC
8
DEFAULT_255_2_778
10
13.3602777
20
2.9797752
40
0.6303385
50
36.7728913
51
66.2258013
0
ARC
8
DEFAULT_255_2_778
10
13.2794947
20
2.7812968
40
0.8445626
50
66.6386412
51
89.2884289
0
ARC
8
DEFAULT_255_2_778
10
13.2591867
20
2.5231933
40
1.1030309
50
88.4000966
51
90.0051198
0
ARC
8
DEFAULT_255_2_778
10
13.2581727
20
2.3441164
40
1.2821079
50
89.959092
51
108.9655525
0
ARC
8
DEFAULT_255_2_778
10
13.2128885
20
2.4673595
40
1.1508412
50
108.8275455
51
129.3630487
0
ARC
8
DEFAULT_255_2_778
10
13.185066
20
2.4909318
40
1.1149898
50
129.0259277
51
150.1306133
0
ARC
8
DEFAULT_255_2_778
10
13.1568667
20
2.5015334
40
1.0852674
50
149.874527
51
172.6206034
0
ARC
8
DEFAULT_255_2_778
10
13.1877812
20
2.4842704
40
1.1182204
50
171.9468349
51
179.8561142
0
ARC
8
DEFAULT_255_2_778
10
12.9105696
20
2.4798949
40
0.8410359
50
179.5106043
51
196.8843261
0
ARC
8
DEFAULT_255_2_778
10
12.8503298
20
2.4555264
40
0.7763371
50
196.4546459
51
223.1658928
0
ARC
8
DEFAULT_255_2_778
10
12.8775724
20
2.4989156
40
0.8259928
50
224.0683813
51
249.4618188
0
ARC
8
DEFAULT_255_2_778
10
12.9734006
20
2.7577459
40
1.1019916
50
249.5173805
51
270.6440779
0
ARC
8
DEFAULT_255_2_778
10
12.9779194
20
2.8103503
40
1.1545531
50
270.3904944
51
293.6078255
0
ARC
8
DEFAULT_255_2_778
10
13.0093535
20
2.7716212
40
1.1065567
50
292.9195025
51
313.1960565
0
ARC
8
DEFAULT_255_2_778
10
13.710758
20
2.022499
40
0.0803384
50
314.2209245
51
0.2237605
0
ARC
8
DEFAULT_255_2_778
10
13.7097945
20
2.022827
40
0.0813011
50
359.9899601
51
0.7731165
0
ARC
8
DEFAULT_255_2_778
10
13.7177916
20
2.0226217
40
0.0733081
50
1.0178807
51
51.5386981
0
ARC
8
DEFAULT_255_2_778
10
13.4709917
20
2.2192882
40
0.0768372
50
50.6718496
51
90.0524664
0
ARC
8
DEFAULT_255_2_778
10
13.4708129
20
2.2492504
40
0.0468749
50
89.8673892
51
90.3969202
0
ARC
8
DEFAULT_255_2_778
10
13.4717102
20
2.2150441
40
0.0810891
50
90.8634912
51
132.9221722
0
ARC
8
DEFAULT_255_2_778
10
12.846798
20
2.855049
40
0.8134324
50
301.3161993
51
314.4553667
0
ARC
8
DEFAULT_255_2_778
10
13.0291616
20
2.5828833
40
0.4863438
50
268.9310018
51
299.6272349
0
ARC
8
DEFAULT_255_2_778
10
13.004742
20
2.4825268
40
0.3862078
50
233.3699929
51
272.2772793
0
ARC
8
DEFAULT_255_2_778
10
12.9735347
20
2.4248646
40
0.3214501
50
225.4151721
51
231.7014344
0
ARC
8
DEFAULT_255_2_778
10
13.0283097
20
2.4728821
40
0.3941345
50
181.8840727
51
224.6439814
0
ARC
8
DEFAULT_255_2_778
10
13.9124523
20
2.5367387
40
0.0768155
50
270.2504845
51
351.8311558
0
ARC
8
DEFAULT_255_2_778
10
12.6287625
20
2.8400039
40
1.3915525
50
351.8289411
51
359.846067
0
ARC
8
DEFAULT_255_2_778
10
12.9502638
20
2.841441
40
1.0700586
50
359.7228692
51
11.0767126
0
ARC
8
DEFAULT_255_2_778
10
13.2371028
20
2.9030119
40
0.7767522
50
10.6846239
51
35.8768845
0
ARC
8
DEFAULT_255_2_778
10
13.1645784
20
2.9084427
40
0.3015271
50
48.0334627
51
93.115998
0
ARC
8
DEFAULT_255_2_778
10
13.170453
20
2.927258
40
0.283728
50
38.7950784
51
46.3745337
0
ARC
8
DEFAULT_255_2_778
10
13.1676292
20
2.9193451
40
0.2909196
50
359.3330788
51
39.6613015
0
ARC
8
DEFAULT_255_2_778
10
13.0633155
20
2.9173612
40
0.3952161
50
350.8367767
51
359.7967048
0
ARC
8
DEFAULT_255_2_778
10
13.094179
20
2.7686003
40
0.4140825
50
148.033693
51
168.0380287
0
ARC
8
DEFAULT_255_2_778
10
13.1462731
20
2.7379165
40
0.4745241
50
130.3740663
51
148.220707
0
ARC
8
DEFAULT_255_2_778
10
13.164059
20
2.7028219
40
0.5128639
50
111.7049506
51
129.3480541
0
ARC
8
DEFAULT_255_2_778
10
13.1368606
20
2.7519348
40
0.4572296
50
88.5803958
51
110.8143551
0
ARC
8
DEFAULT_255_2_778
10
15.7099238
20
3.5506158
40
0.0639707
50
82.3965695
51
88.0659089
0
ARC
8
DEFAULT_255_2_778
10
15.6971482
20
3.2615007
40
0.353365
50
87.5777379
51
88.2408394
0
ARC
8
DEFAULT_255_2_778
10
15.7127138
20
3.7706933
40
0.1560656
50
267.1257915
51
268.2676926
0
ARC
8
DEFAULT_255_2_778
10
15.5913463
20
2.9872545
40
0.632192
50
88.8723155
51
118.0159535
0
ARC
8
DEFAULT_255_2_778
10
15.5491972
20
3.0855395
40
0.5257024
50
118.9921352
51
121.7598815
0
ARC
8
DEFAULT_255_2_778
10
15.7014537
20
2.8684459
40
0.7905765
50
122.8607026
51
142.239391
0
ARC
8
DEFAULT_255_2_778
10
16.0052265
20
2.6100909
40
1.1890789
50
141.3609474
51
146.2374637
0
ARC
8
DEFAULT_255_2_778
10
14.991354
20
3.4909025
40
0.0479715
50
349.9414308
51
356.4409938
0
ARC
8
DEFAULT_255_2_778
10
14.9211504
20
3.4941375
40
0.1182459
50
356.9881715
51
0.6718693
0
ARC
8
DEFAULT_255_2_778
10
14.9625791
20
3.4955095
40
0.0768091
50
0.0108247
51
45.2138686
0
ARC
8
DEFAULT_255_2_778
10
14.9618846
20
3.4945333
40
0.0779913
50
45.3569729
51
89.7770193
0
ARC
8
DEFAULT_255_2_778
10
14.5389736
20
3.4945787
40
0.0779454
50
89.9158091
51
171.4819671
0
ARC
8
DEFAULT_255_2_778
10
14.2964068
20
1.7709018
40
0.0766447
50
171.5805611
51
173.3205886
0
ARC
8
DEFAULT_255_2_778
10
14.2962507
20
1.7709146
40
0.0764882
50
173.3164993
51
179.9979576
0
ARC
8
DEFAULT_255_2_778
10
14.2963919
20
1.7709597
40
0.0766292
50
180.0317216
51
221.2604645
0
ARC
8
DEFAULT_255_2_778
10
14.2974118
20
1.7738038
40
0.0792851
50
222.3194165
51
269.3324888
0
ARC
8
DEFAULT_255_2_778
10
14.7207473
20
1.7711884
40
0.0766652
50
270.254747
51
352.6826777
0
ARC
8
DEFAULT_255_2_778
10
16.82678
20
2.2236142
40
1.947275
50
164.8044112
51
172.4721205
0
ARC
8
DEFAULT_255_2_778
10
15.5386579
20
2.5727404
40
0.6126792
50
144.0162043
51
164.7374123
0
ARC
8
DEFAULT_255_2_778
10
15.3789947
20
2.6740964
40
0.4240942
50
113.632561
51
142.4224
0
ARC
8
DEFAULT_255_2_778
10
15.4276635
20
2.5391533
40
0.5673099
50
93.2345329
51
112.6723135
0
ARC
8
DEFAULT_255_2_778
10
15.4766748
20
2.0706279
40
1.0380981
50
89.8888792
51
94.4763353
0
ARC
8
DEFAULT_255_2_778
10
15.4821231
20
2.389373
40
0.7193592
50
89.9967045
51
90.2735896
0
ARC
8
DEFAULT_255_2_778
10
15.4819368
20
2.3752704
40
0.733462
50
80.4766222
51
89.982217
0
ARC
8
DEFAULT_255_2_778
10
15.6574105
20
3.1312797
40
0.0421029
50
249.9676844
51
266.4403346
0
ARC
8
DEFAULT_255_2_778
10
15.6589069
20
3.1522116
40
0.0630877
50
266.2641875
51
270.1645544
0
ARC
8
DEFAULT_255_2_778
10
15.6574886
20
3.1685693
40
0.0794614
50
271.153398
51
304.9316414
0
ARC
8
DEFAULT_255_2_778
10
15.6584544
20
3.1673017
40
0.0778692
50
304.8831604
51
352.1185961
0
ARC
8
DEFAULT_255_2_778
10
15.7073204
20
3.5362377
40
0.0804317
50
352.6327483
51
359.991891
0
ARC
8
DEFAULT_255_2_778
10
15.7082666
20
3.5362474
40
0.0794855
50
359.9847579
51
37.3084327
0
ARC
8
DEFAULT_255_2_778
10
15.7089579
20
3.5340449
40
0.0803
50
38.8575515
51
83.4712527
0
ARC
8
DEFAULT_255_2_778
10
18.6834895
20
3.4350242
40
1.3504077
50
48.1938483
51
73.9392634
0
ARC
8
DEFAULT_255_2_778
10
18.3326618
20
2.2613375
40
2.5753728
50
73.662795
51
84.5794666
0
ARC
8
DEFAULT_255_2_778
10
18.2551474
20
1.5626102
40
3.2783168
50
84.3843792
51
90.0779363
0
ARC
8
DEFAULT_255_2_778
10
18.2382061
20
2.3502209
40
2.4907344
50
89.7128663
51
109.0587425
0
ARC
8
DEFAULT_255_2_778
10
18.1427827
20
2.6350665
40
2.1903454
50
109.1325109
51
130.0262183
0
ARC
8
DEFAULT_255_2_778
10
18.1591617
20
2.6328657
40
2.2025928
50
130.3156588
51
151.2014485
0
ARC
8
DEFAULT_255_2_778
10
18.2101941
20
2.6058743
40
2.2603162
50
151.2250436
51
170.1252192
0
ARC
8
DEFAULT_255_2_778
10
18.6720161
20
2.5028218
40
2.7330605
50
169.6571868
51
172.0098715
0
ARC
8
DEFAULT_255_2_778
10
18.367218
20
2.5403768
40
2.4260066
50
171.8875972
51
178.5527303
0
ARC
8
DEFAULT_255_2_778
10
18.0972808
20
2.5513358
40
2.1558825
50
178.6626966
51
179.9959109
0
ARC
8
DEFAULT_255_2_778
10
17.7939667
20
2.5433344
40
1.8525864
50
179.7477786
51
191.5496811
0
ARC
8
DEFAULT_255_2_778
10
17.545188
20
2.498989
40
1.5999789
50
191.7775209
51
195.4178599
0
ARC
8
DEFAULT_255_2_778
10
17.4833644
20
2.4658171
40
1.5316401
50
194.8364557
51
217.2874707
0
ARC
8
DEFAULT_255_2_778
10
17.3337913
20
2.3663469
40
1.352427
50
217.7735914
51
222.318487
0
ARC
8
DEFAULT_255_2_778
10
17.4485923
20
2.4843045
40
1.5167598
50
222.6935824
51
247.6472107
0
ARC
8
DEFAULT_255_2_778
10
17.5590992
20
2.7109521
40
1.7684764
50
247.1285899
51
248.6335737
0
ARC
8
DEFAULT_255_2_778
10
17.6304561
20
2.9302336
40
1.9987293
50
249.0188069
51
264.4439996
0
ARC
8
DEFAULT_255_2_778
10
17.6971159
20
3.4652022
40
2.5376802
50
264.11545
51
270.0738813
0
ARC
8
DEFAULT_255_2_778
10
17.7000074
20
4.9030279
40
3.9755039
50
270.0054875
51
281.8413155
0
ARC
8
DEFAULT_255_2_778
10
17.8905285
20
4.0762085
40
3.1272293
50
281.5334767
51
283.9424017
0
ARC
8
DEFAULT_255_2_778
10
17.8007979
20
4.4031972
40
3.4662146
50
284.0796025
51
294.9563188
0
ARC
8
DEFAULT_255_2_778
10
19.2167959
20
1.3574502
40
0.1074097
50
295.6485199
51
351.3651078
0
ARC
8
DEFAULT_255_2_778
10
19.4784403
20
3.125582
40
0.094752
50
350.8558039
51
359.426313
0
ARC
8
DEFAULT_255_2_778
10
19.4709536
20
3.1256842
40
0.1022393
50
359.4110496
51
359.98888
0
ARC
8
DEFAULT_255_2_778
10
19.4690977
20
3.1250905
40
0.1040968
50
0.3158596
51
41.3948822
0
ARC
8
DEFAULT_255_2_778
10
19.4670974
20
3.1243102
40
0.106116
50
40.9967136
51
89.6270268
0
ARC
8
DEFAULT_255_2_778
10
18.2235695
20
3.1244924
40
0.1059323
50
90.2062868
51
171.1860719
0
ARC
8
DEFAULT_255_2_778
10
18.1427602
20
2.5776423
40
0.1045654
50
171.7071596
51
174.8339463
0
ARC
8
DEFAULT_255_2_778
10
18.1429781
20
2.5776187
40
0.1047845
50
174.83183
51
179.9996208
0
ARC
8
DEFAULT_255_2_778
10
18.1439383
20
2.5777174
40
0.1057447
50
180.053088
51
220.7983108
0
ARC
8
DEFAULT_255_2_778
10
18.1415091
20
2.5765912
40
0.1031724
50
221.2063408
51
269.9733166
0
ARC
8
DEFAULT_255_2_778
10
18.1414804
20
2.5749483
40
0.1015294
50
269.98905
51
270.5686981
0
ARC
8
DEFAULT_255_2_778
10
17.9733025
20
3.1203288
40
1.4034995
50
289.5505689
51
296.7944776
0
ARC
8
DEFAULT_255_2_778
10
17.4855034
20
4.4491276
40
2.8189649
50
286.3761466
51
289.8556149
0
ARC
8
DEFAULT_255_2_778
10
17.8660695
20
3.1923488
40
1.5059129
50
273.8770358
51
285.9656775
0
ARC
8
DEFAULT_255_2_778
10
17.8089308
20
3.8069078
40
2.1229851
50
269.9340767
51
274.2941247
0
ARC
8
DEFAULT_255_2_778
10
17.7933804
20
2.9123619
40
1.2285078
50
254.2937515
51
270.6113369
0
ARC
8
DEFAULT_255_2_778
10
17.7182314
20
2.6132236
40
0.9202358
50
246.003428
51
253.7560921
0
ARC
8
DEFAULT_255_2_778
10
17.6965245
20
2.5770054
40
0.8783349
50
219.119898
51
246.3362123
0
ARC
8
DEFAULT_255_2_778
10
17.7617271
20
2.612664
40
0.9515151
50
192.8082319
51
218.3085112
0
ARC
8
DEFAULT_255_2_778
10
17.982332
20
2.6703985
40
1.179453
50
179.7023392
51
193.1673396
0
ARC
8
DEFAULT_255_2_778
10
18.3016827
20
2.672934
40
1.4987919
50
171.9421506
51
179.8626884
0
ARC
8
DEFAULT_255_2_778
10
18.2764586
20
2.6858615
40
1.472034
50
152.7081156
51
172.3027399
0
ARC
8
DEFAULT_255_2_778
10
18.2014423
20
2.7332902
40
1.3836429
50
133.1878081
51
153.0291327
0
ARC
8
DEFAULT_255_2_778
10
18.1212567
20
2.799714
40
1.2804001
50
111.389442
51
132.6058686
0
ARC
8
DEFAULT_255_2_778
10
18.1306463
20
2.7683945
40
1.3129896
50
90.0086012
51
111.2725133
0
ARC
8
DEFAULT_255_2_778
10
18.1304479
20
2.770888
40
1.310496
50
89.4517236
51
89.9999425
0
ARC
8
DEFAULT_255_2_778
10
18.1555158
20
2.3934828
40
1.6878877
50
80.6637689
51
90.4252587
0
ARC
8
DEFAULT_255_2_778
10
18.2778625
20
3.1189886
40
0.9521491
50
66.4634396
51
80.846028
0
ARC
8
DEFAULT_255_2_778
10
18.2759775
20
3.1402967
40
0.9334225
50
45.3219128
51
65.835039
0
ARC
8
DEFAULT_255_2_778
10
19.0065514
20
3.8783815
40
0.1050908
50
225.036354
51
261.344571
0
ARC
8
DEFAULT_255_2_778
10
19.0059
20
3.8727242
40
0.0994001
50
261.2250034
51
269.9355256
0
ARC
8
DEFAULT_255_2_778
10
19.0056382
20
3.8766247
40
0.1033008
50
270.0831687
51
313.6857196
0
ARC
8
DEFAULT_255_2_778
10
19.5176721
20
4.3608631
40
0.1033376
50
313.0302903
51
359.9244408
0
ARC
8
DEFAULT_255_2_778
10
19.5190707
20
4.3607257
40
0.1019389
50
0.000611
51
1.1794676
0
ARC
8
DEFAULT_255_2_778
10
19.5128437
20
4.3592895
40
0.1082022
50
1.871935
51
47.4682873
0
ARC
8
DEFAULT_255_2_778
10
21.3089373
20
2.6186067
40
0.935889
50
16.6284106
51
43.3056779
0
ARC
8
DEFAULT_255_2_778
10
21.2698442
20
2.5552343
40
1.0079885
50
44.4029538
51
69.5219127
0
ARC
8
DEFAULT_255_2_778
10
21.1600004
20
2.2543282
40
1.32831
50
69.6241144
51
90.7510898
0
ARC
8
DEFAULT_255_2_778
10
21.1383476
20
2.0455754
40
1.5369545
50
89.8419166
51
108.9162785
0
ARC
8
DEFAULT_255_2_778
10
21.0958684
20
2.1627871
40
1.4123035
50
108.8275704
51
128.9889784
0
ARC
8
DEFAULT_255_2_778
10
21.1123674
20
2.166348
40
1.4199963
50
129.5968345
51
149.5293427
0
ARC
8
DEFAULT_255_2_778
10
21.0445664
20
2.2220713
40
1.3333722
50
150.1157136
51
172.4387683
0
ARC
8
DEFAULT_255_2_778
10
21.0233233
20
2.2102427
40
1.3139505
50
171.8055509
51
179.8780178
0
ARC
8
DEFAULT_255_2_778
10
20.7600105
20
2.2064757
40
1.0506552
50
179.642022
51
196.4743776
0
ARC
8
DEFAULT_255_2_778
10
20.6455069
20
2.171652
40
0.9309773
50
196.4176111
51
223.1941086
0
ARC
8
DEFAULT_255_2_778
10
20.6622868
20
2.1993048
40
0.9621771
50
223.7106703
51
249.9356862
0
ARC
8
DEFAULT_255_2_778
10
20.7977084
20
2.5395207
40
1.3282458
50
249.4834771
51
270.4985092
0
ARC
8
DEFAULT_255_2_778
10
20.810782
20
2.2345199
40
1.0231957
50
269.9150398
51
270.0283397
0
ARC
8
DEFAULT_255_2_778
10
20.8139697
20
2.7094218
40
1.4981002
50
269.8974435
51
269.9999938
0
ARC
8
DEFAULT_255_2_778
10
20.8142171
20
2.735395
40
1.5240733
50
269.9906904
51
289.1344936
0
ARC
8
DEFAULT_255_2_778
10
20.858837
20
2.6279899
40
1.4079936
50
288.8517271
51
309.1453037
0
ARC
8
DEFAULT_255_2_778
10
20.8490849
20
2.6315214
40
1.4168988
50
309.3609888
51
329.3935545
0
ARC
8
DEFAULT_255_2_778
10
20.9439088
20
2.5693471
40
1.3036405
50
329.6235922
51
352.4971701
0
ARC
8
DEFAULT_255_2_778
10
20.9152955
20
2.5878965
40
1.3345114
50
351.8679886
51
359.8563221
0
ARC
8
DEFAULT_255_2_778
10
21.2359681
20
2.5927562
40
1.0138677
50
359.5362432
51
16.9315553
0
ARC
8
DEFAULT_255_2_778
10
20.8566405
20
2.4815094
40
0.6870053
50
317.8977005
51
353.1125381
0
ARC
8
DEFAULT_255_2_778
10
20.8942435
20
2.4586314
40
0.6438198
50
312.6796703
51
317.164654
0
ARC
8
DEFAULT_255_2_778
10
20.921978
20
2.4352997
40
0.6078833
50
270.6251562
51
312.2486758
0
ARC
8
DEFAULT_255_2_778
10
20.8961567
20
2.6648907
40
0.8380666
50
269.9884776
51
272.2193132
0
ARC
8
DEFAULT_255_2_778
10
20.8830542
20
2.4383013
40
0.611614
50
249.5467001
51
271.21174
0
ARC
8
DEFAULT_255_2_778
10
20.8032972
20
2.214663
40
0.3742196
50
217.7955803
51
249.0230378
0
ARC
8
DEFAULT_255_2_778
10
20.8738215
20
2.263905
40
0.4601459
50
181.4506535
51
217.2589817
0
ARC
8
DEFAULT_255_2_778
10
21.0693426
20
2.2866342
40
0.6564202
50
179.9773228
51
183.0020877
0
ARC
8
DEFAULT_255_2_778
10
21.207789
20
2.2840702
40
0.7948716
50
171.6774769
51
179.7964526
0
ARC
8
DEFAULT_255_2_778
10
21.1188353
20
2.3138276
40
0.7027429
50
140.4449236
51
173.028454
0
ARC
8
DEFAULT_255_2_778
10
21.0693869
20
2.343792
40
0.64559
50
133.3660521
51
139.7005802
0
ARC
8
DEFAULT_255_2_778
10
21.0275206
20
2.3772092
40
0.5925958
50
91.2735471
51
132.6418672
0
ARC
8
DEFAULT_255_2_778
10
21.0586763
20
2.1272908
40
0.8435334
50
89.9788188
51
93.0122059
0
ARC
8
DEFAULT_255_2_778
10
21.0717588
20
2.3581058
40
0.6128513
50
69.2385987
51
91.1940254
0
ARC
8
DEFAULT_255_2_778
10
21.148053
20
2.570638
40
0.3870962
50
38.7867083
51
68.6468553
0
ARC
8
DEFAULT_255_2_778
10
21.0838721
20
2.5310179
40
0.4620373
50
1.2783613
51
37.6307388
0
ARC
8
DEFAULT_255_2_778
10
20.8814845
20
2.5078195
40
0.6651544
50
359.9779658
51
2.8874191
0
ARC
8
DEFAULT_255_2_778
10
20.741778
20
2.5102868
40
0.8048655
50
352.0397383
51
359.806152
0
ARC
8
DEFAULT_255_2_778
10
12.1872447
20
4.5755304
40
0.0765828
50
34.0623554
51
79.8898719
0
ARC
8
DEFAULT_255_2_778
10
11.9518375
20
2.9734401
40
1.6959978
50
84.462785
51
89.1588195
0
ARC
8
DEFAULT_255_2_778
10
11.9509636
20
2.9396034
40
1.7298438
50
89.1463325
51
89.9999423
0
ARC
8
DEFAULT_255_2_778
10
11.950965
20
2.9327222
40
1.7367251
50
89.999988
51
90.296154
0
ARC
8
DEFAULT_255_2_778
10
11.9291271
20
3.3251536
40
1.3443319
50
89.4518526
51
100.1866063
0
ARC
8
DEFAULT_255_2_778
10
11.8236306
20
3.9259654
40
0.7343372
50
100.3756402
51
111.5173597
0
ARC
8
DEFAULT_255_2_778
10
11.7685055
20
4.0207802
40
0.626129
50
110.0066804
51
137.3089101
0
ARC
8
DEFAULT_255_2_778
10
11.8039201
20
4.0040387
40
0.6636142
50
138.3197641
51
162.4517683
0
ARC
8
DEFAULT_255_2_778
10
12.8821435
20
3.655846
40
1.7966572
50
162.2318719
51
171.7702697
0
ARC
8
DEFAULT_255_2_778
10
11.2907591
20
3.661584
40
0.2199905
50
172.2305211
51
179.9421655
0
ARC
8
DEFAULT_255_2_778
10
11.3177678
20
3.6735178
40
0.2472765
50
182.7147135
51
235.4309186
0
ARC
8
DEFAULT_255_2_778
10
11.4639173
20
3.8329698
40
0.4624672
50
231.7273556
51
236.6653211
0
ARC
8
DEFAULT_255_2_778
10
11.5320942
20
3.9397409
40
0.5891393
50
236.831984
51
245.7184
0
ARC
8
DEFAULT_255_2_778
10
11.5439994
20
3.9612428
40
0.613638
50
245.5307251
51
249.8117448
0
ARC
8
DEFAULT_255_2_778
10
11.4594868
20
3.7291499
40
0.3666391
50
249.6904652
51
252.380064
0
ARC
8
DEFAULT_255_2_778
10
11.361166
20
3.4202921
40
0.04251
50
252.6716876
51
253.0716917
0
ARC
8
DEFAULT_255_2_778
10
11.4598356
20
2.9686259
40
0.4257359
50
105.1197095
51
107.0458198
0
ARC
8
DEFAULT_255_2_778
10
11.5763747
20
2.5836596
40
0.8279539
50
106.9469958
51
110.0357643
0
ARC
8
DEFAULT_255_2_778
10
11.5932961
20
2.5327789
40
0.881554
50
109.9360159
51
115.7692363
0
ARC
8
DEFAULT_255_2_778
10
11.5312892
20
2.6625969
40
0.7376889
50
115.8156538
51
119.5247491
0
ARC
8
DEFAULT_255_2_778
10
11.3176173
20
2.9908973
40
0.3475624
50
115.5422423
51
158.19883
0
ARC
8
DEFAULT_255_2_778
10
11.1840296
20
3.0636951
40
0.1973138
50
163.4266449
51
171.8920258
0
ARC
8
DEFAULT_255_2_778
10
10.8918925
20
1.7803387
40
0.0850923
50
173.2610059
51
174.8291508
0
ARC
8
DEFAULT_255_2_778
10
10.8905591
20
1.7804531
40
0.0837539
50
174.824887
51
179.9901269
0
ARC
8
DEFAULT_255_2_778
10
10.8832583
20
1.7797354
40
0.0764564
50
179.4513144
51
221.1506977
0
ARC
8
DEFAULT_255_2_778
10
10.8837945
20
1.7793014
40
0.0765774
50
220.6421453
51
270.0700538
0
ARC
8
DEFAULT_255_2_778
10
11.307684
20
1.780393
40
0.0776706
50
269.6342357
51
351.4339283
0
ARC
8
DEFAULT_255_2_778
10
11.933981
20
3.1937566
40
0.0768326
50
270.0053038
51
351.5934518
0
ARC
8
DEFAULT_255_2_778
10
11.9751466
20
3.5017653
40
0.0800095
50
353.7998023
51
359.9958966
0
ARC
8
DEFAULT_255_2_778
10
11.975561
20
3.5017543
40
0.0795952
50
0.0037603
51
41.0482855
0
ARC
8
DEFAULT_255_2_778
10
11.9787396
20
3.5037393
40
0.0758967
50
41.4939524
51
91.0202622
0
ARC
8
DEFAULT_255_2_778
10
12.3022046
20
3.7999277
40
0.6271358
50
158.293619
51
172.8188446
0
ARC
8
DEFAULT_255_2_778
10
11.9305085
20
3.9517103
40
0.2256872
50
130.3826646
51
159.1944048
0
ARC
8
DEFAULT_255_2_778
10
11.9656331
20
3.8704583
40
0.3114143
50
92.0055743
51
125.6143723
0
ARC
8
DEFAULT_255_2_778
10
11.9995566
20
3.6061105
40
0.577314
50
89.917474
51
94.45286
0
ARC
8
DEFAULT_255_2_778
10
12.0055806
20
3.7699237
40
0.4135329
50
90.0023051
51
90.7194389
0
ARC
8
DEFAULT_255_2_778
10
12.0055275
20
3.7697372
40
0.4137193
50
77.4836281
51
89.9949546
0
ARC
8
DEFAULT_255_2_778
10
12.0912461
20
4.1509636
40
0.0230007
50
76.2711083
51
80.1313872
0
ARC
8
DEFAULT_255_2_778
10
12.0343122
20
3.9473815
40
0.2343826
50
72.9448815
51
74.5617518
0
ARC
8
DEFAULT_255_2_778
10
12.1199108
20
4.2318088
40
0.0626618
50
254.3951217
51
255.9403086
0
ARC
8
DEFAULT_255_2_778
10
12.1217727
20
4.2391556
40
0.0702409
50
255.9228847
51
269.9769488
0
ARC
8
DEFAULT_255_2_778
10
12.1217319
20
4.240008
40
0.0710933
50
270.0100469
51
270.9318428
0
ARC
8
DEFAULT_255_2_778
10
12.1228088
20
4.2514397
40
0.0825157
50
270.0550673
51
300.3385029
0
ARC
8
DEFAULT_255_2_778
10
12.1195916
20
4.2479862
40
0.081286
50
303.5268682
51
347.9553923
0
ARC
8
DEFAULT_255_2_778
10
12.1883153
20
4.5760851
40
0.0769827
50
348.262032
51
355.9182353
0
ARC
8
DEFAULT_255_2_778
10
12.1884524
20
4.5760708
40
0.0768451
50
355.9215765
51
359.9983562
0
ARC
8
DEFAULT_255_2_778
10
12.1883469
20
4.5760401
40
0.0769506
50
0.0212104
51
34.8608988
0
LINE
8
DEFAULT_255_2_778
10
3.1469881
20
3.578824
11
2.7251881
21
3.578824
0
LINE
8
DEFAULT_255_2_778
10
2.7251881
20
3.578824
11
2.7899881
21
4.045824
0
LINE
8
DEFAULT_255_2_778
10
2.7899881
20
4.045824
11
2.7910881
21
4.058824
0
LINE
8
DEFAULT_255_2_778
10
2.7135881
20
4.135524
11
2.2896881
21
4.135524
0
LINE
8
DEFAULT_255_2_778
10
2.2139881
20
4.069124
11
1.9597881
21
2.269424
0
LINE
8
DEFAULT_255_2_778
10
2.9860881
20
1.808024
11
3.0278881
21
2.112824
0
LINE
8
DEFAULT_255_2_778
10
2.9394881
20
2.199824
11
2.9275881
21
2.197724
0
LINE
8
DEFAULT_255_2_778
10
2.9275881
20
2.197724
11
2.8063881
21
2.187724
0
LINE
8
DEFAULT_255_2_778
10
2.5780881
20
2.535124
11
2.5785881
21
2.535624
0
LINE
8
DEFAULT_255_2_778
10
2.5785881
20
2.535624
11
2.6600881
21
3.115624
0
LINE
8
DEFAULT_255_2_778
10
2.6600881
20
3.115624
11
3.1029881
21
3.115624
0
LINE
8
DEFAULT_255_2_778
10
3.1786881
20
3.181224
11
3.2225881
21
3.489124
0
LINE
8
DEFAULT_255_2_778
10
4.8254881
20
3.162924
11
4.8764881
21
3.533324
0
LINE
8
DEFAULT_255_2_778
10
4.8090881
20
3.620124
11
4.7949881
21
3.621224
0
LINE
8
DEFAULT_255_2_778
10
4.7949881
20
3.621224
11
4.6936881
21
3.625424
0
LINE
8
DEFAULT_255_2_778
10
4.1057881
20
3.277524
11
4.0978881
21
3.277524
0
LINE
8
DEFAULT_255_2_778
10
4.0978881
20
3.277524
11
4.1282881
21
3.489124
0
LINE
8
DEFAULT_255_2_778
10
4.1282881
20
3.489124
11
4.1285881
21
3.502124
0
LINE
8
DEFAULT_255_2_778
10
4.0512881
20
3.578024
11
3.6284881
21
3.578024
0
LINE
8
DEFAULT_255_2_778
10
3.5519881
20
3.512424
11
3.3106881
21
1.788924
0
LINE
8
DEFAULT_255_2_778
10
3.3866881
20
1.701424
11
3.8112881
21
1.701424
0
LINE
8
DEFAULT_255_2_778
10
3.8872881
20
1.767824
11
3.9864881
21
2.486124
0
LINE
8
DEFAULT_255_2_778
10
4.6931881
20
3.106324
11
4.7328881
21
3.099124
0
LINE
8
DEFAULT_255_2_778
10
5.1148881
20
3.264824
11
5.2760881
21
3.070024
0
LINE
8
DEFAULT_255_2_778
10
6.1528881
20
2.897024
11
5.7498881
21
2.885424
0
LINE
8
DEFAULT_255_2_778
10
4.7891881
20
2.237124
11
4.7891881
21
2.236624
0
LINE
8
DEFAULT_255_2_778
10
6.0112881
20
1.939224
11
6.0181881
21
1.939224
0
LINE
8
DEFAULT_255_2_778
10
6.0181881
20
1.939224
11
5.9983881
21
1.790524
0
LINE
8
DEFAULT_255_2_778
10
6.0742881
20
1.703224
11
6.4531881
21
1.703224
0
LINE
8
DEFAULT_255_2_778
10
6.5293881
20
1.769324
11
6.6510881
21
2.658124
0
LINE
8
DEFAULT_255_2_778
10
5.9557881
20
2.526324
11
6.0985881
21
2.526324
0
LINE
8
DEFAULT_255_2_778
10
6.0985881
20
2.526324
11
6.0832881
21
2.402824
0
LINE
8
DEFAULT_255_2_778
10
5.3498881
20
2.255124
11
5.3498881
21
2.257024
0
LINE
8
DEFAULT_255_2_778
10
5.7922881
20
2.520824
11
5.9559881
21
2.526624
0
LINE
8
DEFAULT_255_2_778
10
7.6715881
20
3.326424
11
7.6638881
21
3.326424
0
LINE
8
DEFAULT_255_2_778
10
7.6638881
20
3.326424
11
7.6858881
21
3.491824
0
LINE
8
DEFAULT_255_2_778
10
7.6104881
20
3.580424
11
7.2095881
21
3.580424
0
LINE
8
DEFAULT_255_2_778
10
7.1323881
20
3.514824
11
6.8926881
21
1.790024
0
LINE
8
DEFAULT_255_2_778
10
6.9685881
20
1.702424
11
7.3924881
21
1.702424
0
LINE
8
DEFAULT_255_2_778
10
7.4688881
20
1.768624
11
7.5911881
21
2.638224
0
LINE
8
DEFAULT_255_2_778
10
8.2554881
20
2.789924
11
8.2366881
21
2.622424
0
LINE
8
DEFAULT_255_2_778
10
8.2366881
20
2.622424
11
8.1210881
21
1.789524
0
LINE
8
DEFAULT_255_2_778
10
8.1970881
20
1.702124
11
8.6213881
21
1.702124
0
LINE
8
DEFAULT_255_2_778
10
8.6986881
20
1.768324
11
8.8322881
21
2.737724
0
LINE
8
DEFAULT_255_2_778
10
9.1838881
20
2.993324
11
9.1838881
21
2.992324
0
LINE
8
DEFAULT_255_2_778
10
9.5985881
20
2.457824
11
9.8268881
21
2.403024
0
LINE
8
DEFAULT_255_2_778
10
10.0557881
20
2.232424
11
10.0557881
21
2.231324
0
LINE
8
DEFAULT_255_2_778
10
9.3865881
20
2.263324
11
9.3844881
21
2.263324
0
LINE
8
DEFAULT_255_2_778
10
9.3302881
20
2.241924
11
9.0407881
21
1.963824
0
LINE
8
DEFAULT_255_2_778
10
10.2266881
20
2.816624
11
10.0006881
21
2.870324
0
LINE
8
DEFAULT_255_2_778
10
9.7688881
20
3.029824
11
9.7688881
21
3.030924
0
LINE
8
DEFAULT_255_2_778
10
10.3776881
20
3.079624
11
10.6592881
21
3.326724
0
LINE
8
DEFAULT_255_2_778
10
13.7633881
20
2.080024
11
13.5196881
21
2.278724
0
LINE
8
DEFAULT_255_2_778
10
12.6343881
20
2.459924
11
13.9127881
21
2.459924
0
LINE
8
DEFAULT_255_2_778
10
13.9884881
20
2.525824
11
14.0061881
21
2.641724
0
LINE
8
DEFAULT_255_2_778
10
14.0061881
20
2.641724
11
14.0061881
21
2.642224
0
LINE
8
DEFAULT_255_2_778
10
13.4534881
20
2.854424
11
12.6890881
21
2.854424
0
LINE
8
DEFAULT_255_2_778
10
15.7048881
20
3.614824
11
15.6037881
21
3.619324
0
LINE
8
DEFAULT_255_2_778
10
15.0166881
20
3.270924
11
15.0092881
21
3.270924
0
LINE
8
DEFAULT_255_2_778
10
15.0092881
20
3.270924
11
15.0385881
21
3.482524
0
LINE
8
DEFAULT_255_2_778
10
14.9621881
20
3.572524
11
14.5390881
21
3.572524
0
LINE
8
DEFAULT_255_2_778
10
14.4618881
20
3.506124
11
14.2205881
21
1.782124
0
LINE
8
DEFAULT_255_2_778
10
14.2964881
20
1.694524
11
14.7210881
21
1.694524
0
LINE
8
DEFAULT_255_2_778
10
14.7967881
20
1.761424
11
14.8962881
21
2.478724
0
LINE
8
DEFAULT_255_2_778
10
15.6032881
20
3.098624
11
15.6429881
21
3.091724
0
LINE
8
DEFAULT_255_2_778
10
15.7355881
20
3.156624
11
15.7870881
21
3.525924
0
LINE
8
DEFAULT_255_2_778
10
19.3229881
20
1.341324
11
19.5719881
21
3.110524
0
LINE
8
DEFAULT_255_2_778
10
19.4677881
20
3.230424
11
18.2231881
21
3.230424
0
LINE
8
DEFAULT_255_2_778
10
18.1188881
20
3.140724
11
18.0392881
21
2.592724
0
LINE
8
DEFAULT_255_2_778
10
18.1424881
20
2.473424
11
18.6890881
21
2.473424
0
LINE
8
DEFAULT_255_2_778
10
18.6890881
20
2.473424
11
18.6059881
21
1.867524
0
LINE
8
DEFAULT_255_2_778
10
19.0769881
20
3.801924
11
19.5881881
21
4.285324
0
LINE
8
DEFAULT_255_2_778
10
12.2006881
20
4.650924
11
12.1154881
21
4.661524
0
LINE
8
DEFAULT_255_2_778
10
11.1039881
20
3.913024
11
11.1034881
21
3.912524
0
LINE
8
DEFAULT_255_2_778
10
11.1034881
20
3.912524
11
11.0727881
21
3.691324
0
LINE
8
DEFAULT_255_2_778
10
10.9886881
20
3.091524
11
10.8073881
21
1.790324
0
LINE
8
DEFAULT_255_2_778
10
10.8838881
20
1.702724
11
11.3071881
21
1.702724
0
LINE
8
DEFAULT_255_2_778
10
11.3844881
20
1.768824
11
11.5720881
21
3.116924
0
LINE
8
DEFAULT_255_2_778
10
11.5720881
20
3.116924
11
11.9339881
21
3.116924
0
LINE
8
DEFAULT_255_2_778
10
12.0099881
20
3.182524
11
12.0546881
21
3.493124
0
LINE
8
DEFAULT_255_2_778
10
11.9773881
20
3.579624
11
11.6371881
21
3.579624
0
LINE
8
DEFAULT_255_2_778
10
11.6371881
20
3.579624
11
11.6799881
21
3.878324
0
LINE
8
DEFAULT_255_2_778
10
12.1990881
20
4.231024
11
12.2636881
21
4.560424
0
ARC
8
DEFAULT_255_2_778
10
3.1471919
20
3.5867137
40
0.0770693
50
0.8689662
51
90.1781321
0
ARC
8
DEFAULT_255_2_778
10
2.7144327
20
4.1440061
40
0.0767196
50
359.9823842
51
45.346863
0
ARC
8
DEFAULT_255_2_778
10
2.7142742
20
4.1438294
40
0.0769568
50
45.3553636
51
89.9785674
0
ARC
8
DEFAULT_255_2_778
10
2.714324
20
4.1424844
40
0.0783017
50
90.0154233
51
90.564699
0
ARC
8
DEFAULT_255_2_778
10
2.2900573
20
4.1440836
40
0.0766995
50
90.2278281
51
172.2832597
0
ARC
8
DEFAULT_255_2_778
10
2.8342523
20
2.2499813
40
0.8800786
50
173.2067923
51
179.7690333
0
ARC
8
DEFAULT_255_2_778
10
2.4505049
20
2.2442385
40
0.4964109
50
178.9276254
51
197.8734158
0
ARC
8
DEFAULT_255_2_778
10
2.321995
20
2.1977671
40
0.3598723
50
197.1112645
51
231.5372483
0
ARC
8
DEFAULT_255_2_778
10
2.4166631
20
2.3137713
40
0.509593
50
231.3156329
51
256.8294759
0
ARC
8
DEFAULT_255_2_778
10
2.554659
20
2.8410606
40
1.0545509
50
256.0566779
51
270.6733705
0
ARC
8
DEFAULT_255_2_778
10
2.5607678
20
3.7782614
40
1.9916888
50
270.1807895
51
276.1358628
0
ARC
8
DEFAULT_255_2_778
10
2.6815837
20
2.6839025
40
0.8906912
50
275.9331268
51
286.3389603
0
ARC
8
DEFAULT_255_2_778
10
2.9119359
20
1.90163
40
0.0752153
50
285.5917344
51
353.3981073
0
ARC
8
DEFAULT_255_2_778
10
2.9584798
20
2.2084136
40
0.0707755
50
351.3609672
51
357.8417311
0
ARC
8
DEFAULT_255_2_778
10
2.9567936
20
2.2084983
40
0.0724638
50
357.8250266
51
0.0035501
0
ARC
8
DEFAULT_255_2_778
10
2.9515809
20
2.2081143
40
0.0776776
50
0.2865791
51
45.8850186
0
ARC
8
DEFAULT_255_2_778
10
2.9513497
20
2.2078832
40
0.0780045
50
45.8812588
51
89.3369926
0
ARC
8
DEFAULT_255_2_778
10
2.9523373
20
2.2334245
40
0.0524581
50
90.092824
51
93.3054015
0
ARC
8
DEFAULT_255_2_778
10
2.955505
20
2.1879854
40
0.0980057
50
93.6225409
51
98.150863
0
ARC
8
DEFAULT_255_2_778
10
2.9785429
20
2.01597
40
0.2715542
50
97.8168355
51
98.1486565
0
ARC
8
DEFAULT_255_2_778
10
2.7955732
20
2.6457851
40
0.373376
50
251.8648684
51
271.7464279
0
ARC
8
DEFAULT_255_2_778
10
2.7471622
20
2.4763842
40
0.1974361
50
244.4319697
51
249.9139629
0
ARC
8
DEFAULT_255_2_778
10
2.719489
20
2.4298228
40
0.1435734
50
204.4128861
51
246.3750717
0
ARC
8
DEFAULT_255_2_778
10
2.8296157
20
2.4739232
40
0.2621357
50
178.6536138
51
203.2414865
0
ARC
8
DEFAULT_255_2_778
10
3.4980574
20
2.4766438
40
0.9305114
50
171.1387057
51
179.7882614
0
ARC
8
DEFAULT_255_2_778
10
3.1036303
20
3.2766701
40
0.0763876
50
269.9415424
51
351.8814607
0
ARC
8
DEFAULT_255_2_778
10
3.2734605
20
3.5697607
40
0.0504768
50
168.9372922
51
175.3161303
0
LINE
8
DEFAULT_255_2_778
10
3.2239217
20
3.5794463
11
3.223943
21
3.5795665
0
ARC
8
DEFAULT_255_2_778
10
3.1847519
20
3.5876148
40
0.0400089
50
348.3950372
51
358.8080608
0
ARC
8
DEFAULT_255_2_778
10
4.7507467
20
3.2767835
40
0.0952475
50
259.660911
51
268.4564255
0
ARC
8
DEFAULT_255_2_778
10
4.6853229
20
1.971779
40
1.2114234
50
86.9465542
51
87.02571
0
ARC
8
DEFAULT_255_2_778
10
4.7498571
20
3.2623769
40
0.0808944
50
269.9966321
51
273.7780047
0
ARC
8
DEFAULT_255_2_778
10
4.7501006
20
3.2598399
40
0.0783468
50
273.7225576
51
304.1242098
0
ARC
8
DEFAULT_255_2_778
10
4.7485145
20
3.2582188
40
0.0779263
50
305.7584537
51
352.3777313
0
ARC
8
DEFAULT_255_2_778
10
4.8023276
20
3.6288569
40
0.0752712
50
351.9241305
51
359.7572821
0
ARC
8
DEFAULT_255_2_778
10
4.8058639
20
3.6288768
40
0.071735
50
359.7294188
51
359.9999993
0
ARC
8
DEFAULT_255_2_778
10
4.8014336
20
3.6289569
40
0.0761654
50
359.9397869
51
38.6073066
0
ARC
8
DEFAULT_255_2_778
10
4.8018491
20
3.6299101
40
0.0752474
50
38.2375758
51
84.2773262
0
ARC
8
DEFAULT_255_2_778
10
4.6799542
20
3.0810109
40
0.6292341
50
88.6979564
51
118.5431924
0
ARC
8
DEFAULT_255_2_778
10
4.638444
20
3.1776077
40
0.5246328
50
119.6016198
51
121.8428438
0
ARC
8
DEFAULT_255_2_778
10
4.7938742
20
2.954562
40
0.7962429
50
122.8762656
51
142.9611251
0
ARC
8
DEFAULT_255_2_778
10
5.1205998
20
2.6824468
40
1.2211251
50
142.0037001
51
146.1588188
0
ARC
8
DEFAULT_255_2_778
10
4.0527076
20
3.5863413
40
0.076446
50
0.3307206
51
90.6410045
0
ARC
8
DEFAULT_255_2_778
10
3.6282466
20
3.610826
40
0.0519574
50
89.6628828
51
90.1124791
0
ARC
8
DEFAULT_255_2_778
10
3.6280727
20
3.5859357
40
0.0768479
50
89.946377
51
171.5844262
0
ARC
8
DEFAULT_255_2_778
10
3.3870315
20
1.8629358
40
0.0770325
50
171.9806029
51
173.7169933
0
ARC
8
DEFAULT_255_2_778
10
3.3866797
20
1.8629798
40
0.0766779
50
173.7209038
51
179.9972711
0
ARC
8
DEFAULT_255_2_778
10
3.3865791
20
1.8629837
40
0.0765773
50
180.0001388
51
220.9622326
0
ARC
8
DEFAULT_255_2_778
10
3.3871166
20
1.8632186
40
0.0771374
50
220.8322638
51
269.6551456
0
ARC
8
DEFAULT_255_2_778
10
3.8112983
20
1.8627238
40
0.0766413
50
270.0403734
51
352.3207874
0
ARC
8
DEFAULT_255_2_778
10
5.832845
20
2.3279298
40
1.8622952
50
164.5263082
51
172.5070011
0
ARC
8
DEFAULT_255_2_778
10
4.6185247
20
2.6703815
40
0.6006562
50
143.9240065
51
165.1046744
0
ARC
8
DEFAULT_255_2_778
10
4.4491242
20
2.788696
40
0.3940917
50
112.2735095
51
143.3240416
0
ARC
8
DEFAULT_255_2_778
10
4.5207783
20
2.6361045
40
0.5625202
50
94.0440801
51
113.1363745
0
ARC
8
DEFAULT_255_2_778
10
4.5673685
20
2.2354019
40
0.9656826
50
89.8822986
51
95.1248802
0
ARC
8
DEFAULT_255_2_778
10
4.5728188
20
2.4580125
40
0.7430781
50
80.6805261
51
90.2672899
0
ARC
8
DEFAULT_255_2_778
10
6.1663827
20
3.1809565
40
0.4975908
50
34.0106693
51
69.4496317
0
ARC
8
DEFAULT_255_2_778
10
6.0376497
20
2.8699976
40
0.8340284
50
68.6674963
51
83.396192
0
ARC
8
DEFAULT_255_2_778
10
5.9374311
20
2.1296125
40
1.5810923
50
82.8741017
51
90.3036332
0
ARC
8
DEFAULT_255_2_778
10
5.9318854
20
2.2684108
40
1.4422745
50
90.112547
51
108.6212188
0
ARC
8
DEFAULT_255_2_778
10
5.8681979
20
2.4398731
40
1.2594646
50
108.3662896
51
125.9859866
0
ARC
8
DEFAULT_255_2_778
10
5.1721858
20
3.3982854
40
0.0749873
50
125.959434
51
173.0319418
0
ARC
8
DEFAULT_255_2_778
10
5.1708279
20
3.3977218
40
0.0737114
50
172.4690858
51
180.0370259
0
ARC
8
DEFAULT_255_2_778
10
5.1739821
20
3.3976884
40
0.0768655
50
180.0105909
51
185.1175457
0
ARC
8
DEFAULT_255_2_778
10
5.1700796
20
3.3966373
40
0.0728882
50
184.568212
51
221.4556335
0
ARC
8
DEFAULT_255_2_778
10
5.3358551
20
3.2022986
40
0.076416
50
219.2182558
51
269.9978988
0
ARC
8
DEFAULT_255_2_778
10
5.3353793
20
3.2018999
40
0.0760189
50
270.3565188
51
310.6018441
0
ARC
8
DEFAULT_255_2_778
10
5.9445343
20
2.4667473
40
0.8787277
50
115.8747876
51
129.5627646
0
ARC
8
DEFAULT_255_2_778
10
5.8267747
20
2.6948861
40
0.6221018
50
89.762599
51
115.2859717
0
ARC
8
DEFAULT_255_2_778
10
5.8416101
20
2.9687892
40
0.348409
50
47.5533934
51
92.016207
0
ARC
8
DEFAULT_255_2_778
10
5.9054305
20
3.0411264
40
0.2519642
50
358.1938344
51
47.1606552
0
ARC
8
DEFAULT_255_2_778
10
5.7560311
20
3.0344513
40
0.4012402
50
352.2988281
51
359.819173
0
ARC
8
DEFAULT_255_2_778
10
5.838638
20
1.2280972
40
1.7431023
50
92.8900279
51
107.1290043
0
ARC
8
DEFAULT_255_2_778
10
5.6022095
20
1.9867172
40
0.948501
50
106.9774103
51
131.5291588
0
ARC
8
DEFAULT_255_2_778
10
5.3494067
20
2.2881991
40
0.5552993
50
132.6260282
51
167.4832979
0
ARC
8
DEFAULT_255_2_778
10
5.6533058
20
2.196657
40
0.8721317
50
165.9389793
51
171.8176374
0
ARC
8
DEFAULT_255_2_778
10
5.5012337
20
2.2292104
40
0.7169889
50
172.7025622
51
179.8364571
0
ARC
8
DEFAULT_255_2_778
10
5.270543
20
2.2247336
40
0.486339
50
179.2314604
51
198.6906146
0
ARC
8
DEFAULT_255_2_778
10
5.2050399
20
2.2040887
40
0.4176769
50
198.887445
51
229.2056358
0
ARC
8
DEFAULT_255_2_778
10
5.2897318
20
2.2977445
40
0.5439209
50
228.8972982
51
252.8950641
0
ARC
8
DEFAULT_255_2_778
10
5.3729734
20
2.5519814
40
0.8114096
50
252.5573328
51
270.2950843
0
ARC
8
DEFAULT_255_2_778
10
5.3768557
20
2.6907336
40
0.9501512
50
270.0178844
51
291.4977325
0
ARC
8
DEFAULT_255_2_778
10
5.4900213
20
2.41679
40
0.6538125
50
291.0681232
51
322.9524342
0
ARC
8
DEFAULT_255_2_778
10
6.0788188
20
1.86458
40
0.0804417
50
173.1441058
51
179.9904942
0
ARC
8
DEFAULT_255_2_778
10
6.0743754
20
1.8641633
40
0.0759995
50
179.6758187
51
221.7238547
0
ARC
8
DEFAULT_255_2_778
10
6.0765169
20
1.8656585
40
0.0785936
50
221.4983288
51
268.7863867
0
LINE
8
DEFAULT_255_2_778
10
6.4537523
20
1.7870825
11
6.4539547
21
1.7870822
0
ARC
8
DEFAULT_255_2_778
10
6.4538592
20
1.8639145
40
0.0768323
50
270.0711976
51
352.0459065
0
ARC
8
DEFAULT_255_2_778
10
4.4589975
20
3.0762387
40
2.2179861
50
351.3323563
51
357.891924
0
ARC
8
DEFAULT_255_2_778
10
4.9177518
20
3.0537449
40
1.7587239
50
358.0744754
51
359.9837486
0
ARC
8
DEFAULT_255_2_778
10
5.1680648
20
3.0549993
40
1.5084119
50
359.9334058
51
3.8614775
0
ARC
8
DEFAULT_255_2_778
10
6.0250665
20
3.1228182
40
0.6488649
50
2.9827897
51
27.5338289
0
ARC
8
DEFAULT_255_2_778
10
6.1512938
20
3.1795131
40
0.5107898
50
28.4399669
51
33.210684
0
ARC
8
DEFAULT_255_2_778
10
5.7393089
20
2.5267058
40
0.3469183
50
325.7747677
51
353.2920013
0
ARC
8
DEFAULT_255_2_778
10
5.7019204
20
2.5600096
40
0.3966173
50
301.9245317
51
324.8346316
0
ARC
8
DEFAULT_255_2_778
10
5.605208
20
2.7200383
40
0.5835882
50
285.5394538
51
301.6752314
0
ARC
8
DEFAULT_255_2_778
10
5.5938404
20
2.7577437
40
0.6229613
50
269.9735071
51
285.6176968
0
ARC
8
DEFAULT_255_2_778
10
5.5900189
20
2.510818
40
0.3760521
50
270.0032993
51
270.5383638
0
ARC
8
DEFAULT_255_2_778
10
5.5899306
20
2.5061693
40
0.3714033
50
255.7569803
51
270.016956
0
ARC
8
DEFAULT_255_2_778
10
5.5446327
20
2.3511361
40
0.2100699
50
232.3630728
51
257.3287065
0
ARC
8
DEFAULT_255_2_778
10
5.5230097
20
2.3309534
40
0.1809468
50
207.1859303
51
233.8826702
0
ARC
8
DEFAULT_255_2_778
10
5.482254
20
2.3073485
40
0.13393
50
178.8644914
51
206.1690613
0
ARC
8
DEFAULT_255_2_778
10
5.5514839
20
2.3093276
40
0.2031346
50
171.7481293
51
179.8096227
0
ARC
8
DEFAULT_255_2_778
10
5.55811
20
2.3230245
40
0.2083819
50
126.7080321
51
175.2217752
0
ARC
8
DEFAULT_255_2_778
10
5.7299187
20
2.0918605
40
0.4964008
50
105.2496942
51
126.6575098
0
ARC
8
DEFAULT_255_2_778
10
5.8477836
20
1.6923607
40
0.9128762
50
93.4497951
51
105.791726
0
ARC
8
DEFAULT_255_2_778
10
8.4247984
20
3.2778591
40
0.4082171
50
25.8552963
51
63.4986992
0
ARC
8
DEFAULT_255_2_778
10
8.3479657
20
3.1275157
40
0.5770497
50
63.3325356
51
83.1435621
0
ARC
8
DEFAULT_255_2_778
10
8.2657114
20
2.5923983
40
1.1183013
50
82.2324353
51
90.3155613
0
ARC
8
DEFAULT_255_2_778
10
8.2577149
20
2.9773733
40
0.7333115
50
89.8564375
51
105.4508391
0
ARC
8
DEFAULT_255_2_778
10
8.2622377
20
2.9761124
40
0.7357427
50
105.7641611
51
119.875446
0
ARC
8
DEFAULT_255_2_778
10
8.2739675
20
2.9656368
40
0.7506854
50
120.253482
51
132.6824219
0
ARC
8
DEFAULT_255_2_778
10
8.1391988
20
3.1027045
40
0.5585932
50
132.0517323
51
146.6757478
0
ARC
8
DEFAULT_255_2_778
10
7.66478
20
3.5830393
40
0.0233438
50
339.5480835
51
351.406586
0
ARC
8
DEFAULT_255_2_778
10
7.6355891
20
3.5861186
40
0.0526836
50
352.8390665
51
1.5922473
0
ARC
8
DEFAULT_255_2_778
10
7.6114973
20
3.5868239
40
0.0767588
50
0.5662487
51
90.0438319
0
LINE
8
DEFAULT_255_2_778
10
7.6114385
20
3.6635827
11
7.6112523
21
3.6635825
0
ARC
8
DEFAULT_255_2_778
10
7.2094529
20
3.5879256
40
0.0756635
50
89.2431372
51
90.0108344
0
ARC
8
DEFAULT_255_2_778
10
7.2095817
20
3.5862848
40
0.0773044
50
90.106122
51
171.3715041
0
ARC
8
DEFAULT_255_2_778
10
6.9628237
20
1.8623598
40
0.0721797
50
170.411779
51
175.1285943
0
ARC
8
DEFAULT_255_2_778
10
6.9630549
20
1.8623397
40
0.0724119
50
175.128233
51
180.0009605
0
ARC
8
DEFAULT_255_2_778
10
6.9635469
20
1.8623463
40
0.0729039
50
180.0061982
51
221.9806203
0
ARC
8
DEFAULT_255_2_778
10
6.9684299
20
1.8655653
40
0.0786916
50
221.3448068
51
269.1425695
0
ARC
8
DEFAULT_255_2_778
10
7.3914561
20
1.8381577
40
0.051276
50
269.660552
51
270.1132565
0
ARC
8
DEFAULT_255_2_778
10
7.3916039
20
1.8636307
40
0.0767492
50
269.965306
51
352.2511485
0
ARC
8
DEFAULT_255_2_778
10
8.8593281
20
2.5693363
40
1.278704
50
165.0420579
51
173.1123326
0
ARC
8
DEFAULT_255_2_778
10
8.1460019
20
2.7552038
40
0.5415932
50
146.658011
51
164.5610107
0
ARC
8
DEFAULT_255_2_778
10
7.9737071
20
2.857194
40
0.3417319
50
117.5114292
51
145.065641
0
ARC
8
DEFAULT_255_2_778
10
7.9875254
20
2.8200949
40
0.3810502
50
88.6732807
51
116.7774428
0
ARC
8
DEFAULT_255_2_778
10
8.0033168
20
2.5848022
40
0.6162802
50
89.9966952
51
90.6478992
0
ARC
8
DEFAULT_255_2_778
10
8.0157513
20
2.9129536
40
0.2883955
50
63.978464
51
92.4640823
0
ARC
8
DEFAULT_255_2_778
10
8.0704428
20
3.0409149
40
0.1495754
50
48.7563325
51
61.2997863
0
ARC
8
DEFAULT_255_2_778
10
8.0231912
20
2.982232
40
0.2248732
50
13.2786573
51
49.561078
0
ARC
8
DEFAULT_255_2_778
10
7.8042101
20
2.9217084
40
0.4519832
50
359.9973421
51
14.3699544
0
ARC
8
DEFAULT_255_2_778
10
7.8035049
20
2.9216881
40
0.4526883
50
358.8298692
51
359.9999241
0
ARC
8
DEFAULT_255_2_778
10
7.8030979
20
2.9217006
40
0.4530955
50
353.9292025
51
358.8293323
0
ARC
8
DEFAULT_255_2_778
10
8.1946958
20
1.8636075
40
0.0761132
50
172.3934879
51
177.0899333
0
ARC
8
DEFAULT_255_2_778
10
8.1950994
20
1.8635844
40
0.0765175
50
177.0879831
51
180.0044335
0
ARC
8
DEFAULT_255_2_778
10
8.1962359
20
1.8635907
40
0.0776541
50
180.0090357
51
220.5737188
0
ARC
8
DEFAULT_255_2_778
10
8.1956108
20
1.8632196
40
0.0769379
50
220.6665963
51
269.733017
0
ARC
8
DEFAULT_255_2_778
10
8.6199572
20
1.8379401
40
0.0516584
50
269.6618862
51
270.1128094
0
ARC
8
DEFAULT_255_2_778
10
8.6199709
20
1.8634457
40
0.0771643
50
270.0653272
51
351.8319699
0
ARC
8
DEFAULT_255_2_778
10
6.6131035
20
3.148532
40
2.2407852
50
351.6178662
51
359.9902249
0
ARC
8
DEFAULT_255_2_778
10
6.6293182
20
3.1481664
40
2.2245704
50
359.9995678
51
0.6340217
0
ARC
8
DEFAULT_255_2_778
10
8.1558822
20
3.167167
40
0.6978927
50
0.4610314
51
23.6994545
0
ARC
8
DEFAULT_255_2_778
10
8.2932353
20
3.217023
40
0.5521668
50
24.6910942
51
25.5627396
0
ARC
8
DEFAULT_255_2_778
10
10.0594804
20
2.436852
40
1.2732309
50
73.3002061
51
90.0001621
0
LINE
8
DEFAULT_255_2_778
10
10.0594768
20
3.7100829
11
10.0584523
21
3.7100825
0
ARC
8
DEFAULT_255_2_778
10
10.0575857
20
2.5235764
40
1.1865064
50
89.9581498
51
104.2485492
0
ARC
8
DEFAULT_255_2_778
10
9.9721133
20
2.8120958
40
0.8859045
50
103.4834159
51
122.4973006
0
ARC
8
DEFAULT_255_2_778
10
9.8796074
20
2.9507884
40
0.7192377
50
122.2179189
51
145.0820107
0
ARC
8
DEFAULT_255_2_778
10
9.8260862
20
2.9964566
40
0.6492471
50
145.6830935
51
172.8752784
0
ARC
8
DEFAULT_255_2_778
10
9.8603753
20
2.9656713
40
0.6874635
50
170.749449
51
179.6731986
0
ARC
8
DEFAULT_255_2_778
10
9.5607571
20
2.9608453
40
0.3879328
50
178.7079807
51
201.9476076
0
ARC
8
DEFAULT_255_2_778
10
9.4528475
20
2.9239355
40
0.2741162
50
203.2221844
51
208.6323442
0
ARC
8
DEFAULT_255_2_778
10
9.5785824
20
2.9887981
40
0.4155698
50
208.1746215
51
240.1995741
0
ARC
8
DEFAULT_255_2_778
10
9.7912965
20
3.3814708
40
0.8620957
50
240.9017809
51
256.9375857
0
ARC
8
DEFAULT_255_2_778
10
9.6808861
20
1.8001711
40
0.7017175
50
64.2642838
51
78.1693257
0
ARC
8
DEFAULT_255_2_778
10
9.8063754
20
2.0820981
40
0.3933776
50
60.7392741
51
62.8983861
0
ARC
8
DEFAULT_255_2_778
10
9.9585239
20
2.3365286
40
0.097404
50
0.7160433
51
65.6707937
0
ARC
8
DEFAULT_255_2_778
10
9.9324104
20
2.3382499
40
0.123511
50
349.7550294
51
359.7661998
0
ARC
8
DEFAULT_255_2_778
10
9.9265788
20
2.3338013
40
0.1287272
50
284.3358604
51
351.6837203
0
ARC
8
DEFAULT_255_2_778
10
9.7778313
20
2.744963
40
0.5655015
50
269.5056674
51
288.6266327
0
ARC
8
DEFAULT_255_2_778
10
9.7603247
20
2.628156
40
0.4488511
50
243.1689016
51
271.6121225
0
ARC
8
DEFAULT_255_2_778
10
9.7126303
20
2.5131752
40
0.3248558
50
240.0915865
51
241.5216555
0
ARC
8
DEFAULT_255_2_778
10
9.7836303
20
2.6300159
40
0.4615495
50
221.7992735
51
239.6836727
0
ARC
8
DEFAULT_255_2_778
10
9.3826407
20
2.2689413
40
0.0780698
50
43.1987718
51
88.4501173
0
ARC
8
DEFAULT_255_2_778
10
9.3828385
20
2.2671739
40
0.0798089
50
90.1336614
51
132.9576005
0
ARC
8
DEFAULT_255_2_778
10
9.0973692
20
1.9900532
40
0.0819186
50
135.4884199
51
179.6297982
0
ARC
8
DEFAULT_255_2_778
10
9.0933624
20
1.9920828
40
0.0779245
50
181.1032152
51
227.3351854
0
ARC
8
DEFAULT_255_2_778
10
9.4640569
20
2.4064781
40
0.6339186
50
228.0814146
51
254.6127905
0
ARC
8
DEFAULT_255_2_778
10
9.6911789
20
3.150507
40
1.411707
50
253.7377378
51
266.5389509
0
ARC
8
DEFAULT_255_2_778
10
9.6865515
20
3.0977904
40
1.3588079
50
266.5995228
51
269.9958181
0
ARC
8
DEFAULT_255_2_778
10
9.6835447
20
3.4136654
40
1.6746854
50
270.099479
51
280.7339314
0
ARC
8
DEFAULT_255_2_778
10
9.821381
20
2.7483884
40
0.9954438
50
280.0709811
51
297.8917657
0
ARC
8
DEFAULT_255_2_778
10
9.9346037
20
2.5282158
40
0.7478878
50
298.1160323
51
321.1012348
0
ARC
8
DEFAULT_255_2_778
10
10.0805179
20
2.404939
40
0.5569345
50
321.5451242
51
351.660106
0
ARC
8
DEFAULT_255_2_778
10
9.8581862
20
2.4566841
40
0.7846493
50
350.2762483
51
352.7441415
0
ARC
8
DEFAULT_255_2_778
10
9.8820092
20
2.4585774
40
0.7612722
50
352.3763246
51
359.7467939
0
ARC
8
DEFAULT_255_2_778
10
10.2145364
20
2.4643919
40
0.4288359
50
358.7735571
51
19.9753283
0
ARC
8
DEFAULT_255_2_778
10
10.3457284
20
2.5055256
40
0.2915496
50
21.1856284
51
27.6628251
0
ARC
8
DEFAULT_255_2_778
10
10.2311854
20
2.4495838
40
0.4189874
50
27.166248
51
58.9884302
0
ARC
8
DEFAULT_255_2_778
10
10.0573337
20
2.1778307
40
0.7415218
50
58.2936468
51
76.9434893
0
ARC
8
DEFAULT_255_2_778
10
10.2310271
20
3.9327581
40
1.0059358
50
246.1978776
51
256.6555456
0
ARC
8
DEFAULT_255_2_778
10
9.8545018
20
3.0961217
40
0.0887667
50
180.6811997
51
250.6241843
0
ARC
8
DEFAULT_255_2_778
10
9.8800671
20
3.0946532
40
0.1143265
50
170.3678579
51
179.7929371
0
ARC
8
DEFAULT_255_2_778
10
9.9138716
20
3.1013675
40
0.1471321
50
114.8447925
51
174.7687069
0
ARC
8
DEFAULT_255_2_778
10
10.0134146
20
2.8924095
40
0.3785836
50
103.4352136
51
115.2283077
0
ARC
8
DEFAULT_255_2_778
10
9.9993628
20
2.9492062
40
0.3200767
50
90.0913758
51
103.3509392
0
ARC
8
DEFAULT_255_2_778
10
10.0137333
20
2.8825519
40
0.3870168
50
57.909202
51
92.2035948
0
ARC
8
DEFAULT_255_2_778
10
10.0385662
20
2.9397281
40
0.3255179
50
44.5977854
51
56.2655505
0
ARC
8
DEFAULT_255_2_778
10
10.3253462
20
3.2215322
40
0.0765497
50
224.0768147
51
270.0045629
0
ARC
8
DEFAULT_255_2_778
10
10.325289
20
3.2241539
40
0.0791714
50
270.045853
51
309.9745227
0
ARC
8
DEFAULT_255_2_778
10
10.6081934
20
3.4677505
40
0.0756589
50
310.921999
51
0.0242113
0
ARC
8
DEFAULT_255_2_778
10
10.6062757
20
3.4691919
40
0.0775894
50
358.9592065
51
359.9995245
0
ARC
8
DEFAULT_255_2_778
10
10.6071795
20
3.4691874
40
0.0766858
50
0.0028879
51
47.2312746
0
ARC
8
DEFAULT_255_2_778
10
10.2676047
20
3.0979295
40
0.5798184
50
47.5096567
51
74.397648
0
ARC
8
DEFAULT_255_2_778
10
13.3613244
20
3.0668801
40
0.6263274
50
36.6764398
51
66.322279
0
ARC
8
DEFAULT_255_2_778
10
13.2754577
20
2.8513856
40
0.8582011
50
66.8498739
51
89.3435404
0
ARC
8
DEFAULT_255_2_778
10
13.2575327
20
2.6165332
40
1.0933495
50
88.545243
51
90.0042144
0
ARC
8
DEFAULT_255_2_778
10
13.2568914
20
2.4227482
40
1.2871344
50
89.9750309
51
108.9006501
0
ARC
8
DEFAULT_255_2_778
10
13.2066549
20
2.5596598
40
1.1413363
50
108.7410979
51
129.4494964
0
ARC
8
DEFAULT_255_2_778
10
13.1889978
20
2.5699533
40
1.1221909
50
129.0872899
51
150.0510574
0
ARC
8
DEFAULT_255_2_778
10
13.1558938
20
2.585404
40
1.0857984
50
149.8854235
51
172.6355184
0
ARC
8
DEFAULT_255_2_778
10
13.2237262
20
2.5668858
40
1.1554855
50
172.1559856
51
179.8358527
0
ARC
8
DEFAULT_255_2_778
10
12.9108407
20
2.562652
40
0.842629
50
179.4870219
51
196.7945288
0
ARC
8
DEFAULT_255_2_778
10
12.8528738
20
2.5413202
40
0.7809796
50
196.5250608
51
223.0914423
0
ARC
8
DEFAULT_255_2_778
10
12.8760257
20
2.5822575
40
0.8259735
50
224.0680827
51
249.462123
0
ARC
8
DEFAULT_255_2_778
10
12.9735614
20
2.8508227
40
1.1116906
50
249.6107329
51
270.5458569
0
ARC
8
DEFAULT_255_2_778
10
12.9834294
20
2.8195177
40
1.0803354
50
270.0383425
51
278.9083832
0
ARC
8
DEFAULT_255_2_778
10
12.9597871
20
2.9484456
40
1.2113739
50
279.0688169
51
293.2903044
0
ARC
8
DEFAULT_255_2_778
10
13.0030166
20
2.8635076
40
1.1162815
50
292.9760122
51
313.0655517
0
ARC
8
DEFAULT_255_2_778
10
13.708705
20
2.1057746
40
0.080855
50
314.3762686
51
0.0686724
0
ARC
8
DEFAULT_255_2_778
10
13.7082628
20
2.1058856
40
0.081297
50
359.990082
51
0.7731046
0
ARC
8
DEFAULT_255_2_778
10
13.7127527
20
2.1041788
40
0.0768508
50
2.0907238
51
50.3873109
0
ARC
8
DEFAULT_255_2_778
10
13.4694289
20
2.3035806
40
0.0759041
50
50.0658055
51
90.4352461
0
ARC
8
DEFAULT_255_2_778
10
13.4692116
20
2.3067056
40
0.0727778
50
90.2828232
51
105.4208518
0
ARC
8
DEFAULT_255_2_778
10
13.4732791
20
2.2925474
40
0.087508
50
105.523215
51
131.7999343
0
ARC
8
DEFAULT_255_2_778
10
12.8390931
20
2.9451077
40
0.8225355
50
301.4334879
51
314.4352275
0
ARC
8
DEFAULT_255_2_778
10
13.0289172
20
2.6609537
40
0.4812846
50
270.0087201
51
299.7930363
0
ARC
8
DEFAULT_255_2_778
10
13.0289939
20
2.6595992
40
0.4799301
50
268.7533494
51
269.9995845
0
ARC
8
DEFAULT_255_2_778
10
13.0033839
20
2.5678098
40
0.3883237
50
233.8853097
51
272.2386173
0
ARC
8
DEFAULT_255_2_778
10
12.9712667
20
2.5079153
40
0.3211451
50
225.5447983
51
232.2157648
0
ARC
8
DEFAULT_255_2_778
10
13.0261612
20
2.5553728
40
0.3935105
50
181.8334751
51
224.6789161
0
ARC
8
DEFAULT_255_2_778
10
13.9110564
20
2.6194861
40
0.0767038
50
270.1463676
51
351.6766804
0
ARC
8
DEFAULT_255_2_778
10
12.628202
20
2.9224933
40
1.3905773
50
351.8260504
51
359.8446416
0
ARC
8
DEFAULT_255_2_778
10
12.946122
20
2.9237507
40
1.0726639
50
359.7314298
51
11.063011
0
ARC
8
DEFAULT_255_2_778
10
13.2463005
20
2.989754
40
0.7654321
50
10.5258546
51
36.0757981
0
ARC
8
DEFAULT_255_2_778
10
13.1623466
20
2.9909052
40
0.3013291
50
48.0261914
51
93.1378519
0
ARC
8
DEFAULT_255_2_778
10
13.1683144
20
3.0099294
40
0.2833157
50
38.7549935
51
46.350146
0
ARC
8
DEFAULT_255_2_778
10
13.1654476
20
3.0016567
40
0.2907671
50
359.3053918
51
39.6726488
0
ARC
8
DEFAULT_255_2_778
10
13.0594545
20
2.999542
40
0.3967413
50
350.8544216
51
359.7963405
0
ARC
8
DEFAULT_255_2_778
10
13.0955078
20
2.8490153
40
0.4180091
50
148.1201453
51
167.9217601
0
ARC
8
DEFAULT_255_2_778
10
13.1362309
20
2.8277722
40
0.4638217
50
130.2487547
51
148.5486487
0
ARC
8
DEFAULT_255_2_778
10
13.1456385
20
2.8107653
40
0.4828954
50
111.0676149
51
129.7969264
0
ARC
8
DEFAULT_255_2_778
10
13.1370211
20
2.8177904
40
0.4732744
50
88.9308084
51
110.3998132
0
ARC
8
DEFAULT_255_2_778
10
15.7055005
20
3.5990586
40
0.097596
50
83.7932004
51
87.4466674
0
LINE
8
DEFAULT_255_2_778
10
15.7098483
20
3.6965577
11
15.709747
21
3.6965634
0
ARC
8
DEFAULT_255_2_778
10
15.7126619
20
3.7725651
40
0.0760575
50
262.3615872
51
267.8035661
0
ARC
8
DEFAULT_255_2_778
10
15.5883419
20
3.0715802
40
0.6299388
50
88.8074616
51
118.0581805
0
ARC
8
DEFAULT_255_2_778
10
15.5434538
20
3.1758993
40
0.5168527
50
119.1064861
51
121.9230855
0
ARC
8
DEFAULT_255_2_778
10
15.7025737
20
2.9465873
40
0.7957424
50
122.9166802
51
142.1655843
0
ARC
8
DEFAULT_255_2_778
10
16.0007227
20
2.692629
40
1.1871216
50
141.3115724
51
146.190532
0
ARC
8
DEFAULT_255_2_778
10
14.982446
20
3.5736648
40
0.0545675
50
350.4190642
51
357.2876282
0
ARC
8
DEFAULT_255_2_778
10
14.9037396
20
3.5763848
40
0.1333182
50
357.720668
51
0.5147618
0
ARC
8
DEFAULT_255_2_778
10
14.9600698
20
3.5774956
40
0.0769826
50
0.0646585
51
45.1601673
0
ARC
8
DEFAULT_255_2_778
10
14.9594753
20
3.5764139
40
0.0781696
50
45.4102805
51
89.723649
0
ARC
8
DEFAULT_255_2_778
10
14.5366378
20
3.5766374
40
0.0779452
50
89.9158528
51
171.482084
0
ARC
8
DEFAULT_255_2_778
10
14.293674
20
1.8531886
40
0.0763034
50
171.7917844
51
174.3547278
0
ARC
8
DEFAULT_255_2_778
10
14.2939254
20
1.8531587
40
0.0765565
50
174.3509281
51
180.0006899
0
ARC
8
DEFAULT_255_2_778
10
14.2943153
20
1.8532038
40
0.0769465
50
180.0342663
51
221.2369967
0
ARC
8
DEFAULT_255_2_778
10
14.2946394
20
1.8548926
40
0.0783106
50
222.0099158
51
269.789955
0
ARC
8
DEFAULT_255_2_778
10
14.7186449
20
1.8533223
40
0.0767409
50
270.3041881
51
352.6331767
0
ARC
8
DEFAULT_255_2_778
10
16.8087789
20
2.3088815
40
1.9310273
50
164.7721247
51
172.5044482
0
ARC
8
DEFAULT_255_2_778
10
15.5358306
20
2.6548845
40
0.6118932
50
144.0073774
51
164.7256334
0
ARC
8
DEFAULT_255_2_778
10
15.378238
20
2.7548599
40
0.4257939
50
113.7203929
51
142.4294619
0
ARC
8
DEFAULT_255_2_778
10
15.4248016
20
2.6214041
40
0.5668145
50
93.1636655
51
112.6027552
0
ARC
8
DEFAULT_255_2_778
10
15.4744961
20
2.1413962
40
1.0490883
50
89.8877
51
94.4268945
0
ARC
8
DEFAULT_255_2_778
10
15.4803024
20
2.4093118
40
0.7811797
50
89.9969783
51
90.2750528
0
ARC
8
DEFAULT_255_2_778
10
15.4819837
20
2.4618413
40
0.7286521
50
80.5871852
51
90.1289674
0
ARC
8
DEFAULT_255_2_778
10
15.6554132
20
3.2139976
40
0.04277
50
250.0959767
51
267.4881728
0
ARC
8
DEFAULT_255_2_778
10
15.6569287
20
3.2377922
40
0.0666099
50
267.0827858
51
270.1063208
0
ARC
8
DEFAULT_255_2_778
10
15.6554526
20
3.2506275
40
0.0794611
50
271.1535724
51
304.9319057
0
ARC
8
DEFAULT_255_2_778
10
15.656356
20
3.2492737
40
0.0778341
50
304.9573488
51
352.1049907
0
ARC
8
DEFAULT_255_2_778
10
15.7052849
20
3.6185961
40
0.0804314
50
352.6327601
51
359.9916167
0
ARC
8
DEFAULT_255_2_778
10
15.7066911
20
3.6186615
40
0.0790252
50
359.944034
51
37.4209748
0
ARC
8
DEFAULT_255_2_778
10
15.7042626
20
3.612329
40
0.0848764
50
39.8204816
51
82.0155547
0
ARC
8
DEFAULT_255_2_778
10
18.6797722
20
3.5151507
40
1.3534984
50
48.2210389
51
73.9028578
0
ARC
8
DEFAULT_255_2_778
10
18.3306598
20
2.3443086
40
2.5752552
50
73.6628117
51
84.5805089
0
ARC
8
DEFAULT_255_2_778
10
18.2530285
20
1.6442669
40
3.2795187
50
84.3854043
51
90.0782016
0
ARC
8
DEFAULT_255_2_778
10
18.2361121
20
2.4276962
40
2.4961173
50
89.7144465
51
89.9990612
0
ARC
8
DEFAULT_255_2_778
10
18.2358932
20
2.4398803
40
2.4839331
50
89.9940084
51
109.1061883
0
ARC
8
DEFAULT_255_2_778
10
18.1415106
20
2.7128466
40
2.1951104
50
109.1104671
51
129.9478402
0
ARC
8
DEFAULT_255_2_778
10
18.1597299
20
2.7130644
40
2.2066869
50
130.3141333
51
151.148474
0
ARC
8
DEFAULT_255_2_778
10
18.2101428
20
2.6817694
40
2.2659454
50
151.0704882
51
169.9127395
0
ARC
8
DEFAULT_255_2_778
10
18.559079
20
2.6028845
40
2.6233565
50
169.5512732
51
172.0000592
0
ARC
8
DEFAULT_255_2_778
10
18.3558777
20
2.6262958
40
2.4188801
50
171.8793383
51
178.6814998
0
ARC
8
DEFAULT_255_2_778
10
18.0874598
20
2.6367311
40
2.1502974
50
178.7949105
51
179.9972179
0
ARC
8
DEFAULT_255_2_778
10
17.7905819
20
2.6286881
40
1.8534374
50
179.7481348
51
191.547011
0
ARC
8
DEFAULT_255_2_778
10
17.5402566
20
2.5840475
40
1.5992552
50
191.7752613
51
195.4175761
0
ARC
8
DEFAULT_255_2_778
10
17.4810021
20
2.5515062
40
1.5335614
50
194.8340822
51
217.2661958
0
ARC
8
DEFAULT_255_2_778
10
17.3270774
20
2.4490254
40
1.3490596
50
217.7608595
51
222.3177458
0
ARC
8
DEFAULT_255_2_778
10
17.4439846
20
2.5687494
40
1.5161383
50
222.6888445
51
247.6534167
0
ARC
8
DEFAULT_255_2_778
10
17.5567883
20
2.8000937
40
1.7730733
50
247.1243185
51
248.6248935
0
ARC
8
DEFAULT_255_2_778
10
17.6267693
20
3.0162818
40
1.9999434
50
249.0153002
51
264.431581
0
ARC
8
DEFAULT_255_2_778
10
17.6929088
20
3.5462163
40
2.5338359
50
264.1058366
51
270.0733429
0
ARC
8
DEFAULT_255_2_778
10
17.6946361
20
4.9942328
40
3.9818505
50
270.0218175
51
281.8388628
0
ARC
8
DEFAULT_255_2_778
10
17.8186062
20
4.4312472
40
3.4054116
50
281.740757
51
295.0233368
0
ARC
8
DEFAULT_255_2_778
10
19.2125618
20
1.442439
40
0.1075265
50
295.6176702
51
351.3043216
0
ARC
8
DEFAULT_255_2_778
10
19.4648348
20
3.2124282
40
0.104402
50
350.6588582
51
354.2690296
0
ARC
8
DEFAULT_255_2_778
10
19.4652041
20
3.2123895
40
0.1040306
50
354.2699774
51
359.9972607
0
ARC
8
DEFAULT_255_2_778
10
19.4662165
20
3.2124815
40
0.1030182
50
359.9460201
51
41.0110178
0
ARC
8
DEFAULT_255_2_778
10
19.4660834
20
3.2125308
40
0.1030864
50
40.9418334
51
89.925102
0
ARC
8
DEFAULT_255_2_778
10
19.4662125
20
3.2133433
40
0.1022739
50
89.9968131
51
91.4904384
0
ARC
8
DEFAULT_255_2_778
10
18.2192018
20
3.2099208
40
0.105662
50
90.1352627
51
171.3114073
0
ARC
8
DEFAULT_255_2_778
10
18.1363007
20
2.6623035
40
0.1024552
50
171.1972843
51
179.9895127
0
ARC
8
DEFAULT_255_2_778
10
18.1394086
20
2.6629408
40
0.1055649
50
180.3357354
51
220.9292428
0
ARC
8
DEFAULT_255_2_778
10
18.1376661
20
2.6620301
40
0.1036527
50
221.1799157
51
269.9244967
0
ARC
8
DEFAULT_255_2_778
10
18.1375488
20
2.6590484
40
0.100671
50
269.9890031
51
270.5711428
0
ARC
8
DEFAULT_255_2_778
10
17.966827
20
3.2080127
40
1.4070776
50
289.6139649
51
296.8367588
0
ARC
8
DEFAULT_255_2_778
10
17.5278592
20
4.4006081
40
2.6778591
50
286.2310683
51
289.89565
0
ARC
8
DEFAULT_255_2_778
10
17.8595277
20
3.2934384
40
1.5221398
50
273.9316805
51
285.8929682
0
ARC
8
DEFAULT_255_2_778
10
17.8049006
20
3.8785498
40
2.1096687
50
269.9362251
51
274.3222071
0
ARC
8
DEFAULT_255_2_778
10
17.7894446
20
2.9973204
40
1.2285078
50
254.2937515
51
270.6113369
0
ARC
8
DEFAULT_255_2_778
10
17.7142956
20
2.6981821
40
0.9202358
50
246.003428
51
253.7560921
0
ARC
8
DEFAULT_255_2_778
10
17.6925878
20
2.6619629
40
0.8783337
50
219.1198879
51
246.3362426
0
ARC
8
DEFAULT_255_2_778
10
17.7577913
20
2.6976225
40
0.9515151
50
192.8082319
51
218.3085112
0
ARC
8
DEFAULT_255_2_778
10
17.9783962
20
2.755357
40
1.179453
50
179.7023392
51
193.1673396
0
ARC
8
DEFAULT_255_2_778
10
18.2977469
20
2.7578925
40
1.4987919
50
171.9421506
51
179.8626884
0
ARC
8
DEFAULT_255_2_778
10
18.2828428
20
2.7679931
40
1.4826404
50
152.7835946
51
172.2478967
0
ARC
8
DEFAULT_255_2_778
10
18.1696484
20
2.8391995
40
1.3494613
50
132.9283859
51
153.2741206
0
ARC
8
DEFAULT_255_2_778
10
18.1163413
20
2.8864403
40
1.278583
50
111.3741917
51
132.6211198
0
ARC
8
DEFAULT_255_2_778
10
18.1285982
20
2.8432038
40
1.32332
50
89.547363
51
111.1861082
0
ARC
8
DEFAULT_255_2_778
10
18.1515609
20
2.4723168
40
1.6942119
50
80.6969908
51
90.4230263
0
ARC
8
DEFAULT_255_2_778
10
18.2734569
20
3.1980539
40
0.9583196
50
66.5738874
51
80.8747556
0
ARC
8
DEFAULT_255_2_778
10
18.2713279
20
3.2246253
40
0.9348685
50
45.3307803
51
65.8066979
0
ARC
8
DEFAULT_255_2_778
10
19.002299
20
3.9637578
40
0.104668
50
225.2045936
51
260.439527
0
ARC
8
DEFAULT_255_2_778
10
19.0019931
20
3.9596368
40
0.1005543
50
260.2214111
51
269.9197792
0
ARC
8
DEFAULT_255_2_778
10
19.0017024
20
3.9623832
40
0.1033008
50
270.0831687
51
313.6857196
0
ARC
8
DEFAULT_255_2_778
10
19.5127453
20
4.4467422
40
0.1043223
50
313.2705093
51
0.0325391
0
ARC
8
DEFAULT_255_2_778
10
19.5126414
20
4.4468008
40
0.104426
50
0.0003721
51
0.9776214
0
ARC
8
DEFAULT_255_2_778
10
19.5083722
20
4.4448018
40
0.1087459
50
1.9923531
51
47.3479691
0
ARC
8
DEFAULT_255_2_778
10
21.2964379
20
2.7002913
40
0.9455487
50
16.7112553
51
43.1433947
0
ARC
8
DEFAULT_255_2_778
10
21.2641463
20
2.6388185
40
1.0114031
50
44.4334978
51
69.4694401
0
ARC
8
DEFAULT_255_2_778
10
21.156472
20
2.3430036
40
1.3261946
50
69.5951143
51
90.7569261
0
ARC
8
DEFAULT_255_2_778
10
21.134506
20
2.1351281
40
1.5339609
50
89.8339236
51
108.9464761
0
ARC
8
DEFAULT_255_2_778
10
21.0952809
20
2.2438134
40
1.4184292
50
108.8733025
51
128.9523116
0
ARC
8
DEFAULT_255_2_778
10
21.1044854
20
2.2573863
40
1.4137476
50
129.5882422
51
149.6285579
0
ARC
8
DEFAULT_255_2_778
10
21.0406422
20
2.3081645
40
1.3330421
50
150.1241509
51
172.4513968
0
ARC
8
DEFAULT_255_2_778
10
21.0462254
20
2.295652
40
1.3402717
50
171.9524776
51
179.8749651
0
ARC
8
DEFAULT_255_2_778
10
20.7568226
20
2.2912121
40
1.0508913
50
179.5984642
51
196.4124676
0
ARC
8
DEFAULT_255_2_778
10
20.6438455
20
2.2585991
40
0.9333033
50
196.4516101
51
223.1601377
0
ARC
8
DEFAULT_255_2_778
10
20.6643123
20
2.293875
40
0.9724336
50
223.8513877
51
249.794952
0
ARC
8
DEFAULT_255_2_778
10
20.7962818
20
2.6381546
40
1.3411159
50
249.5838654
51
270.4641558
0
LINE
8
DEFAULT_255_2_778
10
20.8071461
20
1.2970826
11
20.8076523
21
1.2970825
0
ARC
8
DEFAULT_255_2_778
10
20.8115285
20
2.8148994
40
1.5178218
50
269.8536794
51
289.1745327
0
ARC
8
DEFAULT_255_2_778
10
20.8616169
20
2.7062217
40
1.3987703
50
288.6987679
51
309.0981448
0
ARC
8
DEFAULT_255_2_778
10
20.8478912
20
2.7138278
40
1.4133414
50
309.3355136
51
329.4190242
0
ARC
8
DEFAULT_255_2_778
10
20.9418108
20
2.653375
40
1.3017362
50
329.6066327
51
352.5141255
0
ARC
8
DEFAULT_255_2_778
10
20.8775391
20
2.6735682
40
1.3681405
50
352.0263306
51
359.8435984
0
ARC
8
DEFAULT_255_2_778
10
21.2343183
20
2.6787251
40
1.0113953
50
359.4962878
51
16.896603
0
ARC
8
DEFAULT_255_2_778
10
20.8537071
20
2.5658833
40
0.685976
50
317.3368108
51
353.1260964
0
ARC
8
DEFAULT_255_2_778
10
20.8884938
20
2.5447727
40
0.6461394
50
312.7087791
51
316.6228954
0
ARC
8
DEFAULT_255_2_778
10
20.9178419
20
2.5204802
40
0.6084044
50
270.6170979
51
312.229581
0
ARC
8
DEFAULT_255_2_778
10
20.8919203
20
2.7506036
40
0.8391211
50
269.9885312
51
272.2179184
0
ARC
8
DEFAULT_255_2_778
10
20.8789554
20
2.5221182
40
0.6107697
50
249.5034359
51
271.2005563
0
ARC
8
DEFAULT_255_2_778
10
20.7997337
20
2.3005499
40
0.375504
50
217.8808346
51
248.9883138
0
ARC
8
DEFAULT_255_2_778
10
20.8795227
20
2.3519126
40
0.4700944
50
181.2123942
51
216.85062
0
ARC
8
DEFAULT_255_2_778
10
21.0633928
20
2.3723253
40
0.6545637
50
179.9829149
51
182.658387
0
ARC
8
DEFAULT_255_2_778
10
21.193063
20
2.3697979
40
0.7842385
50
171.6427791
51
179.8010877
0
ARC
8
DEFAULT_255_2_778
10
21.1138423
20
2.3990497
40
0.7018238
50
140.1272752
51
173.0656321
0
ARC
8
DEFAULT_255_2_778
10
21.0684104
20
2.4263384
40
0.6495133
50
133.4225506
51
139.4054541
0
ARC
8
DEFAULT_255_2_778
10
21.0225417
20
2.4635427
40
0.5910132
50
91.204696
51
132.6720426
0
ARC
8
DEFAULT_255_2_778
10
21.0544317
20
2.2063514
40
0.8492311
50
89.9783701
51
92.9912451
0
ARC
8
DEFAULT_255_2_778
10
21.0674902
20
2.442106
40
0.6136087
50
69.2583822
51
91.1894832
0
ARC
8
DEFAULT_255_2_778
10
21.1441522
20
2.6555629
40
0.3868562
50
38.8216634
51
68.6802677
0
ARC
8
DEFAULT_255_2_778
10
21.0804654
20
2.616005
40
0.4613634
50
1.359571
51
37.6907954
0
ARC
8
DEFAULT_255_2_778
10
20.8815339
20
2.5927831
40
0.6610486
50
359.9775657
51
2.9628488
0
ARC
8
DEFAULT_255_2_778
10
20.7471823
20
2.595146
40
0.7954045
50
351.9516517
51
359.8111424
0
ARC
8
DEFAULT_255_2_778
10
12.1875506
20
4.6608607
40
0.0761745
50
33.932494
51
80.0197709
0
ARC
8
DEFAULT_255_2_778
10
11.9514456
20
3.051001
40
1.703405
50
84.471528
51
90.0168898
0
ARC
8
DEFAULT_255_2_778
10
11.9509439
20
3.0119578
40
1.742448
50
90.000014
51
90.2956662
0
ARC
8
DEFAULT_255_2_778
10
11.9296834
20
3.4074653
40
1.346973
50
89.4781148
51
100.1911052
0
ARC
8
DEFAULT_255_2_778
10
11.8263714
20
3.9952325
40
0.7502033
50
100.3677339
51
111.2595738
0
ARC
8
DEFAULT_255_2_778
10
11.7698945
20
4.1048285
40
0.62772
50
110.0825158
51
137.3298387
0
ARC
8
DEFAULT_255_2_778
10
11.7998146
20
4.0916125
40
0.6587614
50
138.2484968
51
162.5841868
0
ARC
8
DEFAULT_255_2_778
10
12.8658331
20
3.7449779
40
1.7796987
50
162.2081476
51
171.8628351
0
ARC
8
DEFAULT_255_2_778
10
11.2907663
20
3.7453489
40
0.2199467
50
172.2043525
51
179.9418671
0
ARC
8
DEFAULT_255_2_778
10
11.3177361
20
3.7572809
40
0.2471938
50
182.7149475
51
235.4316116
0
ARC
8
DEFAULT_255_2_778
10
11.4638575
20
3.9167089
40
0.4623482
50
231.7279499
51
236.6656224
0
ARC
8
DEFAULT_255_2_778
10
11.5319947
20
4.0234184
40
0.5889472
50
236.8322103
51
245.7187305
0
ARC
8
DEFAULT_255_2_778
10
11.5439188
20
4.0449581
40
0.6134881
50
245.5308465
51
249.8115726
0
ARC
8
DEFAULT_255_2_778
10
11.4593195
20
3.812618
40
0.3662273
50
249.6894109
51
252.3811941
0
ARC
8
DEFAULT_255_2_778
10
11.3611263
20
3.5041379
40
0.0424967
50
252.6716876
51
253.0716917
0
ARC
8
DEFAULT_255_2_778
10
11.4596723
20
3.0528651
40
0.4253351
50
105.1165019
51
107.0444069
0
ARC
8
DEFAULT_255_2_778
10
11.576555
20
2.6666194
40
0.8288771
50
106.9431661
51
110.0283897
0
ARC
8
DEFAULT_255_2_778
10
11.5935167
20
2.6155734
40
0.8826466
50
109.9279963
51
115.7534749
0
ARC
8
DEFAULT_255_2_778
10
11.5313858
20
2.7457359
40
0.7384174
50
115.7997229
51
119.5045388
0
ARC
8
DEFAULT_255_2_778
10
11.3175583
20
3.0746212
40
0.3477125
50
115.5261935
51
158.0918205
0
ARC
8
DEFAULT_255_2_778
10
11.1835181
20
3.1478748
40
0.1968401
50
163.324028
51
171.878609
0
ARC
8
DEFAULT_255_2_778
10
10.889113
20
1.8645503
40
0.0827831
50
172.9696845
51
177.0648274
0
ARC
8
DEFAULT_255_2_778
10
10.8886363
20
1.8645743
40
0.0823057
50
177.0644954
51
179.9984212
0
ARC
8
DEFAULT_255_2_778
10
10.8817234
20
1.8637272
40
0.0753976
50
179.3545826
51
221.3832332
0
ARC
8
DEFAULT_255_2_778
10
10.8834601
20
1.8639111
40
0.0768287
50
220.6298754
51
269.919641
0
ARC
8
DEFAULT_255_2_778
10
11.3072225
20
1.8646482
40
0.0775671
50
269.6526941
51
351.5742498
0
ARC
8
DEFAULT_255_2_778
10
11.9335992
20
3.2777369
40
0.0766544
50
269.9649294
51
351.7084257
0
ARC
8
DEFAULT_255_2_778
10
11.9738875
20
3.5860073
40
0.0807376
50
353.796338
51
359.9955894
0
ARC
8
DEFAULT_255_2_778
10
11.9752253
20
3.5860952
40
0.0793998
50
359.9320205
51
40.9964651
0
ARC
8
DEFAULT_255_2_778
10
11.9781707
20
3.5875955
40
0.0761968
50
41.5979452
51
90.9161681
0
ARC
8
DEFAULT_255_2_778
10
12.2992459
20
3.8847435
40
0.6248483
50
158.2786998
51
172.853165
0
ARC
8
DEFAULT_255_2_778
10
11.9299344
20
4.0357012
40
0.2259196
50
130.3863567
51
159.1814961
0
ARC
8
DEFAULT_255_2_778
10
11.9642719
20
3.9549744
40
0.3107596
50
91.8944352
51
125.5590346
0
ARC
8
DEFAULT_255_2_778
10
11.9988024
20
3.6826197
40
0.5846635
50
89.9167125
51
94.3949708
0
ARC
8
DEFAULT_255_2_778
10
12.0041544
20
3.8441139
40
0.4231925
50
77.6937628
51
90.6095501
0
ARC
8
DEFAULT_255_2_778
10
12.087611
20
4.2250752
40
0.033199
50
76.2440854
51
78.2840886
0
ARC
8
DEFAULT_255_2_778
10
11.9831398
20
3.8523758
40
0.4202468
50
73.2928568
51
74.4916048
0
ARC
8
DEFAULT_255_2_778
10
12.1254304
20
4.3542995
40
0.1017106
50
257.8091616
51
263.0098265
0
ARC
8
DEFAULT_255_2_778
10
12.122305
20
4.3291294
40
0.0763472
50
263.0390636
51
269.8853962
0
ARC
8
DEFAULT_255_2_778
10
12.1220243
20
4.3348514
40
0.082069
50
270.0893796
51
300.5606782
0
ARC
8
DEFAULT_255_2_778
10
12.1197269
20
4.3314494
40
0.0803933
50
303.2043266
51
347.9619925
0
ARC
8
DEFAULT_255_2_778
10
12.1875704
20
4.6597455
40
0.076992
50
348.2620058
51
355.7647349
0
ARC
8
DEFAULT_255_2_778
10
12.1878657
20
4.6597231
40
0.076696
50
355.7651278
51
0.0018049
0
ARC
8
DEFAULT_255_2_778
10
12.188079
20
4.6597457
40
0.0764827
50
359.9848498
51
34.9708104
0
LINE
8
DEFAULT_255_2_778
10
3.1469523
20
3.6637825
11
2.7252523
21
3.6637825
0
LINE
8
DEFAULT_255_2_778
10
2.7252523
20
3.6637825
11
2.7900523
21
4.1310825
0
LINE
8
DEFAULT_255_2_778
10
2.7900523
20
4.1310825
11
2.7911523
21
4.1439825
0
LINE
8
DEFAULT_255_2_778
10
2.7135523
20
4.2207825
11
2.2897523
21
4.2207825
0
LINE
8
DEFAULT_255_2_778
10
2.2140523
20
4.1543825
11
1.9603523
21
2.3540825
0
LINE
8
DEFAULT_255_2_778
10
2.9866523
20
1.8929825
11
3.0284523
21
2.1977825
0
LINE
8
DEFAULT_255_2_778
10
2.9400523
20
2.2847825
11
2.9281523
21
2.2826825
0
LINE
8
DEFAULT_255_2_778
10
2.9281523
20
2.2826825
11
2.8069523
21
2.2725825
0
LINE
8
DEFAULT_255_2_778
10
2.5786523
20
2.6199825
11
2.5791523
21
2.6205825
0
LINE
8
DEFAULT_255_2_778
10
2.5791523
20
2.6205825
11
2.6606523
21
3.2002825
0
LINE
8
DEFAULT_255_2_778
10
2.6606523
20
3.2002825
11
3.1035523
21
3.2002825
0
LINE
8
DEFAULT_255_2_778
10
3.1792523
20
3.2658825
11
3.2231523
21
3.5738825
0
LINE
8
DEFAULT_255_2_778
10
4.8257523
20
3.2478825
11
4.8768523
21
3.6182825
0
LINE
8
DEFAULT_255_2_778
10
4.8093523
20
3.7047825
11
4.7955523
21
3.7058825
0
LINE
8
DEFAULT_255_2_778
10
4.7955523
20
3.7058825
11
4.6942523
21
3.7100825
0
LINE
8
DEFAULT_255_2_778
10
4.1063523
20
3.3624825
11
4.0984523
21
3.3624825
0
LINE
8
DEFAULT_255_2_778
10
4.0984523
20
3.3624825
11
4.1288523
21
3.5738825
0
LINE
8
DEFAULT_255_2_778
10
4.1288523
20
3.5738825
11
4.1291523
21
3.5867825
0
LINE
8
DEFAULT_255_2_778
10
4.0518523
20
3.6627825
11
3.6285523
21
3.6627825
0
LINE
8
DEFAULT_255_2_778
10
3.5520523
20
3.5971825
11
3.3107523
21
1.8736825
0
LINE
8
DEFAULT_255_2_778
10
3.3866523
20
1.7860825
11
3.8113523
21
1.7860825
0
LINE
8
DEFAULT_255_2_778
10
3.8872523
20
1.8524825
11
3.9864523
21
2.5707825
0
LINE
8
DEFAULT_255_2_778
10
4.6931523
20
3.1912825
11
4.7328523
21
3.1838825
0
LINE
8
DEFAULT_255_2_778
10
5.1154523
20
3.3483825
11
5.2766523
21
3.1539825
0
LINE
8
DEFAULT_255_2_778
10
6.1536523
20
2.9806825
11
5.7507523
21
2.9689825
0
LINE
8
DEFAULT_255_2_778
10
4.7900523
20
2.3207825
11
4.7900523
21
2.3202825
0
LINE
8
DEFAULT_255_2_778
10
6.0118523
20
2.0228825
11
6.0187523
21
2.0228825
0
LINE
8
DEFAULT_255_2_778
10
6.0187523
20
2.0228825
11
5.9989523
21
1.8741825
0
LINE
8
DEFAULT_255_2_778
10
6.0748523
20
1.7870825
11
6.4537523
21
1.7870825
0
LINE
8
DEFAULT_255_2_778
10
6.5299523
20
1.8532825
11
6.6516523
21
2.7419825
0
LINE
8
DEFAULT_255_2_778
10
5.9563523
20
2.6096825
11
6.0991523
21
2.6096825
0
LINE
8
DEFAULT_255_2_778
10
6.0991523
20
2.6096825
11
6.0838523
21
2.4861825
0
LINE
8
DEFAULT_255_2_778
10
5.3504523
20
2.3384825
11
5.3504523
21
2.3403825
0
LINE
8
DEFAULT_255_2_778
10
5.7928523
20
2.6035825
11
5.9565523
21
2.6094825
0
LINE
8
DEFAULT_255_2_778
10
7.6724523
20
3.4095825
11
7.6647523
21
3.4095825
0
LINE
8
DEFAULT_255_2_778
10
7.6647523
20
3.4095825
11
7.6866523
21
3.5748825
0
LINE
8
DEFAULT_255_2_778
10
7.6112523
20
3.6635825
11
7.2104523
21
3.6635825
0
LINE
8
DEFAULT_255_2_778
10
7.1331523
20
3.5978825
11
6.8916523
21
1.8743825
0
LINE
8
DEFAULT_255_2_778
10
6.9672523
20
1.7868825
11
7.3911523
21
1.7868825
0
LINE
8
DEFAULT_255_2_778
10
7.4676523
20
1.8532825
11
7.5898523
21
2.7226825
0
LINE
8
DEFAULT_255_2_778
10
8.2536523
20
2.8737825
11
8.2349523
21
2.7062825
0
LINE
8
DEFAULT_255_2_778
10
8.2349523
20
2.7062825
11
8.1192523
21
1.8736825
0
LINE
8
DEFAULT_255_2_778
10
8.1952523
20
1.7862825
11
8.6196523
21
1.7862825
0
LINE
8
DEFAULT_255_2_778
10
8.6963523
20
1.8524825
11
8.8299523
21
2.8218825
0
LINE
8
DEFAULT_255_2_778
10
9.1818523
20
3.0769825
11
9.1818523
21
3.0761825
0
LINE
8
DEFAULT_255_2_778
10
9.5964523
20
2.5416825
11
9.8247523
21
2.4869825
0
LINE
8
DEFAULT_255_2_778
10
10.0539523
20
2.3162825
11
10.0539523
21
2.3151825
0
LINE
8
DEFAULT_255_2_778
10
9.3847523
20
2.3469825
11
9.3826523
21
2.3469825
0
LINE
8
DEFAULT_255_2_778
10
9.3284523
20
2.3255825
11
9.0389523
21
2.0474825
0
LINE
8
DEFAULT_255_2_778
10
10.2248523
20
2.9001825
11
9.9988523
21
2.9539825
0
LINE
8
DEFAULT_255_2_778
10
9.7673523
20
3.1137825
11
9.7673523
21
3.1147825
0
LINE
8
DEFAULT_255_2_778
10
10.3761523
20
3.1634825
11
10.6577523
21
3.4105825
0
LINE
8
DEFAULT_255_2_778
10
13.7617523
20
2.1633825
11
13.5181523
21
2.3617825
0
LINE
8
DEFAULT_255_2_778
10
12.6328523
20
2.5427825
11
13.9112523
21
2.5427825
0
LINE
8
DEFAULT_255_2_778
10
13.9869523
20
2.6083825
11
14.0046523
21
2.7242825
0
LINE
8
DEFAULT_255_2_778
10
14.0046523
20
2.7242825
11
14.0046523
21
2.7247825
0
LINE
8
DEFAULT_255_2_778
10
13.4511523
20
2.9364825
11
12.6867523
21
2.9364825
0
LINE
8
DEFAULT_255_2_778
10
15.7025523
20
3.6971825
11
15.6014523
21
3.7013825
0
LINE
8
DEFAULT_255_2_778
10
15.0143523
20
3.3531825
11
15.0069523
21
3.3531825
0
LINE
8
DEFAULT_255_2_778
10
15.0069523
20
3.3531825
11
15.0362523
21
3.5645825
0
LINE
8
DEFAULT_255_2_778
10
14.9598523
20
3.6545825
11
14.5367523
21
3.6545825
0
LINE
8
DEFAULT_255_2_778
10
14.4595523
20
3.5881825
11
14.2181523
21
1.8640825
0
LINE
8
DEFAULT_255_2_778
10
14.2943523
20
1.7765825
11
14.7190523
21
1.7765825
0
LINE
8
DEFAULT_255_2_778
10
14.7947523
20
1.8434825
11
14.8942523
21
2.5607825
0
LINE
8
DEFAULT_255_2_778
10
15.6011523
20
3.1806825
11
15.6408523
21
3.1737825
0
LINE
8
DEFAULT_255_2_778
10
15.7334523
20
3.2385825
11
15.7850523
21
3.6082825
0
LINE
8
DEFAULT_255_2_778
10
19.3188523
20
1.4261825
11
19.5678523
21
3.1954825
0
LINE
8
DEFAULT_255_2_778
10
19.4635523
20
3.3155825
11
18.2189523
21
3.3155825
0
LINE
8
DEFAULT_255_2_778
10
18.1147523
20
3.2258825
11
18.0350523
21
2.6779825
0
LINE
8
DEFAULT_255_2_778
10
18.1385523
20
2.5583825
11
18.6851523
21
2.5583825
0
LINE
8
DEFAULT_255_2_778
10
18.6851523
20
2.5583825
11
18.6020523
21
1.9524825
0
LINE
8
DEFAULT_255_2_778
10
19.0730523
20
3.8876825
11
19.5842523
21
4.3707825
0
LINE
8
DEFAULT_255_2_778
10
12.2007523
20
4.7358825
11
12.1155523
21
4.7464825
0
LINE
8
DEFAULT_255_2_778
10
11.1040523
20
3.9968825
11
11.1035523
21
3.9966825
0
LINE
8
DEFAULT_255_2_778
10
11.1035523
20
3.9966825
11
11.0728523
21
3.7751825
0
LINE
8
DEFAULT_255_2_778
10
10.9886523
20
3.1756825
11
10.8069523
21
1.8746825
0
LINE
8
DEFAULT_255_2_778
10
10.8833523
20
1.7870825
11
11.3067523
21
1.7870825
0
LINE
8
DEFAULT_255_2_778
10
11.3839523
20
1.8532825
11
11.5715523
21
3.2010825
0
LINE
8
DEFAULT_255_2_778
10
11.5715523
20
3.2010825
11
11.9335523
21
3.2010825
0
LINE
8
DEFAULT_255_2_778
10
12.0094523
20
3.2666825
11
12.0541523
21
3.5772825
0
LINE
8
DEFAULT_255_2_778
10
11.9769523
20
3.6637825
11
11.6363523
21
3.6637825
0
LINE
8
DEFAULT_255_2_778
10
11.6363523
20
3.6637825
11
11.6792523
21
3.9624825
0
LINE
8
DEFAULT_255_2_778
10
12.1983523
20
4.3146825
11
12.2629523
21
4.6440825
0
ENDSEC
0
EOF