0
SECTION
2
HEADER
9
$MEASUREMENT
70
1
0
ENDSEC
0
SECTION
2
TABLES
0
TABLE
2
LTYPE
0
LTYPE
72
65
70
64
2
CONTINUOUS
3
______
73
0
40
0
0
ENDTAB
0
TABLE
2
LAYER
0
LAYER
2
DEFAULT_255_2_778
70
0
62
255
6
CONTINUOUS
0
ENDTAB
0
ENDSEC
0
SECTION
2
ENTITIES
0
LINE
8
DEFAULT_255_2_778
10
1.8444239
20
5.9094551
11
2.9279239
21
4.1124551
0
LINE
8
DEFAULT_255_2_778
10
2.9279239
20
4.1124551
11
1.0303239
21
2.2833551
0
LINE
8
DEFAULT_255_2_778
10
1.0303239
20
2.2833551
11
4.3114239
21
2.2833551
0
LINE
8
DEFAULT_255_2_778
10
4.3114239
20
2.2833551
11
4.6204239
21
3.0093551
0
LINE
8
DEFAULT_255_2_778
10
4.6204239
20
3.0093551
11
2.7914239
21
3.0093551
0
LINE
8
DEFAULT_255_2_778
10
2.7914239
20
3.0093551
11
3.8695239
21
4.0983551
0
LINE
8
DEFAULT_255_2_778
10
3.8695239
20
4.0983551
11
3.2298239
21
5.1818551
0
LINE
8
DEFAULT_255_2_778
10
3.2298239
20
5.1818551
11
6.2161239
21
5.1818551
0
LINE
8
DEFAULT_255_2_778
10
6.2161239
20
5.1818551
11
3.5928239
21
-1.0104449
0
LINE
8
DEFAULT_255_2_778
10
3.5928239
20
-1.0104449
11
4.4913239
21
-1.0104449
0
LINE
8
DEFAULT_255_2_778
10
4.4913239
20
-1.0104449
11
7.4203239
21
5.9075551
0
LINE
8
DEFAULT_255_2_778
10
7.4203239
20
5.9075551
11
1.8444239
21
5.9075551
0
ARC
8
DEFAULT_255_2_778
10
27.9937726
20
4.3107812
40
2.0906589
50
256.6809225
51
262.8297503
0
ARC
8
DEFAULT_255_2_778
10
27.6422632
20
2.8628439
40
0.6007492
50
240.3176282
51
257.4904712
0
ARC
8
DEFAULT_255_2_778
10
27.4537739
20
2.5370623
40
0.2243903
50
177.3665851
51
240.9386768
0
ARC
8
DEFAULT_255_2_778
10
27.5244478
20
2.5361011
40
0.2950425
50
104.5426953
51
177.8106964
0
ARC
8
DEFAULT_255_2_778
10
27.6378846
20
2.2756511
40
0.5773421
50
89.5101401
51
108.953637
0
ARC
8
DEFAULT_255_2_778
10
27.6217902
20
1.8111082
40
1.0420761
50
55.4671696
51
88.8436215
0
ARC
8
DEFAULT_255_2_778
10
27.8114498
20
2.2290627
40
0.9354506
50
51.6298693
51
71.2843633
0
ARC
8
DEFAULT_255_2_778
10
27.6381327
20
1.7625044
40
1.4330239
50
70.7067151
51
84.6559006
0
ARC
8
DEFAULT_255_2_778
10
27.629357
20
1.7207752
40
1.4753972
50
84.4675151
51
89.9664622
0
ARC
8
DEFAULT_255_2_778
10
27.6222661
20
2.1518557
40
1.0443467
50
89.5635903
51
110.4157239
0
ARC
8
DEFAULT_255_2_778
10
27.5193008
20
2.412783
40
0.7639115
50
110.0048051
51
140.1765156
0
ARC
8
DEFAULT_255_2_778
10
27.3837525
20
2.531441
40
0.583832
50
140.600805
51
180.0165754
0
ARC
8
DEFAULT_255_2_778
10
27.5156294
20
2.5196485
40
0.7158032
50
179.0695648
51
197.0153196
0
ARC
8
DEFAULT_255_2_778
10
27.3254803
20
2.4794624
40
0.5225018
50
198.9034862
51
251.3704807
0
ARC
8
DEFAULT_255_2_778
10
27.6939798
20
3.3315647
40
1.4497193
50
248.32627
51
258.8489806
0
ARC
8
DEFAULT_255_2_778
10
27.9967659
20
4.7099536
40
2.8608055
50
258.2382143
51
260.9996615
0
ARC
8
DEFAULT_255_2_778
10
85.2619539
20
358.6655252
40
361.4188025
50
260.8114558
51
260.8200753
0
ARC
8
DEFAULT_255_2_778
10
27.3710613
20
0.1976658
40
1.6939673
50
73.9142059
51
82.1338994
0
ARC
8
DEFAULT_255_2_778
10
27.7641786
20
1.5210496
40
0.3136678
50
39.8238454
51
75.9326086
0
ARC
8
DEFAULT_255_2_778
10
27.8222376
20
1.5943851
40
0.2229343
50
357.8886984
51
34.8985887
0
ARC
8
DEFAULT_255_2_778
10
27.7725213
20
1.5932935
40
0.2725923
50
284.5218749
51
358.5029776
0
ARC
8
DEFAULT_255_2_778
10
27.6241212
20
1.9598792
40
0.6666882
50
269.1061321
51
288.9727474
0
ARC
8
DEFAULT_255_2_778
10
27.5937093
20
2.3085158
40
1.0154409
50
269.9993358
51
271.1292021
0
ARC
8
DEFAULT_255_2_778
10
27.5937904
20
2.3090071
40
1.0159323
50
230.3421413
51
269.9947613
0
ARC
8
DEFAULT_255_2_778
10
27.2531357
20
1.7630608
40
0.7421856
50
228.9593249
51
245.2847287
0
ARC
8
DEFAULT_255_2_778
10
27.5113664
20
2.3014082
40
1.3392209
50
244.8788049
51
257.4430332
0
ARC
8
DEFAULT_255_2_778
10
27.5996661
20
2.6649706
40
1.7132992
50
257.2040765
51
270.0553311
0
ARC
8
DEFAULT_255_2_778
10
27.6097288
20
2.0697282
40
1.1180878
50
269.5691252
51
288.422246
0
ARC
8
DEFAULT_255_2_778
10
27.7134131
20
1.7737359
40
0.8045124
50
288.0781088
51
315.0432364
0
ARC
8
DEFAULT_255_2_778
10
27.8643546
20
1.6219686
40
0.590466
50
315.1155686
51
359.9906281
0
ARC
8
DEFAULT_255_2_778
10
27.8115496
20
1.6317455
40
0.6433468
50
359.1206434
51
18.608642
0
ARC
8
DEFAULT_255_2_778
10
27.9063183
20
1.631066
40
0.5546101
50
21.8009601
51
77.3503716
0
ARC
8
DEFAULT_255_2_778
10
27.5000097
20
0.3867939
40
1.8617891
50
73.5325695
51
83.2830119
0
ARC
8
DEFAULT_255_2_778
10
27.2380418
20
-1.3729705
40
3.6405213
50
82.4277817
51
82.5080099
0
ARC
8
DEFAULT_255_2_778
10
16.6530882
20
4.311624
40
2.0915095
50
256.6827085
51
262.8294911
0
ARC
8
DEFAULT_255_2_778
10
16.3014989
20
2.8631573
40
0.6010665
50
240.3248775
51
257.4920369
0
ARC
8
DEFAULT_255_2_778
10
16.1128682
20
2.5370826
40
0.2243836
50
177.3716968
51
240.9524454
0
ARC
8
DEFAULT_255_2_778
10
16.1835404
20
2.5360979
40
0.2950353
50
104.5348399
51
177.8100314
0
ARC
8
DEFAULT_255_2_778
10
16.2970734
20
2.2753219
40
0.5776714
50
89.509313
51
108.9482152
0
ARC
8
DEFAULT_255_2_778
10
16.2809066
20
1.8108484
40
1.0423375
50
55.4714788
51
88.8393138
0
ARC
8
DEFAULT_255_2_778
10
16.4705737
20
2.2289319
40
0.9356004
50
51.6311883
51
71.2980203
0
ARC
8
DEFAULT_255_2_778
10
16.2972415
20
1.7620328
40
1.4334982
50
70.7196201
51
84.6766831
0
ARC
8
DEFAULT_255_2_778
10
16.2884697
20
1.720162
40
1.4760102
50
84.4884374
51
89.9669675
0
ARC
8
DEFAULT_255_2_778
10
16.2812757
20
2.1529253
40
1.0432777
50
89.5581775
51
110.5627794
0
ARC
8
DEFAULT_255_2_778
10
16.1772392
20
2.4145399
40
0.76181
50
110.147593
51
140.5332165
0
ARC
8
DEFAULT_255_2_778
10
16.0424314
20
2.5315048
40
0.5834109
50
140.9857751
51
180.0228534
0
ARC
8
DEFAULT_255_2_778
10
16.1775454
20
2.5197717
40
0.7186168
50
179.0830324
51
196.9838179
0
ARC
8
DEFAULT_255_2_778
10
15.9856069
20
2.4783251
40
0.5232006
50
198.7829807
51
251.2863853
0
ARC
8
DEFAULT_255_2_778
10
16.3392784
20
3.2959437
40
1.4129355
50
248.3390161
51
259.1292673
0
ARC
8
DEFAULT_255_2_778
10
16.6151174
20
4.5785741
40
2.7247251
50
258.5195898
51
261.4158635
0
ARC
8
DEFAULT_255_2_778
10
73.9211539
20
358.6655252
40
361.4188025
50
260.8114558
51
260.8200753
0
ARC
8
DEFAULT_255_2_778
10
16.0302613
20
0.1976658
40
1.6939673
50
73.9142059
51
82.1338994
0
ARC
8
DEFAULT_255_2_778
10
16.4233786
20
1.5210496
40
0.3136678
50
39.8238454
51
75.9326086
0
ARC
8
DEFAULT_255_2_778
10
16.4814376
20
1.5943851
40
0.2229343
50
357.8886984
51
34.8985887
0
ARC
8
DEFAULT_255_2_778
10
16.4317213
20
1.5932935
40
0.2725923
50
284.5218749
51
358.5029776
0
ARC
8
DEFAULT_255_2_778
10
16.2833212
20
1.9598792
40
0.6666882
50
269.1061321
51
288.9727474
0
ARC
8
DEFAULT_255_2_778
10
16.2600561
20
2.3353823
40
1.0421896
50
269.9992966
51
270.7072604
0
ARC
8
DEFAULT_255_2_778
10
16.2600288
20
2.3353894
40
1.0421968
50
231.0330601
51
270.0007972
0
ARC
8
DEFAULT_255_2_778
10
15.9118399
20
1.7604464
40
0.7413115
50
228.9410672
51
245.2890911
0
ARC
8
DEFAULT_255_2_778
10
16.1702523
20
2.2992633
40
1.3388487
50
244.8824437
51
257.4518686
0
ARC
8
DEFAULT_255_2_778
10
16.2588486
20
2.6643329
40
1.7144615
50
257.212416
51
270.0558791
0
ARC
8
DEFAULT_255_2_778
10
16.268926
20
2.0679793
40
1.1181388
50
269.5692891
51
288.4215254
0
ARC
8
DEFAULT_255_2_778
10
16.3726038
20
1.7720001
40
0.8045782
50
288.0772815
51
315.0394824
0
ARC
8
DEFAULT_255_2_778
10
16.5236938
20
1.6200915
40
0.5903267
50
315.1099851
51
359.9884059
0
ARC
8
DEFAULT_255_2_778
10
16.4707167
20
1.6298312
40
0.6433795
50
359.1219637
51
18.6005638
0
ARC
8
DEFAULT_255_2_778
10
16.564151
20
1.628103
40
0.556266
50
21.8406858
51
77.5511722
0
ARC
8
DEFAULT_255_2_778
10
16.1578202
20
0.3773801
40
1.8695046
50
73.6509466
51
83.2498158
0
ARC
8
DEFAULT_255_2_778
10
15.8817384
20
-1.4914227
40
3.758199
50
82.4187856
51
82.5055542
0
ARC
8
DEFAULT_255_2_778
10
29.7160509
20
1.9375591
40
0.6337769
50
231.1845188
51
270.9646238
0
ARC
8
DEFAULT_255_2_778
10
29.7652925
20
1.9746007
40
0.6936693
50
195.8095058
51
229.9331189
0
ARC
8
DEFAULT_255_2_778
10
30.0261635
20
2.0591659
40
0.967766
50
179.6029625
51
196.4190018
0
ARC
8
DEFAULT_255_2_778
10
30.0493523
20
2.0762811
40
0.9909863
50
155.8518878
51
180.6018285
0
ARC
8
DEFAULT_255_2_778
10
29.682927
20
2.2667371
40
0.5792043
50
90.9288487
51
158.2153976
0
ARC
8
DEFAULT_255_2_778
10
29.6763769
20
2.2352924
40
0.6105796
50
89.995898
51
90.2664331
0
ARC
8
DEFAULT_255_2_778
10
29.6829016
20
2.2097951
40
0.63611
50
74.2172473
51
90.5837651
0
ARC
8
DEFAULT_255_2_778
10
29.7285841
20
2.3739209
40
0.4657469
50
46.4750803
51
74.1335388
0
ARC
8
DEFAULT_255_2_778
10
29.6201763
20
2.2831877
40
0.6064067
50
16.9328846
51
44.9519605
0
ARC
8
DEFAULT_255_2_778
10
29.2097256
20
2.135963
40
1.04216
50
10.1827509
51
18.1038686
0
ARC
8
DEFAULT_255_2_778
10
28.8401799
20
2.0649995
40
1.4184376
50
7.6112121
51
10.3651025
0
ARC
8
DEFAULT_255_2_778
10
29.1639439
20
2.0918485
40
1.5008535
50
359.4206236
51
17.0450659
0
ARC
8
DEFAULT_255_2_778
10
29.7423106
20
2.2947174
40
0.8887618
50
15.4702796
51
70.7246937
0
ARC
8
DEFAULT_255_2_778
10
29.6871871
20
2.0913089
40
1.0990684
50
71.5125857
51
88.3785879
0
ARC
8
DEFAULT_255_2_778
10
29.6676844
20
1.820915
40
1.3699571
50
87.8832274
51
90.0110298
0
ARC
8
DEFAULT_255_2_778
10
29.6601748
20
2.1852344
40
1.0056638
50
89.5871775
51
127.9875985
0
ARC
8
DEFAULT_255_2_778
10
29.7084594
20
2.139341
40
1.071598
50
128.5120288
51
162.3851923
0
ARC
8
DEFAULT_255_2_778
10
29.9060191
20
2.0702652
40
1.2808125
50
162.1144521
51
180.2680982
0
ARC
8
DEFAULT_255_2_778
10
29.9693003
20
2.0543807
40
1.344116
50
179.5783578
51
196.9511915
0
ARC
8
DEFAULT_255_2_778
10
29.6553323
20
1.9538786
40
1.0144972
50
196.6916171
51
227.7492932
0
ARC
8
DEFAULT_255_2_778
10
29.6314431
20
1.9498753
40
0.9955842
50
228.612071
51
261.6627407
0
ARC
8
DEFAULT_255_2_778
10
29.676188
20
2.1702613
40
1.2201913
50
261.0844116
51
270.1001416
0
ARC
8
DEFAULT_255_2_778
10
29.6889787
20
2.3518552
40
1.4018236
50
269.5643757
51
291.046347
0
ARC
8
DEFAULT_255_2_778
10
29.874613
20
1.8906717
40
0.9047722
50
290.5632181
51
318.2901971
0
ARC
8
DEFAULT_255_2_778
10
30.0230175
20
1.7385931
40
0.6929558
50
319.5130268
51
323.0527949
0
ARC
8
DEFAULT_255_2_778
10
29.7165596
20
2.1665543
40
0.8624959
50
270.3229204
51
315.2338713
0
ARC
8
DEFAULT_255_2_778
10
21.9913983
20
2.4138086
40
0.7442677
50
67.4497138
51
73.2533134
0
ARC
8
DEFAULT_255_2_778
10
21.9249445
20
2.1769935
40
0.9901979
50
73.5195266
51
84.8606608
0
ARC
8
DEFAULT_255_2_778
10
21.9216356
20
2.1959621
40
0.9716148
50
84.5661206
51
89.8180793
0
ARC
8
DEFAULT_255_2_778
10
21.9252484
20
2.2677627
40
0.8998095
50
90.0336056
51
95.8660222
0
ARC
8
DEFAULT_255_2_778
10
21.8995848
20
2.3681652
40
0.797456
50
94.7689896
51
127.1563864
0
ARC
8
DEFAULT_255_2_778
10
21.7104381
20
2.6410618
40
0.4659297
50
128.8880189
51
144.372485
0
ARC
8
DEFAULT_255_2_778
10
22.2846914
20
2.1807557
40
0.958227
50
166.457708
51
180.6208864
0
ARC
8
DEFAULT_255_2_778
10
21.9013766
20
2.2770844
40
0.5630262
50
141.4690255
51
166.8538113
0
ARC
8
DEFAULT_255_2_778
10
21.8613186
20
2.2773667
40
0.5320891
50
89.2912084
51
138.8048232
0
ARC
8
DEFAULT_255_2_778
10
21.9012401
20
1.9636133
40
0.8464588
50
89.9877828
51
92.2572848
0
ARC
8
DEFAULT_255_2_778
10
21.9077795
20
1.741686
40
1.0684049
50
82.6140245
51
90.3410107
0
ARC
8
DEFAULT_255_2_778
10
21.9103558
20
1.7876156
40
1.0225307
50
80.7194143
51
82.4263462
0
ARC
8
DEFAULT_255_2_778
10
21.8061332
20
1.2061149
40
1.6132533
50
76.4057147
51
80.3969268
0
ARC
8
DEFAULT_255_2_778
10
10.6339619
20
2.218047
40
0.9354265
50
69.1421814
51
89.9860937
0
ARC
8
DEFAULT_255_2_778
10
10.6342028
20
2.2207394
40
0.9327341
50
90.0008485
51
91.1906866
0
ARC
8
DEFAULT_255_2_778
10
10.5866509
20
2.4513122
40
0.7025249
50
87.7019466
51
89.9994874
0
ARC
8
DEFAULT_255_2_778
10
10.5867256
20
2.4523321
40
0.701505
50
90.0055903
51
140.5393708
0
ARC
8
DEFAULT_255_2_778
10
11.088788
20
2.1812688
40
1.048924
50
167.7929224
51
180.5952251
0
ARC
8
DEFAULT_255_2_778
10
10.6338608
20
2.2841872
40
0.5825378
50
145.2994174
51
168.2256037
0
ARC
8
DEFAULT_255_2_778
10
10.5419337
20
2.3234401
40
0.48503
50
90.3083784
51
142.928884
0
ARC
8
DEFAULT_255_2_778
10
10.5909543
20
1.9809698
40
0.8291024
50
89.9608616
51
93.5703212
0
ARC
8
DEFAULT_255_2_778
10
10.5978795
20
1.741686
40
1.0684049
50
82.6140245
51
90.3410107
0
ARC
8
DEFAULT_255_2_778
10
10.6004558
20
1.7876156
40
1.0225307
50
80.7194143
51
82.4263462
0
ARC
8
DEFAULT_255_2_778
10
10.4962332
20
1.2061149
40
1.6132533
50
76.4057147
51
80.3969268
0
ARC
8
DEFAULT_255_2_778
10
11.8589454
20
1.8187446
40
0.4971155
50
288.9826078
51
0.7293043
0
ARC
8
DEFAULT_255_2_778
10
11.7282995
20
2.1182999
40
0.8232908
50
269.2915944
51
290.7993936
0
ARC
8
DEFAULT_255_2_778
10
11.6990855
20
1.774394
40
0.4796998
50
236.3497177
51
272.2741699
0
ARC
8
DEFAULT_255_2_778
10
11.6184556
20
1.6253753
40
0.3113565
50
185.9117993
51
233.5044462
0
ARC
8
DEFAULT_255_2_778
10
11.7637541
20
1.6532827
40
0.4589349
50
179.8639966
51
187.5092223
0
ARC
8
DEFAULT_255_2_778
10
11.6681245
20
1.6639538
40
0.3634302
50
105.6594504
51
181.5107663
0
ARC
8
DEFAULT_255_2_778
10
11.7932765
20
1.3323847
40
0.7171443
50
90.1667472
51
108.1377369
0
ARC
8
DEFAULT_255_2_778
10
11.8080661
20
1.0755214
40
0.9741507
50
89.9967926
51
90.9926735
0
ARC
8
DEFAULT_255_2_778
10
11.8179832
20
0.2767356
40
1.7729639
50
82.923561
51
90.3187244
0
ARC
8
DEFAULT_255_2_778
10
11.9200841
20
1.0668293
40
0.9763186
50
71.6956698
51
83.1576488
0
ARC
8
DEFAULT_255_2_778
10
12.0684622
20
1.5095505
40
0.5094014
50
55.126543
51
71.9012316
0
ARC
8
DEFAULT_255_2_778
10
11.7447775
20
1.3861001
40
1.8085372
50
88.8485445
51
90.0003843
0
ARC
8
DEFAULT_255_2_778
10
11.745044
20
1.379824
40
1.8148132
50
90.0087993
51
109.5444268
0
ARC
8
DEFAULT_255_2_778
10
11.7180602
20
1.2542814
40
1.5914778
50
98.7623343
51
108.7642888
0
ARC
8
DEFAULT_255_2_778
10
11.7412405
20
1.0901949
40
1.7571816
50
89.8734813
51
98.6942976
0
ARC
8
DEFAULT_255_2_778
10
11.7608881
20
1.9878749
40
0.8596418
50
68.4180153
51
91.0509738
0
ARC
8
DEFAULT_255_2_778
10
11.9175935
20
2.361461
40
0.4546816
50
5.1941997
51
69.4642524
0
ARC
8
DEFAULT_255_2_778
10
11.7590807
20
2.3360598
40
0.6149405
50
359.9172846
51
6.2141592
0
ARC
8
DEFAULT_255_2_778
10
11.8545314
20
0.9347955
40
1.4364995
50
68.7993293
51
90.0229118
0
ARC
8
DEFAULT_255_2_778
10
11.853944
20
0.9262171
40
1.4450777
50
89.9994833
51
90.7463465
0
ARC
8
DEFAULT_255_2_778
10
11.8249733
20
1.0554616
40
1.3157496
50
89.5581204
51
105.4677579
0
ARC
8
DEFAULT_255_2_778
10
11.7049144
20
1.4692822
40
0.8849142
50
105.1216088
51
129.0520599
0
ARC
8
DEFAULT_255_2_778
10
11.5516932
20
1.6622269
40
0.6385502
50
129.2828973
51
180.8932666
0
ARC
8
DEFAULT_255_2_778
10
11.6655089
20
1.6428567
40
0.7523472
50
179.2829472
51
199.929215
0
ARC
8
DEFAULT_255_2_778
10
11.5712335
20
1.6365424
40
0.6620837
50
202.196976
51
263.8545976
0
ARC
8
DEFAULT_255_2_778
10
11.673043
20
2.0216794
40
1.0576096
50
260.6026478
51
270.1179706
0
ARC
8
DEFAULT_255_2_778
10
11.6825745
20
2.0379875
40
1.0739406
50
269.6076624
51
284.8297276
0
ARC
8
DEFAULT_255_2_778
10
11.7512434
20
1.7825975
40
0.8094824
50
284.7578695
51
304.7574667
0
ARC
8
DEFAULT_255_2_778
10
11.84057
20
1.6511495
40
0.6505647
50
304.8940409
51
322.7063401
0
ARC
8
DEFAULT_255_2_778
10
11.6970999
20
2.3659236
40
1.0743786
50
359.4052841
51
14.7613754
0
ARC
8
DEFAULT_255_2_778
10
12.0603442
20
2.4665975
40
0.6974884
50
14.3671755
51
48.4315225
0
ARC
8
DEFAULT_255_2_778
10
11.983988
20
2.3496385
40
0.8359073
50
49.8352312
51
76.5125155
0
ARC
8
DEFAULT_255_2_778
10
11.8249709
20
1.749886
40
1.4562818
50
75.9322011
51
89.4205967
0
ARC
8
DEFAULT_255_2_778
10
11.801387
20
1.2690481
40
1.9374241
50
88.866969
51
90.0049188
0
ARC
8
DEFAULT_255_2_778
10
14.2807162
20
2.3022764
40
0.8921392
50
88.9720964
51
118.1217922
0
ARC
8
DEFAULT_255_2_778
10
14.0982366
20
2.6492274
40
0.5001421
50
118.4192925
51
152.7702776
0
ARC
8
DEFAULT_255_2_778
10
14.6510497
20
2.16788
40
1.0028841
50
164.5296978
51
180.6003426
0
ARC
8
DEFAULT_255_2_778
10
14.2760105
20
2.276942
40
0.6123631
50
137.5634375
51
165.004357
0
ARC
8
DEFAULT_255_2_778
10
14.1754593
20
2.3544559
40
0.485966
50
88.5778112
51
136.3086258
0
ARC
8
DEFAULT_255_2_778
10
14.2020523
20
2.2131482
40
0.6272922
50
68.6479667
51
91.3274199
0
ARC
8
DEFAULT_255_2_778
10
14.2733275
20
2.4210076
40
0.407855
50
15.5937472
51
67.3416492
0
ARC
8
DEFAULT_255_2_778
10
13.9046566
20
2.2983027
40
0.7961695
50
1.0718462
51
16.9672556
0
ARC
8
DEFAULT_255_2_778
10
13.5324311
20
2.2747011
40
1.1688897
50
359.9838698
51
1.8872547
0
ARC
8
DEFAULT_255_2_778
10
13.9992315
20
2.3589634
40
1.1101445
50
359.4275552
51
15.2150477
0
ARC
8
DEFAULT_255_2_778
10
14.370563
20
2.4653566
40
0.7239258
50
14.8026418
51
46.1227979
0
ARC
8
DEFAULT_255_2_778
10
14.3659556
20
2.4325131
40
0.7510456
50
47.6062465
51
79.8567709
0
ARC
8
DEFAULT_255_2_778
10
14.284462
20
2.0765835
40
1.1159018
50
78.9562798
51
90.2793861
0
ARC
8
DEFAULT_255_2_778
10
18.5533416
20
3.2042038
40
0.5906375
50
160.8425492
51
181.1381267
0
ARC
8
DEFAULT_255_2_778
10
18.2982521
20
3.2933378
40
0.3204245
50
85.7280681
51
160.9295075
0
ARC
8
DEFAULT_255_2_778
10
18.2787576
20
2.3729163
40
1.2407137
50
71.0622029
51
87.9970993
0
ARC
8
DEFAULT_255_2_778
10
18.3131923
20
2.7687278
40
1.1854493
50
65.1792763
51
90.0160828
0
ARC
8
DEFAULT_255_2_778
10
18.3127935
20
2.8169032
40
1.1372739
50
89.9966772
51
90.1699276
0
ARC
8
DEFAULT_255_2_778
10
18.286126
20
3.056134
40
0.8983401
50
88.5141092
51
117.7388
0
ARC
8
DEFAULT_255_2_778
10
18.1638804
20
3.3197196
40
0.6083204
50
119.1033902
51
158.699333
0
ARC
8
DEFAULT_255_2_778
10
18.3962213
20
3.2288108
40
0.8578132
50
158.6794372
51
176.1719415
0
ARC
8
DEFAULT_255_2_778
10
18.7146902
20
3.195319
40
1.1778703
50
175.5806527
51
180.0606546
0
ARC
8
DEFAULT_255_2_778
10
19.5692509
20
1.9409591
40
0.6337769
50
231.1845188
51
270.9646238
0
ARC
8
DEFAULT_255_2_778
10
19.6184925
20
1.9780007
40
0.6936693
50
195.8095058
51
229.9331189
0
ARC
8
DEFAULT_255_2_778
10
19.8793635
20
2.0625659
40
0.967766
50
179.6029625
51
196.4190018
0
ARC
8
DEFAULT_255_2_778
10
19.9024838
20
2.0796854
40
0.9909179
50
155.8503837
51
180.6021169
0
ARC
8
DEFAULT_255_2_778
10
19.5361789
20
2.2700661
40
0.5792746
50
90.9240521
51
158.2106091
0
ARC
8
DEFAULT_255_2_778
10
19.5296769
20
2.2383641
40
0.6109078
50
89.9958991
51
90.2663592
0
ARC
8
DEFAULT_255_2_778
10
19.5361966
20
2.213433
40
0.635872
50
74.2152121
51
90.5835364
0
ARC
8
DEFAULT_255_2_778
10
19.5818336
20
2.3773942
40
0.4656798
50
46.4787678
51
74.130865
0
ARC
8
DEFAULT_255_2_778
10
19.4734554
20
2.2866569
40
0.6063209
50
16.9437139
51
44.9568695
0
ARC
8
DEFAULT_255_2_778
10
19.0632443
20
2.1394446
40
1.041845
50
10.1875428
51
18.1137127
0
ARC
8
DEFAULT_255_2_778
10
18.6939554
20
2.0684937
40
1.417868
50
7.6145236
51
10.3700308
0
ARC
8
DEFAULT_255_2_778
10
19.0174406
20
2.0953393
40
1.5005567
50
359.4208581
51
17.0465193
0
ARC
8
DEFAULT_255_2_778
10
19.5955261
20
2.2981395
40
0.8887534
50
15.471638
51
70.7220865
0
ARC
8
DEFAULT_255_2_778
10
19.5404757
20
2.0949307
40
1.0988469
50
71.510804
51
88.3780554
0
ARC
8
DEFAULT_255_2_778
10
19.5209842
20
1.8247048
40
1.3695673
50
87.8829269
51
90.0110262
0
ARC
8
DEFAULT_255_2_778
10
19.5134714
20
2.188491
40
1.0058072
50
89.5870439
51
127.8030588
0
ARC
8
DEFAULT_255_2_778
10
19.5611547
20
2.1431671
40
1.0708919
50
128.332442
51
162.3294651
0
ARC
8
DEFAULT_255_2_778
10
19.7591603
20
2.0737062
40
1.280654
50
162.0574329
51
180.2699635
0
ARC
8
DEFAULT_255_2_778
10
19.8227193
20
2.0577707
40
1.3442351
50
179.5779681
51
196.9486622
0
ARC
8
DEFAULT_255_2_778
10
19.5084358
20
1.9571812
40
1.0142891
50
196.688684
51
227.7492539
0
ARC
8
DEFAULT_255_2_778
10
19.4845804
20
1.9532447
40
0.9954486
50
228.613299
51
261.6654293
0
ARC
8
DEFAULT_255_2_778
10
19.5293829
20
2.1739343
40
1.220364
50
261.0860758
51
270.100367
0
ARC
8
DEFAULT_255_2_778
10
19.5422276
20
2.3556045
40
1.4020733
50
269.5624564
51
291.0402828
0
ARC
8
DEFAULT_255_2_778
10
19.7290719
20
1.8919582
40
0.9022922
50
290.5369219
51
318.5685227
0
ARC
8
DEFAULT_255_2_778
10
19.877177
20
1.7411661
40
0.6916317
50
319.8154931
51
323.0663914
0
ARC
8
DEFAULT_255_2_778
10
19.569798
20
2.1702015
40
0.8626428
50
270.3203137
51
315.2204156
0
LINE
8
DEFAULT_255_2_778
10
28.2125206
20
2.6695721
11
28.3921206
21
2.9624721
0
LINE
8
DEFAULT_255_2_778
10
26.9454206
20
1.5268721
11
26.7658206
21
1.2032721
0
LINE
8
DEFAULT_255_2_778
10
16.8717206
20
2.6695721
11
17.0513206
21
2.9624721
0
LINE
8
DEFAULT_255_2_778
10
15.6046206
20
1.5250721
11
15.4249206
21
1.2014721
0
LINE
8
DEFAULT_255_2_778
10
30.2461206
20
2.2528721
11
29.4859206
21
2.2528721
0
LINE
8
DEFAULT_255_2_778
10
29.4859206
20
2.2528721
11
29.3423206
21
1.9239721
0
LINE
8
DEFAULT_255_2_778
10
29.3423206
20
1.9239721
11
30.6594206
21
1.9239721
0
LINE
8
DEFAULT_255_2_778
10
30.6594206
20
1.9239721
11
30.6647206
21
2.0766721
0
LINE
8
DEFAULT_255_2_778
10
30.5768206
20
1.3220721
11
30.3289206
21
1.5591721
0
LINE
8
DEFAULT_255_2_778
10
21.3317206
20
2.9124721
11
21.3137206
21
2.9124721
0
LINE
8
DEFAULT_255_2_778
10
21.3137206
20
2.9124721
11
21.3137206
21
3.1495721
0
LINE
8
DEFAULT_255_2_778
10
21.3137206
20
3.1495721
11
20.9185206
21
3.1495721
0
LINE
8
DEFAULT_255_2_778
10
20.9185206
20
3.1495721
11
20.9185206
21
0.9897721
0
LINE
8
DEFAULT_255_2_778
10
20.9185206
20
0.9897721
11
21.3265206
21
0.9897721
0
LINE
8
DEFAULT_255_2_778
10
21.3265206
20
0.9897721
11
21.3265206
21
2.1703721
0
LINE
8
DEFAULT_255_2_778
10
22.1853206
20
2.7741721
11
22.2787206
21
3.1029721
0
LINE
8
DEFAULT_255_2_778
10
10.0451206
20
2.8981721
11
10.0272206
21
2.8981721
0
LINE
8
DEFAULT_255_2_778
10
10.0272206
20
2.8981721
11
10.0272206
21
3.1352721
0
LINE
8
DEFAULT_255_2_778
10
10.0272206
20
3.1352721
11
9.6319206
21
3.1352721
0
LINE
8
DEFAULT_255_2_778
10
9.6319206
20
3.1352721
11
9.6319206
21
0.9897721
0
LINE
8
DEFAULT_255_2_778
10
9.6319206
20
0.9897721
11
10.0399206
21
0.9897721
0
LINE
8
DEFAULT_255_2_778
10
10.0399206
20
0.9897721
11
10.0399206
21
2.1703721
0
LINE
8
DEFAULT_255_2_778
10
10.8754206
20
2.7741721
11
10.9688206
21
3.1082721
0
LINE
8
DEFAULT_255_2_778
10
7.3604206
20
3.8808721
11
7.3604206
21
3.4908721
0
LINE
8
DEFAULT_255_2_778
10
7.3604206
20
3.4908721
11
8.2589206
21
3.4908721
0
LINE
8
DEFAULT_255_2_778
10
8.2589206
20
3.4908721
11
8.2589206
21
0.9894721
0
LINE
8
DEFAULT_255_2_778
10
8.2589206
20
0.9894721
11
8.6902206
21
0.9894721
0
LINE
8
DEFAULT_255_2_778
10
8.6902206
20
0.9894721
11
8.6902206
21
3.4924721
0
LINE
8
DEFAULT_255_2_778
10
8.6902206
20
3.4924721
11
9.5887206
21
3.4924721
0
LINE
8
DEFAULT_255_2_778
10
9.5887206
20
3.4924721
11
9.5887206
21
3.8824721
0
LINE
8
DEFAULT_255_2_778
10
9.5887206
20
3.8824721
11
7.3247206
21
3.8824721
0
LINE
8
DEFAULT_255_2_778
10
12.3597206
20
1.9274721
11
12.3560206
21
1.8250721
0
LINE
8
DEFAULT_255_2_778
10
11.1379206
20
3.0900721
11
11.2061206
21
2.7611721
0
LINE
8
DEFAULT_255_2_778
10
12.3740206
20
2.3351721
11
12.3740206
21
2.2740721
0
LINE
8
DEFAULT_255_2_778
10
12.3581206
20
1.2569721
11
12.3761206
21
1.2569721
0
LINE
8
DEFAULT_255_2_778
10
12.3761206
20
1.2569721
11
12.3761206
21
1.0053721
0
LINE
8
DEFAULT_255_2_778
10
12.3761206
20
1.0053721
11
12.7714206
21
1.0053721
0
LINE
8
DEFAULT_255_2_778
10
12.7714206
20
1.0053721
11
12.7714206
21
2.3547721
0
LINE
8
DEFAULT_255_2_778
10
11.8012206
20
3.2064721
11
11.7811206
21
3.1942721
0
LINE
8
DEFAULT_255_2_778
10
13.6535206
20
2.8780721
11
13.6355206
21
2.8780721
0
LINE
8
DEFAULT_255_2_778
10
13.6355206
20
2.8780721
11
13.6355206
21
3.1511721
0
LINE
8
DEFAULT_255_2_778
10
13.6355206
20
3.1511721
11
13.2403206
21
3.1511721
0
LINE
8
DEFAULT_255_2_778
10
13.2403206
20
3.1511721
11
13.2403206
21
0.9894721
0
LINE
8
DEFAULT_255_2_778
10
13.2403206
20
0.9894721
11
13.6482206
21
0.9894721
0
LINE
8
DEFAULT_255_2_778
10
13.6482206
20
0.9894721
11
13.6482206
21
2.1573721
0
LINE
8
DEFAULT_255_2_778
10
14.7013206
20
2.2743721
11
14.7013206
21
0.9894721
0
LINE
8
DEFAULT_255_2_778
10
14.7013206
20
0.9894721
11
15.1093206
21
0.9894721
0
LINE
8
DEFAULT_255_2_778
10
15.1093206
20
0.9894721
11
15.1093206
21
2.3478721
0
LINE
8
DEFAULT_255_2_778
10
18.6814206
20
3.5464721
11
18.8108206
21
3.8446721
0
LINE
8
DEFAULT_255_2_778
10
17.5368206
20
3.1940721
11
17.5368206
21
3.1275721
0
LINE
8
DEFAULT_255_2_778
10
17.5368206
20
3.1275721
11
17.2638206
21
3.1275721
0
LINE
8
DEFAULT_255_2_778
10
17.2638206
20
3.1275721
11
17.2638206
21
2.7682721
0
LINE
8
DEFAULT_255_2_778
10
17.2638206
20
2.7682721
11
17.5368206
21
2.7682721
0
LINE
8
DEFAULT_255_2_778
10
17.5368206
20
2.7682721
11
17.5368206
21
0.9712721
0
LINE
8
DEFAULT_255_2_778
10
17.5368206
20
0.9712721
11
17.9448206
21
0.9712721
0
LINE
8
DEFAULT_255_2_778
10
17.9448206
20
0.9712721
11
17.9448206
21
2.7682721
0
LINE
8
DEFAULT_255_2_778
10
17.9448206
20
2.7682721
11
18.3581206
21
2.7682721
0
LINE
8
DEFAULT_255_2_778
10
18.3581206
20
2.7682721
11
18.5018206
21
3.1275721
0
LINE
8
DEFAULT_255_2_778
10
18.5018206
20
3.1275721
11
17.9628206
21
3.1275721
0
LINE
8
DEFAULT_255_2_778
10
17.9628206
20
3.1275721
11
17.9628206
21
3.1940721
0
LINE
8
DEFAULT_255_2_778
10
20.0993206
20
2.2563721
11
19.3392206
21
2.2563721
0
LINE
8
DEFAULT_255_2_778
10
19.3392206
20
2.2563721
11
19.1955206
21
1.9274721
0
LINE
8
DEFAULT_255_2_778
10
19.1955206
20
1.9274721
11
20.5126206
21
1.9274721
0
LINE
8
DEFAULT_255_2_778
10
20.5126206
20
1.9274721
11
20.5179206
21
2.0801721
0
LINE
8
DEFAULT_255_2_778
10
20.4300206
20
1.3255721
11
20.1821206
21
1.5625721
0
LINE
8
DEFAULT_255_2_778
10
25.2566206
20
3.8824721
11
24.7679206
21
1.6541721
0
LINE
8
DEFAULT_255_2_778
10
24.7679206
20
1.6541721
11
24.7499206
21
1.6541721
0
LINE
8
DEFAULT_255_2_778
10
24.7499206
20
1.6541721
11
24.2234206
21
3.1707721
0
LINE
8
DEFAULT_255_2_778
10
24.2234206
20
3.1707721
11
23.8585206
21
3.1707721
0
LINE
8
DEFAULT_255_2_778
10
23.8585206
20
3.1707721
11
23.2584206
21
1.6541721
0
LINE
8
DEFAULT_255_2_778
10
23.2584206
20
1.6541721
11
23.2405206
21
1.6541721
0
LINE
8
DEFAULT_255_2_778
10
23.2405206
20
1.6541721
11
22.8380206
21
3.9001721
0
LINE
8
DEFAULT_255_2_778
10
22.8380206
20
3.9001721
11
22.3779206
21
3.9001721
0
LINE
8
DEFAULT_255_2_778
10
22.3779206
20
3.9001721
11
22.9277206
21
1.0252721
0
LINE
8
DEFAULT_255_2_778
10
22.9277206
20
1.0252721
11
23.3357206
21
1.0252721
0
LINE
8
DEFAULT_255_2_778
10
23.3357206
20
1.0252721
11
23.9863206
21
2.6423721
0
LINE
8
DEFAULT_255_2_778
10
23.9863206
20
2.6423721
11
24.0043206
21
2.6423721
0
LINE
8
DEFAULT_255_2_778
10
24.0043206
20
2.6423721
11
24.5686206
21
1.0252721
0
LINE
8
DEFAULT_255_2_778
10
24.5686206
20
1.0252721
11
24.9766206
21
1.0252721
0
LINE
8
DEFAULT_255_2_778
10
24.9766206
20
1.0252721
11
25.6955206
21
3.9001721
0
LINE
8
DEFAULT_255_2_778
10
25.6955206
20
3.9001721
11
25.2751206
21
3.9001721
0
LINE
8
DEFAULT_255_2_778
10
25.9580206
20
3.9001721
11
26.4035206
21
3.9001721
0
LINE
8
DEFAULT_255_2_778
10
26.4035206
20
3.9001721
11
26.4035206
21
3.4620721
0
LINE
8
DEFAULT_255_2_778
10
26.4035206
20
3.4620721
11
25.9580206
21
3.4620721
0
LINE
8
DEFAULT_255_2_778
10
25.9580206
20
3.4620721
11
25.9580206
21
3.9001721
0
LINE
8
DEFAULT_255_2_778
10
25.9760206
20
3.1688721
11
26.3840206
21
3.1688721
0
LINE
8
DEFAULT_255_2_778
10
26.3840206
20
3.1688721
11
26.3840206
21
0.9892721
0
LINE
8
DEFAULT_255_2_778
10
26.3840206
20
0.9892721
11
25.9760206
21
0.9892721
0
LINE
8
DEFAULT_255_2_778
10
25.9760206
20
0.9892721
11
25.9760206
21
3.1688721
0
ENDSEC
0
EOF