0
SECTION
2
HEADER
9
$MEASUREMENT
70
1
0
ENDSEC
0
SECTION
2
TABLES
0
TABLE
2
LTYPE
0
LTYPE
72
65
70
64
2
CONTINUOUS
3
______
73
0
40
0
0
ENDTAB
0
TABLE
2
LAYER
0
LAYER
2
DEFAULT_255_2_778
70
0
62
255
6
CONTINUOUS
0
ENDTAB
0
ENDSEC
0
SECTION
2
ENTITIES
0
LINE
8
DEFAULT_255_2_778
10
1.3843187
20
16.8009664
11
0.2466187
21
13.8945664
0
LINE
8
DEFAULT_255_2_778
10
0.2466187
20
13.8945664
11
0.2466187
21
2.0160664
0
LINE
8
DEFAULT_255_2_778
10
0.2466187
20
2.0160664
11
4.2905187
21
2.0160664
0
LINE
8
DEFAULT_255_2_778
10
4.2905187
20
2.0160664
11
4.2905187
21
-0.1323336
0
LINE
8
DEFAULT_255_2_778
10
4.2905187
20
-0.1323336
11
6.5651187
21
-0.1323336
0
LINE
8
DEFAULT_255_2_778
10
6.5651187
20
-0.1323336
11
8.7135187
21
2.0160664
0
LINE
8
DEFAULT_255_2_778
10
8.7135187
20
2.0160664
11
11.9994187
21
2.0160664
0
LINE
8
DEFAULT_255_2_778
10
11.9994187
20
2.0160664
11
16.4222187
21
6.4388664
0
LINE
8
DEFAULT_255_2_778
10
16.4222187
20
6.4388664
11
16.4222187
21
16.8009664
0
LINE
8
DEFAULT_255_2_778
10
16.4222187
20
16.8009664
11
1.3843187
21
16.8009664
0
LINE
8
DEFAULT_255_2_778
10
1.3843187
20
16.8009664
11
1.3843187
21
16.8009664
0
LINE
8
DEFAULT_255_2_778
10
14.9056187
20
7.1965664
11
12.3777187
21
4.6698664
0
LINE
8
DEFAULT_255_2_778
10
12.3777187
20
4.6698664
11
8.3341187
21
4.6698664
0
LINE
8
DEFAULT_255_2_778
10
8.3341187
20
4.6698664
11
6.1857187
21
2.5213664
0
LINE
8
DEFAULT_255_2_778
10
6.1857187
20
2.5213664
11
6.1857187
21
4.6698664
0
LINE
8
DEFAULT_255_2_778
10
6.1857187
20
4.6698664
11
2.7739187
21
4.6698664
0
LINE
8
DEFAULT_255_2_778
10
2.7739187
20
4.6698664
11
2.7739187
21
15.2848664
0
LINE
8
DEFAULT_255_2_778
10
2.7739187
20
15.2848664
11
14.9050187
21
15.2848664
0
LINE
8
DEFAULT_255_2_778
10
14.9050187
20
15.2848664
11
14.9050187
21
7.1965664
0
LINE
8
DEFAULT_255_2_778
10
14.9050187
20
7.1965664
11
14.9056187
21
7.1965664
0
LINE
8
DEFAULT_255_2_778
10
12.3777187
20
12.3781664
11
12.3777187
21
7.9553664
0
LINE
8
DEFAULT_255_2_778
10
12.3777187
20
7.9553664
11
10.8617187
21
7.9553664
0
LINE
8
DEFAULT_255_2_778
10
10.8617187
20
7.9553664
11
10.8617187
21
12.3781664
0
LINE
8
DEFAULT_255_2_778
10
10.8617187
20
12.3781664
11
12.3777187
21
12.3781664
0
LINE
8
DEFAULT_255_2_778
10
12.3777187
20
12.3781664
11
12.3777187
21
12.3781664
0
LINE
8
DEFAULT_255_2_778
10
8.3338187
20
12.3781664
11
8.3338187
21
7.9553664
0
LINE
8
DEFAULT_255_2_778
10
8.3338187
20
7.9553664
11
6.8178187
21
7.9553664
0
LINE
8
DEFAULT_255_2_778
10
6.8178187
20
7.9553664
11
6.8178187
21
12.3781664
0
LINE
8
DEFAULT_255_2_778
10
6.8178187
20
12.3781664
11
8.3338187
21
12.3781664
0
LINE
8
DEFAULT_255_2_778
10
8.3338187
20
12.3781664
11
8.3338187
21
12.3781664
0
ENDSEC
0
EOF