0
SECTION
2
HEADER
9
$MEASUREMENT
70
1
0
ENDSEC
0
SECTION
2
TABLES
0
TABLE
2
LTYPE
0
LTYPE
72
65
70
64
2
CONTINUOUS
3
______
73
0
40
0
0
ENDTAB
0
TABLE
2
LAYER
0
LAYER
2
DEFAULT_255_2_778
70
0
62
255
6
CONTINUOUS
0
LAYER
2
DEFAULT_255_1_234
70
0
62
255
6
CONTINUOUS
0
LAYER
2
DEFAULT_255_2_778_1
70
0
62
255
6
CONTINUOUS
0
ENDTAB
0
ENDSEC
0
SECTION
2
ENTITIES
0
ARC
8
DEFAULT_255_2_778
10
3.5700693
20
107.5552026
40
0.7914215
50
129.1312896
51
180.1450914
0
ARC
8
DEFAULT_255_2_778
10
3.5703345
20
107.5556897
40
0.7912112
50
89.854026
51
129.1684493
0
ARC
8
DEFAULT_255_2_778
10
25.7993937
20
107.5553762
40
0.7915249
50
39.4792447
51
90.147911
0
ARC
8
DEFAULT_255_2_778
10
25.7999935
20
107.5552229
40
0.7911595
50
359.8533901
51
39.5154338
0
ARC
8
DEFAULT_255_2_778
10
25.7996693
20
-1.9863497
40
0.7914836
50
309.4761667
51
0.1482649
0
ARC
8
DEFAULT_255_2_778
10
25.799398
20
-1.9867808
40
0.7913235
50
269.8517415
51
309.511178
0
ARC
8
DEFAULT_255_2_778
10
3.570342
20
-1.9867226
40
0.7913815
50
219.1282118
51
270.1454017
0
ARC
8
DEFAULT_255_2_778
10
3.5700247
20
-1.9863401
40
0.7913769
50
179.8524075
51
219.1641908
0
LINE
8
DEFAULT_255_2_778
10
3.5723503
20
108.3468985
11
25.7973503
21
108.3468985
0
LINE
8
DEFAULT_255_2_778
10
26.5911503
20
107.5531985
11
26.5911503
21
-1.9843015
0
LINE
8
DEFAULT_255_2_778
10
25.7973503
20
-2.7781015
11
3.5723503
21
-2.7781015
0
LINE
8
DEFAULT_255_2_778
10
2.7786503
20
-1.9843015
11
2.7786503
21
107.5531985
0
LINE
8
DEFAULT_255_1_234
10
10.7046484
20
0.0153343
11
10.7046484
21
-0.110764
0
LINE
8
DEFAULT_255_1_234
10
10.7046484
20
-0.110764
11
10.1978458
21
-0.110764
0
LINE
8
DEFAULT_255_1_234
10
10.1978458
20
-0.110764
11
10.1978458
21
-0.5252017
0
LINE
8
DEFAULT_255_1_234
10
10.1978458
20
-0.5252017
11
10.7865722
21
-0.5252017
0
LINE
8
DEFAULT_255_1_234
10
10.7865722
20
-0.5252017
11
10.7865722
21
-0.6513
0
LINE
8
DEFAULT_255_1_234
10
10.7865722
20
-0.6513
11
10.0436364
21
-0.6513
0
LINE
8
DEFAULT_255_1_234
10
10.0436364
20
-0.6513
11
10.0436364
21
0.5181211
0
LINE
8
DEFAULT_255_1_234
10
10.0436364
20
0.5181211
11
10.7785404
21
0.5181211
0
LINE
8
DEFAULT_255_1_234
10
10.7785404
20
0.5181211
11
10.7785404
21
0.3912196
0
LINE
8
DEFAULT_255_1_234
10
10.7785404
20
0.3912196
11
10.1978458
21
0.3912196
0
LINE
8
DEFAULT_255_1_234
10
10.1978458
20
0.3912196
11
10.1978458
21
0.0153343
0
LINE
8
DEFAULT_255_1_234
10
10.1978458
20
0.0153343
11
10.7046484
21
0.0153343
0
LINE
8
DEFAULT_255_1_234
10
11.8772822
20
0.5181211
11
11.8772822
21
-0.6513
0
LINE
8
DEFAULT_255_1_234
10
11.8772822
20
-0.6513
11
11.7222697
21
-0.6513
0
LINE
8
DEFAULT_255_1_234
10
11.7222697
20
-0.6513
11
11.7222697
21
-0.110764
0
LINE
8
DEFAULT_255_1_234
10
11.7222697
20
-0.110764
11
11.1327401
21
-0.110764
0
LINE
8
DEFAULT_255_1_234
10
11.1327401
20
-0.110764
11
11.1327401
21
-0.6513
0
LINE
8
DEFAULT_255_1_234
10
11.1327401
20
-0.6513
11
10.9785307
21
-0.6513
0
LINE
8
DEFAULT_255_1_234
10
10.9785307
20
-0.6513
11
10.9785307
21
0.5181211
0
LINE
8
DEFAULT_255_1_234
10
10.9785307
20
0.5181211
11
11.1327401
21
0.5181211
0
LINE
8
DEFAULT_255_1_234
10
11.1327401
20
0.5181211
11
11.1327401
21
0.0153343
0
LINE
8
DEFAULT_255_1_234
10
11.1327401
20
0.0153343
11
11.7222697
21
0.0153343
0
LINE
8
DEFAULT_255_1_234
10
11.7222697
20
0.0153343
11
11.7222697
21
0.5181211
0
LINE
8
DEFAULT_255_1_234
10
11.7222697
20
0.5181211
11
11.8772822
21
0.5181211
0
LINE
8
DEFAULT_255_1_234
10
12.4370944
20
-0.0938974
11
12.4370944
21
-0.2151766
0
LINE
8
DEFAULT_255_1_234
10
12.4370944
20
-0.2151766
11
12.0451456
21
-0.2151766
0
LINE
8
DEFAULT_255_1_234
10
12.0451456
20
-0.2151766
11
12.0451456
21
-0.0938974
0
LINE
8
DEFAULT_255_1_234
10
12.0451456
20
-0.0938974
11
12.4370944
21
-0.0938974
0
LINE
8
DEFAULT_255_1_234
10
13.3623506
20
-0.6513
11
13.2507095
21
-0.3460939
0
LINE
8
DEFAULT_255_1_234
10
13.2507095
20
-0.3460939
11
12.7607734
21
-0.3460939
0
LINE
8
DEFAULT_255_1_234
10
12.7607734
20
-0.3460939
11
12.6507386
21
-0.6513
0
LINE
8
DEFAULT_255_1_234
10
12.6507386
20
-0.6513
11
12.4917102
21
-0.6513
0
LINE
8
DEFAULT_255_1_234
10
12.4917102
20
-0.6513
11
12.9382749
21
0.5181211
0
LINE
8
DEFAULT_255_1_234
10
12.9382749
20
0.5181211
11
13.0732081
21
0.5181211
0
LINE
8
DEFAULT_255_1_234
10
13.0732081
20
0.5181211
11
13.5205759
21
-0.6513
0
LINE
8
DEFAULT_255_1_234
10
13.5205759
20
-0.6513
11
13.3623506
21
-0.6513
0
LINE
8
DEFAULT_255_1_234
10
13.0057415
20
0.3277689
11
12.8073575
21
-0.2191925
0
LINE
8
DEFAULT_255_1_234
10
12.8073575
20
-0.2191925
11
13.2049286
21
-0.2191925
0
LINE
8
DEFAULT_255_1_234
10
13.2049286
20
-0.2191925
11
13.0057415
21
0.3277689
0
LINE
8
DEFAULT_255_1_234
10
14.2667244
20
0.5181211
11
14.2667244
21
-0.258548
0
LINE
8
DEFAULT_255_1_234
10
14.2667244
20
-0.258548
11
14.4289655
21
-0.258548
0
LINE
8
DEFAULT_255_1_234
10
14.4289655
20
-0.258548
11
14.4289655
21
-0.3798272
0
LINE
8
DEFAULT_255_1_234
10
14.4289655
20
-0.3798272
11
14.2667244
21
-0.3798272
0
LINE
8
DEFAULT_255_1_234
10
14.2667244
20
-0.3798272
11
14.2667244
21
-0.6513
0
LINE
8
DEFAULT_255_1_234
10
14.2667244
20
-0.6513
11
14.117334
21
-0.6513
0
LINE
8
DEFAULT_255_1_234
10
14.117334
20
-0.6513
11
14.117334
21
-0.3798272
0
LINE
8
DEFAULT_255_1_234
10
14.117334
20
-0.3798272
11
13.5848298
21
-0.3798272
0
LINE
8
DEFAULT_255_1_234
10
13.5848298
20
-0.3798272
11
13.5848298
21
-0.2922813
0
LINE
8
DEFAULT_255_1_234
10
13.5848298
20
-0.2922813
11
14.1084991
21
0.5181211
0
LINE
8
DEFAULT_255_1_234
10
14.1084991
20
0.5181211
11
14.2667244
21
0.5181211
0
LINE
8
DEFAULT_255_1_234
10
14.0996642
20
0.2827912
11
13.7534963
21
-0.258548
0
LINE
8
DEFAULT_255_1_234
10
13.7534963
20
-0.258548
11
14.117334
21
-0.258548
0
LINE
8
DEFAULT_255_1_234
10
14.117334
20
-0.258548
11
14.117334
21
0.3149181
0
LINE
8
DEFAULT_255_1_234
10
14.117334
20
0.3149181
11
14.0996642
21
0.2827912
0
LINE
8
DEFAULT_255_1_234
10
15.2626599
20
0.0153343
11
15.2626599
21
-0.110764
0
LINE
8
DEFAULT_255_1_234
10
15.2626599
20
-0.110764
11
14.7558572
21
-0.110764
0
LINE
8
DEFAULT_255_1_234
10
14.7558572
20
-0.110764
11
14.7558572
21
-0.5252017
0
LINE
8
DEFAULT_255_1_234
10
14.7558572
20
-0.5252017
11
15.3445836
21
-0.5252017
0
LINE
8
DEFAULT_255_1_234
10
15.3445836
20
-0.5252017
11
15.3445836
21
-0.6513
0
LINE
8
DEFAULT_255_1_234
10
15.3445836
20
-0.6513
11
14.6016479
21
-0.6513
0
LINE
8
DEFAULT_255_1_234
10
14.6016479
20
-0.6513
11
14.6016479
21
0.5181211
0
LINE
8
DEFAULT_255_1_234
10
14.6016479
20
0.5181211
11
15.3365519
21
0.5181211
0
LINE
8
DEFAULT_255_1_234
10
15.3365519
20
0.5181211
11
15.3365519
21
0.3912196
0
LINE
8
DEFAULT_255_1_234
10
15.3365519
20
0.3912196
11
14.7558572
21
0.3912196
0
LINE
8
DEFAULT_255_1_234
10
14.7558572
20
0.3912196
11
14.7558572
21
0.0153343
0
LINE
8
DEFAULT_255_1_234
10
14.7558572
20
0.0153343
11
15.2626599
21
0.0153343
0
LINE
8
DEFAULT_255_1_234
10
16.2192399
20
-0.6513
11
15.965437
21
-0.1782306
0
LINE
8
DEFAULT_255_1_234
10
15.965437
20
-0.1782306
11
15.6907516
21
-0.1782306
0
LINE
8
DEFAULT_255_1_234
10
15.6907516
20
-0.1782306
11
15.6907516
21
-0.6513
0
LINE
8
DEFAULT_255_1_234
10
15.6907516
20
-0.6513
11
15.535739
21
-0.6513
0
LINE
8
DEFAULT_255_1_234
10
15.535739
20
-0.6513
11
15.535739
21
0.5181211
0
LINE
8
DEFAULT_255_1_234
10
15.535739
20
0.5181211
11
15.9228688
21
0.5181211
0
LINE
8
DEFAULT_255_1_234
10
16.1100083
20
-0.1453005
11
16.3846938
21
-0.6416619
0
LINE
8
DEFAULT_255_1_234
10
16.3846938
20
-0.6416619
11
16.3846938
21
-0.6513
0
LINE
8
DEFAULT_255_1_234
10
16.3846938
20
-0.6513
11
16.2192399
21
-0.6513
0
LINE
8
DEFAULT_255_1_234
10
15.6907516
20
0.3912196
11
15.6907516
21
-0.0521323
0
LINE
8
DEFAULT_255_1_234
10
15.6907516
20
-0.0521323
11
15.9276878
21
-0.0521323
0
LINE
8
DEFAULT_255_1_234
10
15.9268847
20
0.3912196
11
15.6907516
21
0.3912196
0
ARC
8
DEFAULT_255_1_234
10
15.9270327
20
-0.1780239
40
0.6961575
50
80.653586
51
90.3427061
0
ARC
8
DEFAULT_255_1_234
10
15.9689802
20
0.0682348
40
0.4463577
50
65.6987447
51
80.8329603
0
ARC
8
DEFAULT_255_1_234
10
16.0167443
20
0.1777322
40
0.3269094
50
50.0017161
51
65.4305835
0
ARC
8
DEFAULT_255_1_234
10
16.0385907
20
0.2072482
40
0.2902647
50
11.628416
51
49.5603263
0
ARC
8
DEFAULT_255_1_234
10
15.8850243
20
0.1697299
40
0.4482792
50
359.5655735
51
12.3691
0
ARC
8
DEFAULT_255_1_234
10
15.9927103
20
0.1634644
40
0.3405924
50
341.9983148
51
0.4822259
0
ARC
8
DEFAULT_255_1_234
10
16.0321943
20
0.1527471
40
0.2997359
50
323.8609373
51
341.61416
0
ARC
8
DEFAULT_255_1_234
10
16.0020187
20
0.1760484
40
0.3378487
50
296.7018614
51
323.6876402
0
ARC
8
DEFAULT_255_1_234
10
15.9579083
20
0.2549235
40
0.4281516
50
290.8086567
51
297.2323311
0
ARC
8
DEFAULT_255_1_234
10
15.9302612
20
0.3072351
40
0.3593766
50
269.589728
51
281.8058135
0
ARC
8
DEFAULT_255_1_234
10
15.9553511
20
0.1924743
40
0.2419125
50
281.5501019
51
303.9357432
0
ARC
8
DEFAULT_255_1_234
10
15.9690699
20
0.1686936
40
0.2145323
50
304.4415616
51
311.2106213
0
ARC
8
DEFAULT_255_1_234
10
15.9822804
20
0.1547632
40
0.1953505
50
310.9875673
51
356.2715578
0
ARC
8
DEFAULT_255_1_234
10
15.9066453
20
0.1660422
40
0.2716331
50
354.9348262
51
0.0609027
0
ARC
8
DEFAULT_255_1_234
10
15.8879327
20
0.1687435
40
0.2903554
50
359.5239371
51
12.8808918
0
ARC
8
DEFAULT_255_1_234
10
15.9856883
20
0.1926728
40
0.1897315
50
12.4173452
51
43.1022135
0
ARC
8
DEFAULT_255_1_234
10
15.9918487
20
0.1963724
40
0.1827118
50
43.5751728
51
48.203944
0
ARC
8
DEFAULT_255_1_234
10
15.9748979
20
0.1742302
40
0.2105272
50
48.7809703
51
72.6969569
0
ARC
8
DEFAULT_255_1_234
10
15.9394604
20
0.066682
40
0.3237537
50
72.3702241
51
84.8791103
0
ARC
8
DEFAULT_255_1_234
10
15.924708
20
-0.0675231
40
0.4587478
50
84.5400526
51
89.7281406
0
LINE
8
DEFAULT_255_1_234
10
17.2930833
20
0.5181211
11
17.2930833
21
0.3912196
0
LINE
8
DEFAULT_255_1_234
10
17.2930833
20
0.3912196
11
16.917198
21
0.3912196
0
LINE
8
DEFAULT_255_1_234
10
16.917198
20
0.3912196
11
16.917198
21
-0.6513
0
LINE
8
DEFAULT_255_1_234
10
16.917198
20
-0.6513
11
16.7637918
21
-0.6513
0
LINE
8
DEFAULT_255_1_234
10
16.7637918
20
-0.6513
11
16.7637918
21
0.3912196
0
LINE
8
DEFAULT_255_1_234
10
16.7637918
20
0.3912196
11
16.3887096
21
0.3912196
0
LINE
8
DEFAULT_255_1_234
10
16.3887096
20
0.3912196
11
16.3887096
21
0.5181211
0
LINE
8
DEFAULT_255_1_234
10
16.3887096
20
0.5181211
11
17.2930833
21
0.5181211
0
LINE
8
DEFAULT_255_1_234
10
17.7902479
20
-0.6513
11
17.4665689
21
-0.6513
0
LINE
8
DEFAULT_255_1_234
10
17.4665689
20
-0.6513
11
17.4665689
21
0.5181211
0
LINE
8
DEFAULT_255_1_234
10
17.4665689
20
0.5181211
11
17.7966733
21
0.5181211
0
LINE
8
DEFAULT_255_1_234
10
18.3123109
20
-0.0272339
11
18.3123109
21
-0.1019291
0
LINE
8
DEFAULT_255_1_234
10
17.8006892
20
0.3912196
11
17.6207783
21
0.3912196
0
LINE
8
DEFAULT_255_1_234
10
17.6207783
20
0.3912196
11
17.6207783
21
-0.5252017
0
LINE
8
DEFAULT_255_1_234
10
17.6207783
20
-0.5252017
11
17.7830194
21
-0.5252017
0
LINE
8
DEFAULT_255_1_234
10
18.1597079
20
-0.0987164
11
18.1597079
21
-0.0304466
0
ARC
8
DEFAULT_255_1_234
10
17.8005676
20
-0.0684106
40
0.5865446
50
75.4101064
51
90.3804066
0
ARC
8
DEFAULT_255_1_234
10
17.823519
20
0.0272492
40
0.4881916
50
60.145586
51
75.1888407
0
ARC
8
DEFAULT_255_1_234
10
17.8393965
20
0.0549199
40
0.4562893
50
26.5253612
51
60.1450928
0
ARC
8
DEFAULT_255_1_234
10
17.7273714
20
-0.0044842
40
0.5830602
50
7.4030428
51
26.8320788
0
ARC
8
DEFAULT_255_1_234
10
17.5679471
20
-0.0293196
40
0.7443669
50
0.1605367
51
7.7176192
0
ARC
8
DEFAULT_255_1_234
10
17.5843375
20
-0.1057566
40
0.7279835
50
348.7289388
51
0.3012466
0
ARC
8
DEFAULT_255_1_234
10
17.7499806
20
-0.1386614
40
0.559104
50
333.0706509
51
348.7181832
0
ARC
8
DEFAULT_255_1_234
10
17.8466563
20
-0.1911681
40
0.4491417
50
299.2531685
51
333.4571258
0
ARC
8
DEFAULT_255_1_234
10
17.8105703
20
-0.1226172
40
0.5265881
50
278.107187
51
299.0339503
0
ARC
8
DEFAULT_255_1_234
10
17.7849782
20
0.0281216
40
0.679442
50
270.4443897
51
278.4511052
0
ARC
8
DEFAULT_255_1_234
10
17.7870612
20
-0.0647787
40
0.4604407
50
269.4970433
51
284.0205042
0
ARC
8
DEFAULT_255_1_234
10
17.8225913
20
-0.2013022
40
0.3193797
50
283.7700273
51
318.1555492
0
ARC
8
DEFAULT_255_1_234
10
17.7888671
20
-0.1760633
40
0.3613588
50
318.7415601
51
343.6873628
0
ARC
8
DEFAULT_255_1_234
10
17.6084695
20
-0.1197168
40
0.5503313
50
343.3325091
51
355.8548958
0
ARC
8
DEFAULT_255_1_234
10
17.3986379
20
-0.0997681
40
0.7610708
50
355.4988528
51
0.0791727
0
ARC
8
DEFAULT_255_1_234
10
17.4769002
20
-0.026222
40
0.6828208
50
359.6455037
51
9.8607896
0
ARC
8
DEFAULT_255_1_234
10
17.7129699
20
0.0164099
40
0.4429406
50
9.6571907
51
26.1932807
0
ARC
8
DEFAULT_255_1_234
10
17.8057688
20
0.0595118
40
0.3406537
50
26.5777228
51
40.1532208
0
ARC
8
DEFAULT_255_1_234
10
17.8313414
20
0.0794619
40
0.308246
50
40.3840491
51
80.1431104
0
ARC
8
DEFAULT_255_1_234
10
17.7986532
20
-0.0654667
40
0.4566909
50
79.2152159
51
89.7445637
0
LINE
8
DEFAULT_255_2_778
10
20.8173981
20
106.9520229
11
21.4603981
21
106.9520229
0
LINE
8
DEFAULT_255_2_778
10
19.5074981
20
106.9520229
11
19.5074981
21
105.9476229
0
LINE
8
DEFAULT_255_2_778
10
19.5074981
20
105.9476229
11
20.8173981
21
105.9476229
0
LINE
8
DEFAULT_255_2_778
10
20.8173981
20
105.9476229
11
20.8173981
21
106.9520229
0
LINE
8
DEFAULT_255_2_778
10
21.4603981
20
106.9520229
11
21.4603981
21
104.4348229
0
LINE
8
DEFAULT_255_2_778
10
21.4603981
20
104.4348229
11
20.8173981
21
104.4348229
0
LINE
8
DEFAULT_255_2_778
10
20.8173981
20
104.4348229
11
20.8173981
21
105.5447229
0
LINE
8
DEFAULT_255_2_778
10
20.8173981
20
105.5447229
11
19.5074981
21
105.5447229
0
LINE
8
DEFAULT_255_2_778
10
19.5074981
20
105.5447229
11
19.5074981
21
104.4371229
0
LINE
8
DEFAULT_255_2_778
10
19.5074981
20
104.4371229
11
18.8644981
21
104.4371229
0
LINE
8
DEFAULT_255_2_778
10
18.8644981
20
104.4371229
11
18.8644981
21
106.9520229
0
LINE
8
DEFAULT_255_2_778
10
18.8644981
20
106.9520229
11
19.5074981
21
106.9520229
0
LINE
8
DEFAULT_255_2_778
10
13.3725981
20
106.9520229
11
13.3725981
21
106.5239229
0
LINE
8
DEFAULT_255_2_778
10
13.3725981
20
106.5239229
11
12.3798981
21
106.5239229
0
LINE
8
DEFAULT_255_2_778
10
12.3798981
20
106.5239229
11
12.3798981
21
104.4348229
0
LINE
8
DEFAULT_255_2_778
10
12.3798981
20
104.4348229
11
11.7286981
21
104.4348229
0
LINE
8
DEFAULT_255_2_778
10
11.7286981
20
104.4348229
11
11.7286981
21
106.5239229
0
LINE
8
DEFAULT_255_2_778
10
11.7286981
20
106.5239229
11
10.7441981
21
106.5239229
0
LINE
8
DEFAULT_255_2_778
10
10.7441981
20
106.5239229
11
10.7441981
21
106.9520229
0
LINE
8
DEFAULT_255_2_778
10
10.7441981
20
106.9520229
11
13.3722981
21
106.9520229
0
LINE
8
DEFAULT_255_2_778
10
15.8865981
20
104.4348229
11
15.1624981
21
104.4348229
0
LINE
8
DEFAULT_255_2_778
10
15.1624981
20
104.4348229
11
14.9507981
21
104.9803229
0
LINE
8
DEFAULT_255_2_778
10
14.9507981
20
104.9803229
11
13.7381981
21
104.9803229
0
LINE
8
DEFAULT_255_2_778
10
13.7381981
20
104.9803229
11
13.5265981
21
104.4348229
0
LINE
8
DEFAULT_255_2_778
10
13.5265981
20
104.4348229
11
12.8108981
21
104.4348229
0
LINE
8
DEFAULT_255_2_778
10
12.8108981
20
104.4348229
11
13.9498981
21
106.9520229
0
LINE
8
DEFAULT_255_2_778
10
13.9498981
20
106.9520229
11
14.7390981
21
106.9520229
0
LINE
8
DEFAULT_255_2_778
10
14.7390981
20
106.9520229
11
15.8865981
21
104.4348229
0
LINE
8
DEFAULT_255_2_778
10
14.3488981
20
106.5239229
11
13.8932981
21
105.3828229
0
LINE
8
DEFAULT_255_2_778
10
13.8932981
20
105.3828229
11
14.7965981
21
105.3828229
0
LINE
8
DEFAULT_255_2_778
10
14.7965981
20
105.3828229
11
14.3488981
21
106.5239229
0
LINE
8
DEFAULT_255_2_778
10
21.9714981
20
104.4348229
11
21.9714981
21
106.9520229
0
LINE
8
DEFAULT_255_2_778
10
21.9714981
20
106.9520229
11
22.6223981
21
106.9520229
0
LINE
8
DEFAULT_255_2_778
10
22.6223981
20
106.9520229
11
22.6223981
21
104.4348229
0
LINE
8
DEFAULT_255_2_778
10
22.6223981
20
104.4348229
11
21.9714981
21
104.4348229
0
ARC
8
DEFAULT_255_2_778
10
17.4928634
20
105.6818794
40
1.7203324
50
180.3751097
51
198.5875868
0
ARC
8
DEFAULT_255_2_778
10
17.3530966
20
105.7026502
40
1.5808533
50
158.0492629
51
181.1610924
0
ARC
8
DEFAULT_255_2_778
10
16.9861786
20
105.8259311
40
1.1946691
50
150.7860107
51
156.955066
0
ARC
8
DEFAULT_255_2_778
10
16.8982418
20
105.8682339
40
1.0972872
50
111.4504449
51
150.4728397
0
ARC
8
DEFAULT_255_2_778
10
17.220305
20
105.0103999
40
2.0135283
50
90.194553
51
111.0534438
0
ARC
8
DEFAULT_255_2_778
10
17.2087739
20
105.03575
40
1.9881721
50
65.6958049
51
89.8647264
0
ARC
8
DEFAULT_255_2_778
10
17.6787121
20
106.0971284
40
0.8274868
50
11.2255456
51
65.1035005
0
ARC
8
DEFAULT_255_2_778
10
-0.0805551
20
103.9876931
40
18.0460455
50
6.7184719
51
6.747037
0
ARC
8
DEFAULT_255_2_778
10
17.1626023
20
106.0583943
40
0.6797124
50
4.1726408
51
20.1118961
0
ARC
8
DEFAULT_255_2_778
10
17.3614062
20
106.1430115
40
0.4640677
50
18.7415785
51
72.5888136
0
ARC
8
DEFAULT_255_2_778
10
17.2025943
20
105.548807
40
1.0788876
50
73.9838784
51
89.311007
0
ARC
8
DEFAULT_255_2_778
10
17.1983401
20
105.836535
40
0.7912692
50
88.7524372
51
112.3015844
0
ARC
8
DEFAULT_255_2_778
10
17.0838187
20
106.0299903
40
0.5697558
50
109.0272801
51
162.6899679
0
ARC
8
DEFAULT_255_2_778
10
18.0476601
20
105.6717427
40
1.5974926
50
160.7083741
51
180.0013584
0
ARC
8
DEFAULT_255_2_778
10
17.4360492
20
105.6714828
40
0.9858816
50
179.9870956
51
180.0387134
0
ARC
8
DEFAULT_255_2_778
10
17.978404
20
105.6758368
40
1.5282444
50
180.1882118
51
196.7846852
0
ARC
8
DEFAULT_255_2_778
10
17.0900469
20
105.3802436
40
0.5929648
50
194.2267498
51
247.7026219
0
ARC
8
DEFAULT_255_2_778
10
17.2253599
20
105.7661028
40
1.0015362
50
248.915808
51
269.4283674
0
ARC
8
DEFAULT_255_2_778
10
17.2167111
20
105.3374228
40
0.5728078
50
269.8656425
51
270.0448116
0
ARC
8
DEFAULT_255_2_778
10
17.2177548
20
105.668057
40
0.9034423
50
269.9622192
51
289.2672362
0
ARC
8
DEFAULT_255_2_778
10
17.3566218
20
105.2756187
40
0.4871646
50
289.079723
51
335.6836304
0
ARC
8
DEFAULT_255_2_778
10
17.1094676
20
105.3390273
40
0.7398116
50
339.0923962
51
0.0324791
0
ARC
8
DEFAULT_255_2_778
10
17.1096199
20
105.3394463
40
0.7396591
50
0.0000282
51
0.3153016
0
ARC
8
DEFAULT_255_2_778
10
17.7379321
20
105.2687467
40
0.7766289
50
293.0868009
51
348.0633563
0
ARC
8
DEFAULT_255_2_778
10
17.2274897
20
106.350376
40
1.972313
50
269.5781363
51
294.4066005
0
ARC
8
DEFAULT_255_2_778
10
17.2068626
20
106.5528305
40
2.1747224
50
252.5126234
51
270.1608511
0
ARC
8
DEFAULT_255_2_778
10
16.8655784
20
105.5012887
40
1.0692678
50
200.1518087
51
253.0231459
0
LINE
8
DEFAULT_255_2_778
10
7.4003679
20
106.9519166
11
7.4003679
21
105.9476166
0
LINE
8
DEFAULT_255_2_778
10
7.4003679
20
105.9476166
11
8.7020679
21
105.9476166
0
LINE
8
DEFAULT_255_2_778
10
8.7020679
20
105.9476166
11
8.7020679
21
106.9519166
0
LINE
8
DEFAULT_255_2_778
10
8.7020679
20
106.9519166
11
9.3508679
21
106.9519166
0
LINE
8
DEFAULT_255_2_778
10
9.3508679
20
106.9519166
11
9.3508679
21
104.4347166
0
LINE
8
DEFAULT_255_2_778
10
9.3508679
20
104.4347166
11
8.6999679
21
104.4347166
0
LINE
8
DEFAULT_255_2_778
10
8.6999679
20
104.4347166
11
8.6999679
21
105.5449166
0
LINE
8
DEFAULT_255_2_778
10
8.6999679
20
105.5449166
11
7.3982679
21
105.5449166
0
LINE
8
DEFAULT_255_2_778
10
7.3982679
20
105.5449166
11
7.3982679
21
104.4373166
0
LINE
8
DEFAULT_255_2_778
10
7.3982679
20
104.4373166
11
6.7473679
21
104.4373166
0
LINE
8
DEFAULT_255_2_778
10
6.7473679
20
104.4373166
11
6.7473679
21
106.9519166
0
LINE
8
DEFAULT_255_2_778
10
6.7473679
20
106.9519166
11
7.3982679
21
106.9519166
0
LINE
8
DEFAULT_255_2_778
10
9.8654679
20
104.4347166
11
9.8654679
21
106.9519166
0
LINE
8
DEFAULT_255_2_778
10
9.8654679
20
106.9519166
11
10.5084679
21
106.9519166
0
LINE
8
DEFAULT_255_2_778
10
10.5084679
20
106.9519166
11
10.5084679
21
104.4347166
0
LINE
8
DEFAULT_255_2_778
10
10.5084679
20
104.4347166
11
9.8654679
21
104.4347166
0
LINE
8
DEFAULT_255_2_778
10
18.4903679
20
106.2582166
11
18.5152679
21
106.0989166
0
LINE
8
DEFAULT_255_2_778
10
18.5152679
20
106.0989166
11
17.8415679
21
106.0989166
0
LINE
8
DEFAULT_255_2_778
10
17.8492679
20
105.3435166
11
18.5332679
21
105.3435166
0
LINE
8
DEFAULT_255_2_778
10
18.5332679
20
105.3435166
11
18.4977679
21
105.1081166
0
LINE
8
DEFAULT_255_1_234
10
9.9610364
20
103.0441211
11
10.1602235
21
103.0441211
0
LINE
8
DEFAULT_255_1_234
10
10.1602235
20
103.0441211
11
10.5425342
21
102.0899506
0
LINE
8
DEFAULT_255_1_234
10
10.5425342
20
102.0899506
11
10.924845
21
103.0441211
0
LINE
8
DEFAULT_255_1_234
10
10.924845
20
103.0441211
11
11.1248353
21
103.0441211
0
LINE
8
DEFAULT_255_1_234
10
11.1248353
20
103.0441211
11
11.1248353
21
101.8747
0
LINE
8
DEFAULT_255_1_234
10
11.1248353
20
101.8747
11
10.9706259
21
101.8747
0
LINE
8
DEFAULT_255_1_234
10
10.9706259
20
101.8747
11
10.9706259
21
102.3300996
0
LINE
8
DEFAULT_255_1_234
10
10.9706259
20
102.3300996
11
10.985083
21
102.8216419
0
LINE
8
DEFAULT_255_1_234
10
10.985083
20
102.8216419
11
10.6011659
21
101.8747
0
LINE
8
DEFAULT_255_1_234
10
10.6011659
20
101.8747
11
10.4830994
21
101.8747
0
LINE
8
DEFAULT_255_1_234
10
10.4830994
20
101.8747
11
10.0999854
21
102.8192324
0
LINE
8
DEFAULT_255_1_234
10
10.0999854
20
102.8192324
11
10.1152458
21
102.3300996
0
LINE
8
DEFAULT_255_1_234
10
10.1152458
20
102.3300996
11
10.1152458
21
101.8747
0
LINE
8
DEFAULT_255_1_234
10
10.1152458
20
101.8747
11
9.9610364
21
101.8747
0
LINE
8
DEFAULT_255_1_234
10
9.9610364
20
101.8747
11
9.9610364
21
103.0441211
0
LINE
8
DEFAULT_255_1_234
10
11.5352571
20
102.7437341
11
11.5352571
21
101.8747
0
LINE
8
DEFAULT_255_1_234
10
11.5352571
20
101.8747
11
11.3866699
21
101.8747
0
LINE
8
DEFAULT_255_1_234
10
11.3866699
20
101.8747
11
11.3866699
21
102.7437341
0
LINE
8
DEFAULT_255_1_234
10
11.3866699
20
102.7437341
11
11.5352571
21
102.7437341
0
ARC
8
DEFAULT_255_1_234
10
11.4724848
20
102.9751889
40
0.097867
50
161.415052
51
180.5526306
0
ARC
8
DEFAULT_255_1_234
10
11.4600626
20
102.9786077
40
0.0850062
50
138.1827368
51
160.9307106
0
ARC
8
DEFAULT_255_1_234
10
11.4490572
20
102.9881588
40
0.0704362
50
104.6368899
51
138.0039868
0
ARC
8
DEFAULT_255_1_234
10
11.4597726
20
102.9514963
40
0.1086221
50
92.0600725
51
105.2189128
0
ARC
8
DEFAULT_255_1_234
10
11.4621075
20
102.9172117
40
0.1429728
50
89.9756393
51
92.5012496
0
ARC
8
DEFAULT_255_1_234
10
11.4631094
20
102.9397731
40
0.1204151
50
78.0235316
51
90.4478182
0
ARC
8
DEFAULT_255_1_234
10
11.4723186
20
102.9811295
40
0.0780493
50
55.051506
51
78.3369085
0
ARC
8
DEFAULT_255_1_234
10
11.477346
20
102.9895711
40
0.0682538
50
42.0501187
51
54.4513741
0
ARC
8
DEFAULT_255_1_234
10
11.4638328
20
102.9771798
40
0.0865878
50
1.7497075
51
42.1496013
0
ARC
8
DEFAULT_255_1_234
10
11.438366
20
102.9742738
40
0.1121515
50
359.9852656
51
2.8364544
0
ARC
8
DEFAULT_255_1_234
10
11.4549653
20
102.9733229
40
0.0955566
50
342.1070653
51
0.552888
0
ARC
8
DEFAULT_255_1_234
10
11.469235
20
102.9693904
40
0.0807713
50
316.7107116
51
341.6516965
0
ARC
8
DEFAULT_255_1_234
10
11.4759387
20
102.9633823
40
0.0717724
50
285.4397031
51
316.5324284
0
ARC
8
DEFAULT_255_1_234
10
11.4649304
20
102.9999554
40
0.1099597
50
272.3547054
51
285.8953117
0
ARC
8
DEFAULT_255_1_234
10
11.4622462
20
103.0365048
40
0.1465932
50
269.9695369
51
272.8160237
0
ARC
8
DEFAULT_255_1_234
10
11.4612644
20
103.0145863
40
0.1246779
50
258.8431134
51
270.4153935
0
ARC
8
DEFAULT_255_1_234
10
11.4522686
20
102.9710414
40
0.0802162
50
238.5431189
51
259.1288175
0
ARC
8
DEFAULT_255_1_234
10
11.4454571
20
102.9586856
40
0.0661247
50
222.5062634
51
237.9906969
0
ARC
8
DEFAULT_255_1_234
10
11.4582158
20
102.9702889
40
0.0833707
50
184.1069131
51
222.460413
0
ARC
8
DEFAULT_255_1_234
10
11.4851399
20
102.9741349
40
0.1105176
50
179.9429482
51
185.0960898
0
LINE
8
DEFAULT_255_1_234
10
12.3263833
20
102.1485823
11
12.4669387
21
102.1485823
0
LINE
8
DEFAULT_255_1_234
10
11.7344442
20
102.3011853
11
11.7344442
21
102.3260837
0
LINE
8
DEFAULT_255_1_234
10
12.4669387
20
102.4449534
11
12.3263833
21
102.4449534
0
LINE
8
DEFAULT_255_1_234
10
11.8830313
20
102.3204615
11
11.8830313
21
102.2923504
0
ARC
8
DEFAULT_255_1_234
10
12.1251868
20
102.1939121
40
0.2140268
50
269.0327816
51
309.2224514
0
ARC
8
DEFAULT_255_1_234
10
12.1461623
20
102.1724108
40
0.1841255
50
308.396669
51
329.6984113
0
ARC
8
DEFAULT_255_1_234
10
12.1599478
20
102.161982
40
0.166974
50
330.401383
51
355.3970571
0
ARC
8
DEFAULT_255_1_234
10
12.2056344
20
102.1637082
40
0.2617417
50
329.2357853
51
356.6870514
0
ARC
8
DEFAULT_255_1_234
10
12.1506366
20
102.1927971
40
0.3238945
50
324.8706984
51
329.7905871
0
ARC
8
DEFAULT_255_1_234
10
12.1428084
20
102.1995106
40
0.3341614
50
298.8769168
51
324.7016144
0
ARC
8
DEFAULT_255_1_234
10
12.1096276
20
102.2523917
40
0.3965068
50
296.9023738
51
299.385174
0
ARC
8
DEFAULT_255_1_234
10
12.1225889
20
102.2236422
40
0.365007
50
269.8406811
51
297.1299281
0
ARC
8
DEFAULT_255_1_234
10
12.1172546
20
102.2874407
40
0.4288259
50
253.315473
51
270.5771285
0
ARC
8
DEFAULT_255_1_234
10
12.0925581
20
102.1980739
40
0.3361372
50
221.1002312
51
252.9744583
0
ARC
8
DEFAULT_255_1_234
10
12.1385578
20
102.237559
40
0.3967576
50
194.5394537
51
221.0302238
0
ARC
8
DEFAULT_255_1_234
10
12.3234399
20
102.2890952
40
0.5886672
50
182.0499201
51
194.8773585
0
ARC
8
DEFAULT_255_1_234
10
12.5004597
20
102.300906
40
0.7660157
50
179.9791086
51
182.4591564
0
ARC
8
DEFAULT_255_1_234
10
12.3266642
20
102.3290498
40
0.5922274
50
168.614861
51
180.2869651
0
ARC
8
DEFAULT_255_1_234
10
12.2064786
20
102.3526269
40
0.4697532
50
154.9162259
51
168.5402336
0
ARC
8
DEFAULT_255_1_234
10
12.1143294
20
102.398163
40
0.3669966
50
133.5746694
51
155.2558665
0
ARC
8
DEFAULT_255_1_234
10
12.0980453
20
102.4120467
40
0.3457206
50
122.0165146
51
133.2055214
0
ARC
8
DEFAULT_255_1_234
10
12.1016292
20
102.4032361
40
0.355095
50
97.8731644
51
121.7531281
0
ARC
8
DEFAULT_255_1_234
10
12.1195374
20
102.2975159
40
0.4622833
50
89.8471353
51
98.2769494
0
ARC
8
DEFAULT_255_1_234
10
12.1244127
20
102.3585091
40
0.401305
50
73.3760412
51
90.5199766
0
ARC
8
DEFAULT_255_1_234
10
12.144049
20
102.4307516
40
0.3264695
50
47.7085968
51
73.0509704
0
ARC
8
DEFAULT_255_1_234
10
12.157036
20
102.4420128
40
0.309407
50
3.7443473
51
48.0843753
0
ARC
8
DEFAULT_255_1_234
10
12.058331
20
102.4262614
40
0.4090351
50
2.6192045
51
5.0432185
0
ARC
8
DEFAULT_255_1_234
10
12.1040163
20
102.4302592
40
0.2228519
50
3.780656
51
23.9356886
0
ARC
8
DEFAULT_255_1_234
10
12.1268779
20
102.4383155
40
0.198697
50
24.4869552
51
46.9440088
0
ARC
8
DEFAULT_255_1_234
10
12.126963
20
102.4406484
40
0.1969404
50
46.498716
51
89.3298174
0
ARC
8
DEFAULT_255_1_234
10
12.1207984
20
102.3811723
40
0.2565428
50
88.1083975
51
90.0061569
0
ARC
8
DEFAULT_255_1_234
10
12.1180414
20
102.3865759
40
0.251154
50
89.3773333
51
107.2071161
0
ARC
8
DEFAULT_255_1_234
10
12.1037537
20
102.438319
40
0.1975072
50
107.6883219
51
143.3583002
0
ARC
8
DEFAULT_255_1_234
10
12.160492
20
102.3956873
40
0.2684762
50
143.2846717
51
162.935323
0
ARC
8
DEFAULT_255_1_234
10
12.3110522
20
102.3473652
40
0.4265927
50
162.6650068
51
174.0805419
0
ARC
8
DEFAULT_255_1_234
10
12.5253361
20
102.3224636
40
0.6423078
50
173.8423985
51
180.1785963
0
ARC
8
DEFAULT_255_1_234
10
12.4705461
20
102.2893039
40
0.5875227
50
179.7028978
51
188.2277152
0
ARC
8
DEFAULT_255_1_234
10
12.2603763
20
102.2578247
40
0.3750127
50
188.0629871
51
201.1160002
0
ARC
8
DEFAULT_255_1_234
10
12.1505961
20
102.2159238
40
0.2575093
50
201.2187293
51
216.9761968
0
ARC
8
DEFAULT_255_1_234
10
12.1054524
20
102.1820993
40
0.2010998
50
217.0135981
51
265.2056839
0
ARC
8
DEFAULT_255_1_234
10
12.1210384
20
102.2742695
40
0.2943543
50
263.681807
51
270.104251
0
LINE
8
DEFAULT_255_1_234
10
13.0540588
20
102.7485531
11
13.0540588
21
102.6104072
0
LINE
8
DEFAULT_255_1_234
10
12.782586
20
102.4915375
11
12.782586
21
101.8747
0
LINE
8
DEFAULT_255_1_234
10
12.782586
20
101.8747
11
12.6339989
21
101.8747
0
LINE
8
DEFAULT_255_1_234
10
12.6339989
20
101.8747
11
12.6339989
21
102.7437341
0
LINE
8
DEFAULT_255_1_234
10
12.6339989
20
102.7437341
11
12.7785702
21
102.7437341
0
LINE
8
DEFAULT_255_1_234
10
12.7785702
20
102.7437341
11
12.7809797
21
102.6433374
0
ARC
8
DEFAULT_255_1_234
10
12.9873993
20
102.2044342
40
0.4114092
50
80.6754243
51
86.8932892
0
ARC
8
DEFAULT_255_1_234
10
12.9813528
20
102.10767
40
0.5083596
50
86.8038578
51
90.0431435
0
ARC
8
DEFAULT_255_1_234
10
12.9776509
20
102.3533866
40
0.2626638
50
89.2759698
51
106.6213787
0
ARC
8
DEFAULT_255_1_234
10
12.9572072
20
102.427683
40
0.1856317
50
107.1346045
51
157.6458115
0
ARC
8
DEFAULT_255_1_234
10
13.0263674
20
102.3893311
40
0.2643398
50
155.6586782
51
157.2539184
0
ARC
8
DEFAULT_255_1_234
10
13.0058876
20
102.5062157
40
0.2634121
50
127.8165941
51
148.6302098
0
ARC
8
DEFAULT_255_1_234
10
12.9805345
20
102.5322218
40
0.2273596
50
91.3329982
51
126.7875809
0
ARC
8
DEFAULT_255_1_234
10
12.9881286
20
102.4607195
40
0.299078
50
89.986594
51
92.4688449
0
ARC
8
DEFAULT_255_1_234
10
12.9889681
20
102.4882078
40
0.2715908
50
85.3589899
51
90.1623399
0
ARC
8
DEFAULT_255_1_234
10
12.9974196
20
102.5886164
40
0.1708278
50
78.401942
51
85.4594656
0
ARC
8
DEFAULT_255_1_234
10
13.011908
20
102.6577236
40
0.1002194
50
67.7858312
51
78.5728455
0
ARC
8
DEFAULT_255_1_234
10
13.0226933
20
102.6856887
40
0.0702548
50
63.4835954
51
67.3062642
0
LINE
8
DEFAULT_255_1_234
10
13.1351793
20
102.3068075
11
13.1351793
21
102.3172488
0
LINE
8
DEFAULT_255_1_234
10
13.9263056
20
102.3100202
11
13.9263056
21
102.299579
0
ARC
8
DEFAULT_255_1_234
10
13.6937973
20
102.3204837
40
0.5586273
50
166.3003825
51
180.3317926
0
ARC
8
DEFAULT_255_1_234
10
13.6075132
20
102.3397964
40
0.4702272
50
153.8608245
51
166.0967125
0
ARC
8
DEFAULT_255_1_234
10
13.5409535
20
102.375475
40
0.3947658
50
135.1316692
51
154.253643
0
ARC
8
DEFAULT_255_1_234
10
13.5131094
20
102.4000666
40
0.3576898
50
121.7044358
51
134.776924
0
ARC
8
DEFAULT_255_1_234
10
13.5198088
20
102.3871867
40
0.3721701
50
93.4002104
51
121.5398234
0
ARC
8
DEFAULT_255_1_234
10
13.5293044
20
102.3046228
40
0.4551749
50
89.9706281
51
93.9769836
0
ARC
8
DEFAULT_255_1_234
10
13.5340136
20
102.3436362
40
0.4161854
50
71.3323442
51
90.6161982
0
ARC
8
DEFAULT_255_1_234
10
13.5502832
20
102.4038578
40
0.3539455
50
41.1815071
51
70.707185
0
ARC
8
DEFAULT_255_1_234
10
13.5025232
20
102.3604919
40
0.4184468
50
12.1971897
51
41.3445735
0
ARC
8
DEFAULT_255_1_234
10
13.309924
20
102.3146425
40
0.616399
50
359.5703439
51
12.5804035
0
ARC
8
DEFAULT_255_1_234
10
13.3572315
20
102.2964116
40
0.5690829
50
347.0197749
51
0.3188898
0
ARC
8
DEFAULT_255_1_234
10
13.4530817
20
102.2757808
40
0.4710501
50
334.3504053
51
346.846361
0
ARC
8
DEFAULT_255_1_234
10
13.537624
20
102.2318805
40
0.3758475
50
310.422922
51
334.8045033
0
ARC
8
DEFAULT_255_1_234
10
13.5458066
20
102.2254782
40
0.3656736
50
301.8486886
51
310.097356
0
ARC
8
DEFAULT_255_1_234
10
13.5425792
20
102.2330638
40
0.3738224
50
274.307774
51
301.655379
0
ARC
8
DEFAULT_255_1_234
10
13.5315099
20
102.3208361
40
0.4621997
50
269.9546461
51
274.8588071
0
ARC
8
DEFAULT_255_1_234
10
13.5266033
20
102.2707249
40
0.4121134
50
250.888809
51
270.631312
0
ARC
8
DEFAULT_255_1_234
10
13.5115953
20
102.2148277
40
0.3544073
50
221.1701932
51
250.2227191
0
ARC
8
DEFAULT_255_1_234
10
13.5600107
20
102.2589439
40
0.4198961
50
191.6263638
51
221.3526367
0
ARC
8
DEFAULT_255_1_234
10
13.7488103
20
102.3026329
40
0.6136451
50
179.610213
51
192.0693181
0
ARC
8
DEFAULT_255_1_234
10
13.7911331
20
102.2963633
40
0.5065736
50
179.636298
51
190.6162791
0
ARC
8
DEFAULT_255_1_234
10
13.6268999
20
102.264359
40
0.3392576
50
190.4136628
51
208.7170242
0
ARC
8
DEFAULT_255_1_234
10
13.5758623
20
102.2390366
40
0.2823401
50
209.1867941
51
217.4225593
0
ARC
8
DEFAULT_255_1_234
10
13.5229457
20
102.1924558
40
0.2120636
50
216.1156896
51
265.2575835
0
ARC
8
DEFAULT_255_1_234
10
13.5308606
20
102.2498109
40
0.2698952
50
264.5897417
51
270.0601757
0
ARC
8
DEFAULT_255_1_234
10
13.5341666
20
102.2118185
40
0.2319225
50
269.2532621
51
291.8792492
0
ARC
8
DEFAULT_255_1_234
10
13.5370888
20
102.1940238
40
0.2143562
50
292.9269754
51
323.1776747
0
ARC
8
DEFAULT_255_1_234
10
13.497771
20
102.2288452
40
0.2667346
50
322.2518483
51
323.0930371
0
ARC
8
DEFAULT_255_1_234
10
13.4683369
20
102.246999
40
0.3011886
50
323.6941278
51
343.8493282
0
ARC
8
DEFAULT_255_1_234
10
13.3104912
20
102.295035
40
0.4661719
50
343.5748474
51
355.0079071
0
ARC
8
DEFAULT_255_1_234
10
13.1097157
20
102.3158424
40
0.6680042
50
354.7285225
51
0.1206288
0
ARC
8
DEFAULT_255_1_234
10
13.2865623
20
102.3204751
40
0.4911667
50
359.623636
51
11.2015604
0
ARC
8
DEFAULT_255_1_234
10
13.4399851
20
102.352064
40
0.3345323
50
10.9989411
51
30.8319188
0
ARC
8
DEFAULT_255_1_234
10
13.4795723
20
102.3729297
40
0.2898553
50
31.3008956
51
37.3959224
0
ARC
8
DEFAULT_255_1_234
10
13.5292302
20
102.4148653
40
0.2249582
50
36.5915954
51
62.2442953
0
ARC
8
DEFAULT_255_1_234
10
13.5338755
20
102.4145602
40
0.2231053
50
63.3365542
51
89.7195421
0
ARC
8
DEFAULT_255_1_234
10
13.5295609
20
102.3576884
40
0.2800267
50
88.8936788
51
90.0047485
0
ARC
8
DEFAULT_255_1_234
10
13.5263968
20
102.4149787
40
0.2227586
50
89.1921125
51
114.7099455
0
ARC
8
DEFAULT_255_1_234
10
13.5292732
20
102.4187628
40
0.2205633
50
115.7997161
51
142.2900762
0
ARC
8
DEFAULT_255_1_234
10
13.5731465
20
102.3797658
40
0.2791541
50
141.4658779
51
142.3795754
0
ARC
8
DEFAULT_255_1_234
10
13.5840369
20
102.3754557
40
0.2904292
50
143.0175714
51
163.234115
0
ARC
8
DEFAULT_255_1_234
10
13.7418542
20
102.3255054
40
0.4559523
50
162.9447461
51
174.3732162
0
ARC
8
DEFAULT_255_1_234
10
13.9564356
20
102.3014143
40
0.6718682
50
174.1228657
51
180.1565175
0
LINE
8
DEFAULT_255_1_234
10
15.2041551
20
102.5413343
11
15.2041551
21
102.415236
0
LINE
8
DEFAULT_255_1_234
10
15.2041551
20
102.415236
11
14.6973524
21
102.415236
0
LINE
8
DEFAULT_255_1_234
10
14.6973524
20
102.415236
11
14.6973524
21
102.0007983
0
LINE
8
DEFAULT_255_1_234
10
14.6973524
20
102.0007983
11
15.2860789
21
102.0007983
0
LINE
8
DEFAULT_255_1_234
10
15.2860789
20
102.0007983
11
15.2860789
21
101.8747
0
LINE
8
DEFAULT_255_1_234
10
15.2860789
20
101.8747
11
14.5431431
21
101.8747
0
LINE
8
DEFAULT_255_1_234
10
14.5431431
20
101.8747
11
14.5431431
21
103.0441211
0
LINE
8
DEFAULT_255_1_234
10
14.5431431
20
103.0441211
11
15.2780471
21
103.0441211
0
LINE
8
DEFAULT_255_1_234
10
15.2780471
20
103.0441211
11
15.2780471
21
102.9172196
0
LINE
8
DEFAULT_255_1_234
10
15.2780471
20
102.9172196
11
14.6973524
21
102.9172196
0
LINE
8
DEFAULT_255_1_234
10
14.6973524
20
102.9172196
11
14.6973524
21
102.5413343
0
LINE
8
DEFAULT_255_1_234
10
14.6973524
20
102.5413343
11
15.2041551
21
102.5413343
0
LINE
8
DEFAULT_255_1_234
10
16.3767889
20
103.0441211
11
16.3767889
21
101.8747
0
LINE
8
DEFAULT_255_1_234
10
16.3767889
20
101.8747
11
16.2217764
21
101.8747
0
LINE
8
DEFAULT_255_1_234
10
16.2217764
20
101.8747
11
16.2217764
21
102.415236
0
LINE
8
DEFAULT_255_1_234
10
16.2217764
20
102.415236
11
15.6322468
21
102.415236
0
LINE
8
DEFAULT_255_1_234
10
15.6322468
20
102.415236
11
15.6322468
21
101.8747
0
LINE
8
DEFAULT_255_1_234
10
15.6322468
20
101.8747
11
15.4780374
21
101.8747
0
LINE
8
DEFAULT_255_1_234
10
15.4780374
20
101.8747
11
15.4780374
21
103.0441211
0
LINE
8
DEFAULT_255_1_234
10
15.4780374
20
103.0441211
11
15.6322468
21
103.0441211
0
LINE
8
DEFAULT_255_1_234
10
15.6322468
20
103.0441211
11
15.6322468
21
102.5413343
0
LINE
8
DEFAULT_255_1_234
10
15.6322468
20
102.5413343
11
16.2217764
21
102.5413343
0
LINE
8
DEFAULT_255_1_234
10
16.2217764
20
102.5413343
11
16.2217764
21
103.0441211
0
LINE
8
DEFAULT_255_1_234
10
16.2217764
20
103.0441211
11
16.3767889
21
103.0441211
0
LINE
8
DEFAULT_255_1_234
10
16.705287
20
103.0441211
11
17.037801
21
102.0795093
0
LINE
8
DEFAULT_255_1_234
10
17.037801
20
102.0795093
11
17.3719213
21
103.0441211
0
LINE
8
DEFAULT_255_1_234
10
17.3719213
20
103.0441211
11
17.5405878
21
103.0441211
0
LINE
8
DEFAULT_255_1_234
10
17.5405878
20
103.0441211
11
17.1068739
21
101.8747
0
LINE
8
DEFAULT_255_1_234
10
17.1068739
20
101.8747
11
16.9703344
21
101.8747
0
LINE
8
DEFAULT_255_1_234
10
16.9703344
20
101.8747
11
16.5374237
21
103.0441211
0
LINE
8
DEFAULT_255_1_234
10
16.5374237
20
103.0441211
11
16.705287
21
103.0441211
0
LINE
8
DEFAULT_255_1_234
10
18.0995968
20
102.8433276
11
18.0995968
21
102.5019788
0
LINE
8
DEFAULT_255_1_234
10
18.0995968
20
102.5019788
11
18.4256854
21
102.5019788
0
LINE
8
DEFAULT_255_1_234
10
18.4256854
20
102.5019788
11
18.4256854
21
102.3614233
0
LINE
8
DEFAULT_255_1_234
10
18.4256854
20
102.3614233
11
18.0995968
21
102.3614233
0
LINE
8
DEFAULT_255_1_234
10
18.0995968
20
102.3614233
11
18.0995968
21
101.9919634
0
LINE
8
DEFAULT_255_1_234
10
18.0995968
20
101.9919634
11
17.9502064
21
101.9919634
0
LINE
8
DEFAULT_255_1_234
10
17.9502064
20
101.9919634
11
17.9502064
21
102.3614233
0
LINE
8
DEFAULT_255_1_234
10
17.9502064
20
102.3614233
11
17.6241179
21
102.3614233
0
LINE
8
DEFAULT_255_1_234
10
17.6241179
20
102.3614233
11
17.6241179
21
102.5019788
0
LINE
8
DEFAULT_255_1_234
10
17.6241179
20
102.5019788
11
17.9502064
21
102.5019788
0
LINE
8
DEFAULT_255_1_234
10
17.9502064
20
102.5019788
11
17.9502064
21
102.8433276
0
LINE
8
DEFAULT_255_1_234
10
17.9502064
20
102.8433276
11
18.0995968
21
102.8433276
0
LINE
8
DEFAULT_255_2_778
10
9.3932417
20
92.4719078
11
10.7161417
21
92.4719078
0
LINE
8
DEFAULT_255_2_778
10
10.7161417
20
92.4719078
11
10.7161417
21
51.4615078
0
LINE
8
DEFAULT_255_2_778
10
9.3932834
20
51.4614333
11
12.0390834
21
51.4614333
0
LINE
8
DEFAULT_255_2_778
10
12.0390834
20
51.4614333
11
12.0390834
21
46.1697333
0
LINE
8
DEFAULT_255_2_778
10
12.0390834
20
46.1697333
11
9.3932834
21
46.1697333
0
LINE
8
DEFAULT_255_2_778
10
9.3932834
20
46.1697333
11
9.3932834
21
51.4614333
0
ARC
8
DEFAULT_255_2_778_1
10
13.1928591
20
46.272177
40
4.816461
50
120.9442904
51
122.351755
0
ARC
8
DEFAULT_255_2_778_1
10
12.7462523
20
46.9758039
40
3.9830657
50
122.3407904
51
124.1946752
0
ARC
8
DEFAULT_255_2_778_1
10
12.3063464
20
47.6223306
40
3.2010724
50
124.1855758
51
126.4338849
0
ARC
8
DEFAULT_255_2_778_1
10
11.9204129
20
48.1450611
40
2.5513094
50
126.4326926
51
128.8877368
0
ARC
8
DEFAULT_255_2_778_1
10
11.5855968
20
48.5594658
40
2.0185498
50
128.8749205
51
131.8726567
0
ARC
8
DEFAULT_255_2_778_1
10
11.2884677
20
48.8904854
40
1.5737356
50
131.8616166
51
135.4168838
0
ARC
8
DEFAULT_255_2_778_1
10
11.025668
20
49.1486765
40
1.2053256
50
135.3893975
51
139.9687014
0
ARC
8
DEFAULT_255_2_778_1
10
10.7927889
20
49.3435102
40
0.9016937
50
139.9301659
51
145.9260426
0
ARC
8
DEFAULT_255_2_778_1
10
10.596654
20
49.4755104
40
0.6652776
50
145.8787362
51
153.8146208
0
ARC
8
DEFAULT_255_2_778_1
10
10.4445553
20
49.5498797
40
0.4959714
50
153.770634
51
164.3484794
0
ARC
8
DEFAULT_255_2_778_1
10
10.3432387
20
49.5780786
40
0.3908039
50
164.3220276
51
179.8083066
0
ARC
8
DEFAULT_255_2_778_1
10
10.3642789
20
49.586215
40
0.4118985
50
180.9499449
51
213.8111542
0
ARC
8
DEFAULT_255_2_778_1
10
10.6401828
20
49.7557896
40
0.73561
50
212.8271214
51
224.258472
0
ARC
8
DEFAULT_255_2_778_1
10
11.0230335
20
50.1251236
40
1.267567
50
224.1376218
51
231.4508261
0
ARC
8
DEFAULT_255_2_778_1
10
11.6657195
20
50.9281168
40
2.2960809
50
231.3955893
51
236.1256478
0
ARC
8
DEFAULT_255_2_778_1
10
13.4980223
20
53.6746293
40
5.5976905
50
236.2233172
51
239.1314682
0
ARC
8
DEFAULT_255_2_778_1
10
25.447927
20
73.4023568
40
28.6623793
50
238.8606853
51
239.0711101
0
ARC
8
DEFAULT_255_2_778_1
10
6.2757281
20
41.3052653
40
8.7248518
50
57.2420924
51
59.4062964
0
ARC
8
DEFAULT_255_2_778_1
10
9.5034241
20
46.3362102
40
2.747542
50
52.8289294
51
57.079028
0
ARC
8
DEFAULT_255_2_778_1
10
10.2780783
20
47.3565488
40
1.466457
50
46.3041868
51
52.8596521
0
ARC
8
DEFAULT_255_2_778_1
10
10.7103073
20
47.8066842
40
0.8424061
50
36.2174211
51
46.4090895
0
ARC
8
DEFAULT_255_2_778_1
10
10.9948088
20
48.0115128
40
0.4918609
50
17.400375
51
36.5489745
0
ARC
8
DEFAULT_255_2_778_1
10
11.1088994
20
48.0513754
40
0.3710912
50
0.0676858
51
16.7951297
0
ARC
8
DEFAULT_255_2_778_1
10
11.0878613
20
48.0532428
40
0.3921317
50
343.8035191
51
359.7912046
0
ARC
8
DEFAULT_255_2_778_1
10
10.9815912
20
48.0837167
40
0.5026844
50
333.2506233
51
343.8465691
0
ARC
8
DEFAULT_255_2_778_1
10
10.8277757
20
48.1604313
40
0.6745679
50
325.6600948
51
333.3122657
0
ARC
8
DEFAULT_255_2_778_1
10
10.6323344
20
48.2932296
40
0.9108568
50
319.7560915
51
325.6976089
0
ARC
8
DEFAULT_255_2_778_1
10
10.404199
20
48.4850002
40
1.2088854
50
315.4577584
51
319.8037947
0
ARC
8
DEFAULT_255_2_778_1
10
10.1408127
20
48.7438507
40
1.5781764
50
311.7298824
51
315.4670864
0
ARC
8
DEFAULT_255_2_778_1
10
9.8317879
20
49.0894074
40
2.0417554
50
308.723055
51
311.7470879
0
ARC
8
DEFAULT_255_2_778_1
10
9.477589
20
49.5306492
40
2.6075745
50
306.1165163
51
308.7300151
0
ARC
8
DEFAULT_255_2_778_1
10
9.0746091
20
50.0819523
40
3.2904564
50
303.9559446
51
306.1266333
0
ARC
8
DEFAULT_255_2_778_1
10
8.6630432
20
50.691215
40
4.0257023
50
302.3733397
51
303.9712246
0
ARC
8
DEFAULT_255_2_778_1
10
8.2434347
20
51.3527058
40
4.8090549
50
300.9434827
51
302.3758078
0
LINE
8
DEFAULT_255_2_778
10
10.7161417
20
46.1698078
11
10.7161417
21
5.1594078
0
LINE
8
DEFAULT_255_2_778
10
10.7161417
20
5.1594078
11
9.3932417
21
5.1594078
0
LINE
8
DEFAULT_255_1_234
10
5.0024293
20
99.8904
11
4.8907881
21
100.1956061
0
LINE
8
DEFAULT_255_1_234
10
4.8907881
20
100.1956061
11
4.4008521
21
100.1956061
0
LINE
8
DEFAULT_255_1_234
10
4.4008521
20
100.1956061
11
4.2908173
21
99.8904
0
LINE
8
DEFAULT_255_1_234
10
4.2908173
20
99.8904
11
4.1317889
21
99.8904
0
LINE
8
DEFAULT_255_1_234
10
4.1317889
20
99.8904
11
4.5783535
21
101.0598211
0
LINE
8
DEFAULT_255_1_234
10
4.5783535
20
101.0598211
11
4.7132867
21
101.0598211
0
LINE
8
DEFAULT_255_1_234
10
4.7132867
20
101.0598211
11
5.1606545
21
99.8904
0
LINE
8
DEFAULT_255_1_234
10
5.1606545
20
99.8904
11
5.0024293
21
99.8904
0
LINE
8
DEFAULT_255_1_234
10
4.6458201
20
100.8694689
11
4.4474362
21
100.3225075
0
LINE
8
DEFAULT_255_1_234
10
4.4474362
20
100.3225075
11
4.8450072
21
100.3225075
0
LINE
8
DEFAULT_255_1_234
10
4.8450072
20
100.3225075
11
4.6458201
21
100.8694689
0
LINE
8
DEFAULT_255_1_234
10
6.0144283
20
100.2614663
11
6.1694409
21
100.2614663
0
LINE
8
DEFAULT_255_1_234
10
5.269083
20
100.4204947
11
5.269083
21
100.5329391
0
LINE
8
DEFAULT_255_1_234
10
6.1694409
20
100.6839357
11
6.0144283
21
100.6839357
0
LINE
8
DEFAULT_255_1_234
10
5.4240956
20
100.5289232
11
5.4240956
21
100.4156757
0
ARC
8
DEFAULT_255_1_234
10
5.6213796
20
100.3211846
40
0.5513052
50
340.1774281
51
353.7814284
0
ARC
8
DEFAULT_255_1_234
10
5.7785148
20
100.2626582
40
0.3836379
50
311.4558989
51
340.4421614
0
ARC
8
DEFAULT_255_1_234
10
5.7751816
20
100.2737528
40
0.3941894
50
282.4333181
51
310.7513653
0
ARC
8
DEFAULT_255_1_234
10
5.7312555
20
100.4552679
40
0.5809175
50
269.9358511
51
282.809604
0
ARC
8
DEFAULT_255_1_234
10
5.7260622
20
100.6010212
40
0.7266847
50
270.0021091
51
270.3581957
0
ARC
8
DEFAULT_255_1_234
10
5.7208039
20
100.3409585
40
0.4666519
50
250.7884749
51
270.6489167
0
ARC
8
DEFAULT_255_1_234
10
5.7039873
20
100.2772319
40
0.4009729
50
219.3627325
51
250.0611886
0
ARC
8
DEFAULT_255_1_234
10
5.7869084
20
100.3477042
40
0.5097822
50
193.5479632
51
219.5756669
0
ARC
8
DEFAULT_255_1_234
10
6.0240705
20
100.4092919
40
0.7547848
50
181.1218675
51
193.87563
0
ARC
8
DEFAULT_255_1_234
10
6.2310886
20
100.420358
40
0.9620055
50
179.9918545
51
181.5394234
0
ARC
8
DEFAULT_255_1_234
10
6.0459988
20
100.5366788
40
0.7769248
50
169.5837241
51
180.2757934
0
ARC
8
DEFAULT_255_1_234
10
5.8622926
20
100.5706229
40
0.590109
50
155.0365899
51
169.6003176
0
ARC
8
DEFAULT_255_1_234
10
5.748739
20
100.6253677
40
0.4640625
50
136.783148
51
155.2472683
0
ARC
8
DEFAULT_255_1_234
10
5.7097867
20
100.6584562
40
0.4130255
50
121.7633186
51
136.428115
0
ARC
8
DEFAULT_255_1_234
10
5.7232829
20
100.6335227
40
0.4413323
50
95.6459699
51
121.5490577
0
ARC
8
DEFAULT_255_1_234
10
5.7390111
20
100.5226949
40
0.55319
50
89.924208
51
96.1377933
0
ARC
8
DEFAULT_255_1_234
10
5.7440544
20
100.5345542
40
0.5413475
50
76.6779277
51
90.4563316
0
ARC
8
DEFAULT_255_1_234
10
5.7834167
20
100.6936114
40
0.3775041
50
47.485847
51
76.9287264
0
ARC
8
DEFAULT_255_1_234
10
5.768714
20
100.6836159
40
0.3948286
50
16.5424086
51
46.8933463
0
ARC
8
DEFAULT_255_1_234
10
5.6079297
20
100.6307861
40
0.564021
50
5.4072051
51
17.0365086
0
ARC
8
DEFAULT_255_1_234
10
5.4640314
20
100.6076679
40
0.5556559
50
7.8891745
51
15.9239216
0
ARC
8
DEFAULT_255_1_234
10
5.6627328
20
100.6653631
40
0.3487515
50
15.7653144
51
27.9410532
0
ARC
8
DEFAULT_255_1_234
10
5.7731546
20
100.724479
40
0.2235026
50
27.8166557
51
46.4008329
0
ARC
8
DEFAULT_255_1_234
10
5.7781188
20
100.7239082
40
0.2205286
50
47.4371857
51
75.0698205
0
ARC
8
DEFAULT_255_1_234
10
5.7472583
20
100.6164765
40
0.3322915
50
74.7008593
51
87.8124495
0
ARC
8
DEFAULT_255_1_234
10
5.739927
20
100.5108844
40
0.4380987
50
87.3814673
51
90.0240855
0
ARC
8
DEFAULT_255_1_234
10
5.7360814
20
100.6286291
40
0.3203749
50
89.3451631
51
108.5745436
0
ARC
8
DEFAULT_255_1_234
10
5.7223919
20
100.6799908
40
0.2673494
50
109.2998449
51
143.3037509
0
ARC
8
DEFAULT_255_1_234
10
5.7985992
20
100.6213881
40
0.3634757
50
143.0753173
51
163.1916937
0
ARC
8
DEFAULT_255_1_234
10
5.9937719
20
100.5597967
40
0.5681262
50
162.9373603
51
174.6208611
0
ARC
8
DEFAULT_255_1_234
10
6.2563761
20
100.531001
40
0.8322832
50
174.3419979
51
180.1430411
0
ARC
8
DEFAULT_255_1_234
10
6.1632918
20
100.4115698
40
0.7392076
50
179.6817502
51
189.150529
0
ARC
8
DEFAULT_255_1_234
10
5.9132166
20
100.369919
40
0.4856932
50
188.9910863
51
203.5773039
0
ARC
8
DEFAULT_255_1_234
10
5.8052498
20
100.3251211
40
0.3688271
50
203.9077269
51
215.1312379
0
ARC
8
DEFAULT_255_1_234
10
5.7129592
20
100.2535941
40
0.2522457
50
213.9071664
51
263.8849284
0
ARC
8
DEFAULT_255_1_234
10
5.7254921
20
100.3320518
40
0.3316174
50
263.1758525
51
270.1031083
0
ARC
8
DEFAULT_255_1_234
10
5.7287013
20
100.4567365
40
0.4563091
50
269.6719807
51
279.0609165
0
ARC
8
DEFAULT_255_1_234
10
5.7553781
20
100.2954907
40
0.2928759
50
278.8750225
51
293.6346586
0
ARC
8
DEFAULT_255_1_234
10
5.7873989
20
100.22029
40
0.2111472
50
293.8553404
51
310.0518804
0
ARC
8
DEFAULT_255_1_234
10
5.7878843
20
100.2140516
40
0.2060917
50
311.0646779
51
332.0108348
0
ARC
8
DEFAULT_255_1_234
10
5.668657
20
100.2797978
40
0.3422352
50
331.6588543
51
343.2878891
0
ARC
8
DEFAULT_255_1_234
10
5.4624085
20
100.3431798
40
0.5580003
50
343.1446044
51
351.010618
0
ARC
8
DEFAULT_255_1_234
10
5.3082731
20
100.3712871
40
0.7146438
50
350.7157277
51
351.1602153
0
LINE
8
DEFAULT_255_1_234
10
4.3660902
20
5.8098211
11
4.3660902
21
4.6404
0
LINE
8
DEFAULT_255_1_234
10
4.3660902
20
4.6404
11
4.2118808
21
4.6404
0
LINE
8
DEFAULT_255_1_234
10
4.2118808
20
4.6404
11
4.2118808
21
5.8098211
0
LINE
8
DEFAULT_255_1_234
10
4.2118808
20
5.8098211
11
4.3660902
21
5.8098211
0
LINE
8
DEFAULT_255_1_234
10
5.5467557
20
5.8098211
11
5.5467557
21
4.6404
0
LINE
8
DEFAULT_255_1_234
10
5.5467557
20
4.6404
11
5.3917432
21
4.6404
0
LINE
8
DEFAULT_255_1_234
10
5.3917432
20
4.6404
11
4.8030167
21
5.541561
0
LINE
8
DEFAULT_255_1_234
10
4.8030167
20
5.541561
11
4.8030167
21
4.6404
0
LINE
8
DEFAULT_255_1_234
10
4.8030167
20
4.6404
11
4.6480042
21
4.6404
0
LINE
8
DEFAULT_255_1_234
10
4.6480042
20
4.6404
11
4.6480042
21
5.8098211
0
LINE
8
DEFAULT_255_1_234
10
4.6480042
20
5.8098211
11
4.8030167
21
5.8098211
0
LINE
8
DEFAULT_255_1_234
10
4.8030167
20
5.8098211
11
5.3933495
21
4.9046442
0
LINE
8
DEFAULT_255_1_234
10
5.3933495
20
4.9046442
11
5.3933495
21
5.8098211
0
LINE
8
DEFAULT_255_1_234
10
5.3933495
20
5.8098211
11
5.5467557
21
5.8098211
0
LINE
8
DEFAULT_255_1_234
10
6.4093644
20
5.8098211
11
6.4093644
21
5.033152
0
LINE
8
DEFAULT_255_1_234
10
6.4093644
20
5.033152
11
6.5716055
21
5.033152
0
LINE
8
DEFAULT_255_1_234
10
6.5716055
20
5.033152
11
6.5716055
21
4.9118728
0
LINE
8
DEFAULT_255_1_234
10
6.5716055
20
4.9118728
11
6.4093644
21
4.9118728
0
LINE
8
DEFAULT_255_1_234
10
6.4093644
20
4.9118728
11
6.4093644
21
4.6404
0
LINE
8
DEFAULT_255_1_234
10
6.4093644
20
4.6404
11
6.2599741
21
4.6404
0
LINE
8
DEFAULT_255_1_234
10
6.2599741
20
4.6404
11
6.2599741
21
4.9118728
0
LINE
8
DEFAULT_255_1_234
10
6.2599741
20
4.9118728
11
5.7274698
21
4.9118728
0
LINE
8
DEFAULT_255_1_234
10
5.7274698
20
4.9118728
11
5.7274698
21
4.9994187
0
LINE
8
DEFAULT_255_1_234
10
5.7274698
20
4.9994187
11
6.2511392
21
5.8098211
0
LINE
8
DEFAULT_255_1_234
10
6.2511392
20
5.8098211
11
6.4093644
21
5.8098211
0
LINE
8
DEFAULT_255_1_234
10
6.2423042
20
5.5744912
11
5.8961363
21
5.033152
0
LINE
8
DEFAULT_255_1_234
10
5.8961363
20
5.033152
11
6.2599741
21
5.033152
0
LINE
8
DEFAULT_255_1_234
10
6.2599741
20
5.033152
11
6.2599741
21
5.6066181
0
LINE
8
DEFAULT_255_1_234
10
6.2599741
20
5.6066181
11
6.2423042
21
5.5744912
0
LINE
8
DEFAULT_255_1_234
10
7.4567031
20
5.0781297
11
7.4567031
21
5.065279
0
LINE
8
DEFAULT_255_1_234
10
6.864764
20
4.7407967
11
6.8575354
21
4.6404
0
LINE
8
DEFAULT_255_1_234
10
6.8575354
20
4.6404
11
6.7209958
21
4.6404
0
LINE
8
DEFAULT_255_1_234
10
6.7209958
20
4.6404
11
6.7209958
21
5.874075
0
LINE
8
DEFAULT_255_1_234
10
6.7209958
20
5.874075
11
6.869583
21
5.874075
0
LINE
8
DEFAULT_255_1_234
10
6.869583
20
5.874075
11
6.869583
21
5.4138564
0
LINE
8
DEFAULT_255_1_234
10
6.869583
20
5.2628597
11
6.869583
21
4.8869744
0
ARC
8
DEFAULT_255_1_234
10
6.7520306
20
5.0608573
40
0.7046863
50
349.4825105
51
0.3595108
0
ARC
8
DEFAULT_255_1_234
10
6.9797547
20
5.0170022
40
0.4727857
50
331.8602128
51
349.6704139
0
ARC
8
DEFAULT_255_1_234
10
7.0530315
20
4.9813125
40
0.3913503
50
322.8939783
51
331.4081204
0
ARC
8
DEFAULT_255_1_234
10
7.1225713
20
4.9233707
40
0.300965
50
296.7249167
51
323.7044215
0
ARC
8
DEFAULT_255_1_234
10
7.125561
20
4.9303043
40
0.3058683
50
270.6342811
51
295.6405548
0
ARC
8
DEFAULT_255_1_234
10
7.119392
20
5.0105995
40
0.3862632
50
269.9967524
51
271.4174733
0
ARC
8
DEFAULT_255_1_234
10
7.1155584
20
4.9970686
40
0.3727515
50
253.657532
51
270.5859025
0
ARC
8
DEFAULT_255_1_234
10
7.092469
20
4.9127235
40
0.2853216
50
217.0543181
51
253.3409865
0
ARC
8
DEFAULT_255_1_234
10
7.0991358
20
5.2311052
40
0.2934152
50
93.1931545
51
141.4760602
0
ARC
8
DEFAULT_255_1_234
10
7.1173574
20
5.1078453
40
0.4176524
50
89.9442578
51
94.747309
0
ARC
8
DEFAULT_255_1_234
10
7.1217321
20
5.190141
40
0.3353801
50
70.6103515
51
90.6779749
0
ARC
8
DEFAULT_255_1_234
10
7.1331623
20
5.235689
40
0.2886533
50
36.1152635
51
69.7489296
0
ARC
8
DEFAULT_255_1_234
10
7.0345027
20
5.1603708
40
0.4127561
50
15.4648517
51
36.4891396
0
ARC
8
DEFAULT_255_1_234
10
6.8286714
20
5.1004524
40
0.6271187
50
3.9220813
51
15.7265815
0
ARC
8
DEFAULT_255_1_234
10
6.5927557
20
5.0792325
40
0.863948
50
359.9268643
51
4.2559037
0
ARC
8
DEFAULT_255_1_234
10
6.6741938
20
5.0852103
40
0.6339295
50
359.7230081
51
7.7115859
0
ARC
8
DEFAULT_255_1_234
10
6.9003503
20
5.1168172
40
0.4055784
50
7.5740023
51
19.4151451
0
ARC
8
DEFAULT_255_1_234
10
7.0271142
20
5.1614519
40
0.2711858
50
19.4238354
51
34.9161182
0
ARC
8
DEFAULT_255_1_234
10
7.094188
20
5.2101172
40
0.1883373
50
34.4556322
51
84.4656458
0
ARC
8
DEFAULT_255_1_234
10
7.0813328
20
5.1346057
40
0.2647939
50
83.2727306
51
90.1114621
0
ARC
8
DEFAULT_255_1_234
10
7.0771186
20
5.1544509
40
0.2449763
50
89.1347934
51
111.4089923
0
ARC
8
DEFAULT_255_1_234
10
7.0691736
20
5.1872473
40
0.2115923
50
112.6478598
51
148.9260864
0
ARC
8
DEFAULT_255_1_234
10
7.1469534
20
5.1330985
40
0.3062228
50
147.7597608
51
154.928557
0
ARC
8
DEFAULT_255_1_234
10
7.1209595
20
5.0086379
40
0.2792708
50
205.8264786
51
224.5301003
0
ARC
8
DEFAULT_255_1_234
10
7.0731899
20
4.9659914
40
0.2153317
50
225.354483
51
269.2437579
0
ARC
8
DEFAULT_255_1_234
10
7.0823534
20
5.0466292
40
0.2961942
50
267.6770046
51
270.0136612
0
ARC
8
DEFAULT_255_1_234
10
7.0850885
20
4.9707938
40
0.2203751
50
269.3072485
51
289.499141
0
ARC
8
DEFAULT_255_1_234
10
7.092295
20
4.9411394
40
0.1900415
50
290.4353973
51
325.3766314
0
ARC
8
DEFAULT_255_1_234
10
7.0294172
20
4.9865643
40
0.2675986
50
325.0223901
51
342.692398
0
ARC
8
DEFAULT_255_1_234
10
6.859706
20
5.0417812
40
0.446058
50
342.4062876
51
352.8669243
0
ARC
8
DEFAULT_255_1_234
10
6.5876536
20
5.0774975
40
0.7204419
50
352.7350668
51
359.8556985
0
ARC
8
DEFAULT_255_1_234
10
6.3966231
20
5.0821018
40
0.9114927
50
359.5965197
51
0.0027543
0
LINE
8
DEFAULT_255_1_234
10
4.4202902
20
13.7473211
11
4.4202902
21
12.5779
0
LINE
8
DEFAULT_255_1_234
10
4.4202902
20
12.5779
11
4.2660808
21
12.5779
0
LINE
8
DEFAULT_255_1_234
10
4.2660808
20
12.5779
11
4.2660808
21
13.7473211
0
LINE
8
DEFAULT_255_1_234
10
4.2660808
20
13.7473211
11
4.4202902
21
13.7473211
0
LINE
8
DEFAULT_255_1_234
10
5.6009557
20
13.7473211
11
5.6009557
21
12.5779
0
LINE
8
DEFAULT_255_1_234
10
5.6009557
20
12.5779
11
5.4459432
21
12.5779
0
LINE
8
DEFAULT_255_1_234
10
5.4459432
20
12.5779
11
4.8572167
21
13.479061
0
LINE
8
DEFAULT_255_1_234
10
4.8572167
20
13.479061
11
4.8572167
21
12.5779
0
LINE
8
DEFAULT_255_1_234
10
4.8572167
20
12.5779
11
4.7022042
21
12.5779
0
LINE
8
DEFAULT_255_1_234
10
4.7022042
20
12.5779
11
4.7022042
21
13.7473211
0
LINE
8
DEFAULT_255_1_234
10
4.7022042
20
13.7473211
11
4.8572167
21
13.7473211
0
LINE
8
DEFAULT_255_1_234
10
4.8572167
20
13.7473211
11
5.4475495
21
12.8421442
0
LINE
8
DEFAULT_255_1_234
10
5.4475495
20
12.8421442
11
5.4475495
21
13.7473211
0
LINE
8
DEFAULT_255_1_234
10
5.4475495
20
13.7473211
11
5.6009557
21
13.7473211
0
LINE
8
DEFAULT_255_1_234
10
6.4635644
20
13.7473211
11
6.4635644
21
12.970652
0
LINE
8
DEFAULT_255_1_234
10
6.4635644
20
12.970652
11
6.6258055
21
12.970652
0
LINE
8
DEFAULT_255_1_234
10
6.6258055
20
12.970652
11
6.6258055
21
12.8493728
0
LINE
8
DEFAULT_255_1_234
10
6.6258055
20
12.8493728
11
6.4635644
21
12.8493728
0
LINE
8
DEFAULT_255_1_234
10
6.4635644
20
12.8493728
11
6.4635644
21
12.5779
0
LINE
8
DEFAULT_255_1_234
10
6.4635644
20
12.5779
11
6.3141741
21
12.5779
0
LINE
8
DEFAULT_255_1_234
10
6.3141741
20
12.5779
11
6.3141741
21
12.8493728
0
LINE
8
DEFAULT_255_1_234
10
6.3141741
20
12.8493728
11
5.7816698
21
12.8493728
0
LINE
8
DEFAULT_255_1_234
10
5.7816698
20
12.8493728
11
5.7816698
21
12.9369187
0
LINE
8
DEFAULT_255_1_234
10
5.7816698
20
12.9369187
11
6.3053392
21
13.7473211
0
LINE
8
DEFAULT_255_1_234
10
6.3053392
20
13.7473211
11
6.4635644
21
13.7473211
0
LINE
8
DEFAULT_255_1_234
10
6.2965042
20
13.5119912
11
5.9503363
21
12.970652
0
LINE
8
DEFAULT_255_1_234
10
5.9503363
20
12.970652
11
6.3141741
21
12.970652
0
LINE
8
DEFAULT_255_1_234
10
6.3141741
20
12.970652
11
6.3141741
21
13.5441181
0
LINE
8
DEFAULT_255_1_234
10
6.3141741
20
13.5441181
11
6.2965042
21
13.5119912
0
LINE
8
DEFAULT_255_1_234
10
7.2040907
20
12.5779
11
6.7984879
21
12.5779
0
LINE
8
DEFAULT_255_1_234
10
6.7984879
20
12.5779
11
6.7984879
21
13.7473211
0
LINE
8
DEFAULT_255_1_234
10
6.7984879
20
13.7473211
11
7.1807986
21
13.7473211
0
LINE
8
DEFAULT_255_1_234
10
7.2097129
20
13.1248614
11
6.9526973
21
13.1248614
0
LINE
8
DEFAULT_255_1_234
10
6.9526973
20
13.1248614
11
6.9526973
21
12.7039983
0
LINE
8
DEFAULT_255_1_234
10
6.9526973
20
12.7039983
11
7.2073034
21
12.7039983
0
LINE
8
DEFAULT_255_1_234
10
6.9526973
20
13.6204196
11
6.9526973
21
13.2485501
0
LINE
8
DEFAULT_255_1_234
10
6.9526973
20
13.2485501
11
7.1856177
21
13.2485501
0
LINE
8
DEFAULT_255_1_234
10
7.1807986
20
13.6204196
11
6.9526973
21
13.6204196
0
ARC
8
DEFAULT_255_1_234
10
7.1845695
20
13.0105901
40
0.7367406
50
82.1257326
51
90.2932599
0
ARC
8
DEFAULT_255_1_234
10
7.223465
20
13.2824013
40
0.4621653
50
69.9044149
51
82.2857423
0
ARC
8
DEFAULT_255_1_234
10
7.2805328
20
13.4366637
40
0.2976871
50
51.1838526
51
70.0181538
0
ARC
8
DEFAULT_255_1_234
10
7.3060294
20
13.473724
40
0.2528517
50
12.1017251
51
50.4214761
0
ARC
8
DEFAULT_255_1_234
10
7.1676168
20
13.4389676
40
0.3955061
50
359.5251267
51
12.8211707
0
ARC
8
DEFAULT_255_1_234
10
7.3256094
20
13.4320344
40
0.2375281
50
323.4908128
51
0.8817314
0
ARC
8
DEFAULT_255_1_234
10
7.2837781
20
13.464355
40
0.2903817
50
298.6825083
51
323.2756573
0
ARC
8
DEFAULT_255_1_234
10
7.2476144
20
13.5244649
40
0.3604842
50
293.1999386
51
299.1396394
0
ARC
8
DEFAULT_255_1_234
10
7.3149117
20
12.9159126
40
0.2871098
50
54.0011765
51
74.9167975
0
ARC
8
DEFAULT_255_1_234
10
7.3265476
20
12.9356332
40
0.2643248
50
36.3580696
51
53.5291921
0
ARC
8
DEFAULT_255_1_234
10
7.3138718
20
12.9265998
40
0.2798884
50
4.8189881
51
36.3089977
0
ARC
8
DEFAULT_255_1_234
10
7.2359554
20
12.915627
40
0.358478
50
359.9370252
51
5.5204067
0
ARC
8
DEFAULT_255_1_234
10
7.2035075
20
12.9115667
40
0.3909429
50
344.7478609
51
0.5373281
0
ARC
8
DEFAULT_255_1_234
10
7.3026046
20
12.8848544
40
0.2883093
50
311.1786488
51
344.6886812
0
ARC
8
DEFAULT_255_1_234
10
7.2734093
20
12.9211987
40
0.3348923
50
286.0418249
51
310.8441291
0
ARC
8
DEFAULT_255_1_234
10
7.2226925
20
13.0858807
40
0.5071869
50
274.1042341
51
286.4071509
0
ARC
8
DEFAULT_255_1_234
10
7.2050181
20
13.2742229
40
0.6963234
50
269.9236873
51
274.445647
0
ARC
8
DEFAULT_255_1_234
10
7.2096182
20
13.0402537
40
0.3362634
50
269.6055768
51
281.3740047
0
ARC
8
DEFAULT_255_1_234
10
7.232682
20
12.9309353
40
0.224546
50
281.1055983
51
302.5132223
0
ARC
8
DEFAULT_255_1_234
10
7.2473719
20
12.9045823
40
0.1944357
50
303.0368945
51
311.8811219
0
ARC
8
DEFAULT_255_1_234
10
7.2545126
20
12.896089
40
0.1833454
50
311.9916004
51
351.7143462
0
ARC
8
DEFAULT_255_1_234
10
7.1728356
20
12.912593
40
0.2665871
50
350.7339597
51
0.2221581
0
ARC
8
DEFAULT_255_1_234
10
7.1620802
20
12.9182467
40
0.2773789
50
359.0456241
51
17.2296242
0
ARC
8
DEFAULT_255_1_234
10
7.2659919
20
12.9491163
40
0.1689915
50
17.6685481
51
78.9940892
0
ARC
8
DEFAULT_255_1_234
10
7.2143083
20
12.7636224
40
0.3612658
50
76.5635957
51
90.6980921
0
LINE
8
DEFAULT_255_1_234
10
7.2099067
20
13.1248613
11
7.2097129
21
13.1248614
0
ARC
8
DEFAULT_255_1_234
10
7.1878743
20
13.5771036
40
0.3285612
50
269.6064736
51
281.4533503
0
ARC
8
DEFAULT_255_1_234
10
7.2101563
20
13.4719688
40
0.2210975
50
281.2041486
51
302.5148063
0
ARC
8
DEFAULT_255_1_234
10
7.2238413
20
13.4473241
40
0.1929674
50
303.021671
51
309.8369575
0
ARC
8
DEFAULT_255_1_234
10
7.2421875
20
13.4267488
40
0.1654181
50
309.5228395
51
356.9509836
0
ARC
8
DEFAULT_255_1_234
10
7.1758457
20
13.4362932
40
0.2322512
50
355.4701227
51
0.0492546
0
ARC
8
DEFAULT_255_1_234
10
7.1479548
20
13.4385094
40
0.2601498
50
359.5558597
51
11.2096359
0
ARC
8
DEFAULT_255_1_234
10
7.2436838
20
13.458323
40
0.1623975
50
10.9182341
51
31.3230275
0
ARC
8
DEFAULT_255_1_234
10
7.2722571
20
13.4742214
40
0.1297302
50
31.8852677
51
52.1412565
0
ARC
8
DEFAULT_255_1_234
10
7.2448304
20
13.435475
40
0.1771663
50
52.8285564
51
71.9850297
0
ARC
8
DEFAULT_255_1_234
10
7.2072481
20
13.3248664
40
0.2939794
50
71.6863486
51
82.8455995
0
ARC
8
DEFAULT_255_1_234
10
7.1833016
20
13.1439149
40
0.476506
50
82.6984714
51
90.1729175
0
ARC
8
DEFAULT_255_1_234
10
7.1810651
20
13.2662623
40
0.3541573
50
89.8708275
51
90.0431131
0
LINE
8
DEFAULT_255_1_234
10
4.5033902
20
21.6848211
11
4.5033902
21
20.5154
0
LINE
8
DEFAULT_255_1_234
10
4.5033902
20
20.5154
11
4.3491808
21
20.5154
0
LINE
8
DEFAULT_255_1_234
10
4.3491808
20
20.5154
11
4.3491808
21
21.6848211
0
LINE
8
DEFAULT_255_1_234
10
4.3491808
20
21.6848211
11
4.5033902
21
21.6848211
0
LINE
8
DEFAULT_255_1_234
10
5.6840557
20
21.6848211
11
5.6840557
21
20.5154
0
LINE
8
DEFAULT_255_1_234
10
5.6840557
20
20.5154
11
5.5290432
21
20.5154
0
LINE
8
DEFAULT_255_1_234
10
5.5290432
20
20.5154
11
4.9403167
21
21.416561
0
LINE
8
DEFAULT_255_1_234
10
4.9403167
20
21.416561
11
4.9403167
21
20.5154
0
LINE
8
DEFAULT_255_1_234
10
4.9403167
20
20.5154
11
4.7853042
21
20.5154
0
LINE
8
DEFAULT_255_1_234
10
4.7853042
20
20.5154
11
4.7853042
21
21.6848211
0
LINE
8
DEFAULT_255_1_234
10
4.7853042
20
21.6848211
11
4.9403167
21
21.6848211
0
LINE
8
DEFAULT_255_1_234
10
4.9403167
20
21.6848211
11
5.5306495
21
20.7796442
0
LINE
8
DEFAULT_255_1_234
10
5.5306495
20
20.7796442
11
5.5306495
21
21.6848211
0
LINE
8
DEFAULT_255_1_234
10
5.5306495
20
21.6848211
11
5.6840557
21
21.6848211
0
LINE
8
DEFAULT_255_1_234
10
6.5466644
20
21.6848211
11
6.5466644
21
20.908152
0
LINE
8
DEFAULT_255_1_234
10
6.5466644
20
20.908152
11
6.7089055
21
20.908152
0
LINE
8
DEFAULT_255_1_234
10
6.7089055
20
20.908152
11
6.7089055
21
20.7868728
0
LINE
8
DEFAULT_255_1_234
10
6.7089055
20
20.7868728
11
6.5466644
21
20.7868728
0
LINE
8
DEFAULT_255_1_234
10
6.5466644
20
20.7868728
11
6.5466644
21
20.5154
0
LINE
8
DEFAULT_255_1_234
10
6.5466644
20
20.5154
11
6.3972741
21
20.5154
0
LINE
8
DEFAULT_255_1_234
10
6.3972741
20
20.5154
11
6.3972741
21
20.7868728
0
LINE
8
DEFAULT_255_1_234
10
6.3972741
20
20.7868728
11
5.8647698
21
20.7868728
0
LINE
8
DEFAULT_255_1_234
10
5.8647698
20
20.7868728
11
5.8647698
21
20.8744187
0
LINE
8
DEFAULT_255_1_234
10
5.8647698
20
20.8744187
11
6.3884392
21
21.6848211
0
LINE
8
DEFAULT_255_1_234
10
6.3884392
20
21.6848211
11
6.5466644
21
21.6848211
0
LINE
8
DEFAULT_255_1_234
10
6.3796042
20
21.4494912
11
6.0334363
21
20.908152
0
LINE
8
DEFAULT_255_1_234
10
6.0334363
20
20.908152
11
6.3972741
21
20.908152
0
LINE
8
DEFAULT_255_1_234
10
6.3972741
20
20.908152
11
6.3972741
21
21.4816181
0
LINE
8
DEFAULT_255_1_234
10
6.3972741
20
21.4816181
11
6.3796042
21
21.4494912
0
LINE
8
DEFAULT_255_1_234
10
7.6389808
20
20.5154
11
7.5273396
21
20.8206061
0
LINE
8
DEFAULT_255_1_234
10
7.5273396
20
20.8206061
11
7.0374036
21
20.8206061
0
LINE
8
DEFAULT_255_1_234
10
7.0374036
20
20.8206061
11
6.9273688
21
20.5154
0
LINE
8
DEFAULT_255_1_234
10
6.9273688
20
20.5154
11
6.7683404
21
20.5154
0
LINE
8
DEFAULT_255_1_234
10
6.7683404
20
20.5154
11
7.214905
21
21.6848211
0
LINE
8
DEFAULT_255_1_234
10
7.214905
20
21.6848211
11
7.3498382
21
21.6848211
0
LINE
8
DEFAULT_255_1_234
10
7.3498382
20
21.6848211
11
7.7972061
21
20.5154
0
LINE
8
DEFAULT_255_1_234
10
7.7972061
20
20.5154
11
7.6389808
21
20.5154
0
LINE
8
DEFAULT_255_1_234
10
7.2823716
20
21.4944689
11
7.0839877
21
20.9475075
0
LINE
8
DEFAULT_255_1_234
10
7.0839877
20
20.9475075
11
7.4815587
21
20.9475075
0
LINE
8
DEFAULT_255_1_234
10
7.4815587
20
20.9475075
11
7.2823716
21
21.4944689
0
LINE
8
DEFAULT_255_1_234
10
4.3660902
20
29.6223211
11
4.3660902
21
28.4529
0
LINE
8
DEFAULT_255_1_234
10
4.3660902
20
28.4529
11
4.2118808
21
28.4529
0
LINE
8
DEFAULT_255_1_234
10
4.2118808
20
28.4529
11
4.2118808
21
29.6223211
0
LINE
8
DEFAULT_255_1_234
10
4.2118808
20
29.6223211
11
4.3660902
21
29.6223211
0
LINE
8
DEFAULT_255_1_234
10
5.5467557
20
29.6223211
11
5.5467557
21
28.4529
0
LINE
8
DEFAULT_255_1_234
10
5.5467557
20
28.4529
11
5.3917432
21
28.4529
0
LINE
8
DEFAULT_255_1_234
10
5.3917432
20
28.4529
11
4.8030167
21
29.354061
0
LINE
8
DEFAULT_255_1_234
10
4.8030167
20
29.354061
11
4.8030167
21
28.4529
0
LINE
8
DEFAULT_255_1_234
10
4.8030167
20
28.4529
11
4.6480042
21
28.4529
0
LINE
8
DEFAULT_255_1_234
10
4.6480042
20
28.4529
11
4.6480042
21
29.6223211
0
LINE
8
DEFAULT_255_1_234
10
4.6480042
20
29.6223211
11
4.8030167
21
29.6223211
0
LINE
8
DEFAULT_255_1_234
10
4.8030167
20
29.6223211
11
5.3933495
21
28.7171442
0
LINE
8
DEFAULT_255_1_234
10
5.3933495
20
28.7171442
11
5.3933495
21
29.6223211
0
LINE
8
DEFAULT_255_1_234
10
5.3933495
20
29.6223211
11
5.5467557
21
29.6223211
0
LINE
8
DEFAULT_255_1_234
10
5.9981394
20
28.9886169
11
5.9981394
21
29.1098962
0
LINE
8
DEFAULT_255_1_234
10
5.9981394
20
29.1098962
11
6.1097806
21
29.1098962
0
LINE
8
DEFAULT_255_1_234
10
5.9194284
20
29.3155087
11
5.7708412
21
29.3155087
0
LINE
8
DEFAULT_255_1_234
10
5.7604
20
28.7613188
11
5.9097903
21
28.7613188
0
LINE
8
DEFAULT_255_1_234
10
6.1097806
20
28.9886169
11
5.9981394
21
28.9886169
0
ARC
8
DEFAULT_255_1_234
10
6.1068672
20
29.4491713
40
0.3392876
50
270.4919872
51
281.8951556
0
ARC
8
DEFAULT_255_1_234
10
6.1309934
20
29.3389702
40
0.2264817
50
281.6691735
51
301.2943132
0
ARC
8
DEFAULT_255_1_234
10
6.1480144
20
29.3078304
40
0.1910381
50
301.7833094
51
311.7545298
0
ARC
8
DEFAULT_255_1_234
10
6.157172
20
29.2976748
40
0.1773635
50
311.7323931
51
354.2802411
0
ARC
8
DEFAULT_255_1_234
10
6.0845345
20
29.3101722
40
0.2509385
50
353.0937916
51
0.1181479
0
ARC
8
DEFAULT_255_1_234
10
6.038413
20
29.3149386
40
0.2970898
50
359.1805295
51
15.0453146
0
ARC
8
DEFAULT_255_1_234
10
6.1729967
20
29.3541992
40
0.1569564
50
13.9577229
51
77.6713066
0
ARC
8
DEFAULT_255_1_234
10
6.1343496
20
29.2156949
40
0.3006298
50
76.1116566
51
90.7026153
0
ARC
8
DEFAULT_255_1_234
10
6.1284334
20
29.2430545
40
0.2732568
50
89.5324876
51
103.531937
0
ARC
8
DEFAULT_255_1_234
10
6.1083779
20
29.3229884
40
0.1908508
50
103.2931773
51
133.5619022
0
ARC
8
DEFAULT_255_1_234
10
6.1039267
20
29.3289375
40
0.1834746
50
133.8349307
51
173.5344437
0
ARC
8
DEFAULT_255_1_234
10
6.176231
20
29.3161213
40
0.2568033
50
172.5096846
51
180.1366907
0
ARC
8
DEFAULT_255_1_234
10
6.0811204
20
29.3195622
40
0.3103056
50
155.3484492
51
180.7484736
0
ARC
8
DEFAULT_255_1_234
10
6.0762293
20
29.3166846
40
0.3070957
50
131.5744599
51
154.4798489
0
ARC
8
DEFAULT_255_1_234
10
6.107544
20
29.285031
40
0.3515643
50
96.9875458
51
131.9690667
0
ARC
8
DEFAULT_255_1_234
10
6.129492
20
29.1604636
40
0.4779224
50
89.8596053
51
97.7825159
0
ARC
8
DEFAULT_255_1_234
10
6.1342983
20
29.1342616
40
0.5041361
50
78.3655447
51
90.4131539
0
ARC
8
DEFAULT_255_1_234
10
6.1700901
20
29.3001887
40
0.3344039
50
56.6229102
51
78.638727
0
ARC
8
DEFAULT_255_1_234
10
6.1915845
20
29.3377805
40
0.2912001
50
47.0253525
51
56.0854072
0
ARC
8
DEFAULT_255_1_234
10
6.1935625
20
29.3417223
40
0.2869704
50
10.9208013
51
46.7778124
0
ARC
8
DEFAULT_255_1_234
10
6.0571691
20
29.3101857
40
0.426899
50
359.6364486
51
11.6087304
0
ARC
8
DEFAULT_255_1_234
10
6.2406536
20
29.3086752
40
0.243409
50
332.3549906
51
359.7179418
0
ARC
8
DEFAULT_255_1_234
10
6.1756137
20
29.3395142
40
0.3153459
50
325.2333722
51
332.8745602
0
ARC
8
DEFAULT_255_1_234
10
6.1908761
20
29.3288828
40
0.2967456
50
292.9802137
51
325.2392345
0
ARC
8
DEFAULT_255_1_234
10
6.1634135
20
29.3822863
40
0.3566604
50
292.5402179
51
293.6924929
0
ARC
8
DEFAULT_255_1_234
10
6.202673
20
28.7368091
40
0.3307468
50
57.6435486
51
72.8625112
0
ARC
8
DEFAULT_255_1_234
10
6.238123
20
28.7942549
40
0.2632492
50
36.7248896
51
57.4697979
0
ARC
8
DEFAULT_255_1_234
10
6.2369863
20
28.795522
40
0.2634081
50
8.0545065
51
36.356114
0
ARC
8
DEFAULT_255_1_234
10
6.1507048
20
28.7800174
40
0.3510261
50
359.8320645
51
8.5869982
0
ARC
8
DEFAULT_255_1_234
10
6.1131824
20
28.7752101
40
0.3885653
50
343.9829931
51
0.5571613
0
ARC
8
DEFAULT_255_1_234
10
6.2018022
20
28.7509438
40
0.2966924
50
311.6359546
51
343.7651759
0
ARC
8
DEFAULT_255_1_234
10
6.1639591
20
28.7936102
40
0.3537231
50
279.7829875
51
311.6255694
0
ARC
8
DEFAULT_255_1_234
10
6.1338367
20
28.937328
40
0.5004971
50
269.7286406
51
280.3856417
0
ARC
8
DEFAULT_255_1_234
10
6.1276439
20
28.9331996
40
0.4963778
50
256.6828919
51
270.4412052
0
ARC
8
DEFAULT_255_1_234
10
6.0937735
20
28.7947394
40
0.3538406
50
229.4223008
51
256.8556159
0
ARC
8
DEFAULT_255_1_234
10
6.0523128
20
28.7480736
40
0.2914296
50
181.818294
51
229.6455059
0
ARC
8
DEFAULT_255_1_234
10
6.1563084
20
28.7611496
40
0.3959084
50
179.9755256
51
183.2323064
0
ARC
8
DEFAULT_255_1_234
10
6.139083
20
28.7591037
40
0.2293034
50
179.4465117
51
196.2869258
0
ARC
8
DEFAULT_255_1_234
10
6.0903238
20
28.7457651
40
0.1787621
50
196.5661473
51
227.705904
0
ARC
8
DEFAULT_255_1_234
10
6.1067333
20
28.7641155
40
0.2033784
50
227.7652068
51
257.8762805
0
ARC
8
DEFAULT_255_1_234
10
6.1292303
20
28.8584156
40
0.3003081
50
257.4584385
51
270.426602
0
ARC
8
DEFAULT_255_1_234
10
6.1337869
20
28.8873996
40
0.329292
50
269.5962073
51
280.8789248
0
ARC
8
DEFAULT_255_1_234
10
6.1567398
20
28.7727685
40
0.2123908
50
280.6346389
51
299.8595945
0
ARC
8
DEFAULT_255_1_234
10
6.1758305
20
28.7365212
40
0.171457
50
300.3576302
51
314.5517981
0
ARC
8
DEFAULT_255_1_234
10
6.1675365
20
28.7425919
40
0.1816095
50
315.0728369
51
345.0431014
0
ARC
8
DEFAULT_255_1_234
10
6.0752179
20
28.7694841
40
0.2777492
50
344.5986631
51
357.9269593
0
ARC
8
DEFAULT_255_1_234
10
5.9856506
20
28.7756276
40
0.3674917
50
357.4748886
51
0.0231117
0
ARC
8
DEFAULT_255_1_234
10
6.0879615
20
28.7780679
40
0.2651907
50
359.5047933
51
13.4239635
0
ARC
8
DEFAULT_255_1_234
10
6.1746259
20
28.8002478
40
0.1757509
50
12.9498199
51
48.7551375
0
ARC
8
DEFAULT_255_1_234
10
6.1563993
20
28.77534
40
0.2065134
50
49.5088623
51
72.1836453
0
ARC
8
DEFAULT_255_1_234
10
6.1206145
20
28.6691291
40
0.3185836
50
71.9010081
51
84.3554254
0
ARC
8
DEFAULT_255_1_234
10
6.1044777
20
28.5330326
40
0.4556151
50
84.0193428
51
89.333121
0
LINE
8
DEFAULT_255_1_234
10
7.4567031
20
28.8906297
11
7.4567031
21
28.877779
0
LINE
8
DEFAULT_255_1_234
10
6.864764
20
28.5532967
11
6.8575354
21
28.4529
0
LINE
8
DEFAULT_255_1_234
10
6.8575354
20
28.4529
11
6.7209958
21
28.4529
0
LINE
8
DEFAULT_255_1_234
10
6.7209958
20
28.4529
11
6.7209958
21
29.686575
0
LINE
8
DEFAULT_255_1_234
10
6.7209958
20
29.686575
11
6.869583
21
29.686575
0
LINE
8
DEFAULT_255_1_234
10
6.869583
20
29.686575
11
6.869583
21
29.2263564
0
LINE
8
DEFAULT_255_1_234
10
6.869583
20
29.0753597
11
6.869583
21
28.6994744
0
ARC
8
DEFAULT_255_1_234
10
6.7520306
20
28.8733573
40
0.7046863
50
349.4825105
51
0.3595108
0
ARC
8
DEFAULT_255_1_234
10
6.9797547
20
28.8295022
40
0.4727857
50
331.8602128
51
349.6704139
0
ARC
8
DEFAULT_255_1_234
10
7.0530315
20
28.7938125
40
0.3913503
50
322.8939783
51
331.4081204
0
ARC
8
DEFAULT_255_1_234
10
7.1225713
20
28.7358707
40
0.300965
50
296.7249167
51
323.7044215
0
ARC
8
DEFAULT_255_1_234
10
7.125561
20
28.7428043
40
0.3058683
50
270.6342811
51
295.6405548
0
ARC
8
DEFAULT_255_1_234
10
7.119392
20
28.8230995
40
0.3862632
50
269.9967524
51
271.4174733
0
ARC
8
DEFAULT_255_1_234
10
7.1155584
20
28.8095686
40
0.3727515
50
253.657532
51
270.5859025
0
ARC
8
DEFAULT_255_1_234
10
7.092469
20
28.7252235
40
0.2853216
50
217.0543181
51
253.3409865
0
ARC
8
DEFAULT_255_1_234
10
7.0991358
20
29.0436052
40
0.2934152
50
93.1931545
51
141.4760602
0
ARC
8
DEFAULT_255_1_234
10
7.1173574
20
28.9203453
40
0.4176524
50
89.9442578
51
94.747309
0
ARC
8
DEFAULT_255_1_234
10
7.1217321
20
29.002641
40
0.3353801
50
70.6103515
51
90.6779749
0
ARC
8
DEFAULT_255_1_234
10
7.1331623
20
29.048189
40
0.2886533
50
36.1152635
51
69.7489296
0
ARC
8
DEFAULT_255_1_234
10
7.0345027
20
28.9728708
40
0.4127561
50
15.4648517
51
36.4891396
0
ARC
8
DEFAULT_255_1_234
10
6.8286714
20
28.9129524
40
0.6271187
50
3.9220813
51
15.7265815
0
ARC
8
DEFAULT_255_1_234
10
6.5927557
20
28.8917325
40
0.863948
50
359.9268643
51
4.2559037
0
ARC
8
DEFAULT_255_1_234
10
6.6741938
20
28.8977103
40
0.6339295
50
359.7230081
51
7.7115859
0
ARC
8
DEFAULT_255_1_234
10
6.9003503
20
28.9293172
40
0.4055784
50
7.5740023
51
19.4151451
0
ARC
8
DEFAULT_255_1_234
10
7.0271142
20
28.9739519
40
0.2711858
50
19.4238354
51
34.9161182
0
ARC
8
DEFAULT_255_1_234
10
7.094188
20
29.0226172
40
0.1883373
50
34.4556322
51
84.4656458
0
ARC
8
DEFAULT_255_1_234
10
7.0813328
20
28.9471057
40
0.2647939
50
83.2727306
51
90.1114621
0
ARC
8
DEFAULT_255_1_234
10
7.0771186
20
28.9669509
40
0.2449763
50
89.1347934
51
111.4089923
0
ARC
8
DEFAULT_255_1_234
10
7.0691736
20
28.9997473
40
0.2115923
50
112.6478598
51
148.9260864
0
ARC
8
DEFAULT_255_1_234
10
7.1469534
20
28.9455985
40
0.3062228
50
147.7597608
51
154.928557
0
ARC
8
DEFAULT_255_1_234
10
7.1209595
20
28.8211379
40
0.2792708
50
205.8264786
51
224.5301003
0
ARC
8
DEFAULT_255_1_234
10
7.0731899
20
28.7784914
40
0.2153317
50
225.354483
51
269.2437579
0
ARC
8
DEFAULT_255_1_234
10
7.0823534
20
28.8591292
40
0.2961942
50
267.6770046
51
270.0136612
0
ARC
8
DEFAULT_255_1_234
10
7.0850885
20
28.7832938
40
0.2203751
50
269.3072485
51
289.499141
0
ARC
8
DEFAULT_255_1_234
10
7.092295
20
28.7536394
40
0.1900415
50
290.4353973
51
325.3766314
0
ARC
8
DEFAULT_255_1_234
10
7.0294172
20
28.7990643
40
0.2675986
50
325.0223901
51
342.692398
0
ARC
8
DEFAULT_255_1_234
10
6.859706
20
28.8542812
40
0.446058
50
342.4062876
51
352.8669243
0
ARC
8
DEFAULT_255_1_234
10
6.5876536
20
28.8899975
40
0.7204419
50
352.7350668
51
359.8556985
0
ARC
8
DEFAULT_255_1_234
10
6.3966231
20
28.8946018
40
0.9114927
50
359.5965197
51
0.0027543
0
LINE
8
DEFAULT_255_1_234
10
4.4202902
20
37.5598211
11
4.4202902
21
36.3904
0
LINE
8
DEFAULT_255_1_234
10
4.4202902
20
36.3904
11
4.2660808
21
36.3904
0
LINE
8
DEFAULT_255_1_234
10
4.2660808
20
36.3904
11
4.2660808
21
37.5598211
0
LINE
8
DEFAULT_255_1_234
10
4.2660808
20
37.5598211
11
4.4202902
21
37.5598211
0
LINE
8
DEFAULT_255_1_234
10
5.6009557
20
37.5598211
11
5.6009557
21
36.3904
0
LINE
8
DEFAULT_255_1_234
10
5.6009557
20
36.3904
11
5.4459432
21
36.3904
0
LINE
8
DEFAULT_255_1_234
10
5.4459432
20
36.3904
11
4.8572167
21
37.291561
0
LINE
8
DEFAULT_255_1_234
10
4.8572167
20
37.291561
11
4.8572167
21
36.3904
0
LINE
8
DEFAULT_255_1_234
10
4.8572167
20
36.3904
11
4.7022042
21
36.3904
0
LINE
8
DEFAULT_255_1_234
10
4.7022042
20
36.3904
11
4.7022042
21
37.5598211
0
LINE
8
DEFAULT_255_1_234
10
4.7022042
20
37.5598211
11
4.8572167
21
37.5598211
0
LINE
8
DEFAULT_255_1_234
10
4.8572167
20
37.5598211
11
5.4475495
21
36.6546442
0
LINE
8
DEFAULT_255_1_234
10
5.4475495
20
36.6546442
11
5.4475495
21
37.5598211
0
LINE
8
DEFAULT_255_1_234
10
5.4475495
20
37.5598211
11
5.6009557
21
37.5598211
0
LINE
8
DEFAULT_255_1_234
10
6.0523394
20
36.9261169
11
6.0523394
21
37.0473962
0
LINE
8
DEFAULT_255_1_234
10
6.0523394
20
37.0473962
11
6.1639806
21
37.0473962
0
LINE
8
DEFAULT_255_1_234
10
5.9736284
20
37.2530087
11
5.8250412
21
37.2530087
0
LINE
8
DEFAULT_255_1_234
10
5.8146
20
36.6988188
11
5.9639903
21
36.6988188
0
LINE
8
DEFAULT_255_1_234
10
6.1639806
20
36.9261169
11
6.0523394
21
36.9261169
0
ARC
8
DEFAULT_255_1_234
10
6.1610672
20
37.3866713
40
0.3392876
50
270.4919872
51
281.8951556
0
ARC
8
DEFAULT_255_1_234
10
6.1851934
20
37.2764702
40
0.2264817
50
281.6691735
51
301.2943132
0
ARC
8
DEFAULT_255_1_234
10
6.2022144
20
37.2453304
40
0.1910381
50
301.7833094
51
311.7545298
0
ARC
8
DEFAULT_255_1_234
10
6.211372
20
37.2351748
40
0.1773635
50
311.7323931
51
354.2802411
0
ARC
8
DEFAULT_255_1_234
10
6.1387345
20
37.2476722
40
0.2509385
50
353.0937916
51
0.1181479
0
ARC
8
DEFAULT_255_1_234
10
6.092613
20
37.2524386
40
0.2970898
50
359.1805295
51
15.0453146
0
ARC
8
DEFAULT_255_1_234
10
6.2271967
20
37.2916992
40
0.1569564
50
13.9577229
51
77.6713066
0
ARC
8
DEFAULT_255_1_234
10
6.1885496
20
37.1531949
40
0.3006298
50
76.1116566
51
90.7026153
0
ARC
8
DEFAULT_255_1_234
10
6.1826334
20
37.1805545
40
0.2732568
50
89.5324876
51
103.531937
0
ARC
8
DEFAULT_255_1_234
10
6.1625779
20
37.2604884
40
0.1908508
50
103.2931773
51
133.5619022
0
ARC
8
DEFAULT_255_1_234
10
6.1581267
20
37.2664375
40
0.1834746
50
133.8349307
51
173.5344437
0
ARC
8
DEFAULT_255_1_234
10
6.230431
20
37.2536213
40
0.2568033
50
172.5096846
51
180.1366907
0
ARC
8
DEFAULT_255_1_234
10
6.1353204
20
37.2570622
40
0.3103056
50
155.3484492
51
180.7484736
0
ARC
8
DEFAULT_255_1_234
10
6.1304293
20
37.2541846
40
0.3070957
50
131.5744599
51
154.4798489
0
ARC
8
DEFAULT_255_1_234
10
6.161744
20
37.222531
40
0.3515643
50
96.9875458
51
131.9690667
0
ARC
8
DEFAULT_255_1_234
10
6.183692
20
37.0979636
40
0.4779224
50
89.8596053
51
97.7825159
0
ARC
8
DEFAULT_255_1_234
10
6.1884983
20
37.0717616
40
0.5041361
50
78.3655447
51
90.4131539
0
ARC
8
DEFAULT_255_1_234
10
6.2242901
20
37.2376887
40
0.3344039
50
56.6229102
51
78.638727
0
ARC
8
DEFAULT_255_1_234
10
6.2457845
20
37.2752805
40
0.2912001
50
47.0253525
51
56.0854072
0
ARC
8
DEFAULT_255_1_234
10
6.2477625
20
37.2792223
40
0.2869704
50
10.9208013
51
46.7778124
0
ARC
8
DEFAULT_255_1_234
10
6.1113691
20
37.2476857
40
0.426899
50
359.6364486
51
11.6087304
0
ARC
8
DEFAULT_255_1_234
10
6.2948536
20
37.2461752
40
0.243409
50
332.3549906
51
359.7179418
0
ARC
8
DEFAULT_255_1_234
10
6.2298137
20
37.2770142
40
0.3153459
50
325.2333722
51
332.8745602
0
ARC
8
DEFAULT_255_1_234
10
6.2450761
20
37.2663828
40
0.2967456
50
292.9802137
51
325.2392345
0
ARC
8
DEFAULT_255_1_234
10
6.2176135
20
37.3197863
40
0.3566604
50
292.5402179
51
293.6924929
0
ARC
8
DEFAULT_255_1_234
10
6.256873
20
36.6743091
40
0.3307468
50
57.6435486
51
72.8625112
0
ARC
8
DEFAULT_255_1_234
10
6.292323
20
36.7317549
40
0.2632492
50
36.7248896
51
57.4697979
0
ARC
8
DEFAULT_255_1_234
10
6.2911863
20
36.733022
40
0.2634081
50
8.0545065
51
36.356114
0
ARC
8
DEFAULT_255_1_234
10
6.2049048
20
36.7175174
40
0.3510261
50
359.8320645
51
8.5869982
0
ARC
8
DEFAULT_255_1_234
10
6.1673824
20
36.7127101
40
0.3885653
50
343.9829931
51
0.5571613
0
ARC
8
DEFAULT_255_1_234
10
6.2560022
20
36.6884438
40
0.2966924
50
311.6359546
51
343.7651759
0
ARC
8
DEFAULT_255_1_234
10
6.2181591
20
36.7311102
40
0.3537231
50
279.7829875
51
311.6255694
0
ARC
8
DEFAULT_255_1_234
10
6.1880367
20
36.874828
40
0.5004971
50
269.7286406
51
280.3856417
0
ARC
8
DEFAULT_255_1_234
10
6.1818439
20
36.8706996
40
0.4963778
50
256.6828919
51
270.4412052
0
ARC
8
DEFAULT_255_1_234
10
6.1479735
20
36.7322394
40
0.3538406
50
229.4223008
51
256.8556159
0
ARC
8
DEFAULT_255_1_234
10
6.1065128
20
36.6855736
40
0.2914296
50
181.818294
51
229.6455059
0
ARC
8
DEFAULT_255_1_234
10
6.2105084
20
36.6986496
40
0.3959084
50
179.9755256
51
183.2323064
0
ARC
8
DEFAULT_255_1_234
10
6.193283
20
36.6966037
40
0.2293034
50
179.4465117
51
196.2869258
0
ARC
8
DEFAULT_255_1_234
10
6.1445238
20
36.6832651
40
0.1787621
50
196.5661473
51
227.705904
0
ARC
8
DEFAULT_255_1_234
10
6.1609333
20
36.7016155
40
0.2033784
50
227.7652068
51
257.8762805
0
ARC
8
DEFAULT_255_1_234
10
6.1834303
20
36.7959156
40
0.3003081
50
257.4584385
51
270.426602
0
ARC
8
DEFAULT_255_1_234
10
6.1879869
20
36.8248996
40
0.329292
50
269.5962073
51
280.8789248
0
ARC
8
DEFAULT_255_1_234
10
6.2109398
20
36.7102685
40
0.2123908
50
280.6346389
51
299.8595945
0
ARC
8
DEFAULT_255_1_234
10
6.2300305
20
36.6740212
40
0.171457
50
300.3576302
51
314.5517981
0
ARC
8
DEFAULT_255_1_234
10
6.2217365
20
36.6800919
40
0.1816095
50
315.0728369
51
345.0431014
0
ARC
8
DEFAULT_255_1_234
10
6.1294179
20
36.7069841
40
0.2777492
50
344.5986631
51
357.9269593
0
ARC
8
DEFAULT_255_1_234
10
6.0398506
20
36.7131276
40
0.3674917
50
357.4748886
51
0.0231117
0
ARC
8
DEFAULT_255_1_234
10
6.1421615
20
36.7155679
40
0.2651907
50
359.5047933
51
13.4239635
0
ARC
8
DEFAULT_255_1_234
10
6.2288259
20
36.7377478
40
0.1757509
50
12.9498199
51
48.7551375
0
ARC
8
DEFAULT_255_1_234
10
6.2105993
20
36.71284
40
0.2065134
50
49.5088623
51
72.1836453
0
ARC
8
DEFAULT_255_1_234
10
6.1748145
20
36.6066291
40
0.3185836
50
71.9010081
51
84.3554254
0
ARC
8
DEFAULT_255_1_234
10
6.1586777
20
36.4705326
40
0.4556151
50
84.0193428
51
89.333121
0
LINE
8
DEFAULT_255_1_234
10
7.2040907
20
36.3904
11
6.7984879
21
36.3904
0
LINE
8
DEFAULT_255_1_234
10
6.7984879
20
36.3904
11
6.7984879
21
37.5598211
0
LINE
8
DEFAULT_255_1_234
10
6.7984879
20
37.5598211
11
7.1807986
21
37.5598211
0
LINE
8
DEFAULT_255_1_234
10
7.2097129
20
36.9373614
11
6.9526973
21
36.9373614
0
LINE
8
DEFAULT_255_1_234
10
6.9526973
20
36.9373614
11
6.9526973
21
36.5164983
0
LINE
8
DEFAULT_255_1_234
10
6.9526973
20
36.5164983
11
7.2073034
21
36.5164983
0
LINE
8
DEFAULT_255_1_234
10
6.9526973
20
37.4329196
11
6.9526973
21
37.0610501
0
LINE
8
DEFAULT_255_1_234
10
6.9526973
20
37.0610501
11
7.1856177
21
37.0610501
0
LINE
8
DEFAULT_255_1_234
10
7.1807986
20
37.4329196
11
6.9526973
21
37.4329196
0
ARC
8
DEFAULT_255_1_234
10
7.1845695
20
36.8230901
40
0.7367406
50
82.1257326
51
90.2932599
0
ARC
8
DEFAULT_255_1_234
10
7.223465
20
37.0949013
40
0.4621653
50
69.9044149
51
82.2857423
0
ARC
8
DEFAULT_255_1_234
10
7.2805328
20
37.2491637
40
0.2976871
50
51.1838526
51
70.0181538
0
ARC
8
DEFAULT_255_1_234
10
7.3060294
20
37.286224
40
0.2528517
50
12.1017251
51
50.4214761
0
ARC
8
DEFAULT_255_1_234
10
7.1676168
20
37.2514676
40
0.3955061
50
359.5251267
51
12.8211707
0
ARC
8
DEFAULT_255_1_234
10
7.3256094
20
37.2445344
40
0.2375281
50
323.4908128
51
0.8817314
0
ARC
8
DEFAULT_255_1_234
10
7.2837781
20
37.276855
40
0.2903817
50
298.6825083
51
323.2756573
0
ARC
8
DEFAULT_255_1_234
10
7.2476144
20
37.3369649
40
0.3604842
50
293.1999386
51
299.1396394
0
ARC
8
DEFAULT_255_1_234
10
7.3149117
20
36.7284126
40
0.2871098
50
54.0011765
51
74.9167975
0
ARC
8
DEFAULT_255_1_234
10
7.3265476
20
36.7481332
40
0.2643248
50
36.3580696
51
53.5291921
0
ARC
8
DEFAULT_255_1_234
10
7.3138718
20
36.7390998
40
0.2798884
50
4.8189881
51
36.3089977
0
ARC
8
DEFAULT_255_1_234
10
7.2359554
20
36.728127
40
0.358478
50
359.9370252
51
5.5204067
0
ARC
8
DEFAULT_255_1_234
10
7.2035075
20
36.7240667
40
0.3909429
50
344.7478609
51
0.5373281
0
ARC
8
DEFAULT_255_1_234
10
7.3026046
20
36.6973544
40
0.2883093
50
311.1786488
51
344.6886812
0
ARC
8
DEFAULT_255_1_234
10
7.2734093
20
36.7336987
40
0.3348923
50
286.0418249
51
310.8441291
0
ARC
8
DEFAULT_255_1_234
10
7.2226925
20
36.8983807
40
0.5071869
50
274.1042341
51
286.4071509
0
ARC
8
DEFAULT_255_1_234
10
7.2050181
20
37.0867229
40
0.6963234
50
269.9236873
51
274.445647
0
ARC
8
DEFAULT_255_1_234
10
7.2096182
20
36.8527537
40
0.3362634
50
269.6055768
51
281.3740047
0
ARC
8
DEFAULT_255_1_234
10
7.232682
20
36.7434353
40
0.224546
50
281.1055983
51
302.5132223
0
ARC
8
DEFAULT_255_1_234
10
7.2473719
20
36.7170823
40
0.1944357
50
303.0368945
51
311.8811219
0
ARC
8
DEFAULT_255_1_234
10
7.2545126
20
36.708589
40
0.1833454
50
311.9916004
51
351.7143462
0
ARC
8
DEFAULT_255_1_234
10
7.1728356
20
36.725093
40
0.2665871
50
350.7339597
51
0.2221581
0
ARC
8
DEFAULT_255_1_234
10
7.1620802
20
36.7307467
40
0.2773789
50
359.0456241
51
17.2296242
0
ARC
8
DEFAULT_255_1_234
10
7.2659919
20
36.7616163
40
0.1689915
50
17.6685481
51
78.9940892
0
ARC
8
DEFAULT_255_1_234
10
7.2143083
20
36.5761224
40
0.3612658
50
76.5635957
51
90.6980921
0
LINE
8
DEFAULT_255_1_234
10
7.2099067
20
36.9373613
11
7.2097129
21
36.9373614
0
ARC
8
DEFAULT_255_1_234
10
7.1878743
20
37.3896036
40
0.3285612
50
269.6064736
51
281.4533503
0
ARC
8
DEFAULT_255_1_234
10
7.2101563
20
37.2844688
40
0.2210975
50
281.2041486
51
302.5148063
0
ARC
8
DEFAULT_255_1_234
10
7.2238413
20
37.2598241
40
0.1929674
50
303.021671
51
309.8369575
0
ARC
8
DEFAULT_255_1_234
10
7.2421875
20
37.2392488
40
0.1654181
50
309.5228395
51
356.9509836
0
ARC
8
DEFAULT_255_1_234
10
7.1758457
20
37.2487932
40
0.2322512
50
355.4701227
51
0.0492546
0
ARC
8
DEFAULT_255_1_234
10
7.1479548
20
37.2510094
40
0.2601498
50
359.5558597
51
11.2096359
0
ARC
8
DEFAULT_255_1_234
10
7.2436838
20
37.270823
40
0.1623975
50
10.9182341
51
31.3230275
0
ARC
8
DEFAULT_255_1_234
10
7.2722571
20
37.2867214
40
0.1297302
50
31.8852677
51
52.1412565
0
ARC
8
DEFAULT_255_1_234
10
7.2448304
20
37.247975
40
0.1771663
50
52.8285564
51
71.9850297
0
ARC
8
DEFAULT_255_1_234
10
7.2072481
20
37.1373664
40
0.2939794
50
71.6863486
51
82.8455995
0
ARC
8
DEFAULT_255_1_234
10
7.1833016
20
36.9564149
40
0.476506
50
82.6984714
51
90.1729175
0
ARC
8
DEFAULT_255_1_234
10
7.1810651
20
37.0787623
40
0.3541573
50
89.8708275
51
90.0431131
0
LINE
8
DEFAULT_255_1_234
10
4.5033902
20
45.4973211
11
4.5033902
21
44.3279
0
LINE
8
DEFAULT_255_1_234
10
4.5033902
20
44.3279
11
4.3491808
21
44.3279
0
LINE
8
DEFAULT_255_1_234
10
4.3491808
20
44.3279
11
4.3491808
21
45.4973211
0
LINE
8
DEFAULT_255_1_234
10
4.3491808
20
45.4973211
11
4.5033902
21
45.4973211
0
LINE
8
DEFAULT_255_1_234
10
5.6840557
20
45.4973211
11
5.6840557
21
44.3279
0
LINE
8
DEFAULT_255_1_234
10
5.6840557
20
44.3279
11
5.5290432
21
44.3279
0
LINE
8
DEFAULT_255_1_234
10
5.5290432
20
44.3279
11
4.9403167
21
45.229061
0
LINE
8
DEFAULT_255_1_234
10
4.9403167
20
45.229061
11
4.9403167
21
44.3279
0
LINE
8
DEFAULT_255_1_234
10
4.9403167
20
44.3279
11
4.7853042
21
44.3279
0
LINE
8
DEFAULT_255_1_234
10
4.7853042
20
44.3279
11
4.7853042
21
45.4973211
0
LINE
8
DEFAULT_255_1_234
10
4.7853042
20
45.4973211
11
4.9403167
21
45.4973211
0
LINE
8
DEFAULT_255_1_234
10
4.9403167
20
45.4973211
11
5.5306495
21
44.5921442
0
LINE
8
DEFAULT_255_1_234
10
5.5306495
20
44.5921442
11
5.5306495
21
45.4973211
0
LINE
8
DEFAULT_255_1_234
10
5.5306495
20
45.4973211
11
5.6840557
21
45.4973211
0
LINE
8
DEFAULT_255_1_234
10
6.1354394
20
44.8636169
11
6.1354394
21
44.9848962
0
LINE
8
DEFAULT_255_1_234
10
6.1354394
20
44.9848962
11
6.2470806
21
44.9848962
0
LINE
8
DEFAULT_255_1_234
10
6.0567284
20
45.1905087
11
5.9081412
21
45.1905087
0
LINE
8
DEFAULT_255_1_234
10
5.8977
20
44.6363188
11
6.0470903
21
44.6363188
0
LINE
8
DEFAULT_255_1_234
10
6.2470806
20
44.8636169
11
6.1354394
21
44.8636169
0
ARC
8
DEFAULT_255_1_234
10
6.2441672
20
45.3241713
40
0.3392876
50
270.4919872
51
281.8951556
0
ARC
8
DEFAULT_255_1_234
10
6.2682934
20
45.2139702
40
0.2264817
50
281.6691735
51
301.2943132
0
ARC
8
DEFAULT_255_1_234
10
6.2853144
20
45.1828304
40
0.1910381
50
301.7833094
51
311.7545298
0
ARC
8
DEFAULT_255_1_234
10
6.294472
20
45.1726748
40
0.1773635
50
311.7323931
51
354.2802411
0
ARC
8
DEFAULT_255_1_234
10
6.2218345
20
45.1851722
40
0.2509385
50
353.0937916
51
0.1181479
0
ARC
8
DEFAULT_255_1_234
10
6.175713
20
45.1899386
40
0.2970898
50
359.1805295
51
15.0453146
0
ARC
8
DEFAULT_255_1_234
10
6.3102967
20
45.2291992
40
0.1569564
50
13.9577229
51
77.6713066
0
ARC
8
DEFAULT_255_1_234
10
6.2716496
20
45.0906949
40
0.3006298
50
76.1116566
51
90.7026153
0
ARC
8
DEFAULT_255_1_234
10
6.2657334
20
45.1180545
40
0.2732568
50
89.5324876
51
103.531937
0
ARC
8
DEFAULT_255_1_234
10
6.2456779
20
45.1979884
40
0.1908508
50
103.2931773
51
133.5619022
0
ARC
8
DEFAULT_255_1_234
10
6.2412267
20
45.2039375
40
0.1834746
50
133.8349307
51
173.5344437
0
ARC
8
DEFAULT_255_1_234
10
6.313531
20
45.1911213
40
0.2568033
50
172.5096846
51
180.1366907
0
ARC
8
DEFAULT_255_1_234
10
6.2184204
20
45.1945622
40
0.3103056
50
155.3484492
51
180.7484736
0
ARC
8
DEFAULT_255_1_234
10
6.2135293
20
45.1916846
40
0.3070957
50
131.5744599
51
154.4798489
0
ARC
8
DEFAULT_255_1_234
10
6.244844
20
45.160031
40
0.3515643
50
96.9875458
51
131.9690667
0
ARC
8
DEFAULT_255_1_234
10
6.266792
20
45.0354636
40
0.4779224
50
89.8596053
51
97.7825159
0
ARC
8
DEFAULT_255_1_234
10
6.2715983
20
45.0092616
40
0.5041361
50
78.3655447
51
90.4131539
0
ARC
8
DEFAULT_255_1_234
10
6.3073901
20
45.1751887
40
0.3344039
50
56.6229102
51
78.638727
0
ARC
8
DEFAULT_255_1_234
10
6.3288845
20
45.2127805
40
0.2912001
50
47.0253525
51
56.0854072
0
ARC
8
DEFAULT_255_1_234
10
6.3308625
20
45.2167223
40
0.2869704
50
10.9208013
51
46.7778124
0
ARC
8
DEFAULT_255_1_234
10
6.1944691
20
45.1851857
40
0.426899
50
359.6364486
51
11.6087304
0
ARC
8
DEFAULT_255_1_234
10
6.3779536
20
45.1836752
40
0.243409
50
332.3549906
51
359.7179418
0
ARC
8
DEFAULT_255_1_234
10
6.3129137
20
45.2145142
40
0.3153459
50
325.2333722
51
332.8745602
0
ARC
8
DEFAULT_255_1_234
10
6.3281761
20
45.2038828
40
0.2967456
50
292.9802137
51
325.2392345
0
ARC
8
DEFAULT_255_1_234
10
6.3007135
20
45.2572863
40
0.3566604
50
292.5402179
51
293.6924929
0
ARC
8
DEFAULT_255_1_234
10
6.339973
20
44.6118091
40
0.3307468
50
57.6435486
51
72.8625112
0
ARC
8
DEFAULT_255_1_234
10
6.375423
20
44.6692549
40
0.2632492
50
36.7248896
51
57.4697979
0
ARC
8
DEFAULT_255_1_234
10
6.3742863
20
44.670522
40
0.2634081
50
8.0545065
51
36.356114
0
ARC
8
DEFAULT_255_1_234
10
6.2880048
20
44.6550174
40
0.3510261
50
359.8320645
51
8.5869982
0
ARC
8
DEFAULT_255_1_234
10
6.2504824
20
44.6502101
40
0.3885653
50
343.9829931
51
0.5571613
0
ARC
8
DEFAULT_255_1_234
10
6.3391022
20
44.6259438
40
0.2966924
50
311.6359546
51
343.7651759
0
ARC
8
DEFAULT_255_1_234
10
6.3012591
20
44.6686102
40
0.3537231
50
279.7829875
51
311.6255694
0
ARC
8
DEFAULT_255_1_234
10
6.2711367
20
44.812328
40
0.5004971
50
269.7286406
51
280.3856417
0
ARC
8
DEFAULT_255_1_234
10
6.2649439
20
44.8081996
40
0.4963778
50
256.6828919
51
270.4412052
0
ARC
8
DEFAULT_255_1_234
10
6.2310735
20
44.6697394
40
0.3538406
50
229.4223008
51
256.8556159
0
ARC
8
DEFAULT_255_1_234
10
6.1896128
20
44.6230736
40
0.2914296
50
181.818294
51
229.6455059
0
ARC
8
DEFAULT_255_1_234
10
6.2936084
20
44.6361496
40
0.3959084
50
179.9755256
51
183.2323064
0
ARC
8
DEFAULT_255_1_234
10
6.276383
20
44.6341037
40
0.2293034
50
179.4465117
51
196.2869258
0
ARC
8
DEFAULT_255_1_234
10
6.2276238
20
44.6207651
40
0.1787621
50
196.5661473
51
227.705904
0
ARC
8
DEFAULT_255_1_234
10
6.2440333
20
44.6391155
40
0.2033784
50
227.7652068
51
257.8762805
0
ARC
8
DEFAULT_255_1_234
10
6.2665303
20
44.7334156
40
0.3003081
50
257.4584385
51
270.426602
0
ARC
8
DEFAULT_255_1_234
10
6.2710869
20
44.7623996
40
0.329292
50
269.5962073
51
280.8789248
0
ARC
8
DEFAULT_255_1_234
10
6.2940398
20
44.6477685
40
0.2123908
50
280.6346389
51
299.8595945
0
ARC
8
DEFAULT_255_1_234
10
6.3131305
20
44.6115212
40
0.171457
50
300.3576302
51
314.5517981
0
ARC
8
DEFAULT_255_1_234
10
6.3048365
20
44.6175919
40
0.1816095
50
315.0728369
51
345.0431014
0
ARC
8
DEFAULT_255_1_234
10
6.2125179
20
44.6444841
40
0.2777492
50
344.5986631
51
357.9269593
0
ARC
8
DEFAULT_255_1_234
10
6.1229506
20
44.6506276
40
0.3674917
50
357.4748886
51
0.0231117
0
ARC
8
DEFAULT_255_1_234
10
6.2252615
20
44.6530679
40
0.2651907
50
359.5047933
51
13.4239635
0
ARC
8
DEFAULT_255_1_234
10
6.3119259
20
44.6752478
40
0.1757509
50
12.9498199
51
48.7551375
0
ARC
8
DEFAULT_255_1_234
10
6.2936993
20
44.65034
40
0.2065134
50
49.5088623
51
72.1836453
0
ARC
8
DEFAULT_255_1_234
10
6.2579145
20
44.5441291
40
0.3185836
50
71.9010081
51
84.3554254
0
ARC
8
DEFAULT_255_1_234
10
6.2417777
20
44.4080326
40
0.4556151
50
84.0193428
51
89.333121
0
LINE
8
DEFAULT_255_1_234
10
7.6389808
20
44.3279
11
7.5273396
21
44.6331061
0
LINE
8
DEFAULT_255_1_234
10
7.5273396
20
44.6331061
11
7.0374036
21
44.6331061
0
LINE
8
DEFAULT_255_1_234
10
7.0374036
20
44.6331061
11
6.9273688
21
44.3279
0
LINE
8
DEFAULT_255_1_234
10
6.9273688
20
44.3279
11
6.7683404
21
44.3279
0
LINE
8
DEFAULT_255_1_234
10
6.7683404
20
44.3279
11
7.214905
21
45.4973211
0
LINE
8
DEFAULT_255_1_234
10
7.214905
20
45.4973211
11
7.3498382
21
45.4973211
0
LINE
8
DEFAULT_255_1_234
10
7.3498382
20
45.4973211
11
7.7972061
21
44.3279
0
LINE
8
DEFAULT_255_1_234
10
7.7972061
20
44.3279
11
7.6389808
21
44.3279
0
LINE
8
DEFAULT_255_1_234
10
7.2823716
20
45.3069689
11
7.0839877
21
44.7600075
0
LINE
8
DEFAULT_255_1_234
10
7.0839877
20
44.7600075
11
7.4815587
21
44.7600075
0
LINE
8
DEFAULT_255_1_234
10
7.4815587
20
44.7600075
11
7.2823716
21
45.3069689
0
LINE
8
DEFAULT_255_1_234
10
4.3660902
20
53.4348211
11
4.3660902
21
52.2654
0
LINE
8
DEFAULT_255_1_234
10
4.3660902
20
52.2654
11
4.2118808
21
52.2654
0
LINE
8
DEFAULT_255_1_234
10
4.2118808
20
52.2654
11
4.2118808
21
53.4348211
0
LINE
8
DEFAULT_255_1_234
10
4.2118808
20
53.4348211
11
4.3660902
21
53.4348211
0
LINE
8
DEFAULT_255_1_234
10
5.5467557
20
53.4348211
11
5.5467557
21
52.2654
0
LINE
8
DEFAULT_255_1_234
10
5.5467557
20
52.2654
11
5.3917432
21
52.2654
0
LINE
8
DEFAULT_255_1_234
10
5.3917432
20
52.2654
11
4.8030167
21
53.166561
0
LINE
8
DEFAULT_255_1_234
10
4.8030167
20
53.166561
11
4.8030167
21
52.2654
0
LINE
8
DEFAULT_255_1_234
10
4.8030167
20
52.2654
11
4.6480042
21
52.2654
0
LINE
8
DEFAULT_255_1_234
10
4.6480042
20
52.2654
11
4.6480042
21
53.4348211
0
LINE
8
DEFAULT_255_1_234
10
4.6480042
20
53.4348211
11
4.8030167
21
53.4348211
0
LINE
8
DEFAULT_255_1_234
10
4.8030167
20
53.4348211
11
5.3933495
21
52.5296442
0
LINE
8
DEFAULT_255_1_234
10
5.3933495
20
52.5296442
11
5.3933495
21
53.4348211
0
LINE
8
DEFAULT_255_1_234
10
5.3933495
20
53.4348211
11
5.5467557
21
53.4348211
0
LINE
8
DEFAULT_255_1_234
10
6.5483135
20
52.3866792
11
6.5483135
21
52.2654
0
LINE
8
DEFAULT_255_1_234
10
6.5483135
20
52.2654
11
5.7820856
21
52.2654
0
LINE
8
DEFAULT_255_1_234
10
5.7820856
20
52.2654
11
5.7820856
21
52.3722221
0
LINE
8
DEFAULT_255_1_234
10
5.7820856
20
52.3722221
11
6.1868853
21
52.8219995
0
LINE
8
DEFAULT_255_1_234
10
5.9081839
20
53.0902595
11
5.7595968
21
53.0902595
0
LINE
8
DEFAULT_255_1_234
10
6.2744312
20
52.7264218
11
5.9611934
21
52.3866792
0
LINE
8
DEFAULT_255_1_234
10
5.9611934
20
52.3866792
11
6.5483135
21
52.3866792
0
ARC
8
DEFAULT_255_1_234
10
4.8378686
20
54.0149527
40
1.8008286
50
318.5132453
51
320.7828378
0
ARC
8
DEFAULT_255_1_234
10
5.366566
20
53.5846426
40
1.1191493
50
320.7372736
51
323.9737074
0
ARC
8
DEFAULT_255_1_234
10
5.7585517
20
53.3006361
40
0.6350923
50
323.8961724
51
328.6421089
0
ARC
8
DEFAULT_255_1_234
10
5.9632112
20
53.1744031
40
0.3946393
50
328.8299013
51
331.789948
0
ARC
8
DEFAULT_255_1_234
10
6.0629291
20
53.1229509
40
0.2824501
50
331.4255242
51
352.9364833
0
ARC
8
DEFAULT_255_1_234
10
6.0765791
20
53.1198976
40
0.2685315
50
353.2248685
51
0.0169286
0
ARC
8
DEFAULT_255_1_234
10
6.0975668
20
53.122195
40
0.2475536
50
359.4866256
51
15.9339782
0
ARC
8
DEFAULT_255_1_234
10
6.1482653
20
53.1358286
40
0.1950618
50
16.1714718
51
43.5284424
0
ARC
8
DEFAULT_255_1_234
10
6.1559962
20
53.1435573
40
0.184134
50
43.4415429
51
83.1661404
0
ARC
8
DEFAULT_255_1_234
10
6.142588
20
53.0698771
40
0.258926
50
82.160215
51
90.1505798
0
ARC
8
DEFAULT_255_1_234
10
6.1394308
20
53.0161865
40
0.3126255
50
89.5460705
51
102.5418777
0
ARC
8
DEFAULT_255_1_234
10
6.1151394
20
53.1192665
40
0.2067346
50
102.1739365
51
129.2061916
0
ARC
8
DEFAULT_255_1_234
10
6.1072465
20
53.1317094
40
0.1921118
50
129.7279328
51
135.7542026
0
ARC
8
DEFAULT_255_1_234
10
6.1193993
20
53.1220045
40
0.2075944
50
136.175737
51
166.3674722
0
ARC
8
DEFAULT_255_1_234
10
6.2200912
20
53.0950182
40
0.3118201
50
165.9092917
51
178.8683903
0
ARC
8
DEFAULT_255_1_234
10
6.3065774
20
53.0903179
40
0.3983935
50
178.438168
51
180.0083905
0
ARC
8
DEFAULT_255_1_234
10
6.1664376
20
53.0942231
40
0.4068601
50
163.2878735
51
180.5581814
0
ARC
8
DEFAULT_255_1_234
10
6.0862637
20
53.116284
40
0.3237344
50
133.454115
51
162.9470031
0
ARC
8
DEFAULT_255_1_234
10
6.1041178
20
53.0973
40
0.349795
50
100.7869394
51
133.4384016
0
ARC
8
DEFAULT_255_1_234
10
6.138895
20
52.9424319
40
0.5084616
50
89.6605301
51
101.3704185
0
ARC
8
DEFAULT_255_1_234
10
6.1455289
20
52.9485496
40
0.502348
50
78.2171172
51
90.4130393
0
ARC
8
DEFAULT_255_1_234
10
6.1810367
20
53.1109637
40
0.3361092
50
55.9268222
51
78.4888551
0
ARC
8
DEFAULT_255_1_234
10
6.2006807
20
53.1448324
40
0.2970617
50
47.9292255
51
55.4054003
0
ARC
8
DEFAULT_255_1_234
10
6.2108368
20
53.1551502
40
0.2825983
50
4.3347696
51
48.0560701
0
ARC
8
DEFAULT_255_1_234
10
6.1012761
20
53.1381601
40
0.393225
50
359.925209
51
5.5967654
0
ARC
8
DEFAULT_255_1_234
10
6.1441653
20
53.1437816
40
0.3503892
50
337.8914096
51
358.9967724
0
ARC
8
DEFAULT_255_1_234
10
5.8728065
20
53.2484706
40
0.6412172
50
326.9135351
51
338.3505194
0
ARC
8
DEFAULT_255_1_234
10
5.4742369
20
53.5039284
40
1.1146189
50
319.6472867
51
327.095818
0
ARC
8
DEFAULT_255_1_234
10
5.0909372
20
53.8201
40
1.6114559
50
317.2586784
51
319.9046139
0
LINE
8
DEFAULT_255_1_234
10
7.4567031
20
52.7031297
11
7.4567031
21
52.690279
0
LINE
8
DEFAULT_255_1_234
10
6.864764
20
52.3657967
11
6.8575354
21
52.2654
0
LINE
8
DEFAULT_255_1_234
10
6.8575354
20
52.2654
11
6.7209958
21
52.2654
0
LINE
8
DEFAULT_255_1_234
10
6.7209958
20
52.2654
11
6.7209958
21
53.499075
0
LINE
8
DEFAULT_255_1_234
10
6.7209958
20
53.499075
11
6.869583
21
53.499075
0
LINE
8
DEFAULT_255_1_234
10
6.869583
20
53.499075
11
6.869583
21
53.0388564
0
LINE
8
DEFAULT_255_1_234
10
6.869583
20
52.8878597
11
6.869583
21
52.5119744
0
ARC
8
DEFAULT_255_1_234
10
6.7520306
20
52.6858573
40
0.7046863
50
349.4825105
51
0.3595108
0
ARC
8
DEFAULT_255_1_234
10
6.9797547
20
52.6420022
40
0.4727857
50
331.8602128
51
349.6704139
0
ARC
8
DEFAULT_255_1_234
10
7.0530315
20
52.6063125
40
0.3913503
50
322.8939783
51
331.4081204
0
ARC
8
DEFAULT_255_1_234
10
7.1225713
20
52.5483707
40
0.300965
50
296.7249167
51
323.7044215
0
ARC
8
DEFAULT_255_1_234
10
7.125561
20
52.5553043
40
0.3058683
50
270.6342811
51
295.6405548
0
ARC
8
DEFAULT_255_1_234
10
7.119392
20
52.6355995
40
0.3862632
50
269.9967524
51
271.4174733
0
ARC
8
DEFAULT_255_1_234
10
7.1155584
20
52.6220686
40
0.3727515
50
253.657532
51
270.5859025
0
ARC
8
DEFAULT_255_1_234
10
7.092469
20
52.5377235
40
0.2853216
50
217.0543181
51
253.3409865
0
ARC
8
DEFAULT_255_1_234
10
7.0991358
20
52.8561052
40
0.2934152
50
93.1931545
51
141.4760602
0
ARC
8
DEFAULT_255_1_234
10
7.1173574
20
52.7328453
40
0.4176524
50
89.9442578
51
94.747309
0
ARC
8
DEFAULT_255_1_234
10
7.1217321
20
52.815141
40
0.3353801
50
70.6103515
51
90.6779749
0
ARC
8
DEFAULT_255_1_234
10
7.1331623
20
52.860689
40
0.2886533
50
36.1152635
51
69.7489296
0
ARC
8
DEFAULT_255_1_234
10
7.0345027
20
52.7853708
40
0.4127561
50
15.4648517
51
36.4891396
0
ARC
8
DEFAULT_255_1_234
10
6.8286714
20
52.7254524
40
0.6271187
50
3.9220813
51
15.7265815
0
ARC
8
DEFAULT_255_1_234
10
6.5927557
20
52.7042325
40
0.863948
50
359.9268643
51
4.2559037
0
ARC
8
DEFAULT_255_1_234
10
6.6741938
20
52.7102103
40
0.6339295
50
359.7230081
51
7.7115859
0
ARC
8
DEFAULT_255_1_234
10
6.9003503
20
52.7418172
40
0.4055784
50
7.5740023
51
19.4151451
0
ARC
8
DEFAULT_255_1_234
10
7.0271142
20
52.7864519
40
0.2711858
50
19.4238354
51
34.9161182
0
ARC
8
DEFAULT_255_1_234
10
7.094188
20
52.8351172
40
0.1883373
50
34.4556322
51
84.4656458
0
ARC
8
DEFAULT_255_1_234
10
7.0813328
20
52.7596057
40
0.2647939
50
83.2727306
51
90.1114621
0
ARC
8
DEFAULT_255_1_234
10
7.0771186
20
52.7794509
40
0.2449763
50
89.1347934
51
111.4089923
0
ARC
8
DEFAULT_255_1_234
10
7.0691736
20
52.8122473
40
0.2115923
50
112.6478598
51
148.9260864
0
ARC
8
DEFAULT_255_1_234
10
7.1469534
20
52.7580985
40
0.3062228
50
147.7597608
51
154.928557
0
ARC
8
DEFAULT_255_1_234
10
7.1209595
20
52.6336379
40
0.2792708
50
205.8264786
51
224.5301003
0
ARC
8
DEFAULT_255_1_234
10
7.0731899
20
52.5909914
40
0.2153317
50
225.354483
51
269.2437579
0
ARC
8
DEFAULT_255_1_234
10
7.0823534
20
52.6716292
40
0.2961942
50
267.6770046
51
270.0136612
0
ARC
8
DEFAULT_255_1_234
10
7.0850885
20
52.5957938
40
0.2203751
50
269.3072485
51
289.499141
0
ARC
8
DEFAULT_255_1_234
10
7.092295
20
52.5661394
40
0.1900415
50
290.4353973
51
325.3766314
0
ARC
8
DEFAULT_255_1_234
10
7.0294172
20
52.6115643
40
0.2675986
50
325.0223901
51
342.692398
0
ARC
8
DEFAULT_255_1_234
10
6.859706
20
52.6667812
40
0.446058
50
342.4062876
51
352.8669243
0
ARC
8
DEFAULT_255_1_234
10
6.5876536
20
52.7024975
40
0.7204419
50
352.7350668
51
359.8556985
0
ARC
8
DEFAULT_255_1_234
10
6.3966231
20
52.7071018
40
0.9114927
50
359.5965197
51
0.0027543
0
LINE
8
DEFAULT_255_1_234
10
4.4202902
20
61.3723211
11
4.4202902
21
60.2029
0
LINE
8
DEFAULT_255_1_234
10
4.4202902
20
60.2029
11
4.2660808
21
60.2029
0
LINE
8
DEFAULT_255_1_234
10
4.2660808
20
60.2029
11
4.2660808
21
61.3723211
0
LINE
8
DEFAULT_255_1_234
10
4.2660808
20
61.3723211
11
4.4202902
21
61.3723211
0
LINE
8
DEFAULT_255_1_234
10
5.6009557
20
61.3723211
11
5.6009557
21
60.2029
0
LINE
8
DEFAULT_255_1_234
10
5.6009557
20
60.2029
11
5.4459432
21
60.2029
0
LINE
8
DEFAULT_255_1_234
10
5.4459432
20
60.2029
11
4.8572167
21
61.104061
0
LINE
8
DEFAULT_255_1_234
10
4.8572167
20
61.104061
11
4.8572167
21
60.2029
0
LINE
8
DEFAULT_255_1_234
10
4.8572167
20
60.2029
11
4.7022042
21
60.2029
0
LINE
8
DEFAULT_255_1_234
10
4.7022042
20
60.2029
11
4.7022042
21
61.3723211
0
LINE
8
DEFAULT_255_1_234
10
4.7022042
20
61.3723211
11
4.8572167
21
61.3723211
0
LINE
8
DEFAULT_255_1_234
10
4.8572167
20
61.3723211
11
5.4475495
21
60.4671442
0
LINE
8
DEFAULT_255_1_234
10
5.4475495
20
60.4671442
11
5.4475495
21
61.3723211
0
LINE
8
DEFAULT_255_1_234
10
5.4475495
20
61.3723211
11
5.6009557
21
61.3723211
0
LINE
8
DEFAULT_255_1_234
10
6.6025135
20
60.3241792
11
6.6025135
21
60.2029
0
LINE
8
DEFAULT_255_1_234
10
6.6025135
20
60.2029
11
5.8362856
21
60.2029
0
LINE
8
DEFAULT_255_1_234
10
5.8362856
20
60.2029
11
5.8362856
21
60.3097221
0
LINE
8
DEFAULT_255_1_234
10
5.8362856
20
60.3097221
11
6.2410853
21
60.7594995
0
LINE
8
DEFAULT_255_1_234
10
5.9623839
20
61.0277595
11
5.8137968
21
61.0277595
0
LINE
8
DEFAULT_255_1_234
10
6.3286312
20
60.6639218
11
6.0153934
21
60.3241792
0
LINE
8
DEFAULT_255_1_234
10
6.0153934
20
60.3241792
11
6.6025135
21
60.3241792
0
ARC
8
DEFAULT_255_1_234
10
4.8920686
20
61.9524527
40
1.8008286
50
318.5132453
51
320.7828378
0
ARC
8
DEFAULT_255_1_234
10
5.420766
20
61.5221426
40
1.1191493
50
320.7372736
51
323.9737074
0
ARC
8
DEFAULT_255_1_234
10
5.8127517
20
61.2381361
40
0.6350923
50
323.8961724
51
328.6421089
0
ARC
8
DEFAULT_255_1_234
10
6.0174112
20
61.1119031
40
0.3946393
50
328.8299013
51
331.789948
0
ARC
8
DEFAULT_255_1_234
10
6.1171291
20
61.0604509
40
0.2824501
50
331.4255242
51
352.9364833
0
ARC
8
DEFAULT_255_1_234
10
6.1307791
20
61.0573976
40
0.2685315
50
353.2248685
51
0.0169286
0
ARC
8
DEFAULT_255_1_234
10
6.1517668
20
61.059695
40
0.2475536
50
359.4866256
51
15.9339782
0
ARC
8
DEFAULT_255_1_234
10
6.2024653
20
61.0733286
40
0.1950618
50
16.1714718
51
43.5284424
0
ARC
8
DEFAULT_255_1_234
10
6.2101962
20
61.0810573
40
0.184134
50
43.4415429
51
83.1661404
0
ARC
8
DEFAULT_255_1_234
10
6.196788
20
61.0073771
40
0.258926
50
82.160215
51
90.1505798
0
ARC
8
DEFAULT_255_1_234
10
6.1936308
20
60.9536865
40
0.3126255
50
89.5460705
51
102.5418777
0
ARC
8
DEFAULT_255_1_234
10
6.1693394
20
61.0567665
40
0.2067346
50
102.1739365
51
129.2061916
0
ARC
8
DEFAULT_255_1_234
10
6.1614465
20
61.0692094
40
0.1921118
50
129.7279328
51
135.7542026
0
ARC
8
DEFAULT_255_1_234
10
6.1735993
20
61.0595045
40
0.2075944
50
136.175737
51
166.3674722
0
ARC
8
DEFAULT_255_1_234
10
6.2742912
20
61.0325182
40
0.3118201
50
165.9092917
51
178.8683903
0
ARC
8
DEFAULT_255_1_234
10
6.3607774
20
61.0278179
40
0.3983935
50
178.438168
51
180.0083905
0
ARC
8
DEFAULT_255_1_234
10
6.2206376
20
61.0317231
40
0.4068601
50
163.2878735
51
180.5581814
0
ARC
8
DEFAULT_255_1_234
10
6.1404637
20
61.053784
40
0.3237344
50
133.454115
51
162.9470031
0
ARC
8
DEFAULT_255_1_234
10
6.1583178
20
61.0348
40
0.349795
50
100.7869394
51
133.4384016
0
ARC
8
DEFAULT_255_1_234
10
6.193095
20
60.8799319
40
0.5084616
50
89.6605301
51
101.3704185
0
ARC
8
DEFAULT_255_1_234
10
6.1997289
20
60.8860496
40
0.502348
50
78.2171172
51
90.4130393
0
ARC
8
DEFAULT_255_1_234
10
6.2352367
20
61.0484637
40
0.3361092
50
55.9268222
51
78.4888551
0
ARC
8
DEFAULT_255_1_234
10
6.2548807
20
61.0823324
40
0.2970617
50
47.9292255
51
55.4054003
0
ARC
8
DEFAULT_255_1_234
10
6.2650368
20
61.0926502
40
0.2825983
50
4.3347696
51
48.0560701
0
ARC
8
DEFAULT_255_1_234
10
6.1554761
20
61.0756601
40
0.393225
50
359.925209
51
5.5967654
0
ARC
8
DEFAULT_255_1_234
10
6.1983653
20
61.0812816
40
0.3503892
50
337.8914096
51
358.9967724
0
ARC
8
DEFAULT_255_1_234
10
5.9270065
20
61.1859706
40
0.6412172
50
326.9135351
51
338.3505194
0
ARC
8
DEFAULT_255_1_234
10
5.5284369
20
61.4414284
40
1.1146189
50
319.6472867
51
327.095818
0
ARC
8
DEFAULT_255_1_234
10
5.1451372
20
61.7576
40
1.6114559
50
317.2586784
51
319.9046139
0
LINE
8
DEFAULT_255_1_234
10
7.2040907
20
60.2029
11
6.7984879
21
60.2029
0
LINE
8
DEFAULT_255_1_234
10
6.7984879
20
60.2029
11
6.7984879
21
61.3723211
0
LINE
8
DEFAULT_255_1_234
10
6.7984879
20
61.3723211
11
7.1807986
21
61.3723211
0
LINE
8
DEFAULT_255_1_234
10
7.2097129
20
60.7498614
11
6.9526973
21
60.7498614
0
LINE
8
DEFAULT_255_1_234
10
6.9526973
20
60.7498614
11
6.9526973
21
60.3289983
0
LINE
8
DEFAULT_255_1_234
10
6.9526973
20
60.3289983
11
7.2073034
21
60.3289983
0
LINE
8
DEFAULT_255_1_234
10
6.9526973
20
61.2454196
11
6.9526973
21
60.8735501
0
LINE
8
DEFAULT_255_1_234
10
6.9526973
20
60.8735501
11
7.1856177
21
60.8735501
0
LINE
8
DEFAULT_255_1_234
10
7.1807986
20
61.2454196
11
6.9526973
21
61.2454196
0
ARC
8
DEFAULT_255_1_234
10
7.1845695
20
60.6355901
40
0.7367406
50
82.1257326
51
90.2932599
0
ARC
8
DEFAULT_255_1_234
10
7.223465
20
60.9074013
40
0.4621653
50
69.9044149
51
82.2857423
0
ARC
8
DEFAULT_255_1_234
10
7.2805328
20
61.0616637
40
0.2976871
50
51.1838526
51
70.0181538
0
ARC
8
DEFAULT_255_1_234
10
7.3060294
20
61.098724
40
0.2528517
50
12.1017251
51
50.4214761
0
ARC
8
DEFAULT_255_1_234
10
7.1676168
20
61.0639676
40
0.3955061
50
359.5251267
51
12.8211707
0
ARC
8
DEFAULT_255_1_234
10
7.3256094
20
61.0570344
40
0.2375281
50
323.4908128
51
0.8817314
0
ARC
8
DEFAULT_255_1_234
10
7.2837781
20
61.089355
40
0.2903817
50
298.6825083
51
323.2756573
0
ARC
8
DEFAULT_255_1_234
10
7.2476144
20
61.1494649
40
0.3604842
50
293.1999386
51
299.1396394
0
ARC
8
DEFAULT_255_1_234
10
7.3149117
20
60.5409126
40
0.2871098
50
54.0011765
51
74.9167975
0
ARC
8
DEFAULT_255_1_234
10
7.3265476
20
60.5606332
40
0.2643248
50
36.3580696
51
53.5291921
0
ARC
8
DEFAULT_255_1_234
10
7.3138718
20
60.5515998
40
0.2798884
50
4.8189881
51
36.3089977
0
ARC
8
DEFAULT_255_1_234
10
7.2359554
20
60.540627
40
0.358478
50
359.9370252
51
5.5204067
0
ARC
8
DEFAULT_255_1_234
10
7.2035075
20
60.5365667
40
0.3909429
50
344.7478609
51
0.5373281
0
ARC
8
DEFAULT_255_1_234
10
7.3026046
20
60.5098544
40
0.2883093
50
311.1786488
51
344.6886812
0
ARC
8
DEFAULT_255_1_234
10
7.2734093
20
60.5461987
40
0.3348923
50
286.0418249
51
310.8441291
0
ARC
8
DEFAULT_255_1_234
10
7.2226925
20
60.7108807
40
0.5071869
50
274.1042341
51
286.4071509
0
ARC
8
DEFAULT_255_1_234
10
7.2050181
20
60.8992229
40
0.6963234
50
269.9236873
51
274.445647
0
ARC
8
DEFAULT_255_1_234
10
7.2096182
20
60.6652537
40
0.3362634
50
269.6055768
51
281.3740047
0
ARC
8
DEFAULT_255_1_234
10
7.232682
20
60.5559353
40
0.224546
50
281.1055983
51
302.5132223
0
ARC
8
DEFAULT_255_1_234
10
7.2473719
20
60.5295823
40
0.1944357
50
303.0368945
51
311.8811219
0
ARC
8
DEFAULT_255_1_234
10
7.2545126
20
60.521089
40
0.1833454
50
311.9916004
51
351.7143462
0
ARC
8
DEFAULT_255_1_234
10
7.1728356
20
60.537593
40
0.2665871
50
350.7339597
51
0.2221581
0
ARC
8
DEFAULT_255_1_234
10
7.1620802
20
60.5432467
40
0.2773789
50
359.0456241
51
17.2296242
0
ARC
8
DEFAULT_255_1_234
10
7.2659919
20
60.5741163
40
0.1689915
50
17.6685481
51
78.9940892
0
ARC
8
DEFAULT_255_1_234
10
7.2143083
20
60.3886224
40
0.3612658
50
76.5635957
51
90.6980921
0
LINE
8
DEFAULT_255_1_234
10
7.2099067
20
60.7498613
11
7.2097129
21
60.7498614
0
ARC
8
DEFAULT_255_1_234
10
7.1878743
20
61.2021036
40
0.3285612
50
269.6064736
51
281.4533503
0
ARC
8
DEFAULT_255_1_234
10
7.2101563
20
61.0969688
40
0.2210975
50
281.2041486
51
302.5148063
0
ARC
8
DEFAULT_255_1_234
10
7.2238413
20
61.0723241
40
0.1929674
50
303.021671
51
309.8369575
0
ARC
8
DEFAULT_255_1_234
10
7.2421875
20
61.0517488
40
0.1654181
50
309.5228395
51
356.9509836
0
ARC
8
DEFAULT_255_1_234
10
7.1758457
20
61.0612932
40
0.2322512
50
355.4701227
51
0.0492546
0
ARC
8
DEFAULT_255_1_234
10
7.1479548
20
61.0635094
40
0.2601498
50
359.5558597
51
11.2096359
0
ARC
8
DEFAULT_255_1_234
10
7.2436838
20
61.083323
40
0.1623975
50
10.9182341
51
31.3230275
0
ARC
8
DEFAULT_255_1_234
10
7.2722571
20
61.0992214
40
0.1297302
50
31.8852677
51
52.1412565
0
ARC
8
DEFAULT_255_1_234
10
7.2448304
20
61.060475
40
0.1771663
50
52.8285564
51
71.9850297
0
ARC
8
DEFAULT_255_1_234
10
7.2072481
20
60.9498664
40
0.2939794
50
71.6863486
51
82.8455995
0
ARC
8
DEFAULT_255_1_234
10
7.1833016
20
60.7689149
40
0.476506
50
82.6984714
51
90.1729175
0
ARC
8
DEFAULT_255_1_234
10
7.1810651
20
60.8912623
40
0.3541573
50
89.8708275
51
90.0431131
0
LINE
8
DEFAULT_255_1_234
10
4.5033902
20
69.3098211
11
4.5033902
21
68.1404
0
LINE
8
DEFAULT_255_1_234
10
4.5033902
20
68.1404
11
4.3491808
21
68.1404
0
LINE
8
DEFAULT_255_1_234
10
4.3491808
20
68.1404
11
4.3491808
21
69.3098211
0
LINE
8
DEFAULT_255_1_234
10
4.3491808
20
69.3098211
11
4.5033902
21
69.3098211
0
LINE
8
DEFAULT_255_1_234
10
5.6840557
20
69.3098211
11
5.6840557
21
68.1404
0
LINE
8
DEFAULT_255_1_234
10
5.6840557
20
68.1404
11
5.5290432
21
68.1404
0
LINE
8
DEFAULT_255_1_234
10
5.5290432
20
68.1404
11
4.9403167
21
69.041561
0
LINE
8
DEFAULT_255_1_234
10
4.9403167
20
69.041561
11
4.9403167
21
68.1404
0
LINE
8
DEFAULT_255_1_234
10
4.9403167
20
68.1404
11
4.7853042
21
68.1404
0
LINE
8
DEFAULT_255_1_234
10
4.7853042
20
68.1404
11
4.7853042
21
69.3098211
0
LINE
8
DEFAULT_255_1_234
10
4.7853042
20
69.3098211
11
4.9403167
21
69.3098211
0
LINE
8
DEFAULT_255_1_234
10
4.9403167
20
69.3098211
11
5.5306495
21
68.4046442
0
LINE
8
DEFAULT_255_1_234
10
5.5306495
20
68.4046442
11
5.5306495
21
69.3098211
0
LINE
8
DEFAULT_255_1_234
10
5.5306495
20
69.3098211
11
5.6840557
21
69.3098211
0
LINE
8
DEFAULT_255_1_234
10
6.6856135
20
68.2616792
11
6.6856135
21
68.1404
0
LINE
8
DEFAULT_255_1_234
10
6.6856135
20
68.1404
11
5.9193856
21
68.1404
0
LINE
8
DEFAULT_255_1_234
10
5.9193856
20
68.1404
11
5.9193856
21
68.2472221
0
LINE
8
DEFAULT_255_1_234
10
5.9193856
20
68.2472221
11
6.3241853
21
68.6969995
0
LINE
8
DEFAULT_255_1_234
10
6.0454839
20
68.9652595
11
5.8968968
21
68.9652595
0
LINE
8
DEFAULT_255_1_234
10
6.4117312
20
68.6014218
11
6.0984934
21
68.2616792
0
LINE
8
DEFAULT_255_1_234
10
6.0984934
20
68.2616792
11
6.6856135
21
68.2616792
0
ARC
8
DEFAULT_255_1_234
10
4.9751686
20
69.8899527
40
1.8008286
50
318.5132453
51
320.7828378
0
ARC
8
DEFAULT_255_1_234
10
5.503866
20
69.4596426
40
1.1191493
50
320.7372736
51
323.9737074
0
ARC
8
DEFAULT_255_1_234
10
5.8958517
20
69.1756361
40
0.6350923
50
323.8961724
51
328.6421089
0
ARC
8
DEFAULT_255_1_234
10
6.1005112
20
69.0494031
40
0.3946393
50
328.8299013
51
331.789948
0
ARC
8
DEFAULT_255_1_234
10
6.2002291
20
68.9979509
40
0.2824501
50
331.4255242
51
352.9364833
0
ARC
8
DEFAULT_255_1_234
10
6.2138791
20
68.9948976
40
0.2685315
50
353.2248685
51
0.0169286
0
ARC
8
DEFAULT_255_1_234
10
6.2348668
20
68.997195
40
0.2475536
50
359.4866256
51
15.9339782
0
ARC
8
DEFAULT_255_1_234
10
6.2855653
20
69.0108286
40
0.1950618
50
16.1714718
51
43.5284424
0
ARC
8
DEFAULT_255_1_234
10
6.2932962
20
69.0185573
40
0.184134
50
43.4415429
51
83.1661404
0
ARC
8
DEFAULT_255_1_234
10
6.279888
20
68.9448771
40
0.258926
50
82.160215
51
90.1505798
0
ARC
8
DEFAULT_255_1_234
10
6.2767308
20
68.8911865
40
0.3126255
50
89.5460705
51
102.5418777
0
ARC
8
DEFAULT_255_1_234
10
6.2524394
20
68.9942665
40
0.2067346
50
102.1739365
51
129.2061916
0
ARC
8
DEFAULT_255_1_234
10
6.2445465
20
69.0067094
40
0.1921118
50
129.7279328
51
135.7542026
0
ARC
8
DEFAULT_255_1_234
10
6.2566993
20
68.9970045
40
0.2075944
50
136.175737
51
166.3674722
0
ARC
8
DEFAULT_255_1_234
10
6.3573912
20
68.9700182
40
0.3118201
50
165.9092917
51
178.8683903
0
ARC
8
DEFAULT_255_1_234
10
6.4438774
20
68.9653179
40
0.3983935
50
178.438168
51
180.0083905
0
ARC
8
DEFAULT_255_1_234
10
6.3037376
20
68.9692231
40
0.4068601
50
163.2878735
51
180.5581814
0
ARC
8
DEFAULT_255_1_234
10
6.2235637
20
68.991284
40
0.3237344
50
133.454115
51
162.9470031
0
ARC
8
DEFAULT_255_1_234
10
6.2414178
20
68.9723
40
0.349795
50
100.7869394
51
133.4384016
0
ARC
8
DEFAULT_255_1_234
10
6.276195
20
68.8174319
40
0.5084616
50
89.6605301
51
101.3704185
0
ARC
8
DEFAULT_255_1_234
10
6.2828289
20
68.8235496
40
0.502348
50
78.2171172
51
90.4130393
0
ARC
8
DEFAULT_255_1_234
10
6.3183367
20
68.9859637
40
0.3361092
50
55.9268222
51
78.4888551
0
ARC
8
DEFAULT_255_1_234
10
6.3379807
20
69.0198324
40
0.2970617
50
47.9292255
51
55.4054003
0
ARC
8
DEFAULT_255_1_234
10
6.3481368
20
69.0301502
40
0.2825983
50
4.3347696
51
48.0560701
0
ARC
8
DEFAULT_255_1_234
10
6.2385761
20
69.0131601
40
0.393225
50
359.925209
51
5.5967654
0
ARC
8
DEFAULT_255_1_234
10
6.2814653
20
69.0187816
40
0.3503892
50
337.8914096
51
358.9967724
0
ARC
8
DEFAULT_255_1_234
10
6.0101065
20
69.1234706
40
0.6412172
50
326.9135351
51
338.3505194
0
ARC
8
DEFAULT_255_1_234
10
5.6115369
20
69.3789284
40
1.1146189
50
319.6472867
51
327.095818
0
ARC
8
DEFAULT_255_1_234
10
5.2282372
20
69.6951
40
1.6114559
50
317.2586784
51
319.9046139
0
LINE
8
DEFAULT_255_1_234
10
7.6389808
20
68.1404
11
7.5273396
21
68.4456061
0
LINE
8
DEFAULT_255_1_234
10
7.5273396
20
68.4456061
11
7.0374036
21
68.4456061
0
LINE
8
DEFAULT_255_1_234
10
7.0374036
20
68.4456061
11
6.9273688
21
68.1404
0
LINE
8
DEFAULT_255_1_234
10
6.9273688
20
68.1404
11
6.7683404
21
68.1404
0
LINE
8
DEFAULT_255_1_234
10
6.7683404
20
68.1404
11
7.214905
21
69.3098211
0
LINE
8
DEFAULT_255_1_234
10
7.214905
20
69.3098211
11
7.3498382
21
69.3098211
0
LINE
8
DEFAULT_255_1_234
10
7.3498382
20
69.3098211
11
7.7972061
21
68.1404
0
LINE
8
DEFAULT_255_1_234
10
7.7972061
20
68.1404
11
7.6389808
21
68.1404
0
LINE
8
DEFAULT_255_1_234
10
7.2823716
20
69.1194689
11
7.0839877
21
68.5725075
0
LINE
8
DEFAULT_255_1_234
10
7.0839877
20
68.5725075
11
7.4815587
21
68.5725075
0
LINE
8
DEFAULT_255_1_234
10
7.4815587
20
68.5725075
11
7.2823716
21
69.1194689
0
LINE
8
DEFAULT_255_1_234
10
4.3660902
20
77.2473211
11
4.3660902
21
76.0779
0
LINE
8
DEFAULT_255_1_234
10
4.3660902
20
76.0779
11
4.2118808
21
76.0779
0
LINE
8
DEFAULT_255_1_234
10
4.2118808
20
76.0779
11
4.2118808
21
77.2473211
0
LINE
8
DEFAULT_255_1_234
10
4.2118808
20
77.2473211
11
4.3660902
21
77.2473211
0
LINE
8
DEFAULT_255_1_234
10
5.5467557
20
77.2473211
11
5.5467557
21
76.0779
0
LINE
8
DEFAULT_255_1_234
10
5.5467557
20
76.0779
11
5.3917432
21
76.0779
0
LINE
8
DEFAULT_255_1_234
10
5.3917432
20
76.0779
11
4.8030167
21
76.979061
0
LINE
8
DEFAULT_255_1_234
10
4.8030167
20
76.979061
11
4.8030167
21
76.0779
0
LINE
8
DEFAULT_255_1_234
10
4.8030167
20
76.0779
11
4.6480042
21
76.0779
0
LINE
8
DEFAULT_255_1_234
10
4.6480042
20
76.0779
11
4.6480042
21
77.2473211
0
LINE
8
DEFAULT_255_1_234
10
4.6480042
20
77.2473211
11
4.8030167
21
77.2473211
0
LINE
8
DEFAULT_255_1_234
10
4.8030167
20
77.2473211
11
5.3933495
21
76.3421442
0
LINE
8
DEFAULT_255_1_234
10
5.3933495
20
76.3421442
11
5.3933495
21
77.2473211
0
LINE
8
DEFAULT_255_1_234
10
5.3933495
20
77.2473211
11
5.5467557
21
77.2473211
0
LINE
8
DEFAULT_255_1_234
10
6.2704153
20
77.2529433
11
6.2704153
21
76.0779
0
LINE
8
DEFAULT_255_1_234
10
6.2704153
20
76.0779
11
6.121025
21
76.0779
0
LINE
8
DEFAULT_255_1_234
10
6.121025
20
76.0779
11
6.121025
21
77.0682133
0
LINE
8
DEFAULT_255_1_234
10
6.121025
20
77.0682133
11
5.8214412
21
76.9581785
0
LINE
8
DEFAULT_255_1_234
10
5.8214412
20
76.9581785
11
5.8214412
21
77.0931117
0
LINE
8
DEFAULT_255_1_234
10
5.8214412
20
77.0931117
11
6.2471233
21
77.2529433
0
LINE
8
DEFAULT_255_1_234
10
6.2471233
20
77.2529433
11
6.2704153
21
77.2529433
0
LINE
8
DEFAULT_255_1_234
10
7.4567031
20
76.5156297
11
7.4567031
21
76.502779
0
LINE
8
DEFAULT_255_1_234
10
6.864764
20
76.1782967
11
6.8575354
21
76.0779
0
LINE
8
DEFAULT_255_1_234
10
6.8575354
20
76.0779
11
6.7209958
21
76.0779
0
LINE
8
DEFAULT_255_1_234
10
6.7209958
20
76.0779
11
6.7209958
21
77.311575
0
LINE
8
DEFAULT_255_1_234
10
6.7209958
20
77.311575
11
6.869583
21
77.311575
0
LINE
8
DEFAULT_255_1_234
10
6.869583
20
77.311575
11
6.869583
21
76.8513564
0
LINE
8
DEFAULT_255_1_234
10
6.869583
20
76.7003597
11
6.869583
21
76.3244744
0
ARC
8
DEFAULT_255_1_234
10
6.7520306
20
76.4983573
40
0.7046863
50
349.4825105
51
0.3595108
0
ARC
8
DEFAULT_255_1_234
10
6.9797547
20
76.4545022
40
0.4727857
50
331.8602128
51
349.6704139
0
ARC
8
DEFAULT_255_1_234
10
7.0530315
20
76.4188125
40
0.3913503
50
322.8939783
51
331.4081204
0
ARC
8
DEFAULT_255_1_234
10
7.1225713
20
76.3608707
40
0.300965
50
296.7249167
51
323.7044215
0
ARC
8
DEFAULT_255_1_234
10
7.125561
20
76.3678043
40
0.3058683
50
270.6342811
51
295.6405548
0
ARC
8
DEFAULT_255_1_234
10
7.119392
20
76.4480995
40
0.3862632
50
269.9967524
51
271.4174733
0
ARC
8
DEFAULT_255_1_234
10
7.1155584
20
76.4345686
40
0.3727515
50
253.657532
51
270.5859025
0
ARC
8
DEFAULT_255_1_234
10
7.092469
20
76.3502235
40
0.2853216
50
217.0543181
51
253.3409865
0
ARC
8
DEFAULT_255_1_234
10
7.0991358
20
76.6686052
40
0.2934152
50
93.1931545
51
141.4760602
0
ARC
8
DEFAULT_255_1_234
10
7.1173574
20
76.5453453
40
0.4176524
50
89.9442578
51
94.747309
0
ARC
8
DEFAULT_255_1_234
10
7.1217321
20
76.627641
40
0.3353801
50
70.6103515
51
90.6779749
0
ARC
8
DEFAULT_255_1_234
10
7.1331623
20
76.673189
40
0.2886533
50
36.1152635
51
69.7489296
0
ARC
8
DEFAULT_255_1_234
10
7.0345027
20
76.5978708
40
0.4127561
50
15.4648517
51
36.4891396
0
ARC
8
DEFAULT_255_1_234
10
6.8286714
20
76.5379524
40
0.6271187
50
3.9220813
51
15.7265815
0
ARC
8
DEFAULT_255_1_234
10
6.5927557
20
76.5167325
40
0.863948
50
359.9268643
51
4.2559037
0
ARC
8
DEFAULT_255_1_234
10
6.6741938
20
76.5227103
40
0.6339295
50
359.7230081
51
7.7115859
0
ARC
8
DEFAULT_255_1_234
10
6.9003503
20
76.5543172
40
0.4055784
50
7.5740023
51
19.4151451
0
ARC
8
DEFAULT_255_1_234
10
7.0271142
20
76.5989519
40
0.2711858
50
19.4238354
51
34.9161182
0
ARC
8
DEFAULT_255_1_234
10
7.094188
20
76.6476172
40
0.1883373
50
34.4556322
51
84.4656458
0
ARC
8
DEFAULT_255_1_234
10
7.0813328
20
76.5721057
40
0.2647939
50
83.2727306
51
90.1114621
0
ARC
8
DEFAULT_255_1_234
10
7.0771186
20
76.5919509
40
0.2449763
50
89.1347934
51
111.4089923
0
ARC
8
DEFAULT_255_1_234
10
7.0691736
20
76.6247473
40
0.2115923
50
112.6478598
51
148.9260864
0
ARC
8
DEFAULT_255_1_234
10
7.1469534
20
76.5705985
40
0.3062228
50
147.7597608
51
154.928557
0
ARC
8
DEFAULT_255_1_234
10
7.1209595
20
76.4461379
40
0.2792708
50
205.8264786
51
224.5301003
0
ARC
8
DEFAULT_255_1_234
10
7.0731899
20
76.4034914
40
0.2153317
50
225.354483
51
269.2437579
0
ARC
8
DEFAULT_255_1_234
10
7.0823534
20
76.4841292
40
0.2961942
50
267.6770046
51
270.0136612
0
ARC
8
DEFAULT_255_1_234
10
7.0850885
20
76.4082938
40
0.2203751
50
269.3072485
51
289.499141
0
ARC
8
DEFAULT_255_1_234
10
7.092295
20
76.3786394
40
0.1900415
50
290.4353973
51
325.3766314
0
ARC
8
DEFAULT_255_1_234
10
7.0294172
20
76.4240643
40
0.2675986
50
325.0223901
51
342.692398
0
ARC
8
DEFAULT_255_1_234
10
6.859706
20
76.4792812
40
0.446058
50
342.4062876
51
352.8669243
0
ARC
8
DEFAULT_255_1_234
10
6.5876536
20
76.5149975
40
0.7204419
50
352.7350668
51
359.8556985
0
ARC
8
DEFAULT_255_1_234
10
6.3966231
20
76.5196018
40
0.9114927
50
359.5965197
51
0.0027543
0
LINE
8
DEFAULT_255_1_234
10
4.4202902
20
85.1848211
11
4.4202902
21
84.0154
0
LINE
8
DEFAULT_255_1_234
10
4.4202902
20
84.0154
11
4.2660808
21
84.0154
0
LINE
8
DEFAULT_255_1_234
10
4.2660808
20
84.0154
11
4.2660808
21
85.1848211
0
LINE
8
DEFAULT_255_1_234
10
4.2660808
20
85.1848211
11
4.4202902
21
85.1848211
0
LINE
8
DEFAULT_255_1_234
10
5.6009557
20
85.1848211
11
5.6009557
21
84.0154
0
LINE
8
DEFAULT_255_1_234
10
5.6009557
20
84.0154
11
5.4459432
21
84.0154
0
LINE
8
DEFAULT_255_1_234
10
5.4459432
20
84.0154
11
4.8572167
21
84.916561
0
LINE
8
DEFAULT_255_1_234
10
4.8572167
20
84.916561
11
4.8572167
21
84.0154
0
LINE
8
DEFAULT_255_1_234
10
4.8572167
20
84.0154
11
4.7022042
21
84.0154
0
LINE
8
DEFAULT_255_1_234
10
4.7022042
20
84.0154
11
4.7022042
21
85.1848211
0
LINE
8
DEFAULT_255_1_234
10
4.7022042
20
85.1848211
11
4.8572167
21
85.1848211
0
LINE
8
DEFAULT_255_1_234
10
4.8572167
20
85.1848211
11
5.4475495
21
84.2796442
0
LINE
8
DEFAULT_255_1_234
10
5.4475495
20
84.2796442
11
5.4475495
21
85.1848211
0
LINE
8
DEFAULT_255_1_234
10
5.4475495
20
85.1848211
11
5.6009557
21
85.1848211
0
LINE
8
DEFAULT_255_1_234
10
6.3246153
20
85.1904433
11
6.3246153
21
84.0154
0
LINE
8
DEFAULT_255_1_234
10
6.3246153
20
84.0154
11
6.175225
21
84.0154
0
LINE
8
DEFAULT_255_1_234
10
6.175225
20
84.0154
11
6.175225
21
85.0057133
0
LINE
8
DEFAULT_255_1_234
10
6.175225
20
85.0057133
11
5.8756412
21
84.8956785
0
LINE
8
DEFAULT_255_1_234
10
5.8756412
20
84.8956785
11
5.8756412
21
85.0306117
0
LINE
8
DEFAULT_255_1_234
10
5.8756412
20
85.0306117
11
6.3013233
21
85.1904433
0
LINE
8
DEFAULT_255_1_234
10
6.3013233
20
85.1904433
11
6.3246153
21
85.1904433
0
LINE
8
DEFAULT_255_1_234
10
7.2040907
20
84.0154
11
6.7984879
21
84.0154
0
LINE
8
DEFAULT_255_1_234
10
6.7984879
20
84.0154
11
6.7984879
21
85.1848211
0
LINE
8
DEFAULT_255_1_234
10
6.7984879
20
85.1848211
11
7.1807986
21
85.1848211
0
LINE
8
DEFAULT_255_1_234
10
7.2097129
20
84.5623614
11
6.9526973
21
84.5623614
0
LINE
8
DEFAULT_255_1_234
10
6.9526973
20
84.5623614
11
6.9526973
21
84.1414983
0
LINE
8
DEFAULT_255_1_234
10
6.9526973
20
84.1414983
11
7.2073034
21
84.1414983
0
LINE
8
DEFAULT_255_1_234
10
6.9526973
20
85.0579196
11
6.9526973
21
84.6860501
0
LINE
8
DEFAULT_255_1_234
10
6.9526973
20
84.6860501
11
7.1856177
21
84.6860501
0
LINE
8
DEFAULT_255_1_234
10
7.1807986
20
85.0579196
11
6.9526973
21
85.0579196
0
ARC
8
DEFAULT_255_1_234
10
7.1845695
20
84.4480901
40
0.7367406
50
82.1257326
51
90.2932599
0
ARC
8
DEFAULT_255_1_234
10
7.223465
20
84.7199013
40
0.4621653
50
69.9044149
51
82.2857423
0
ARC
8
DEFAULT_255_1_234
10
7.2805328
20
84.8741637
40
0.2976871
50
51.1838526
51
70.0181538
0
ARC
8
DEFAULT_255_1_234
10
7.3060294
20
84.911224
40
0.2528517
50
12.1017251
51
50.4214761
0
ARC
8
DEFAULT_255_1_234
10
7.1676168
20
84.8764676
40
0.3955061
50
359.5251267
51
12.8211707
0
ARC
8
DEFAULT_255_1_234
10
7.3256094
20
84.8695344
40
0.2375281
50
323.4908128
51
0.8817314
0
ARC
8
DEFAULT_255_1_234
10
7.2837781
20
84.901855
40
0.2903817
50
298.6825083
51
323.2756573
0
ARC
8
DEFAULT_255_1_234
10
7.2476144
20
84.9619649
40
0.3604842
50
293.1999386
51
299.1396394
0
ARC
8
DEFAULT_255_1_234
10
7.3149117
20
84.3534126
40
0.2871098
50
54.0011765
51
74.9167975
0
ARC
8
DEFAULT_255_1_234
10
7.3265476
20
84.3731332
40
0.2643248
50
36.3580696
51
53.5291921
0
ARC
8
DEFAULT_255_1_234
10
7.3138718
20
84.3640998
40
0.2798884
50
4.8189881
51
36.3089977
0
ARC
8
DEFAULT_255_1_234
10
7.2359554
20
84.353127
40
0.358478
50
359.9370252
51
5.5204067
0
ARC
8
DEFAULT_255_1_234
10
7.2035075
20
84.3490667
40
0.3909429
50
344.7478609
51
0.5373281
0
ARC
8
DEFAULT_255_1_234
10
7.3026046
20
84.3223544
40
0.2883093
50
311.1786488
51
344.6886812
0
ARC
8
DEFAULT_255_1_234
10
7.2734093
20
84.3586987
40
0.3348923
50
286.0418249
51
310.8441291
0
ARC
8
DEFAULT_255_1_234
10
7.2226925
20
84.5233807
40
0.5071869
50
274.1042341
51
286.4071509
0
ARC
8
DEFAULT_255_1_234
10
7.2050181
20
84.7117229
40
0.6963234
50
269.9236873
51
274.445647
0
ARC
8
DEFAULT_255_1_234
10
7.2096182
20
84.4777537
40
0.3362634
50
269.6055768
51
281.3740047
0
ARC
8
DEFAULT_255_1_234
10
7.232682
20
84.3684353
40
0.224546
50
281.1055983
51
302.5132223
0
ARC
8
DEFAULT_255_1_234
10
7.2473719
20
84.3420823
40
0.1944357
50
303.0368945
51
311.8811219
0
ARC
8
DEFAULT_255_1_234
10
7.2545126
20
84.333589
40
0.1833454
50
311.9916004
51
351.7143462
0
ARC
8
DEFAULT_255_1_234
10
7.1728356
20
84.350093
40
0.2665871
50
350.7339597
51
0.2221581
0
ARC
8
DEFAULT_255_1_234
10
7.1620802
20
84.3557467
40
0.2773789
50
359.0456241
51
17.2296242
0
ARC
8
DEFAULT_255_1_234
10
7.2659919
20
84.3866163
40
0.1689915
50
17.6685481
51
78.9940892
0
ARC
8
DEFAULT_255_1_234
10
7.2143083
20
84.2011224
40
0.3612658
50
76.5635957
51
90.6980921
0
LINE
8
DEFAULT_255_1_234
10
7.2099067
20
84.5623613
11
7.2097129
21
84.5623614
0
ARC
8
DEFAULT_255_1_234
10
7.1878743
20
85.0146036
40
0.3285612
50
269.6064736
51
281.4533503
0
ARC
8
DEFAULT_255_1_234
10
7.2101563
20
84.9094688
40
0.2210975
50
281.2041486
51
302.5148063
0
ARC
8
DEFAULT_255_1_234
10
7.2238413
20
84.8848241
40
0.1929674
50
303.021671
51
309.8369575
0
ARC
8
DEFAULT_255_1_234
10
7.2421875
20
84.8642488
40
0.1654181
50
309.5228395
51
356.9509836
0
ARC
8
DEFAULT_255_1_234
10
7.1758457
20
84.8737932
40
0.2322512
50
355.4701227
51
0.0492546
0
ARC
8
DEFAULT_255_1_234
10
7.1479548
20
84.8760094
40
0.2601498
50
359.5558597
51
11.2096359
0
ARC
8
DEFAULT_255_1_234
10
7.2436838
20
84.895823
40
0.1623975
50
10.9182341
51
31.3230275
0
ARC
8
DEFAULT_255_1_234
10
7.2722571
20
84.9117214
40
0.1297302
50
31.8852677
51
52.1412565
0
ARC
8
DEFAULT_255_1_234
10
7.2448304
20
84.872975
40
0.1771663
50
52.8285564
51
71.9850297
0
ARC
8
DEFAULT_255_1_234
10
7.2072481
20
84.7623664
40
0.2939794
50
71.6863486
51
82.8455995
0
ARC
8
DEFAULT_255_1_234
10
7.1833016
20
84.5814149
40
0.476506
50
82.6984714
51
90.1729175
0
ARC
8
DEFAULT_255_1_234
10
7.1810651
20
84.7037623
40
0.3541573
50
89.8708275
51
90.0431131
0
LINE
8
DEFAULT_255_1_234
10
4.5033902
20
93.1223211
11
4.5033902
21
91.9529
0
LINE
8
DEFAULT_255_1_234
10
4.5033902
20
91.9529
11
4.3491808
21
91.9529
0
LINE
8
DEFAULT_255_1_234
10
4.3491808
20
91.9529
11
4.3491808
21
93.1223211
0
LINE
8
DEFAULT_255_1_234
10
4.3491808
20
93.1223211
11
4.5033902
21
93.1223211
0
LINE
8
DEFAULT_255_1_234
10
5.6840557
20
93.1223211
11
5.6840557
21
91.9529
0
LINE
8
DEFAULT_255_1_234
10
5.6840557
20
91.9529
11
5.5290432
21
91.9529
0
LINE
8
DEFAULT_255_1_234
10
5.5290432
20
91.9529
11
4.9403167
21
92.854061
0
LINE
8
DEFAULT_255_1_234
10
4.9403167
20
92.854061
11
4.9403167
21
91.9529
0
LINE
8
DEFAULT_255_1_234
10
4.9403167
20
91.9529
11
4.7853042
21
91.9529
0
LINE
8
DEFAULT_255_1_234
10
4.7853042
20
91.9529
11
4.7853042
21
93.1223211
0
LINE
8
DEFAULT_255_1_234
10
4.7853042
20
93.1223211
11
4.9403167
21
93.1223211
0
LINE
8
DEFAULT_255_1_234
10
4.9403167
20
93.1223211
11
5.5306495
21
92.2171442
0
LINE
8
DEFAULT_255_1_234
10
5.5306495
20
92.2171442
11
5.5306495
21
93.1223211
0
LINE
8
DEFAULT_255_1_234
10
5.5306495
20
93.1223211
11
5.6840557
21
93.1223211
0
LINE
8
DEFAULT_255_1_234
10
6.4077153
20
93.1279433
11
6.4077153
21
91.9529
0
LINE
8
DEFAULT_255_1_234
10
6.4077153
20
91.9529
11
6.258325
21
91.9529
0
LINE
8
DEFAULT_255_1_234
10
6.258325
20
91.9529
11
6.258325
21
92.9432133
0
LINE
8
DEFAULT_255_1_234
10
6.258325
20
92.9432133
11
5.9587412
21
92.8331785
0
LINE
8
DEFAULT_255_1_234
10
5.9587412
20
92.8331785
11
5.9587412
21
92.9681117
0
LINE
8
DEFAULT_255_1_234
10
5.9587412
20
92.9681117
11
6.3844233
21
93.1279433
0
LINE
8
DEFAULT_255_1_234
10
6.3844233
20
93.1279433
11
6.4077153
21
93.1279433
0
LINE
8
DEFAULT_255_1_234
10
7.6389808
20
91.9529
11
7.5273396
21
92.2581061
0
LINE
8
DEFAULT_255_1_234
10
7.5273396
20
92.2581061
11
7.0374036
21
92.2581061
0
LINE
8
DEFAULT_255_1_234
10
7.0374036
20
92.2581061
11
6.9273688
21
91.9529
0
LINE
8
DEFAULT_255_1_234
10
6.9273688
20
91.9529
11
6.7683404
21
91.9529
0
LINE
8
DEFAULT_255_1_234
10
6.7683404
20
91.9529
11
7.214905
21
93.1223211
0
LINE
8
DEFAULT_255_1_234
10
7.214905
20
93.1223211
11
7.3498382
21
93.1223211
0
LINE
8
DEFAULT_255_1_234
10
7.3498382
20
93.1223211
11
7.7972061
21
91.9529
0
LINE
8
DEFAULT_255_1_234
10
7.7972061
20
91.9529
11
7.6389808
21
91.9529
0
LINE
8
DEFAULT_255_1_234
10
7.2823716
20
92.9319689
11
7.0839877
21
92.3850075
0
LINE
8
DEFAULT_255_1_234
10
7.0839877
20
92.3850075
11
7.4815587
21
92.3850075
0
LINE
8
DEFAULT_255_1_234
10
7.4815587
20
92.3850075
11
7.2823716
21
92.9319689
0
LINE
8
DEFAULT_255_1_234
10
22.9621293
20
99.8904
11
22.8504881
21
100.1956061
0
LINE
8
DEFAULT_255_1_234
10
22.8504881
20
100.1956061
11
22.3605521
21
100.1956061
0
LINE
8
DEFAULT_255_1_234
10
22.3605521
20
100.1956061
11
22.2505173
21
99.8904
0
LINE
8
DEFAULT_255_1_234
10
22.2505173
20
99.8904
11
22.0914889
21
99.8904
0
LINE
8
DEFAULT_255_1_234
10
22.0914889
20
99.8904
11
22.5380535
21
101.0598211
0
LINE
8
DEFAULT_255_1_234
10
22.5380535
20
101.0598211
11
22.6729867
21
101.0598211
0
LINE
8
DEFAULT_255_1_234
10
22.6729867
20
101.0598211
11
23.1203545
21
99.8904
0
LINE
8
DEFAULT_255_1_234
10
23.1203545
20
99.8904
11
22.9621293
21
99.8904
0
LINE
8
DEFAULT_255_1_234
10
22.6055201
20
100.8694689
11
22.4071362
21
100.3225075
0
LINE
8
DEFAULT_255_1_234
10
22.4071362
20
100.3225075
11
22.8047072
21
100.3225075
0
LINE
8
DEFAULT_255_1_234
10
22.8047072
20
100.3225075
11
22.6055201
21
100.8694689
0
LINE
8
DEFAULT_255_1_234
10
23.9741283
20
100.2614663
11
24.1291409
21
100.2614663
0
LINE
8
DEFAULT_255_1_234
10
23.228783
20
100.4204947
11
23.228783
21
100.5329391
0
LINE
8
DEFAULT_255_1_234
10
24.1291409
20
100.6839357
11
23.9741283
21
100.6839357
0
LINE
8
DEFAULT_255_1_234
10
23.3837956
20
100.5289232
11
23.3837956
21
100.4156757
0
ARC
8
DEFAULT_255_1_234
10
23.5810796
20
100.3211846
40
0.5513052
50
340.1774281
51
353.7814284
0
ARC
8
DEFAULT_255_1_234
10
23.7382148
20
100.2626582
40
0.3836379
50
311.4558989
51
340.4421614
0
ARC
8
DEFAULT_255_1_234
10
23.7348816
20
100.2737528
40
0.3941894
50
282.4333181
51
310.7513653
0
ARC
8
DEFAULT_255_1_234
10
23.6909555
20
100.4552679
40
0.5809175
50
269.9358511
51
282.809604
0
ARC
8
DEFAULT_255_1_234
10
23.6857622
20
100.6010212
40
0.7266847
50
270.0021091
51
270.3581957
0
ARC
8
DEFAULT_255_1_234
10
23.6805039
20
100.3409585
40
0.4666519
50
250.7884749
51
270.6489167
0
ARC
8
DEFAULT_255_1_234
10
23.6636873
20
100.2772319
40
0.4009729
50
219.3627325
51
250.0611886
0
ARC
8
DEFAULT_255_1_234
10
23.7466084
20
100.3477042
40
0.5097822
50
193.5479632
51
219.5756669
0
ARC
8
DEFAULT_255_1_234
10
23.9837705
20
100.4092919
40
0.7547848
50
181.1218675
51
193.87563
0
ARC
8
DEFAULT_255_1_234
10
24.1907886
20
100.420358
40
0.9620055
50
179.9918545
51
181.5394234
0
ARC
8
DEFAULT_255_1_234
10
24.0056988
20
100.5366788
40
0.7769248
50
169.5837241
51
180.2757934
0
ARC
8
DEFAULT_255_1_234
10
23.8219926
20
100.5706229
40
0.590109
50
155.0365899
51
169.6003176
0
ARC
8
DEFAULT_255_1_234
10
23.708439
20
100.6253677
40
0.4640625
50
136.783148
51
155.2472683
0
ARC
8
DEFAULT_255_1_234
10
23.6694867
20
100.6584562
40
0.4130255
50
121.7633186
51
136.428115
0
ARC
8
DEFAULT_255_1_234
10
23.6829829
20
100.6335227
40
0.4413323
50
95.6459699
51
121.5490577
0
ARC
8
DEFAULT_255_1_234
10
23.6987111
20
100.5226949
40
0.55319
50
89.924208
51
96.1377933
0
ARC
8
DEFAULT_255_1_234
10
23.7037544
20
100.5345542
40
0.5413475
50
76.6779277
51
90.4563316
0
ARC
8
DEFAULT_255_1_234
10
23.7431167
20
100.6936114
40
0.3775041
50
47.485847
51
76.9287264
0
ARC
8
DEFAULT_255_1_234
10
23.728414
20
100.6836159
40
0.3948286
50
16.5424086
51
46.8933463
0
ARC
8
DEFAULT_255_1_234
10
23.5676297
20
100.6307861
40
0.564021
50
5.4072051
51
17.0365086
0
ARC
8
DEFAULT_255_1_234
10
23.4237314
20
100.6076679
40
0.5556559
50
7.8891745
51
15.9239216
0
ARC
8
DEFAULT_255_1_234
10
23.6224328
20
100.6653631
40
0.3487515
50
15.7653144
51
27.9410532
0
ARC
8
DEFAULT_255_1_234
10
23.7328546
20
100.724479
40
0.2235026
50
27.8166557
51
46.4008329
0
ARC
8
DEFAULT_255_1_234
10
23.7378188
20
100.7239082
40
0.2205286
50
47.4371857
51
75.0698205
0
ARC
8
DEFAULT_255_1_234
10
23.7069583
20
100.6164765
40
0.3322915
50
74.7008593
51
87.8124495
0
ARC
8
DEFAULT_255_1_234
10
23.699627
20
100.5108844
40
0.4380987
50
87.3814673
51
90.0240855
0
ARC
8
DEFAULT_255_1_234
10
23.6957814
20
100.6286291
40
0.3203749
50
89.3451631
51
108.5745436
0
ARC
8
DEFAULT_255_1_234
10
23.6820919
20
100.6799908
40
0.2673494
50
109.2998449
51
143.3037509
0
ARC
8
DEFAULT_255_1_234
10
23.7582992
20
100.6213881
40
0.3634757
50
143.0753173
51
163.1916937
0
ARC
8
DEFAULT_255_1_234
10
23.9534719
20
100.5597967
40
0.5681262
50
162.9373603
51
174.6208611
0
ARC
8
DEFAULT_255_1_234
10
24.2160761
20
100.531001
40
0.8322832
50
174.3419979
51
180.1430411
0
ARC
8
DEFAULT_255_1_234
10
24.1229918
20
100.4115698
40
0.7392076
50
179.6817502
51
189.150529
0
ARC
8
DEFAULT_255_1_234
10
23.8729166
20
100.369919
40
0.4856932
50
188.9910863
51
203.5773039
0
ARC
8
DEFAULT_255_1_234
10
23.7649498
20
100.3251211
40
0.3688271
50
203.9077269
51
215.1312379
0
ARC
8
DEFAULT_255_1_234
10
23.6726592
20
100.2535941
40
0.2522457
50
213.9071664
51
263.8849284
0
ARC
8
DEFAULT_255_1_234
10
23.6851921
20
100.3320518
40
0.3316174
50
263.1758525
51
270.1031083
0
ARC
8
DEFAULT_255_1_234
10
23.6884013
20
100.4567365
40
0.4563091
50
269.6719807
51
279.0609165
0
ARC
8
DEFAULT_255_1_234
10
23.7150781
20
100.2954907
40
0.2928759
50
278.8750225
51
293.6346586
0
ARC
8
DEFAULT_255_1_234
10
23.7470989
20
100.22029
40
0.2111472
50
293.8553404
51
310.0518804
0
ARC
8
DEFAULT_255_1_234
10
23.7475843
20
100.2140516
40
0.2060917
50
311.0646779
51
332.0108348
0
ARC
8
DEFAULT_255_1_234
10
23.628357
20
100.2797978
40
0.3422352
50
331.6588543
51
343.2878891
0
ARC
8
DEFAULT_255_1_234
10
23.4221085
20
100.3431798
40
0.5580003
50
343.1446044
51
351.010618
0
ARC
8
DEFAULT_255_1_234
10
23.2679731
20
100.3712871
40
0.7146438
50
350.7157277
51
351.1602153
0
LINE
8
DEFAULT_255_1_234
10
21.8641482
20
92.535201
11
21.8641482
21
92.1063062
0
LINE
8
DEFAULT_255_1_234
10
20.9629872
20
92.4813884
11
20.9629872
21
92.5833915
0
LINE
8
DEFAULT_255_1_234
10
21.8641482
20
92.7793659
11
21.7099389
21
92.7793659
0
LINE
8
DEFAULT_255_1_234
10
21.1179998
20
92.5874073
11
21.1179998
21
92.4918296
0
LINE
8
DEFAULT_255_1_234
10
21.710742
20
92.1472681
11
21.710742
21
92.4099059
0
LINE
8
DEFAULT_255_1_234
10
21.710742
20
92.4099059
11
21.4400725
21
92.4099059
0
LINE
8
DEFAULT_255_1_234
10
21.4400725
20
92.4099059
11
21.4400725
21
92.535201
0
LINE
8
DEFAULT_255_1_234
10
21.4400725
20
92.535201
11
21.8641482
21
92.535201
0
ARC
8
DEFAULT_255_1_234
10
21.5809989
20
92.3056396
40
0.3462765
50
295.8437914
51
324.8549609
0
ARC
8
DEFAULT_255_1_234
10
21.5393956
20
92.3809567
40
0.4322211
50
291.5695085
51
296.4549398
0
ARC
8
DEFAULT_255_1_234
10
21.4883207
20
92.5174275
40
0.5779178
50
278.6622409
51
291.3045483
0
ARC
8
DEFAULT_255_1_234
10
21.4543699
20
92.7322408
40
0.7953952
50
270.020006
51
278.7494541
0
ARC
8
DEFAULT_255_1_234
10
21.4505623
20
92.8639036
40
0.927067
50
269.9969998
51
270.2524872
0
ARC
8
DEFAULT_255_1_234
10
21.4467336
20
92.4555589
40
0.5187361
50
253.5786322
51
270.4175299
0
ARC
8
DEFAULT_255_1_234
10
21.4293992
20
92.3884236
40
0.4494451
50
238.8203306
51
253.2788235
0
ARC
8
DEFAULT_255_1_234
10
21.4274365
20
92.3833231
40
0.4440665
50
206.7883783
51
238.6962764
0
ARC
8
DEFAULT_255_1_234
10
21.5048275
20
92.4297405
40
0.5341121
50
206.1129412
51
207.4916643
0
ARC
8
DEFAULT_255_1_234
10
21.564519
20
92.4551488
40
0.5989041
50
188.6921119
51
205.7821245
0
ARC
8
DEFAULT_255_1_234
10
21.7501552
20
92.486723
40
0.7871862
50
180.3882829
51
188.9219216
0
ARC
8
DEFAULT_255_1_234
10
21.8729366
20
92.5890464
40
0.909967
50
170.2024264
51
180.3560651
0
ARC
8
DEFAULT_255_1_234
10
21.5565884
20
92.6456237
40
0.5886083
50
154.2857445
51
170.3893044
0
ARC
8
DEFAULT_255_1_234
10
21.4284087
20
92.704295
40
0.4476743
50
139.8401567
51
153.9332699
0
ARC
8
DEFAULT_255_1_234
10
21.3924823
20
92.7330577
40
0.4016697
50
98.4190291
51
139.6707122
0
ARC
8
DEFAULT_255_1_234
10
21.4304341
20
92.5485328
40
0.5898566
50
89.7659205
51
99.4415478
0
ARC
8
DEFAULT_255_1_234
10
21.436959
20
92.5550844
40
0.5833147
50
78.0551672
51
90.4042112
0
ARC
8
DEFAULT_255_1_234
10
21.47741
20
92.7369644
40
0.3970055
50
54.6380464
51
78.3339173
0
ARC
8
DEFAULT_255_1_234
10
21.4964156
20
92.7689795
40
0.3599102
50
50.031736
51
54.1558201
0
ARC
8
DEFAULT_255_1_234
10
21.4856944
20
92.7593766
40
0.3741624
50
18.1092409
51
49.7180913
0
ARC
8
DEFAULT_255_1_234
10
21.3400144
20
92.7060089
40
0.5292424
50
7.9672797
51
18.6984571
0
ARC
8
DEFAULT_255_1_234
10
21.3550622
20
92.7183504
40
0.3600838
50
9.7557294
51
27.3215714
0
ARC
8
DEFAULT_255_1_234
10
21.4678094
20
92.7746912
40
0.2340608
50
27.7361077
51
84.5257964
0
ARC
8
DEFAULT_255_1_234
10
21.4350481
20
92.610364
40
0.4011215
50
82.106034
51
90.2001166
0
ARC
8
DEFAULT_255_1_234
10
21.4300698
20
92.6611215
40
0.3503799
50
89.4150119
51
105.5823402
0
ARC
8
DEFAULT_255_1_234
10
21.4043696
20
92.7546867
40
0.2533503
50
105.6678618
51
144.2648758
0
ARC
8
DEFAULT_255_1_234
10
21.4936951
20
92.6911289
40
0.3629787
50
144.3561283
51
162.8564086
0
ARC
8
DEFAULT_255_1_234
10
21.702086
20
92.6242017
40
0.5818441
50
162.6076014
51
173.6780284
0
ARC
8
DEFAULT_255_1_234
10
22.0082004
20
92.586989
40
0.8902007
50
173.4670142
51
179.9730753
0
ARC
8
DEFAULT_255_1_234
10
21.8173675
20
92.487626
40
0.6993804
50
179.6556203
51
190.0080463
0
ARC
8
DEFAULT_255_1_234
10
21.5857504
20
92.4451375
40
0.4639066
50
189.8116607
51
206.6796816
0
ARC
8
DEFAULT_255_1_234
10
21.5012656
20
92.4057503
40
0.3707421
50
207.1031645
51
217.7074368
0
ARC
8
DEFAULT_255_1_234
10
21.4378345
20
92.3505559
40
0.2868417
50
216.7345547
51
265.6812148
0
ARC
8
DEFAULT_255_1_234
10
21.4509136
20
92.4409855
40
0.3780509
50
264.7366618
51
270.0611241
0
ARC
8
DEFAULT_255_1_234
10
21.4532399
20
92.7250111
40
0.662079
50
269.8335834
51
276.0539546
0
ARC
8
DEFAULT_255_1_234
10
21.4739404
20
92.534856
40
0.4708016
50
275.9894168
51
284.4615085
0
ARC
8
DEFAULT_255_1_234
10
21.4937411
20
92.4515663
40
0.3852094
50
284.7034461
51
286.4953897
0
ARC
8
DEFAULT_255_1_234
10
21.5344424
20
92.3204965
40
0.2479842
50
286.0770838
51
304.2625829
0
ARC
8
DEFAULT_255_1_234
10
21.5477838
20
92.2986594
40
0.2224291
50
304.5891602
51
317.1073298
0
LINE
8
DEFAULT_255_1_234
10
23.0199154
20
93.1223211
11
23.0199154
21
91.9529
0
LINE
8
DEFAULT_255_1_234
10
23.0199154
20
91.9529
11
22.8649028
21
91.9529
0
LINE
8
DEFAULT_255_1_234
10
22.8649028
20
91.9529
11
22.2761764
21
92.854061
0
LINE
8
DEFAULT_255_1_234
10
22.2761764
20
92.854061
11
22.2761764
21
91.9529
0
LINE
8
DEFAULT_255_1_234
10
22.2761764
20
91.9529
11
22.1211639
21
91.9529
0
LINE
8
DEFAULT_255_1_234
10
22.1211639
20
91.9529
11
22.1211639
21
93.1223211
0
LINE
8
DEFAULT_255_1_234
10
22.1211639
20
93.1223211
11
22.2761764
21
93.1223211
0
LINE
8
DEFAULT_255_1_234
10
22.2761764
20
93.1223211
11
22.8665092
21
92.2171442
0
LINE
8
DEFAULT_255_1_234
10
22.8665092
20
92.2171442
11
22.8665092
21
93.1223211
0
LINE
8
DEFAULT_255_1_234
10
22.8665092
20
93.1223211
11
23.0199154
21
93.1223211
0
LINE
8
DEFAULT_255_1_234
10
23.6174767
20
91.9529
11
23.2937977
21
91.9529
0
LINE
8
DEFAULT_255_1_234
10
23.2937977
20
91.9529
11
23.2937977
21
93.1223211
0
LINE
8
DEFAULT_255_1_234
10
23.2937977
20
93.1223211
11
23.6239021
21
93.1223211
0
LINE
8
DEFAULT_255_1_234
10
24.1395397
20
92.5769661
11
24.1395397
21
92.5022709
0
LINE
8
DEFAULT_255_1_234
10
23.627918
20
92.9954196
11
23.448007
21
92.9954196
0
LINE
8
DEFAULT_255_1_234
10
23.448007
20
92.9954196
11
23.448007
21
92.0789983
0
LINE
8
DEFAULT_255_1_234
10
23.448007
20
92.0789983
11
23.6102481
21
92.0789983
0
LINE
8
DEFAULT_255_1_234
10
23.9869367
20
92.5054836
11
23.9869367
21
92.5737534
0
ARC
8
DEFAULT_255_1_234
10
23.6277963
20
92.5357894
40
0.5865446
50
75.4101064
51
90.3804066
0
ARC
8
DEFAULT_255_1_234
10
23.6507477
20
92.6314492
40
0.4881916
50
60.145586
51
75.1888407
0
ARC
8
DEFAULT_255_1_234
10
23.6666252
20
92.6591199
40
0.4562893
50
26.5253612
51
60.1450928
0
ARC
8
DEFAULT_255_1_234
10
23.5546002
20
92.5997158
40
0.5830602
50
7.4030428
51
26.8320788
0
ARC
8
DEFAULT_255_1_234
10
23.3951758
20
92.5748804
40
0.7443669
50
0.1605367
51
7.7176192
0
ARC
8
DEFAULT_255_1_234
10
23.4115663
20
92.4984434
40
0.7279835
50
348.7289388
51
0.3012466
0
ARC
8
DEFAULT_255_1_234
10
23.5772093
20
92.4655386
40
0.559104
50
333.0706509
51
348.7181832
0
ARC
8
DEFAULT_255_1_234
10
23.6738851
20
92.4130319
40
0.4491417
50
299.2531685
51
333.4571258
0
ARC
8
DEFAULT_255_1_234
10
23.6377991
20
92.4815828
40
0.5265881
50
278.107187
51
299.0339503
0
ARC
8
DEFAULT_255_1_234
10
23.612207
20
92.6323216
40
0.679442
50
270.4443897
51
278.4511052
0
ARC
8
DEFAULT_255_1_234
10
23.61429
20
92.5394213
40
0.4604407
50
269.4970433
51
284.0205042
0
ARC
8
DEFAULT_255_1_234
10
23.6498201
20
92.4028978
40
0.3193797
50
283.7700273
51
318.1555492
0
ARC
8
DEFAULT_255_1_234
10
23.6160959
20
92.4281367
40
0.3613588
50
318.7415601
51
343.6873628
0
ARC
8
DEFAULT_255_1_234
10
23.4356982
20
92.4844832
40
0.5503313
50
343.3325091
51
355.8548958
0
ARC
8
DEFAULT_255_1_234
10
23.2258666
20
92.5044319
40
0.7610708
50
355.4988528
51
0.0791727
0
ARC
8
DEFAULT_255_1_234
10
23.3041289
20
92.577978
40
0.6828208
50
359.6455037
51
9.8607896
0
ARC
8
DEFAULT_255_1_234
10
23.5401987
20
92.6206099
40
0.4429406
50
9.6571907
51
26.1932807
0
ARC
8
DEFAULT_255_1_234
10
23.6329975
20
92.6637118
40
0.3406537
50
26.5777228
51
40.1532208
0
ARC
8
DEFAULT_255_1_234
10
23.6585702
20
92.6836619
40
0.308246
50
40.3840491
51
80.1431104
0
ARC
8
DEFAULT_255_1_234
10
23.625882
20
92.5387333
40
0.4566909
50
79.2152159
51
89.7445637
0
ENDSEC
0
EOF