0
SECTION
2
HEADER
9
$MEASUREMENT
70
1
0
ENDSEC
0
SECTION
2
TABLES
0
TABLE
2
LTYPE
0
LTYPE
72
65
70
64
2
CONTINUOUS
3
______
73
0
40
0
0
ENDTAB
0
TABLE
2
LAYER
0
LAYER
2
DEFAULT_255_2_778
70
0
62
255
6
CONTINUOUS
0
LAYER
2
DEFAULT_255_1_234
70
0
62
255
6
CONTINUOUS
0
LAYER
2
DEFAULT_255_2_778_1
70
0
62
255
6
CONTINUOUS
0
ENDTAB
0
ENDSEC
0
SECTION
2
ENTITIES
0
ARC
8
DEFAULT_255_2_778
10
3.5700693
20
107.5552026
40
0.7914215
50
129.1312896
51
180.1450914
0
ARC
8
DEFAULT_255_2_778
10
3.5703345
20
107.5556897
40
0.7912112
50
89.854026
51
129.1684493
0
ARC
8
DEFAULT_255_2_778
10
25.7993937
20
107.5553762
40
0.7915249
50
39.4792447
51
90.147911
0
ARC
8
DEFAULT_255_2_778
10
25.7999935
20
107.5552229
40
0.7911595
50
359.8533901
51
39.5154338
0
ARC
8
DEFAULT_255_2_778
10
25.7996693
20
-1.9863497
40
0.7914836
50
309.4761667
51
0.1482649
0
ARC
8
DEFAULT_255_2_778
10
25.799398
20
-1.9867808
40
0.7913235
50
269.8517415
51
309.511178
0
ARC
8
DEFAULT_255_2_778
10
3.570342
20
-1.9867226
40
0.7913815
50
219.1282118
51
270.1454017
0
ARC
8
DEFAULT_255_2_778
10
3.5700247
20
-1.9863401
40
0.7913769
50
179.8524075
51
219.1641908
0
LINE
8
DEFAULT_255_2_778
10
3.5723503
20
108.3468985
11
25.7973503
21
108.3468985
0
LINE
8
DEFAULT_255_2_778
10
26.5911503
20
107.5531985
11
26.5911503
21
-1.9843015
0
LINE
8
DEFAULT_255_2_778
10
25.7973503
20
-2.7781015
11
3.5723503
21
-2.7781015
0
LINE
8
DEFAULT_255_2_778
10
2.7786503
20
-1.9843015
11
2.7786503
21
107.5531985
0
LINE
8
DEFAULT_255_1_234
10
10.7026484
20
0.0153343
11
10.7026484
21
-0.110764
0
LINE
8
DEFAULT_255_1_234
10
10.7026484
20
-0.110764
11
10.1958458
21
-0.110764
0
LINE
8
DEFAULT_255_1_234
10
10.1958458
20
-0.110764
11
10.1958458
21
-0.5252017
0
LINE
8
DEFAULT_255_1_234
10
10.1958458
20
-0.5252017
11
10.7845722
21
-0.5252017
0
LINE
8
DEFAULT_255_1_234
10
10.7845722
20
-0.5252017
11
10.7845722
21
-0.6513
0
LINE
8
DEFAULT_255_1_234
10
10.7845722
20
-0.6513
11
10.0416364
21
-0.6513
0
LINE
8
DEFAULT_255_1_234
10
10.0416364
20
-0.6513
11
10.0416364
21
0.5181211
0
LINE
8
DEFAULT_255_1_234
10
10.0416364
20
0.5181211
11
10.7765404
21
0.5181211
0
LINE
8
DEFAULT_255_1_234
10
10.7765404
20
0.5181211
11
10.7765404
21
0.3912196
0
LINE
8
DEFAULT_255_1_234
10
10.7765404
20
0.3912196
11
10.1958458
21
0.3912196
0
LINE
8
DEFAULT_255_1_234
10
10.1958458
20
0.3912196
11
10.1958458
21
0.0153343
0
LINE
8
DEFAULT_255_1_234
10
10.1958458
20
0.0153343
11
10.7026484
21
0.0153343
0
LINE
8
DEFAULT_255_1_234
10
11.8752822
20
0.5181211
11
11.8752822
21
-0.6513
0
LINE
8
DEFAULT_255_1_234
10
11.8752822
20
-0.6513
11
11.7202697
21
-0.6513
0
LINE
8
DEFAULT_255_1_234
10
11.7202697
20
-0.6513
11
11.7202697
21
-0.110764
0
LINE
8
DEFAULT_255_1_234
10
11.7202697
20
-0.110764
11
11.1307401
21
-0.110764
0
LINE
8
DEFAULT_255_1_234
10
11.1307401
20
-0.110764
11
11.1307401
21
-0.6513
0
LINE
8
DEFAULT_255_1_234
10
11.1307401
20
-0.6513
11
10.9765307
21
-0.6513
0
LINE
8
DEFAULT_255_1_234
10
10.9765307
20
-0.6513
11
10.9765307
21
0.5181211
0
LINE
8
DEFAULT_255_1_234
10
10.9765307
20
0.5181211
11
11.1307401
21
0.5181211
0
LINE
8
DEFAULT_255_1_234
10
11.1307401
20
0.5181211
11
11.1307401
21
0.0153343
0
LINE
8
DEFAULT_255_1_234
10
11.1307401
20
0.0153343
11
11.7202697
21
0.0153343
0
LINE
8
DEFAULT_255_1_234
10
11.7202697
20
0.0153343
11
11.7202697
21
0.5181211
0
LINE
8
DEFAULT_255_1_234
10
11.7202697
20
0.5181211
11
11.8752822
21
0.5181211
0
LINE
8
DEFAULT_255_1_234
10
12.4350944
20
-0.0938974
11
12.4350944
21
-0.2151766
0
LINE
8
DEFAULT_255_1_234
10
12.4350944
20
-0.2151766
11
12.0431456
21
-0.2151766
0
LINE
8
DEFAULT_255_1_234
10
12.0431456
20
-0.2151766
11
12.0431456
21
-0.0938974
0
LINE
8
DEFAULT_255_1_234
10
12.0431456
20
-0.0938974
11
12.4350944
21
-0.0938974
0
LINE
8
DEFAULT_255_1_234
10
12.9266368
20
-0.6513
11
12.6029577
21
-0.6513
0
LINE
8
DEFAULT_255_1_234
10
12.6029577
20
-0.6513
11
12.6029577
21
0.5181211
0
LINE
8
DEFAULT_255_1_234
10
12.6029577
20
0.5181211
11
12.9330622
21
0.5181211
0
LINE
8
DEFAULT_255_1_234
10
13.4486998
20
-0.0272339
11
13.4486998
21
-0.1019291
0
LINE
8
DEFAULT_255_1_234
10
12.937078
20
0.3912196
11
12.7571671
21
0.3912196
0
LINE
8
DEFAULT_255_1_234
10
12.7571671
20
0.3912196
11
12.7571671
21
-0.5252017
0
LINE
8
DEFAULT_255_1_234
10
12.7571671
20
-0.5252017
11
12.9194082
21
-0.5252017
0
LINE
8
DEFAULT_255_1_234
10
13.2960967
20
-0.0987164
11
13.2960967
21
-0.0304466
0
ARC
8
DEFAULT_255_1_234
10
12.9369564
20
-0.0684106
40
0.5865446
50
75.4101064
51
90.3804066
0
ARC
8
DEFAULT_255_1_234
10
12.9599078
20
0.0272492
40
0.4881916
50
60.145586
51
75.1888407
0
ARC
8
DEFAULT_255_1_234
10
12.9757853
20
0.0549199
40
0.4562893
50
26.5253612
51
60.1450928
0
ARC
8
DEFAULT_255_1_234
10
12.8637602
20
-0.0044842
40
0.5830602
50
7.4030428
51
26.8320788
0
ARC
8
DEFAULT_255_1_234
10
12.7043359
20
-0.0293196
40
0.7443669
50
0.1605367
51
7.7176192
0
ARC
8
DEFAULT_255_1_234
10
12.7207264
20
-0.1057566
40
0.7279835
50
348.7289388
51
0.3012466
0
ARC
8
DEFAULT_255_1_234
10
12.8863694
20
-0.1386614
40
0.559104
50
333.0706509
51
348.7181832
0
ARC
8
DEFAULT_255_1_234
10
12.9830452
20
-0.1911681
40
0.4491417
50
299.2531685
51
333.4571258
0
ARC
8
DEFAULT_255_1_234
10
12.9469591
20
-0.1226172
40
0.5265881
50
278.107187
51
299.0339503
0
ARC
8
DEFAULT_255_1_234
10
12.921367
20
0.0281216
40
0.679442
50
270.4443897
51
278.4511052
0
ARC
8
DEFAULT_255_1_234
10
12.92345
20
-0.0647787
40
0.4604407
50
269.4970433
51
284.0205042
0
ARC
8
DEFAULT_255_1_234
10
12.9589801
20
-0.2013022
40
0.3193797
50
283.7700273
51
318.1555492
0
ARC
8
DEFAULT_255_1_234
10
12.9252559
20
-0.1760633
40
0.3613588
50
318.7415601
51
343.6873628
0
ARC
8
DEFAULT_255_1_234
10
12.7448583
20
-0.1197168
40
0.5503313
50
343.3325091
51
355.8548958
0
ARC
8
DEFAULT_255_1_234
10
12.5350267
20
-0.0997681
40
0.7610708
50
355.4988528
51
0.0791727
0
ARC
8
DEFAULT_255_1_234
10
12.613289
20
-0.026222
40
0.6828208
50
359.6455037
51
9.8607896
0
ARC
8
DEFAULT_255_1_234
10
12.8493587
20
0.0164099
40
0.4429406
50
9.6571907
51
26.1932807
0
ARC
8
DEFAULT_255_1_234
10
12.9421576
20
0.0595118
40
0.3406537
50
26.5777228
51
40.1532208
0
ARC
8
DEFAULT_255_1_234
10
12.9677303
20
0.0794619
40
0.308246
50
40.3840491
51
80.1431104
0
ARC
8
DEFAULT_255_1_234
10
12.935042
20
-0.0654667
40
0.4566909
50
79.2152159
51
89.7445637
0
LINE
8
DEFAULT_255_1_234
10
14.1996673
20
0.5189243
11
14.226172
21
0.5189243
0
LINE
8
DEFAULT_255_1_234
10
14.226172
20
0.5189243
11
14.226172
21
0.392826
0
LINE
8
DEFAULT_255_1_234
10
14.226172
20
0.392826
11
14.1988641
21
0.392826
0
LINE
8
DEFAULT_255_1_234
10
13.6519027
20
-0.2063417
11
13.6519027
21
-0.1493164
0
LINE
8
DEFAULT_255_1_234
10
13.8012931
20
-0.1685925
11
13.8012931
21
-0.2232083
0
ARC
8
DEFAULT_255_1_234
10
14.2040989
20
-0.1069545
40
0.4998079
50
90.6001036
51
104.514704
0
ARC
8
DEFAULT_255_1_234
10
14.1652504
20
0.0375131
40
0.3502176
50
104.2855254
51
133.862935
0
ARC
8
DEFAULT_255_1_234
10
14.1816262
20
0.026683
40
0.3693984
50
134.5302688
51
161.6210873
0
ARC
8
DEFAULT_255_1_234
10
14.346945
20
-0.0316105
40
0.5446739
50
161.2849839
51
174.2076652
0
ARC
8
DEFAULT_255_1_234
10
14.4876388
20
-0.0510213
40
0.6866274
50
173.7810589
51
174.9254635
0
ARC
8
DEFAULT_255_1_234
10
14.032622
20
-0.1893161
40
0.3033419
50
95.8330959
51
138.9954921
0
ARC
8
DEFAULT_255_1_234
10
14.0549576
20
-0.3171625
40
0.4328947
50
89.8753725
51
97.0544009
0
ARC
8
DEFAULT_255_1_234
10
14.0597042
20
-0.2336252
40
0.3493769
50
71.6407809
51
90.6240094
0
ARC
8
DEFAULT_255_1_234
10
14.0747615
20
-0.1781918
40
0.2920396
50
39.6367836
51
71.019018
0
ARC
8
DEFAULT_255_1_234
10
14.0111088
20
-0.2332002
40
0.3761538
50
10.658731
51
39.9043955
0
ARC
8
DEFAULT_255_1_234
10
13.8563171
20
-0.2668314
40
0.5345136
50
359.682601
51
11.132623
0
ARC
8
DEFAULT_255_1_234
10
13.8523302
20
-0.273899
40
0.5385081
50
347.2486944
51
0.4369317
0
ARC
8
DEFAULT_255_1_234
10
14.0190779
20
-0.3140193
40
0.3670249
50
318.1409698
51
347.6118597
0
ARC
8
DEFAULT_255_1_234
10
14.0515772
20
-0.3407298
40
0.3250007
50
275.6342139
51
317.8248465
0
ARC
8
DEFAULT_255_1_234
10
14.0294883
20
-0.2107781
40
0.4565864
50
269.8874292
51
276.7917694
0
ARC
8
DEFAULT_255_1_234
10
14.0239954
20
-0.3133257
40
0.3540676
50
246.9140195
51
270.7437342
0
ARC
8
DEFAULT_255_1_234
10
14.0246344
20
-0.3275616
40
0.3412781
50
218.1665114
51
245.878116
0
ARC
8
DEFAULT_255_1_234
10
14.1125805
20
-0.2539721
40
0.455911
50
191.4115814
51
218.6077802
0
ARC
8
DEFAULT_255_1_234
10
14.3063894
20
-0.2105167
40
0.6545001
50
179.6345085
51
191.7836486
0
ARC
8
DEFAULT_255_1_234
10
14.8646231
20
-0.1426303
40
1.2127388
50
171.4525249
51
180.3158839
0
ARC
8
DEFAULT_255_1_234
10
14.4251106
20
-0.0742392
40
0.7679464
50
157.9802646
51
171.6246686
0
ARC
8
DEFAULT_255_1_234
10
14.2037127
20
0.0140421
40
0.5296008
50
141.4298019
51
157.854097
0
ARC
8
DEFAULT_255_1_234
10
14.1395448
20
0.0594381
40
0.4511509
50
102.8715806
51
140.8564722
0
ARC
8
DEFAULT_255_1_234
10
14.2043064
20
-0.1845448
40
0.7034845
50
90.3778349
51
103.5869322
0
ARC
8
DEFAULT_255_1_234
10
14.030484
20
-0.245027
40
0.2370698
50
89.8751008
51
126.2071704
0
ARC
8
DEFAULT_255_1_234
10
14.035063
20
-0.2604697
40
0.2522934
50
124.9745049
51
144.895901
0
ARC
8
DEFAULT_255_1_234
10
14.017482
20
-0.246144
40
0.2296779
50
145.2974905
51
160.2660252
0
ARC
8
DEFAULT_255_1_234
10
14.3247359
20
-0.2263929
40
0.5234525
50
179.6514266
51
190.2855912
0
ARC
8
DEFAULT_255_1_234
10
14.1553496
20
-0.2583214
40
0.3510893
50
190.0945431
51
207.5098196
0
ARC
8
DEFAULT_255_1_234
10
14.0987766
20
-0.2852377
40
0.288489
50
207.9583163
51
216.3251085
0
ARC
8
DEFAULT_255_1_234
10
14.0647874
20
-0.3131895
40
0.2445587
50
215.7661442
51
232.5456785
0
ARC
8
DEFAULT_255_1_234
10
14.0264857
20
-0.3618518
40
0.1826382
50
232.8005391
51
270.6605633
0
ARC
8
DEFAULT_255_1_234
10
14.0310558
20
-0.3254388
40
0.2190529
50
269.35537
51
288.4744281
0
ARC
8
DEFAULT_255_1_234
10
14.0403455
20
-0.3603882
40
0.1829749
50
289.1833337
51
322.9683818
0
ARC
8
DEFAULT_255_1_234
10
13.9791977
20
-0.3121609
40
0.2608399
50
322.6007884
51
346.5182367
0
ARC
8
DEFAULT_255_1_234
10
13.8634573
20
-0.2826384
40
0.3802777
50
346.2582162
51
358.7741648
0
ARC
8
DEFAULT_255_1_234
10
13.7616242
20
-0.2771035
40
0.4822176
50
358.3755224
51
0.0098023
0
ARC
8
DEFAULT_255_1_234
10
13.8372429
20
-0.2743343
40
0.4066078
50
359.6214041
51
11.2839074
0
ARC
8
DEFAULT_255_1_234
10
13.9649576
20
-0.2476934
40
0.2761514
50
11.0482309
51
31.8146458
0
ARC
8
DEFAULT_255_1_234
10
13.9958619
20
-0.2309416
40
0.2410679
50
32.3035391
51
38.082671
0
ARC
8
DEFAULT_255_1_234
10
14.0379279
20
-0.1928338
40
0.1844966
50
36.825067
51
85.7415724
0
ARC
8
DEFAULT_255_1_234
10
14.0312112
20
-0.2428699
40
0.2349122
50
85.0140713
51
90.0513278
0
LINE
8
DEFAULT_255_1_234
10
15.2662821
20
0.0153343
11
15.2662821
21
-0.110764
0
LINE
8
DEFAULT_255_1_234
10
15.2662821
20
-0.110764
11
14.7594794
21
-0.110764
0
LINE
8
DEFAULT_255_1_234
10
14.7594794
20
-0.110764
11
14.7594794
21
-0.5252017
0
LINE
8
DEFAULT_255_1_234
10
14.7594794
20
-0.5252017
11
15.3482059
21
-0.5252017
0
LINE
8
DEFAULT_255_1_234
10
15.3482059
20
-0.5252017
11
15.3482059
21
-0.6513
0
LINE
8
DEFAULT_255_1_234
10
15.3482059
20
-0.6513
11
14.6052701
21
-0.6513
0
LINE
8
DEFAULT_255_1_234
10
14.6052701
20
-0.6513
11
14.6052701
21
0.5181211
0
LINE
8
DEFAULT_255_1_234
10
14.6052701
20
0.5181211
11
15.3401741
21
0.5181211
0
LINE
8
DEFAULT_255_1_234
10
15.3401741
20
0.5181211
11
15.3401741
21
0.3912196
0
LINE
8
DEFAULT_255_1_234
10
15.3401741
20
0.3912196
11
14.7594794
21
0.3912196
0
LINE
8
DEFAULT_255_1_234
10
14.7594794
20
0.3912196
11
14.7594794
21
0.0153343
0
LINE
8
DEFAULT_255_1_234
10
14.7594794
20
0.0153343
11
15.2662821
21
0.0153343
0
LINE
8
DEFAULT_255_1_234
10
16.2228622
20
-0.6513
11
15.9690592
21
-0.1782306
0
LINE
8
DEFAULT_255_1_234
10
15.9690592
20
-0.1782306
11
15.6943738
21
-0.1782306
0
LINE
8
DEFAULT_255_1_234
10
15.6943738
20
-0.1782306
11
15.6943738
21
-0.6513
0
LINE
8
DEFAULT_255_1_234
10
15.6943738
20
-0.6513
11
15.5393612
21
-0.6513
0
LINE
8
DEFAULT_255_1_234
10
15.5393612
20
-0.6513
11
15.5393612
21
0.5181211
0
LINE
8
DEFAULT_255_1_234
10
15.5393612
20
0.5181211
11
15.926491
21
0.5181211
0
LINE
8
DEFAULT_255_1_234
10
16.1136305
20
-0.1453005
11
16.388316
21
-0.6416619
0
LINE
8
DEFAULT_255_1_234
10
16.388316
20
-0.6416619
11
16.388316
21
-0.6513
0
LINE
8
DEFAULT_255_1_234
10
16.388316
20
-0.6513
11
16.2228622
21
-0.6513
0
LINE
8
DEFAULT_255_1_234
10
15.6943738
20
0.3912196
11
15.6943738
21
-0.0521323
0
LINE
8
DEFAULT_255_1_234
10
15.6943738
20
-0.0521323
11
15.9313101
21
-0.0521323
0
LINE
8
DEFAULT_255_1_234
10
15.9305069
20
0.3912196
11
15.6943738
21
0.3912196
0
ARC
8
DEFAULT_255_1_234
10
15.930655
20
-0.1780239
40
0.6961575
50
80.653586
51
90.3427061
0
ARC
8
DEFAULT_255_1_234
10
15.9726024
20
0.0682348
40
0.4463577
50
65.6987447
51
80.8329603
0
ARC
8
DEFAULT_255_1_234
10
16.0203665
20
0.1777322
40
0.3269094
50
50.0017161
51
65.4305835
0
ARC
8
DEFAULT_255_1_234
10
16.0422129
20
0.2072482
40
0.2902647
50
11.628416
51
49.5603263
0
ARC
8
DEFAULT_255_1_234
10
15.8886465
20
0.1697299
40
0.4482792
50
359.5655735
51
12.3691
0
ARC
8
DEFAULT_255_1_234
10
15.9963325
20
0.1634644
40
0.3405924
50
341.9983148
51
0.4822259
0
ARC
8
DEFAULT_255_1_234
10
16.0358165
20
0.1527471
40
0.2997359
50
323.8609373
51
341.61416
0
ARC
8
DEFAULT_255_1_234
10
16.0056409
20
0.1760484
40
0.3378487
50
296.7018614
51
323.6876402
0
ARC
8
DEFAULT_255_1_234
10
15.9615305
20
0.2549235
40
0.4281516
50
290.8086567
51
297.2323311
0
ARC
8
DEFAULT_255_1_234
10
15.9338834
20
0.3072351
40
0.3593766
50
269.589728
51
281.8058135
0
ARC
8
DEFAULT_255_1_234
10
15.9589733
20
0.1924743
40
0.2419125
50
281.5501019
51
303.9357432
0
ARC
8
DEFAULT_255_1_234
10
15.9726921
20
0.1686936
40
0.2145323
50
304.4415616
51
311.2106213
0
ARC
8
DEFAULT_255_1_234
10
15.9859026
20
0.1547632
40
0.1953505
50
310.9875673
51
356.2715578
0
ARC
8
DEFAULT_255_1_234
10
15.9102675
20
0.1660422
40
0.2716331
50
354.9348262
51
0.0609027
0
ARC
8
DEFAULT_255_1_234
10
15.8915549
20
0.1687435
40
0.2903554
50
359.5239371
51
12.8808918
0
ARC
8
DEFAULT_255_1_234
10
15.9893105
20
0.1926728
40
0.1897315
50
12.4173452
51
43.1022135
0
ARC
8
DEFAULT_255_1_234
10
15.9954709
20
0.1963724
40
0.1827118
50
43.5751728
51
48.203944
0
ARC
8
DEFAULT_255_1_234
10
15.9785201
20
0.1742302
40
0.2105272
50
48.7809703
51
72.6969569
0
ARC
8
DEFAULT_255_1_234
10
15.9430826
20
0.066682
40
0.3237537
50
72.3702241
51
84.8791103
0
ARC
8
DEFAULT_255_1_234
10
15.9283302
20
-0.0675231
40
0.4587478
50
84.5400526
51
89.7281406
0
LINE
8
DEFAULT_255_1_234
10
17.2967056
20
0.5181211
11
17.2967056
21
0.3912196
0
LINE
8
DEFAULT_255_1_234
10
17.2967056
20
0.3912196
11
16.9208202
21
0.3912196
0
LINE
8
DEFAULT_255_1_234
10
16.9208202
20
0.3912196
11
16.9208202
21
-0.6513
0
LINE
8
DEFAULT_255_1_234
10
16.9208202
20
-0.6513
11
16.767414
21
-0.6513
0
LINE
8
DEFAULT_255_1_234
10
16.767414
20
-0.6513
11
16.767414
21
0.3912196
0
LINE
8
DEFAULT_255_1_234
10
16.767414
20
0.3912196
11
16.3923318
21
0.3912196
0
LINE
8
DEFAULT_255_1_234
10
16.3923318
20
0.3912196
11
16.3923318
21
0.5181211
0
LINE
8
DEFAULT_255_1_234
10
16.3923318
20
0.5181211
11
17.2967056
21
0.5181211
0
LINE
8
DEFAULT_255_1_234
10
17.7938702
20
-0.6513
11
17.4701911
21
-0.6513
0
LINE
8
DEFAULT_255_1_234
10
17.4701911
20
-0.6513
11
17.4701911
21
0.5181211
0
LINE
8
DEFAULT_255_1_234
10
17.4701911
20
0.5181211
11
17.8002956
21
0.5181211
0
LINE
8
DEFAULT_255_1_234
10
18.3159332
20
-0.0272339
11
18.3159332
21
-0.1019291
0
LINE
8
DEFAULT_255_1_234
10
17.8043114
20
0.3912196
11
17.6244005
21
0.3912196
0
LINE
8
DEFAULT_255_1_234
10
17.6244005
20
0.3912196
11
17.6244005
21
-0.5252017
0
LINE
8
DEFAULT_255_1_234
10
17.6244005
20
-0.5252017
11
17.7866416
21
-0.5252017
0
LINE
8
DEFAULT_255_1_234
10
18.1633301
20
-0.0987164
11
18.1633301
21
-0.0304466
0
ARC
8
DEFAULT_255_1_234
10
17.8041898
20
-0.0684106
40
0.5865446
50
75.4101064
51
90.3804066
0
ARC
8
DEFAULT_255_1_234
10
17.8271412
20
0.0272492
40
0.4881916
50
60.145586
51
75.1888407
0
ARC
8
DEFAULT_255_1_234
10
17.8430187
20
0.0549199
40
0.4562893
50
26.5253612
51
60.1450928
0
ARC
8
DEFAULT_255_1_234
10
17.7309936
20
-0.0044842
40
0.5830602
50
7.4030428
51
26.8320788
0
ARC
8
DEFAULT_255_1_234
10
17.5715693
20
-0.0293196
40
0.7443669
50
0.1605367
51
7.7176192
0
ARC
8
DEFAULT_255_1_234
10
17.5879598
20
-0.1057566
40
0.7279835
50
348.7289388
51
0.3012466
0
ARC
8
DEFAULT_255_1_234
10
17.7536028
20
-0.1386614
40
0.559104
50
333.0706509
51
348.7181832
0
ARC
8
DEFAULT_255_1_234
10
17.8502786
20
-0.1911681
40
0.4491417
50
299.2531685
51
333.4571258
0
ARC
8
DEFAULT_255_1_234
10
17.8141925
20
-0.1226172
40
0.5265881
50
278.107187
51
299.0339503
0
ARC
8
DEFAULT_255_1_234
10
17.7886004
20
0.0281216
40
0.679442
50
270.4443897
51
278.4511052
0
ARC
8
DEFAULT_255_1_234
10
17.7906834
20
-0.0647787
40
0.4604407
50
269.4970433
51
284.0205042
0
ARC
8
DEFAULT_255_1_234
10
17.8262135
20
-0.2013022
40
0.3193797
50
283.7700273
51
318.1555492
0
ARC
8
DEFAULT_255_1_234
10
17.7924893
20
-0.1760633
40
0.3613588
50
318.7415601
51
343.6873628
0
ARC
8
DEFAULT_255_1_234
10
17.6120917
20
-0.1197168
40
0.5503313
50
343.3325091
51
355.8548958
0
ARC
8
DEFAULT_255_1_234
10
17.4022601
20
-0.0997681
40
0.7610708
50
355.4988528
51
0.0791727
0
ARC
8
DEFAULT_255_1_234
10
17.4805224
20
-0.026222
40
0.6828208
50
359.6455037
51
9.8607896
0
ARC
8
DEFAULT_255_1_234
10
17.7165921
20
0.0164099
40
0.4429406
50
9.6571907
51
26.1932807
0
ARC
8
DEFAULT_255_1_234
10
17.809391
20
0.0595118
40
0.3406537
50
26.5777228
51
40.1532208
0
ARC
8
DEFAULT_255_1_234
10
17.8349637
20
0.0794619
40
0.308246
50
40.3840491
51
80.1431104
0
ARC
8
DEFAULT_255_1_234
10
17.8022754
20
-0.0654667
40
0.4566909
50
79.2152159
51
89.7445637
0
LINE
8
DEFAULT_255_2_778
10
20.8171981
20
106.9520229
11
21.4600981
21
106.9520229
0
LINE
8
DEFAULT_255_2_778
10
19.5074981
20
106.9520229
11
19.5074981
21
105.9476229
0
LINE
8
DEFAULT_255_2_778
10
19.5074981
20
105.9476229
11
20.8171981
21
105.9476229
0
LINE
8
DEFAULT_255_2_778
10
20.8171981
20
105.9476229
11
20.8171981
21
106.9520229
0
LINE
8
DEFAULT_255_2_778
10
21.4600981
20
106.9520229
11
21.4600981
21
104.4348229
0
LINE
8
DEFAULT_255_2_778
10
21.4600981
20
104.4348229
11
20.8171981
21
104.4348229
0
LINE
8
DEFAULT_255_2_778
10
20.8171981
20
104.4348229
11
20.8171981
21
105.5447229
0
LINE
8
DEFAULT_255_2_778
10
20.8171981
20
105.5447229
11
19.5074981
21
105.5447229
0
LINE
8
DEFAULT_255_2_778
10
19.5074981
20
105.5447229
11
19.5074981
21
104.4371229
0
LINE
8
DEFAULT_255_2_778
10
19.5074981
20
104.4371229
11
18.8642981
21
104.4371229
0
LINE
8
DEFAULT_255_2_778
10
18.8642981
20
104.4371229
11
18.8642981
21
106.9520229
0
LINE
8
DEFAULT_255_2_778
10
18.8642981
20
106.9520229
11
19.5074981
21
106.9520229
0
LINE
8
DEFAULT_255_2_778
10
13.3725981
20
106.9520229
11
13.3725981
21
106.5239229
0
LINE
8
DEFAULT_255_2_778
10
13.3725981
20
106.5239229
11
12.3798981
21
106.5239229
0
LINE
8
DEFAULT_255_2_778
10
12.3798981
20
106.5239229
11
12.3798981
21
104.4348229
0
LINE
8
DEFAULT_255_2_778
10
12.3798981
20
104.4348229
11
11.7286981
21
104.4348229
0
LINE
8
DEFAULT_255_2_778
10
11.7286981
20
104.4348229
11
11.7286981
21
106.5239229
0
LINE
8
DEFAULT_255_2_778
10
11.7286981
20
106.5239229
11
10.7441981
21
106.5239229
0
LINE
8
DEFAULT_255_2_778
10
10.7441981
20
106.5239229
11
10.7441981
21
106.9520229
0
LINE
8
DEFAULT_255_2_778
10
10.7441981
20
106.9520229
11
13.3722981
21
106.9520229
0
LINE
8
DEFAULT_255_2_778
10
15.8865981
20
104.4348229
11
15.1624981
21
104.4348229
0
LINE
8
DEFAULT_255_2_778
10
15.1624981
20
104.4348229
11
14.9507981
21
104.9803229
0
LINE
8
DEFAULT_255_2_778
10
14.9507981
20
104.9803229
11
13.7381981
21
104.9803229
0
LINE
8
DEFAULT_255_2_778
10
13.7381981
20
104.9803229
11
13.5265981
21
104.4348229
0
LINE
8
DEFAULT_255_2_778
10
13.5265981
20
104.4348229
11
12.8108981
21
104.4348229
0
LINE
8
DEFAULT_255_2_778
10
12.8108981
20
104.4348229
11
13.9501981
21
106.9520229
0
LINE
8
DEFAULT_255_2_778
10
13.9501981
20
106.9520229
11
14.7393981
21
106.9520229
0
LINE
8
DEFAULT_255_2_778
10
14.7393981
20
106.9520229
11
15.8865981
21
104.4348229
0
LINE
8
DEFAULT_255_2_778
10
14.3488981
20
106.5239229
11
13.8932981
21
105.3828229
0
LINE
8
DEFAULT_255_2_778
10
13.8932981
20
105.3828229
11
14.7965981
21
105.3828229
0
LINE
8
DEFAULT_255_2_778
10
14.7965981
20
105.3828229
11
14.3488981
21
106.5239229
0
LINE
8
DEFAULT_255_2_778
10
21.9714981
20
104.4348229
11
21.9714981
21
106.9520229
0
LINE
8
DEFAULT_255_2_778
10
21.9714981
20
106.9520229
11
22.6223981
21
106.9520229
0
LINE
8
DEFAULT_255_2_778
10
22.6223981
20
106.9520229
11
22.6223981
21
104.4348229
0
LINE
8
DEFAULT_255_2_778
10
22.6223981
20
104.4348229
11
21.9714981
21
104.4348229
0
ARC
8
DEFAULT_255_2_778
10
17.4929112
20
105.680983
40
1.7200065
50
180.3430647
51
198.5573573
0
ARC
8
DEFAULT_255_2_778
10
17.3528564
20
105.7029123
40
1.5802495
50
158.0480377
51
181.1685822
0
ARC
8
DEFAULT_255_2_778
10
16.9845026
20
105.8266649
40
1.1925603
50
150.766015
51
156.9467391
0
ARC
8
DEFAULT_255_2_778
10
16.8983285
20
105.8686253
40
1.0968831
50
111.442964
51
150.4803174
0
ARC
8
DEFAULT_255_2_778
10
17.2206552
20
105.010578
40
2.013419
50
90.2026035
51
111.0541085
0
ARC
8
DEFAULT_255_2_778
10
17.2088425
20
105.035822
40
1.9881679
50
65.6957776
51
89.8647516
0
ARC
8
DEFAULT_255_2_778
10
17.6787798
20
106.0971961
40
0.8274868
50
11.2255456
51
65.1035005
0
ARC
8
DEFAULT_255_2_778
10
-0.0804874
20
103.9877608
40
18.0460455
50
6.7184719
51
6.747037
0
ARC
8
DEFAULT_255_2_778
10
17.16267
20
106.058462
40
0.6797124
50
4.1726408
51
20.1118961
0
ARC
8
DEFAULT_255_2_778
10
17.3614739
20
106.1430792
40
0.4640677
50
18.7415785
51
72.5888136
0
ARC
8
DEFAULT_255_2_778
10
17.2015453
20
105.5464425
40
1.0815337
50
73.9625622
51
89.253524
0
ARC
8
DEFAULT_255_2_778
10
17.1980887
20
105.8385184
40
0.7895609
50
88.7265804
51
112.3274117
0
ARC
8
DEFAULT_255_2_778
10
17.0835373
20
106.0305969
40
0.5693217
50
109.0051809
51
162.7120671
0
ARC
8
DEFAULT_255_2_778
10
18.046708
20
105.6730904
40
1.5961735
50
160.732872
51
180.0046553
0
ARC
8
DEFAULT_255_2_778
10
17.7653641
20
105.6728127
40
1.3148295
50
179.9935495
51
180.0709587
0
ARC
8
DEFAULT_255_2_778
10
17.9717968
20
105.6751638
40
1.5212664
50
180.149879
51
196.82302
0
ARC
8
DEFAULT_255_2_778
10
17.090652
20
105.3806257
40
0.5931984
50
194.2224572
51
247.6766622
0
ARC
8
DEFAULT_255_2_778
10
17.3541161
20
106.1685151
40
1.4231964
50
249.9134907
51
250.2805191
0
ARC
8
DEFAULT_255_2_778
10
17.2253754
20
105.7642891
40
0.9993524
50
249.4089587
51
269.441581
0
ARC
8
DEFAULT_255_2_778
10
17.2182943
20
105.6486276
40
0.8836472
50
269.8276065
51
269.999989
0
ARC
8
DEFAULT_255_2_778
10
17.2183874
20
105.6685176
40
0.9035372
50
269.9940843
51
289.2473404
0
ARC
8
DEFAULT_255_2_778
10
17.3561112
20
105.2768489
40
0.4883617
50
289.1401982
51
335.6231545
0
ARC
8
DEFAULT_255_2_778
10
17.107081
20
105.3398017
40
0.7425656
50
339.1317124
51
0.0024512
0
ARC
8
DEFAULT_255_2_778
10
17.0898337
20
105.3397957
40
0.759813
50
0.0028462
51
0.3083152
0
ARC
8
DEFAULT_255_2_778
10
17.7382326
20
105.2691248
40
0.7767175
50
293.0813857
51
348.0564214
0
ARC
8
DEFAULT_255_2_778
10
17.2275301
20
106.3517239
40
1.9733906
50
269.5878688
51
294.3996505
0
ARC
8
DEFAULT_255_2_778
10
17.2069386
20
106.549128
40
2.1707531
50
252.4876849
51
270.1688447
0
ARC
8
DEFAULT_255_2_778
10
16.8654348
20
105.5012691
40
1.0687481
50
200.1399144
51
253.0433009
0
LINE
8
DEFAULT_255_2_778
10
7.4004356
20
106.9519843
11
7.4004356
21
105.9476843
0
LINE
8
DEFAULT_255_2_778
10
7.4004356
20
105.9476843
11
8.7021356
21
105.9476843
0
LINE
8
DEFAULT_255_2_778
10
8.7021356
20
105.9476843
11
8.7021356
21
106.9519843
0
LINE
8
DEFAULT_255_2_778
10
8.7021356
20
106.9519843
11
9.3509356
21
106.9519843
0
LINE
8
DEFAULT_255_2_778
10
9.3509356
20
106.9519843
11
9.3509356
21
104.4347843
0
LINE
8
DEFAULT_255_2_778
10
9.3509356
20
104.4347843
11
8.7000356
21
104.4347843
0
LINE
8
DEFAULT_255_2_778
10
8.7000356
20
104.4347843
11
8.7000356
21
105.5449843
0
LINE
8
DEFAULT_255_2_778
10
8.7000356
20
105.5449843
11
7.3983356
21
105.5449843
0
LINE
8
DEFAULT_255_2_778
10
7.3983356
20
105.5449843
11
7.3983356
21
104.4373843
0
LINE
8
DEFAULT_255_2_778
10
7.3983356
20
104.4373843
11
6.7474356
21
104.4373843
0
LINE
8
DEFAULT_255_2_778
10
6.7474356
20
104.4373843
11
6.7474356
21
106.9519843
0
LINE
8
DEFAULT_255_2_778
10
6.7474356
20
106.9519843
11
7.3983356
21
106.9519843
0
LINE
8
DEFAULT_255_2_778
10
9.8655356
20
104.4347843
11
9.8655356
21
106.9519843
0
LINE
8
DEFAULT_255_2_778
10
9.8655356
20
106.9519843
11
10.5085356
21
106.9519843
0
LINE
8
DEFAULT_255_2_778
10
10.5085356
20
106.9519843
11
10.5085356
21
104.4347843
0
LINE
8
DEFAULT_255_2_778
10
10.5085356
20
104.4347843
11
9.8655356
21
104.4347843
0
LINE
8
DEFAULT_255_2_778
10
18.4904356
20
106.2582843
11
18.5153356
21
106.0989843
0
LINE
8
DEFAULT_255_2_778
10
18.5153356
20
106.0989843
11
17.8416356
21
106.0989843
0
LINE
8
DEFAULT_255_2_778
10
17.8496356
20
105.3438843
11
18.5335356
21
105.3438843
0
LINE
8
DEFAULT_255_2_778
10
18.5335356
20
105.3438843
11
18.4981356
21
105.1083843
0
LINE
8
DEFAULT_255_1_234
10
9.9610364
20
103.0441211
11
10.1602235
21
103.0441211
0
LINE
8
DEFAULT_255_1_234
10
10.1602235
20
103.0441211
11
10.5425342
21
102.0899506
0
LINE
8
DEFAULT_255_1_234
10
10.5425342
20
102.0899506
11
10.924845
21
103.0441211
0
LINE
8
DEFAULT_255_1_234
10
10.924845
20
103.0441211
11
11.1248353
21
103.0441211
0
LINE
8
DEFAULT_255_1_234
10
11.1248353
20
103.0441211
11
11.1248353
21
101.8747
0
LINE
8
DEFAULT_255_1_234
10
11.1248353
20
101.8747
11
10.9706259
21
101.8747
0
LINE
8
DEFAULT_255_1_234
10
10.9706259
20
101.8747
11
10.9706259
21
102.3300996
0
LINE
8
DEFAULT_255_1_234
10
10.9706259
20
102.3300996
11
10.985083
21
102.8216419
0
LINE
8
DEFAULT_255_1_234
10
10.985083
20
102.8216419
11
10.6011659
21
101.8747
0
LINE
8
DEFAULT_255_1_234
10
10.6011659
20
101.8747
11
10.4830994
21
101.8747
0
LINE
8
DEFAULT_255_1_234
10
10.4830994
20
101.8747
11
10.0999854
21
102.8192324
0
LINE
8
DEFAULT_255_1_234
10
10.0999854
20
102.8192324
11
10.1152458
21
102.3300996
0
LINE
8
DEFAULT_255_1_234
10
10.1152458
20
102.3300996
11
10.1152458
21
101.8747
0
LINE
8
DEFAULT_255_1_234
10
10.1152458
20
101.8747
11
9.9610364
21
101.8747
0
LINE
8
DEFAULT_255_1_234
10
9.9610364
20
101.8747
11
9.9610364
21
103.0441211
0
LINE
8
DEFAULT_255_1_234
10
11.5352571
20
102.7437341
11
11.5352571
21
101.8747
0
LINE
8
DEFAULT_255_1_234
10
11.5352571
20
101.8747
11
11.3866699
21
101.8747
0
LINE
8
DEFAULT_255_1_234
10
11.3866699
20
101.8747
11
11.3866699
21
102.7437341
0
LINE
8
DEFAULT_255_1_234
10
11.3866699
20
102.7437341
11
11.5352571
21
102.7437341
0
ARC
8
DEFAULT_255_1_234
10
11.4724848
20
102.9751889
40
0.097867
50
161.415052
51
180.5526306
0
ARC
8
DEFAULT_255_1_234
10
11.4600626
20
102.9786077
40
0.0850062
50
138.1827368
51
160.9307106
0
ARC
8
DEFAULT_255_1_234
10
11.4490572
20
102.9881588
40
0.0704362
50
104.6368899
51
138.0039868
0
ARC
8
DEFAULT_255_1_234
10
11.4597726
20
102.9514963
40
0.1086221
50
92.0600725
51
105.2189128
0
ARC
8
DEFAULT_255_1_234
10
11.4621075
20
102.9172117
40
0.1429728
50
89.9756393
51
92.5012496
0
ARC
8
DEFAULT_255_1_234
10
11.4631094
20
102.9397731
40
0.1204151
50
78.0235316
51
90.4478182
0
ARC
8
DEFAULT_255_1_234
10
11.4723186
20
102.9811295
40
0.0780493
50
55.051506
51
78.3369085
0
ARC
8
DEFAULT_255_1_234
10
11.477346
20
102.9895711
40
0.0682538
50
42.0501187
51
54.4513741
0
ARC
8
DEFAULT_255_1_234
10
11.4638328
20
102.9771798
40
0.0865878
50
1.7497075
51
42.1496013
0
ARC
8
DEFAULT_255_1_234
10
11.438366
20
102.9742738
40
0.1121515
50
359.9852656
51
2.8364544
0
ARC
8
DEFAULT_255_1_234
10
11.4549653
20
102.9733229
40
0.0955566
50
342.1070653
51
0.552888
0
ARC
8
DEFAULT_255_1_234
10
11.469235
20
102.9693904
40
0.0807713
50
316.7107116
51
341.6516965
0
ARC
8
DEFAULT_255_1_234
10
11.4759387
20
102.9633823
40
0.0717724
50
285.4397031
51
316.5324284
0
ARC
8
DEFAULT_255_1_234
10
11.4649304
20
102.9999554
40
0.1099597
50
272.3547054
51
285.8953117
0
ARC
8
DEFAULT_255_1_234
10
11.4622462
20
103.0365048
40
0.1465932
50
269.9695369
51
272.8160237
0
ARC
8
DEFAULT_255_1_234
10
11.4612644
20
103.0145863
40
0.1246779
50
258.8431134
51
270.4153935
0
ARC
8
DEFAULT_255_1_234
10
11.4522686
20
102.9710414
40
0.0802162
50
238.5431189
51
259.1288175
0
ARC
8
DEFAULT_255_1_234
10
11.4454571
20
102.9586856
40
0.0661247
50
222.5062634
51
237.9906969
0
ARC
8
DEFAULT_255_1_234
10
11.4582158
20
102.9702889
40
0.0833707
50
184.1069131
51
222.460413
0
ARC
8
DEFAULT_255_1_234
10
11.4851399
20
102.9741349
40
0.1105176
50
179.9429482
51
185.0960898
0
LINE
8
DEFAULT_255_1_234
10
12.3263833
20
102.1485823
11
12.4669387
21
102.1485823
0
LINE
8
DEFAULT_255_1_234
10
11.7344442
20
102.3011853
11
11.7344442
21
102.3260837
0
LINE
8
DEFAULT_255_1_234
10
12.4669387
20
102.4449534
11
12.3263833
21
102.4449534
0
LINE
8
DEFAULT_255_1_234
10
11.8830313
20
102.3204615
11
11.8830313
21
102.2923504
0
ARC
8
DEFAULT_255_1_234
10
12.1251868
20
102.1939121
40
0.2140268
50
269.0327816
51
309.2224514
0
ARC
8
DEFAULT_255_1_234
10
12.1461623
20
102.1724108
40
0.1841255
50
308.396669
51
329.6984113
0
ARC
8
DEFAULT_255_1_234
10
12.1599478
20
102.161982
40
0.166974
50
330.401383
51
355.3970571
0
ARC
8
DEFAULT_255_1_234
10
12.2056344
20
102.1637082
40
0.2617417
50
329.2357853
51
356.6870514
0
ARC
8
DEFAULT_255_1_234
10
12.1506366
20
102.1927971
40
0.3238945
50
324.8706984
51
329.7905871
0
ARC
8
DEFAULT_255_1_234
10
12.1428084
20
102.1995106
40
0.3341614
50
298.8769168
51
324.7016144
0
ARC
8
DEFAULT_255_1_234
10
12.1096276
20
102.2523917
40
0.3965068
50
296.9023738
51
299.385174
0
ARC
8
DEFAULT_255_1_234
10
12.1225889
20
102.2236422
40
0.365007
50
269.8406811
51
297.1299281
0
ARC
8
DEFAULT_255_1_234
10
12.1172546
20
102.2874407
40
0.4288259
50
253.315473
51
270.5771285
0
ARC
8
DEFAULT_255_1_234
10
12.0925581
20
102.1980739
40
0.3361372
50
221.1002312
51
252.9744583
0
ARC
8
DEFAULT_255_1_234
10
12.1385578
20
102.237559
40
0.3967576
50
194.5394537
51
221.0302238
0
ARC
8
DEFAULT_255_1_234
10
12.3234399
20
102.2890952
40
0.5886672
50
182.0499201
51
194.8773585
0
ARC
8
DEFAULT_255_1_234
10
12.5004597
20
102.300906
40
0.7660157
50
179.9791086
51
182.4591564
0
ARC
8
DEFAULT_255_1_234
10
12.3266642
20
102.3290498
40
0.5922274
50
168.614861
51
180.2869651
0
ARC
8
DEFAULT_255_1_234
10
12.2064786
20
102.3526269
40
0.4697532
50
154.9162259
51
168.5402336
0
ARC
8
DEFAULT_255_1_234
10
12.1143294
20
102.398163
40
0.3669966
50
133.5746694
51
155.2558665
0
ARC
8
DEFAULT_255_1_234
10
12.0980453
20
102.4120467
40
0.3457206
50
122.0165146
51
133.2055214
0
ARC
8
DEFAULT_255_1_234
10
12.1016292
20
102.4032361
40
0.355095
50
97.8731644
51
121.7531281
0
ARC
8
DEFAULT_255_1_234
10
12.1195374
20
102.2975159
40
0.4622833
50
89.8471353
51
98.2769494
0
ARC
8
DEFAULT_255_1_234
10
12.1244127
20
102.3585091
40
0.401305
50
73.3760412
51
90.5199766
0
ARC
8
DEFAULT_255_1_234
10
12.144049
20
102.4307516
40
0.3264695
50
47.7085968
51
73.0509704
0
ARC
8
DEFAULT_255_1_234
10
12.157036
20
102.4420128
40
0.309407
50
3.7443473
51
48.0843753
0
ARC
8
DEFAULT_255_1_234
10
12.058331
20
102.4262614
40
0.4090351
50
2.6192045
51
5.0432185
0
ARC
8
DEFAULT_255_1_234
10
12.1040163
20
102.4302592
40
0.2228519
50
3.780656
51
23.9356886
0
ARC
8
DEFAULT_255_1_234
10
12.1268779
20
102.4383155
40
0.198697
50
24.4869552
51
46.9440088
0
ARC
8
DEFAULT_255_1_234
10
12.126963
20
102.4406484
40
0.1969404
50
46.498716
51
89.3298174
0
ARC
8
DEFAULT_255_1_234
10
12.1207984
20
102.3811723
40
0.2565428
50
88.1083975
51
90.0061569
0
ARC
8
DEFAULT_255_1_234
10
12.1180414
20
102.3865759
40
0.251154
50
89.3773333
51
107.2071161
0
ARC
8
DEFAULT_255_1_234
10
12.1037537
20
102.438319
40
0.1975072
50
107.6883219
51
143.3583002
0
ARC
8
DEFAULT_255_1_234
10
12.160492
20
102.3956873
40
0.2684762
50
143.2846717
51
162.935323
0
ARC
8
DEFAULT_255_1_234
10
12.3110522
20
102.3473652
40
0.4265927
50
162.6650068
51
174.0805419
0
ARC
8
DEFAULT_255_1_234
10
12.5253361
20
102.3224636
40
0.6423078
50
173.8423985
51
180.1785963
0
ARC
8
DEFAULT_255_1_234
10
12.4705461
20
102.2893039
40
0.5875227
50
179.7028978
51
188.2277152
0
ARC
8
DEFAULT_255_1_234
10
12.2603763
20
102.2578247
40
0.3750127
50
188.0629871
51
201.1160002
0
ARC
8
DEFAULT_255_1_234
10
12.1505961
20
102.2159238
40
0.2575093
50
201.2187293
51
216.9761968
0
ARC
8
DEFAULT_255_1_234
10
12.1054524
20
102.1820993
40
0.2010998
50
217.0135981
51
265.2056839
0
ARC
8
DEFAULT_255_1_234
10
12.1210384
20
102.2742695
40
0.2943543
50
263.681807
51
270.104251
0
LINE
8
DEFAULT_255_1_234
10
13.0540588
20
102.7485531
11
13.0540588
21
102.6104072
0
LINE
8
DEFAULT_255_1_234
10
12.782586
20
102.4915375
11
12.782586
21
101.8747
0
LINE
8
DEFAULT_255_1_234
10
12.782586
20
101.8747
11
12.6339989
21
101.8747
0
LINE
8
DEFAULT_255_1_234
10
12.6339989
20
101.8747
11
12.6339989
21
102.7437341
0
LINE
8
DEFAULT_255_1_234
10
12.6339989
20
102.7437341
11
12.7785702
21
102.7437341
0
LINE
8
DEFAULT_255_1_234
10
12.7785702
20
102.7437341
11
12.7809797
21
102.6433374
0
ARC
8
DEFAULT_255_1_234
10
12.9873993
20
102.2044342
40
0.4114092
50
80.6754243
51
86.8932892
0
ARC
8
DEFAULT_255_1_234
10
12.9813528
20
102.10767
40
0.5083596
50
86.8038578
51
90.0431435
0
ARC
8
DEFAULT_255_1_234
10
12.9776509
20
102.3533866
40
0.2626638
50
89.2759698
51
106.6213787
0
ARC
8
DEFAULT_255_1_234
10
12.9572072
20
102.427683
40
0.1856317
50
107.1346045
51
157.6458115
0
ARC
8
DEFAULT_255_1_234
10
13.0263674
20
102.3893311
40
0.2643398
50
155.6586782
51
157.2539184
0
ARC
8
DEFAULT_255_1_234
10
13.0058876
20
102.5062157
40
0.2634121
50
127.8165941
51
148.6302098
0
ARC
8
DEFAULT_255_1_234
10
12.9805345
20
102.5322218
40
0.2273596
50
91.3329982
51
126.7875809
0
ARC
8
DEFAULT_255_1_234
10
12.9881286
20
102.4607195
40
0.299078
50
89.986594
51
92.4688449
0
ARC
8
DEFAULT_255_1_234
10
12.9889681
20
102.4882078
40
0.2715908
50
85.3589899
51
90.1623399
0
ARC
8
DEFAULT_255_1_234
10
12.9974196
20
102.5886164
40
0.1708278
50
78.401942
51
85.4594656
0
ARC
8
DEFAULT_255_1_234
10
13.011908
20
102.6577236
40
0.1002194
50
67.7858312
51
78.5728455
0
ARC
8
DEFAULT_255_1_234
10
13.0226933
20
102.6856887
40
0.0702548
50
63.4835954
51
67.3062642
0
LINE
8
DEFAULT_255_1_234
10
13.1351793
20
102.3068075
11
13.1351793
21
102.3172488
0
LINE
8
DEFAULT_255_1_234
10
13.9263056
20
102.3100202
11
13.9263056
21
102.299579
0
ARC
8
DEFAULT_255_1_234
10
13.6937973
20
102.3204837
40
0.5586273
50
166.3003825
51
180.3317926
0
ARC
8
DEFAULT_255_1_234
10
13.6075132
20
102.3397964
40
0.4702272
50
153.8608245
51
166.0967125
0
ARC
8
DEFAULT_255_1_234
10
13.5409535
20
102.375475
40
0.3947658
50
135.1316692
51
154.253643
0
ARC
8
DEFAULT_255_1_234
10
13.5131094
20
102.4000666
40
0.3576898
50
121.7044358
51
134.776924
0
ARC
8
DEFAULT_255_1_234
10
13.5198088
20
102.3871867
40
0.3721701
50
93.4002104
51
121.5398234
0
ARC
8
DEFAULT_255_1_234
10
13.5293044
20
102.3046228
40
0.4551749
50
89.9706281
51
93.9769836
0
ARC
8
DEFAULT_255_1_234
10
13.5340136
20
102.3436362
40
0.4161854
50
71.3323442
51
90.6161982
0
ARC
8
DEFAULT_255_1_234
10
13.5502832
20
102.4038578
40
0.3539455
50
41.1815071
51
70.707185
0
ARC
8
DEFAULT_255_1_234
10
13.5025232
20
102.3604919
40
0.4184468
50
12.1971897
51
41.3445735
0
ARC
8
DEFAULT_255_1_234
10
13.309924
20
102.3146425
40
0.616399
50
359.5703439
51
12.5804035
0
ARC
8
DEFAULT_255_1_234
10
13.3572315
20
102.2964116
40
0.5690829
50
347.0197749
51
0.3188898
0
ARC
8
DEFAULT_255_1_234
10
13.4530817
20
102.2757808
40
0.4710501
50
334.3504053
51
346.846361
0
ARC
8
DEFAULT_255_1_234
10
13.537624
20
102.2318805
40
0.3758475
50
310.422922
51
334.8045033
0
ARC
8
DEFAULT_255_1_234
10
13.5458066
20
102.2254782
40
0.3656736
50
301.8486886
51
310.097356
0
ARC
8
DEFAULT_255_1_234
10
13.5425792
20
102.2330638
40
0.3738224
50
274.307774
51
301.655379
0
ARC
8
DEFAULT_255_1_234
10
13.5315099
20
102.3208361
40
0.4621997
50
269.9546461
51
274.8588071
0
ARC
8
DEFAULT_255_1_234
10
13.5266033
20
102.2707249
40
0.4121134
50
250.888809
51
270.631312
0
ARC
8
DEFAULT_255_1_234
10
13.5115953
20
102.2148277
40
0.3544073
50
221.1701932
51
250.2227191
0
ARC
8
DEFAULT_255_1_234
10
13.5600107
20
102.2589439
40
0.4198961
50
191.6263638
51
221.3526367
0
ARC
8
DEFAULT_255_1_234
10
13.7488103
20
102.3026329
40
0.6136451
50
179.610213
51
192.0693181
0
ARC
8
DEFAULT_255_1_234
10
13.7911331
20
102.2963633
40
0.5065736
50
179.636298
51
190.6162791
0
ARC
8
DEFAULT_255_1_234
10
13.6268999
20
102.264359
40
0.3392576
50
190.4136628
51
208.7170242
0
ARC
8
DEFAULT_255_1_234
10
13.5758623
20
102.2390366
40
0.2823401
50
209.1867941
51
217.4225593
0
ARC
8
DEFAULT_255_1_234
10
13.5229457
20
102.1924558
40
0.2120636
50
216.1156896
51
265.2575835
0
ARC
8
DEFAULT_255_1_234
10
13.5308606
20
102.2498109
40
0.2698952
50
264.5897417
51
270.0601757
0
ARC
8
DEFAULT_255_1_234
10
13.5341666
20
102.2118185
40
0.2319225
50
269.2532621
51
291.8792492
0
ARC
8
DEFAULT_255_1_234
10
13.5370888
20
102.1940238
40
0.2143562
50
292.9269754
51
323.1776747
0
ARC
8
DEFAULT_255_1_234
10
13.497771
20
102.2288452
40
0.2667346
50
322.2518483
51
323.0930371
0
ARC
8
DEFAULT_255_1_234
10
13.4683369
20
102.246999
40
0.3011886
50
323.6941278
51
343.8493282
0
ARC
8
DEFAULT_255_1_234
10
13.3104912
20
102.295035
40
0.4661719
50
343.5748474
51
355.0079071
0
ARC
8
DEFAULT_255_1_234
10
13.1097157
20
102.3158424
40
0.6680042
50
354.7285225
51
0.1206288
0
ARC
8
DEFAULT_255_1_234
10
13.2865623
20
102.3204751
40
0.4911667
50
359.623636
51
11.2015604
0
ARC
8
DEFAULT_255_1_234
10
13.4399851
20
102.352064
40
0.3345323
50
10.9989411
51
30.8319188
0
ARC
8
DEFAULT_255_1_234
10
13.4795723
20
102.3729297
40
0.2898553
50
31.3008956
51
37.3959224
0
ARC
8
DEFAULT_255_1_234
10
13.5292302
20
102.4148653
40
0.2249582
50
36.5915954
51
62.2442953
0
ARC
8
DEFAULT_255_1_234
10
13.5338755
20
102.4145602
40
0.2231053
50
63.3365542
51
89.7195421
0
ARC
8
DEFAULT_255_1_234
10
13.5295609
20
102.3576884
40
0.2800267
50
88.8936788
51
90.0047485
0
ARC
8
DEFAULT_255_1_234
10
13.5263968
20
102.4149787
40
0.2227586
50
89.1921125
51
114.7099455
0
ARC
8
DEFAULT_255_1_234
10
13.5292732
20
102.4187628
40
0.2205633
50
115.7997161
51
142.2900762
0
ARC
8
DEFAULT_255_1_234
10
13.5731465
20
102.3797658
40
0.2791541
50
141.4658779
51
142.3795754
0
ARC
8
DEFAULT_255_1_234
10
13.5840369
20
102.3754557
40
0.2904292
50
143.0175714
51
163.234115
0
ARC
8
DEFAULT_255_1_234
10
13.7418542
20
102.3255054
40
0.4559523
50
162.9447461
51
174.3732162
0
ARC
8
DEFAULT_255_1_234
10
13.9564356
20
102.3014143
40
0.6718682
50
174.1228657
51
180.1565175
0
LINE
8
DEFAULT_255_1_234
10
15.2041551
20
102.5413343
11
15.2041551
21
102.415236
0
LINE
8
DEFAULT_255_1_234
10
15.2041551
20
102.415236
11
14.6973524
21
102.415236
0
LINE
8
DEFAULT_255_1_234
10
14.6973524
20
102.415236
11
14.6973524
21
102.0007983
0
LINE
8
DEFAULT_255_1_234
10
14.6973524
20
102.0007983
11
15.2860789
21
102.0007983
0
LINE
8
DEFAULT_255_1_234
10
15.2860789
20
102.0007983
11
15.2860789
21
101.8747
0
LINE
8
DEFAULT_255_1_234
10
15.2860789
20
101.8747
11
14.5431431
21
101.8747
0
LINE
8
DEFAULT_255_1_234
10
14.5431431
20
101.8747
11
14.5431431
21
103.0441211
0
LINE
8
DEFAULT_255_1_234
10
14.5431431
20
103.0441211
11
15.2780471
21
103.0441211
0
LINE
8
DEFAULT_255_1_234
10
15.2780471
20
103.0441211
11
15.2780471
21
102.9172196
0
LINE
8
DEFAULT_255_1_234
10
15.2780471
20
102.9172196
11
14.6973524
21
102.9172196
0
LINE
8
DEFAULT_255_1_234
10
14.6973524
20
102.9172196
11
14.6973524
21
102.5413343
0
LINE
8
DEFAULT_255_1_234
10
14.6973524
20
102.5413343
11
15.2041551
21
102.5413343
0
LINE
8
DEFAULT_255_1_234
10
16.3767889
20
103.0441211
11
16.3767889
21
101.8747
0
LINE
8
DEFAULT_255_1_234
10
16.3767889
20
101.8747
11
16.2217764
21
101.8747
0
LINE
8
DEFAULT_255_1_234
10
16.2217764
20
101.8747
11
16.2217764
21
102.415236
0
LINE
8
DEFAULT_255_1_234
10
16.2217764
20
102.415236
11
15.6322468
21
102.415236
0
LINE
8
DEFAULT_255_1_234
10
15.6322468
20
102.415236
11
15.6322468
21
101.8747
0
LINE
8
DEFAULT_255_1_234
10
15.6322468
20
101.8747
11
15.4780374
21
101.8747
0
LINE
8
DEFAULT_255_1_234
10
15.4780374
20
101.8747
11
15.4780374
21
103.0441211
0
LINE
8
DEFAULT_255_1_234
10
15.4780374
20
103.0441211
11
15.6322468
21
103.0441211
0
LINE
8
DEFAULT_255_1_234
10
15.6322468
20
103.0441211
11
15.6322468
21
102.5413343
0
LINE
8
DEFAULT_255_1_234
10
15.6322468
20
102.5413343
11
16.2217764
21
102.5413343
0
LINE
8
DEFAULT_255_1_234
10
16.2217764
20
102.5413343
11
16.2217764
21
103.0441211
0
LINE
8
DEFAULT_255_1_234
10
16.2217764
20
103.0441211
11
16.3767889
21
103.0441211
0
LINE
8
DEFAULT_255_1_234
10
16.705287
20
103.0441211
11
17.037801
21
102.0795093
0
LINE
8
DEFAULT_255_1_234
10
17.037801
20
102.0795093
11
17.3719213
21
103.0441211
0
LINE
8
DEFAULT_255_1_234
10
17.3719213
20
103.0441211
11
17.5405878
21
103.0441211
0
LINE
8
DEFAULT_255_1_234
10
17.5405878
20
103.0441211
11
17.1068739
21
101.8747
0
LINE
8
DEFAULT_255_1_234
10
17.1068739
20
101.8747
11
16.9703344
21
101.8747
0
LINE
8
DEFAULT_255_1_234
10
16.9703344
20
101.8747
11
16.5374237
21
103.0441211
0
LINE
8
DEFAULT_255_1_234
10
16.5374237
20
103.0441211
11
16.705287
21
103.0441211
0
LINE
8
DEFAULT_255_1_234
10
18.0995968
20
102.8433276
11
18.0995968
21
102.5019788
0
LINE
8
DEFAULT_255_1_234
10
18.0995968
20
102.5019788
11
18.4256854
21
102.5019788
0
LINE
8
DEFAULT_255_1_234
10
18.4256854
20
102.5019788
11
18.4256854
21
102.3614233
0
LINE
8
DEFAULT_255_1_234
10
18.4256854
20
102.3614233
11
18.0995968
21
102.3614233
0
LINE
8
DEFAULT_255_1_234
10
18.0995968
20
102.3614233
11
18.0995968
21
101.9919634
0
LINE
8
DEFAULT_255_1_234
10
18.0995968
20
101.9919634
11
17.9502064
21
101.9919634
0
LINE
8
DEFAULT_255_1_234
10
17.9502064
20
101.9919634
11
17.9502064
21
102.3614233
0
LINE
8
DEFAULT_255_1_234
10
17.9502064
20
102.3614233
11
17.6241179
21
102.3614233
0
LINE
8
DEFAULT_255_1_234
10
17.6241179
20
102.3614233
11
17.6241179
21
102.5019788
0
LINE
8
DEFAULT_255_1_234
10
17.6241179
20
102.5019788
11
17.9502064
21
102.5019788
0
LINE
8
DEFAULT_255_1_234
10
17.9502064
20
102.5019788
11
17.9502064
21
102.8433276
0
LINE
8
DEFAULT_255_1_234
10
17.9502064
20
102.8433276
11
18.0995968
21
102.8433276
0
LINE
8
DEFAULT_255_2_778
10
9.3932417
20
92.4719078
11
10.7161417
21
92.4719078
0
LINE
8
DEFAULT_255_2_778
10
10.7161417
20
92.4719078
11
10.7161417
21
51.4615078
0
LINE
8
DEFAULT_255_2_778
10
9.3932834
20
51.4614333
11
12.0390834
21
51.4614333
0
LINE
8
DEFAULT_255_2_778
10
12.0390834
20
51.4614333
11
12.0390834
21
46.1697333
0
LINE
8
DEFAULT_255_2_778
10
12.0390834
20
46.1697333
11
9.3932834
21
46.1697333
0
LINE
8
DEFAULT_255_2_778
10
9.3932834
20
46.1697333
11
9.3932834
21
51.4614333
0
ARC
8
DEFAULT_255_2_778_1
10
13.1928591
20
46.272177
40
4.816461
50
120.9442904
51
122.351755
0
ARC
8
DEFAULT_255_2_778_1
10
12.7462523
20
46.9758039
40
3.9830657
50
122.3407904
51
124.1946752
0
ARC
8
DEFAULT_255_2_778_1
10
12.3063464
20
47.6223306
40
3.2010724
50
124.1855758
51
126.4338849
0
ARC
8
DEFAULT_255_2_778_1
10
11.9204129
20
48.1450611
40
2.5513094
50
126.4326926
51
128.8877368
0
ARC
8
DEFAULT_255_2_778_1
10
11.5855968
20
48.5594658
40
2.0185498
50
128.8749205
51
131.8726567
0
ARC
8
DEFAULT_255_2_778_1
10
11.2884677
20
48.8904854
40
1.5737356
50
131.8616166
51
135.4168838
0
ARC
8
DEFAULT_255_2_778_1
10
11.025668
20
49.1486765
40
1.2053256
50
135.3893975
51
139.9687014
0
ARC
8
DEFAULT_255_2_778_1
10
10.7927889
20
49.3435102
40
0.9016937
50
139.9301659
51
145.9260426
0
ARC
8
DEFAULT_255_2_778_1
10
10.596654
20
49.4755104
40
0.6652776
50
145.8787362
51
153.8146208
0
ARC
8
DEFAULT_255_2_778_1
10
10.4445553
20
49.5498797
40
0.4959714
50
153.770634
51
164.3484794
0
ARC
8
DEFAULT_255_2_778_1
10
10.3432387
20
49.5780786
40
0.3908039
50
164.3220276
51
179.8083066
0
ARC
8
DEFAULT_255_2_778_1
10
10.3642789
20
49.586215
40
0.4118985
50
180.9499449
51
213.8111542
0
ARC
8
DEFAULT_255_2_778_1
10
10.6401828
20
49.7557896
40
0.73561
50
212.8271214
51
224.258472
0
ARC
8
DEFAULT_255_2_778_1
10
11.0230335
20
50.1251236
40
1.267567
50
224.1376218
51
231.4508261
0
ARC
8
DEFAULT_255_2_778_1
10
11.6657195
20
50.9281168
40
2.2960809
50
231.3955893
51
236.1256478
0
ARC
8
DEFAULT_255_2_778_1
10
13.4980223
20
53.6746293
40
5.5976905
50
236.2233172
51
239.1314682
0
ARC
8
DEFAULT_255_2_778_1
10
25.447927
20
73.4023568
40
28.6623793
50
238.8606853
51
239.0711101
0
ARC
8
DEFAULT_255_2_778_1
10
6.2757281
20
41.3052653
40
8.7248518
50
57.2420924
51
59.4062964
0
ARC
8
DEFAULT_255_2_778_1
10
9.5034241
20
46.3362102
40
2.747542
50
52.8289294
51
57.079028
0
ARC
8
DEFAULT_255_2_778_1
10
10.2780783
20
47.3565488
40
1.466457
50
46.3041868
51
52.8596521
0
ARC
8
DEFAULT_255_2_778_1
10
10.7103073
20
47.8066842
40
0.8424061
50
36.2174211
51
46.4090895
0
ARC
8
DEFAULT_255_2_778_1
10
10.9948088
20
48.0115128
40
0.4918609
50
17.400375
51
36.5489745
0
ARC
8
DEFAULT_255_2_778_1
10
11.1088994
20
48.0513754
40
0.3710912
50
0.0676858
51
16.7951297
0
ARC
8
DEFAULT_255_2_778_1
10
11.0878613
20
48.0532428
40
0.3921317
50
343.8035191
51
359.7912046
0
ARC
8
DEFAULT_255_2_778_1
10
10.9815912
20
48.0837167
40
0.5026844
50
333.2506233
51
343.8465691
0
ARC
8
DEFAULT_255_2_778_1
10
10.8277757
20
48.1604313
40
0.6745679
50
325.6600948
51
333.3122657
0
ARC
8
DEFAULT_255_2_778_1
10
10.6323344
20
48.2932296
40
0.9108568
50
319.7560915
51
325.6976089
0
ARC
8
DEFAULT_255_2_778_1
10
10.404199
20
48.4850002
40
1.2088854
50
315.4577584
51
319.8037947
0
ARC
8
DEFAULT_255_2_778_1
10
10.1408127
20
48.7438507
40
1.5781764
50
311.7298824
51
315.4670864
0
ARC
8
DEFAULT_255_2_778_1
10
9.8317879
20
49.0894074
40
2.0417554
50
308.723055
51
311.7470879
0
ARC
8
DEFAULT_255_2_778_1
10
9.477589
20
49.5306492
40
2.6075745
50
306.1165163
51
308.7300151
0
ARC
8
DEFAULT_255_2_778_1
10
9.0746091
20
50.0819523
40
3.2904564
50
303.9559446
51
306.1266333
0
ARC
8
DEFAULT_255_2_778_1
10
8.6630432
20
50.691215
40
4.0257023
50
302.3733397
51
303.9712246
0
ARC
8
DEFAULT_255_2_778_1
10
8.2434347
20
51.3527058
40
4.8090549
50
300.9434827
51
302.3758078
0
LINE
8
DEFAULT_255_2_778
10
10.7161335
20
46.1697989
11
10.7161335
21
5.1593989
0
LINE
8
DEFAULT_255_2_778
10
10.7161335
20
5.1593989
11
9.3932335
21
5.1593989
0
LINE
8
DEFAULT_255_2_778
10
19.9765335
20
84.5343989
11
18.6536335
21
84.5343989
0
LINE
8
DEFAULT_255_2_778
10
18.6536335
20
84.5343989
11
18.6536335
21
67.3364989
0
LINE
8
DEFAULT_255_2_778
10
17.3307834
20
67.3364333
11
19.9765834
21
67.3364333
0
LINE
8
DEFAULT_255_2_778
10
19.9765834
20
67.3364333
11
19.9765834
21
62.0447333
0
LINE
8
DEFAULT_255_2_778
10
19.9765834
20
62.0447333
11
17.3307834
21
62.0447333
0
LINE
8
DEFAULT_255_2_778
10
17.3307834
20
62.0447333
11
17.3307834
21
67.3364333
0
ARC
8
DEFAULT_255_2_778_1
10
21.1303591
20
62.147177
40
4.816461
50
120.9442904
51
122.351755
0
ARC
8
DEFAULT_255_2_778_1
10
20.6837523
20
62.8508039
40
3.9830657
50
122.3407904
51
124.1946752
0
ARC
8
DEFAULT_255_2_778_1
10
20.2438464
20
63.4973306
40
3.2010724
50
124.1855758
51
126.4338849
0
ARC
8
DEFAULT_255_2_778_1
10
19.8579129
20
64.0200611
40
2.5513094
50
126.4326926
51
128.8877368
0
ARC
8
DEFAULT_255_2_778_1
10
19.5230968
20
64.4344658
40
2.0185498
50
128.8749205
51
131.8726567
0
ARC
8
DEFAULT_255_2_778_1
10
19.2259677
20
64.7654854
40
1.5737356
50
131.8616166
51
135.4168838
0
ARC
8
DEFAULT_255_2_778_1
10
18.963168
20
65.0236765
40
1.2053256
50
135.3893975
51
139.9687014
0
ARC
8
DEFAULT_255_2_778_1
10
18.7302889
20
65.2185102
40
0.9016937
50
139.9301659
51
145.9260426
0
ARC
8
DEFAULT_255_2_778_1
10
18.534154
20
65.3505104
40
0.6652776
50
145.8787362
51
153.8146208
0
ARC
8
DEFAULT_255_2_778_1
10
18.3820553
20
65.4248797
40
0.4959714
50
153.770634
51
164.3484794
0
ARC
8
DEFAULT_255_2_778_1
10
18.2807387
20
65.4530786
40
0.3908039
50
164.3220276
51
179.8083066
0
ARC
8
DEFAULT_255_2_778_1
10
18.3017789
20
65.461215
40
0.4118985
50
180.9499449
51
213.8111542
0
ARC
8
DEFAULT_255_2_778_1
10
18.5776828
20
65.6307896
40
0.73561
50
212.8271214
51
224.258472
0
ARC
8
DEFAULT_255_2_778_1
10
18.9605335
20
66.0001236
40
1.267567
50
224.1376218
51
231.4508261
0
ARC
8
DEFAULT_255_2_778_1
10
19.6032195
20
66.8031168
40
2.2960809
50
231.3955893
51
236.1256478
0
ARC
8
DEFAULT_255_2_778_1
10
21.4355223
20
69.5496293
40
5.5976905
50
236.2233172
51
239.1314682
0
ARC
8
DEFAULT_255_2_778_1
10
33.385427
20
89.2773568
40
28.6623793
50
238.8606853
51
239.0711101
0
ARC
8
DEFAULT_255_2_778_1
10
14.2132281
20
57.1802653
40
8.7248518
50
57.2420924
51
59.4062964
0
ARC
8
DEFAULT_255_2_778_1
10
17.4409241
20
62.2112102
40
2.747542
50
52.8289294
51
57.079028
0
ARC
8
DEFAULT_255_2_778_1
10
18.2155783
20
63.2315488
40
1.466457
50
46.3041868
51
52.8596521
0
ARC
8
DEFAULT_255_2_778_1
10
18.6478073
20
63.6816842
40
0.8424061
50
36.2174211
51
46.4090895
0
ARC
8
DEFAULT_255_2_778_1
10
18.9323088
20
63.8865128
40
0.4918609
50
17.400375
51
36.5489745
0
ARC
8
DEFAULT_255_2_778_1
10
19.0463994
20
63.9263754
40
0.3710912
50
0.0676858
51
16.7951297
0
ARC
8
DEFAULT_255_2_778_1
10
19.0253613
20
63.9282428
40
0.3921317
50
343.8035191
51
359.7912046
0
ARC
8
DEFAULT_255_2_778_1
10
18.9190912
20
63.9587167
40
0.5026844
50
333.2506233
51
343.8465691
0
ARC
8
DEFAULT_255_2_778_1
10
18.7652757
20
64.0354313
40
0.6745679
50
325.6600948
51
333.3122657
0
ARC
8
DEFAULT_255_2_778_1
10
18.5698344
20
64.1682296
40
0.9108568
50
319.7560915
51
325.6976089
0
ARC
8
DEFAULT_255_2_778_1
10
18.341699
20
64.3600002
40
1.2088854
50
315.4577584
51
319.8037947
0
ARC
8
DEFAULT_255_2_778_1
10
18.0783127
20
64.6188507
40
1.5781764
50
311.7298824
51
315.4670864
0
ARC
8
DEFAULT_255_2_778_1
10
17.7692879
20
64.9644074
40
2.0417554
50
308.723055
51
311.7470879
0
ARC
8
DEFAULT_255_2_778_1
10
17.415089
20
65.4056492
40
2.6075745
50
306.1165163
51
308.7300151
0
ARC
8
DEFAULT_255_2_778_1
10
17.0121091
20
65.9569523
40
3.2904564
50
303.9559446
51
306.1266333
0
ARC
8
DEFAULT_255_2_778_1
10
16.6005432
20
66.566215
40
4.0257023
50
302.3733397
51
303.9712246
0
ARC
8
DEFAULT_255_2_778_1
10
16.1809347
20
67.2277058
40
4.8090549
50
300.9434827
51
302.3758078
0
LINE
8
DEFAULT_255_2_778
10
18.6536417
20
62.0447581
11
18.6536417
21
44.8468581
0
LINE
8
DEFAULT_255_2_778
10
18.6536417
20
44.8468581
11
19.9765417
21
44.8468581
0
LINE
8
DEFAULT_255_1_234
10
4.9274119
20
100.0116792
11
4.9274119
21
99.8904
0
LINE
8
DEFAULT_255_1_234
10
4.9274119
20
99.8904
11
4.161184
21
99.8904
0
LINE
8
DEFAULT_255_1_234
10
4.161184
20
99.8904
11
4.161184
21
99.9972221
0
LINE
8
DEFAULT_255_1_234
10
4.161184
20
99.9972221
11
4.5659836
21
100.4469995
0
LINE
8
DEFAULT_255_1_234
10
4.2872823
20
100.7152595
11
4.1386952
21
100.7152595
0
LINE
8
DEFAULT_255_1_234
10
4.6535296
20
100.3514218
11
4.3402918
21
100.0116792
0
LINE
8
DEFAULT_255_1_234
10
4.3402918
20
100.0116792
11
4.9274119
21
100.0116792
0
ARC
8
DEFAULT_255_1_234
10
3.216967
20
101.6399527
40
1.8008286
50
318.5132453
51
320.7828378
0
ARC
8
DEFAULT_255_1_234
10
3.7456644
20
101.2096426
40
1.1191493
50
320.7372736
51
323.9737074
0
ARC
8
DEFAULT_255_1_234
10
4.1376501
20
100.9256361
40
0.6350923
50
323.8961724
51
328.6421089
0
ARC
8
DEFAULT_255_1_234
10
4.3423096
20
100.7994031
40
0.3946393
50
328.8299013
51
331.789948
0
ARC
8
DEFAULT_255_1_234
10
4.4420274
20
100.7479509
40
0.2824501
50
331.4255242
51
352.9364833
0
ARC
8
DEFAULT_255_1_234
10
4.4556775
20
100.7448976
40
0.2685315
50
353.2248685
51
0.0169286
0
ARC
8
DEFAULT_255_1_234
10
4.4766652
20
100.747195
40
0.2475536
50
359.4866256
51
15.9339782
0
ARC
8
DEFAULT_255_1_234
10
4.5273637
20
100.7608286
40
0.1950618
50
16.1714718
51
43.5284424
0
ARC
8
DEFAULT_255_1_234
10
4.5350946
20
100.7685573
40
0.184134
50
43.4415429
51
83.1661404
0
ARC
8
DEFAULT_255_1_234
10
4.5216864
20
100.6948771
40
0.258926
50
82.160215
51
90.1505798
0
ARC
8
DEFAULT_255_1_234
10
4.5185291
20
100.6411865
40
0.3126255
50
89.5460705
51
102.5418777
0
ARC
8
DEFAULT_255_1_234
10
4.4942377
20
100.7442665
40
0.2067346
50
102.1739365
51
129.2061916
0
ARC
8
DEFAULT_255_1_234
10
4.4863449
20
100.7567094
40
0.1921118
50
129.7279328
51
135.7542026
0
ARC
8
DEFAULT_255_1_234
10
4.4984977
20
100.7470045
40
0.2075944
50
136.175737
51
166.3674722
0
ARC
8
DEFAULT_255_1_234
10
4.5991896
20
100.7200182
40
0.3118201
50
165.9092917
51
178.8683903
0
ARC
8
DEFAULT_255_1_234
10
4.6856757
20
100.7153179
40
0.3983935
50
178.438168
51
180.0083905
0
ARC
8
DEFAULT_255_1_234
10
4.5455359
20
100.7192231
40
0.4068601
50
163.2878735
51
180.5581814
0
ARC
8
DEFAULT_255_1_234
10
4.4653621
20
100.741284
40
0.3237344
50
133.454115
51
162.9470031
0
ARC
8
DEFAULT_255_1_234
10
4.4832162
20
100.7223
40
0.349795
50
100.7869394
51
133.4384016
0
ARC
8
DEFAULT_255_1_234
10
4.5179934
20
100.5674319
40
0.5084616
50
89.6605301
51
101.3704185
0
ARC
8
DEFAULT_255_1_234
10
4.5246273
20
100.5735496
40
0.502348
50
78.2171172
51
90.4130393
0
ARC
8
DEFAULT_255_1_234
10
4.5601351
20
100.7359637
40
0.3361092
50
55.9268222
51
78.4888551
0
ARC
8
DEFAULT_255_1_234
10
4.5797791
20
100.7698324
40
0.2970617
50
47.9292255
51
55.4054003
0
ARC
8
DEFAULT_255_1_234
10
4.5899352
20
100.7801502
40
0.2825983
50
4.3347696
51
48.0560701
0
ARC
8
DEFAULT_255_1_234
10
4.4803745
20
100.7631601
40
0.393225
50
359.925209
51
5.5967654
0
ARC
8
DEFAULT_255_1_234
10
4.5232637
20
100.7687816
40
0.3503892
50
337.8914096
51
358.9967724
0
ARC
8
DEFAULT_255_1_234
10
4.2519049
20
100.8734706
40
0.6412172
50
326.9135351
51
338.3505194
0
ARC
8
DEFAULT_255_1_234
10
3.8533353
20
101.1289284
40
1.1146189
50
319.6472867
51
327.095818
0
ARC
8
DEFAULT_255_1_234
10
3.4700356
20
101.4451
40
1.6114559
50
317.2586784
51
319.9046139
0
LINE
8
DEFAULT_255_1_234
10
5.7121127
20
101.0598211
11
5.7121127
21
100.283152
0
LINE
8
DEFAULT_255_1_234
10
5.7121127
20
100.283152
11
5.8743538
21
100.283152
0
LINE
8
DEFAULT_255_1_234
10
5.8743538
20
100.283152
11
5.8743538
21
100.1618728
0
LINE
8
DEFAULT_255_1_234
10
5.8743538
20
100.1618728
11
5.7121127
21
100.1618728
0
LINE
8
DEFAULT_255_1_234
10
5.7121127
20
100.1618728
11
5.7121127
21
99.8904
0
LINE
8
DEFAULT_255_1_234
10
5.7121127
20
99.8904
11
5.5627224
21
99.8904
0
LINE
8
DEFAULT_255_1_234
10
5.5627224
20
99.8904
11
5.5627224
21
100.1618728
0
LINE
8
DEFAULT_255_1_234
10
5.5627224
20
100.1618728
11
5.0302181
21
100.1618728
0
LINE
8
DEFAULT_255_1_234
10
5.0302181
20
100.1618728
11
5.0302181
21
100.2494187
0
LINE
8
DEFAULT_255_1_234
10
5.0302181
20
100.2494187
11
5.5538875
21
101.0598211
0
LINE
8
DEFAULT_255_1_234
10
5.5538875
20
101.0598211
11
5.7121127
21
101.0598211
0
LINE
8
DEFAULT_255_1_234
10
5.5450525
20
100.8244912
11
5.1988846
21
100.283152
0
LINE
8
DEFAULT_255_1_234
10
5.1988846
20
100.283152
11
5.5627224
21
100.283152
0
LINE
8
DEFAULT_255_1_234
10
5.5627224
20
100.283152
11
5.5627224
21
100.8566181
0
LINE
8
DEFAULT_255_1_234
10
5.5627224
20
100.8566181
11
5.5450525
21
100.8244912
0
LINE
8
DEFAULT_255_1_234
10
6.101652
20
101.0598211
11
6.434166
21
100.0952093
0
LINE
8
DEFAULT_255_1_234
10
6.434166
20
100.0952093
11
6.7682863
21
101.0598211
0
LINE
8
DEFAULT_255_1_234
10
6.7682863
20
101.0598211
11
6.9369528
21
101.0598211
0
LINE
8
DEFAULT_255_1_234
10
6.9369528
20
101.0598211
11
6.5032389
21
99.8904
0
LINE
8
DEFAULT_255_1_234
10
6.5032389
20
99.8904
11
6.3666994
21
99.8904
0
LINE
8
DEFAULT_255_1_234
10
6.3666994
20
99.8904
11
5.9337887
21
101.0598211
0
LINE
8
DEFAULT_255_1_234
10
5.9337887
20
101.0598211
11
6.101652
21
101.0598211
0
LINE
8
DEFAULT_255_1_234
10
4.3660902
20
5.8098211
11
4.3660902
21
4.6404
0
LINE
8
DEFAULT_255_1_234
10
4.3660902
20
4.6404
11
4.2118808
21
4.6404
0
LINE
8
DEFAULT_255_1_234
10
4.2118808
20
4.6404
11
4.2118808
21
5.8098211
0
LINE
8
DEFAULT_255_1_234
10
4.2118808
20
5.8098211
11
4.3660902
21
5.8098211
0
LINE
8
DEFAULT_255_1_234
10
5.5467557
20
5.8098211
11
5.5467557
21
4.6404
0
LINE
8
DEFAULT_255_1_234
10
5.5467557
20
4.6404
11
5.3917432
21
4.6404
0
LINE
8
DEFAULT_255_1_234
10
5.3917432
20
4.6404
11
4.8030167
21
5.541561
0
LINE
8
DEFAULT_255_1_234
10
4.8030167
20
5.541561
11
4.8030167
21
4.6404
0
LINE
8
DEFAULT_255_1_234
10
4.8030167
20
4.6404
11
4.6480042
21
4.6404
0
LINE
8
DEFAULT_255_1_234
10
4.6480042
20
4.6404
11
4.6480042
21
5.8098211
0
LINE
8
DEFAULT_255_1_234
10
4.6480042
20
5.8098211
11
4.8030167
21
5.8098211
0
LINE
8
DEFAULT_255_1_234
10
4.8030167
20
5.8098211
11
5.3933495
21
4.9046442
0
LINE
8
DEFAULT_255_1_234
10
5.3933495
20
4.9046442
11
5.3933495
21
5.8098211
0
LINE
8
DEFAULT_255_1_234
10
5.3933495
20
5.8098211
11
5.5467557
21
5.8098211
0
LINE
8
DEFAULT_255_1_234
10
6.4093644
20
5.8098211
11
6.4093644
21
5.033152
0
LINE
8
DEFAULT_255_1_234
10
6.4093644
20
5.033152
11
6.5716055
21
5.033152
0
LINE
8
DEFAULT_255_1_234
10
6.5716055
20
5.033152
11
6.5716055
21
4.9118728
0
LINE
8
DEFAULT_255_1_234
10
6.5716055
20
4.9118728
11
6.4093644
21
4.9118728
0
LINE
8
DEFAULT_255_1_234
10
6.4093644
20
4.9118728
11
6.4093644
21
4.6404
0
LINE
8
DEFAULT_255_1_234
10
6.4093644
20
4.6404
11
6.2599741
21
4.6404
0
LINE
8
DEFAULT_255_1_234
10
6.2599741
20
4.6404
11
6.2599741
21
4.9118728
0
LINE
8
DEFAULT_255_1_234
10
6.2599741
20
4.9118728
11
5.7274698
21
4.9118728
0
LINE
8
DEFAULT_255_1_234
10
5.7274698
20
4.9118728
11
5.7274698
21
4.9994187
0
LINE
8
DEFAULT_255_1_234
10
5.7274698
20
4.9994187
11
6.2511392
21
5.8098211
0
LINE
8
DEFAULT_255_1_234
10
6.2511392
20
5.8098211
11
6.4093644
21
5.8098211
0
LINE
8
DEFAULT_255_1_234
10
6.2423042
20
5.5744912
11
5.8961363
21
5.033152
0
LINE
8
DEFAULT_255_1_234
10
5.8961363
20
5.033152
11
6.2599741
21
5.033152
0
LINE
8
DEFAULT_255_1_234
10
6.2599741
20
5.033152
11
6.2599741
21
5.6066181
0
LINE
8
DEFAULT_255_1_234
10
6.2599741
20
5.6066181
11
6.2423042
21
5.5744912
0
LINE
8
DEFAULT_255_1_234
10
7.4567031
20
5.0781297
11
7.4567031
21
5.065279
0
LINE
8
DEFAULT_255_1_234
10
6.864764
20
4.7407967
11
6.8575354
21
4.6404
0
LINE
8
DEFAULT_255_1_234
10
6.8575354
20
4.6404
11
6.7209958
21
4.6404
0
LINE
8
DEFAULT_255_1_234
10
6.7209958
20
4.6404
11
6.7209958
21
5.874075
0
LINE
8
DEFAULT_255_1_234
10
6.7209958
20
5.874075
11
6.869583
21
5.874075
0
LINE
8
DEFAULT_255_1_234
10
6.869583
20
5.874075
11
6.869583
21
5.4138564
0
LINE
8
DEFAULT_255_1_234
10
6.869583
20
5.2628597
11
6.869583
21
4.8869744
0
ARC
8
DEFAULT_255_1_234
10
6.7520306
20
5.0608573
40
0.7046863
50
349.4825105
51
0.3595108
0
ARC
8
DEFAULT_255_1_234
10
6.9797547
20
5.0170022
40
0.4727857
50
331.8602128
51
349.6704139
0
ARC
8
DEFAULT_255_1_234
10
7.0530315
20
4.9813125
40
0.3913503
50
322.8939783
51
331.4081204
0
ARC
8
DEFAULT_255_1_234
10
7.1225713
20
4.9233707
40
0.300965
50
296.7249167
51
323.7044215
0
ARC
8
DEFAULT_255_1_234
10
7.125561
20
4.9303043
40
0.3058683
50
270.6342811
51
295.6405548
0
ARC
8
DEFAULT_255_1_234
10
7.119392
20
5.0105995
40
0.3862632
50
269.9967524
51
271.4174733
0
ARC
8
DEFAULT_255_1_234
10
7.1155584
20
4.9970686
40
0.3727515
50
253.657532
51
270.5859025
0
ARC
8
DEFAULT_255_1_234
10
7.092469
20
4.9127235
40
0.2853216
50
217.0543181
51
253.3409865
0
ARC
8
DEFAULT_255_1_234
10
7.0991358
20
5.2311052
40
0.2934152
50
93.1931545
51
141.4760602
0
ARC
8
DEFAULT_255_1_234
10
7.1173574
20
5.1078453
40
0.4176524
50
89.9442578
51
94.747309
0
ARC
8
DEFAULT_255_1_234
10
7.1217321
20
5.190141
40
0.3353801
50
70.6103515
51
90.6779749
0
ARC
8
DEFAULT_255_1_234
10
7.1331623
20
5.235689
40
0.2886533
50
36.1152635
51
69.7489296
0
ARC
8
DEFAULT_255_1_234
10
7.0345027
20
5.1603708
40
0.4127561
50
15.4648517
51
36.4891396
0
ARC
8
DEFAULT_255_1_234
10
6.8286714
20
5.1004524
40
0.6271187
50
3.9220813
51
15.7265815
0
ARC
8
DEFAULT_255_1_234
10
6.5927557
20
5.0792325
40
0.863948
50
359.9268643
51
4.2559037
0
ARC
8
DEFAULT_255_1_234
10
6.6741938
20
5.0852103
40
0.6339295
50
359.7230081
51
7.7115859
0
ARC
8
DEFAULT_255_1_234
10
6.9003503
20
5.1168172
40
0.4055784
50
7.5740023
51
19.4151451
0
ARC
8
DEFAULT_255_1_234
10
7.0271142
20
5.1614519
40
0.2711858
50
19.4238354
51
34.9161182
0
ARC
8
DEFAULT_255_1_234
10
7.094188
20
5.2101172
40
0.1883373
50
34.4556322
51
84.4656458
0
ARC
8
DEFAULT_255_1_234
10
7.0813328
20
5.1346057
40
0.2647939
50
83.2727306
51
90.1114621
0
ARC
8
DEFAULT_255_1_234
10
7.0771186
20
5.1544509
40
0.2449763
50
89.1347934
51
111.4089923
0
ARC
8
DEFAULT_255_1_234
10
7.0691736
20
5.1872473
40
0.2115923
50
112.6478598
51
148.9260864
0
ARC
8
DEFAULT_255_1_234
10
7.1469534
20
5.1330985
40
0.3062228
50
147.7597608
51
154.928557
0
ARC
8
DEFAULT_255_1_234
10
7.1209595
20
5.0086379
40
0.2792708
50
205.8264786
51
224.5301003
0
ARC
8
DEFAULT_255_1_234
10
7.0731899
20
4.9659914
40
0.2153317
50
225.354483
51
269.2437579
0
ARC
8
DEFAULT_255_1_234
10
7.0823534
20
5.0466292
40
0.2961942
50
267.6770046
51
270.0136612
0
ARC
8
DEFAULT_255_1_234
10
7.0850885
20
4.9707938
40
0.2203751
50
269.3072485
51
289.499141
0
ARC
8
DEFAULT_255_1_234
10
7.092295
20
4.9411394
40
0.1900415
50
290.4353973
51
325.3766314
0
ARC
8
DEFAULT_255_1_234
10
7.0294172
20
4.9865643
40
0.2675986
50
325.0223901
51
342.692398
0
ARC
8
DEFAULT_255_1_234
10
6.859706
20
5.0417812
40
0.446058
50
342.4062876
51
352.8669243
0
ARC
8
DEFAULT_255_1_234
10
6.5876536
20
5.0774975
40
0.7204419
50
352.7350668
51
359.8556985
0
ARC
8
DEFAULT_255_1_234
10
6.3966231
20
5.0821018
40
0.9114927
50
359.5965197
51
0.0027543
0
LINE
8
DEFAULT_255_1_234
10
4.4202902
20
13.7473211
11
4.4202902
21
12.5779
0
LINE
8
DEFAULT_255_1_234
10
4.4202902
20
12.5779
11
4.2660808
21
12.5779
0
LINE
8
DEFAULT_255_1_234
10
4.2660808
20
12.5779
11
4.2660808
21
13.7473211
0
LINE
8
DEFAULT_255_1_234
10
4.2660808
20
13.7473211
11
4.4202902
21
13.7473211
0
LINE
8
DEFAULT_255_1_234
10
5.6009557
20
13.7473211
11
5.6009557
21
12.5779
0
LINE
8
DEFAULT_255_1_234
10
5.6009557
20
12.5779
11
5.4459432
21
12.5779
0
LINE
8
DEFAULT_255_1_234
10
5.4459432
20
12.5779
11
4.8572167
21
13.479061
0
LINE
8
DEFAULT_255_1_234
10
4.8572167
20
13.479061
11
4.8572167
21
12.5779
0
LINE
8
DEFAULT_255_1_234
10
4.8572167
20
12.5779
11
4.7022042
21
12.5779
0
LINE
8
DEFAULT_255_1_234
10
4.7022042
20
12.5779
11
4.7022042
21
13.7473211
0
LINE
8
DEFAULT_255_1_234
10
4.7022042
20
13.7473211
11
4.8572167
21
13.7473211
0
LINE
8
DEFAULT_255_1_234
10
4.8572167
20
13.7473211
11
5.4475495
21
12.8421442
0
LINE
8
DEFAULT_255_1_234
10
5.4475495
20
12.8421442
11
5.4475495
21
13.7473211
0
LINE
8
DEFAULT_255_1_234
10
5.4475495
20
13.7473211
11
5.6009557
21
13.7473211
0
LINE
8
DEFAULT_255_1_234
10
6.4635644
20
13.7473211
11
6.4635644
21
12.970652
0
LINE
8
DEFAULT_255_1_234
10
6.4635644
20
12.970652
11
6.6258055
21
12.970652
0
LINE
8
DEFAULT_255_1_234
10
6.6258055
20
12.970652
11
6.6258055
21
12.8493728
0
LINE
8
DEFAULT_255_1_234
10
6.6258055
20
12.8493728
11
6.4635644
21
12.8493728
0
LINE
8
DEFAULT_255_1_234
10
6.4635644
20
12.8493728
11
6.4635644
21
12.5779
0
LINE
8
DEFAULT_255_1_234
10
6.4635644
20
12.5779
11
6.3141741
21
12.5779
0
LINE
8
DEFAULT_255_1_234
10
6.3141741
20
12.5779
11
6.3141741
21
12.8493728
0
LINE
8
DEFAULT_255_1_234
10
6.3141741
20
12.8493728
11
5.7816698
21
12.8493728
0
LINE
8
DEFAULT_255_1_234
10
5.7816698
20
12.8493728
11
5.7816698
21
12.9369187
0
LINE
8
DEFAULT_255_1_234
10
5.7816698
20
12.9369187
11
6.3053392
21
13.7473211
0
LINE
8
DEFAULT_255_1_234
10
6.3053392
20
13.7473211
11
6.4635644
21
13.7473211
0
LINE
8
DEFAULT_255_1_234
10
6.2965042
20
13.5119912
11
5.9503363
21
12.970652
0
LINE
8
DEFAULT_255_1_234
10
5.9503363
20
12.970652
11
6.3141741
21
12.970652
0
LINE
8
DEFAULT_255_1_234
10
6.3141741
20
12.970652
11
6.3141741
21
13.5441181
0
LINE
8
DEFAULT_255_1_234
10
6.3141741
20
13.5441181
11
6.2965042
21
13.5119912
0
LINE
8
DEFAULT_255_1_234
10
7.2040907
20
12.5779
11
6.7984879
21
12.5779
0
LINE
8
DEFAULT_255_1_234
10
6.7984879
20
12.5779
11
6.7984879
21
13.7473211
0
LINE
8
DEFAULT_255_1_234
10
6.7984879
20
13.7473211
11
7.1807986
21
13.7473211
0
LINE
8
DEFAULT_255_1_234
10
7.2097129
20
13.1248614
11
6.9526973
21
13.1248614
0
LINE
8
DEFAULT_255_1_234
10
6.9526973
20
13.1248614
11
6.9526973
21
12.7039983
0
LINE
8
DEFAULT_255_1_234
10
6.9526973
20
12.7039983
11
7.2073034
21
12.7039983
0
LINE
8
DEFAULT_255_1_234
10
6.9526973
20
13.6204196
11
6.9526973
21
13.2485501
0
LINE
8
DEFAULT_255_1_234
10
6.9526973
20
13.2485501
11
7.1856177
21
13.2485501
0
LINE
8
DEFAULT_255_1_234
10
7.1807986
20
13.6204196
11
6.9526973
21
13.6204196
0
ARC
8
DEFAULT_255_1_234
10
7.1845695
20
13.0105901
40
0.7367406
50
82.1257326
51
90.2932599
0
ARC
8
DEFAULT_255_1_234
10
7.223465
20
13.2824013
40
0.4621653
50
69.9044149
51
82.2857423
0
ARC
8
DEFAULT_255_1_234
10
7.2805328
20
13.4366637
40
0.2976871
50
51.1838526
51
70.0181538
0
ARC
8
DEFAULT_255_1_234
10
7.3060294
20
13.473724
40
0.2528517
50
12.1017251
51
50.4214761
0
ARC
8
DEFAULT_255_1_234
10
7.1676168
20
13.4389676
40
0.3955061
50
359.5251267
51
12.8211707
0
ARC
8
DEFAULT_255_1_234
10
7.3256094
20
13.4320344
40
0.2375281
50
323.4908128
51
0.8817314
0
ARC
8
DEFAULT_255_1_234
10
7.2837781
20
13.464355
40
0.2903817
50
298.6825083
51
323.2756573
0
ARC
8
DEFAULT_255_1_234
10
7.2476144
20
13.5244649
40
0.3604842
50
293.1999386
51
299.1396394
0
ARC
8
DEFAULT_255_1_234
10
7.3149117
20
12.9159126
40
0.2871098
50
54.0011765
51
74.9167975
0
ARC
8
DEFAULT_255_1_234
10
7.3265476
20
12.9356332
40
0.2643248
50
36.3580696
51
53.5291921
0
ARC
8
DEFAULT_255_1_234
10
7.3138718
20
12.9265998
40
0.2798884
50
4.8189881
51
36.3089977
0
ARC
8
DEFAULT_255_1_234
10
7.2359554
20
12.915627
40
0.358478
50
359.9370252
51
5.5204067
0
ARC
8
DEFAULT_255_1_234
10
7.2035075
20
12.9115667
40
0.3909429
50
344.7478609
51
0.5373281
0
ARC
8
DEFAULT_255_1_234
10
7.3026046
20
12.8848544
40
0.2883093
50
311.1786488
51
344.6886812
0
ARC
8
DEFAULT_255_1_234
10
7.2734093
20
12.9211987
40
0.3348923
50
286.0418249
51
310.8441291
0
ARC
8
DEFAULT_255_1_234
10
7.2226925
20
13.0858807
40
0.5071869
50
274.1042341
51
286.4071509
0
ARC
8
DEFAULT_255_1_234
10
7.2050181
20
13.2742229
40
0.6963234
50
269.9236873
51
274.445647
0
ARC
8
DEFAULT_255_1_234
10
7.2096182
20
13.0402537
40
0.3362634
50
269.6055768
51
281.3740047
0
ARC
8
DEFAULT_255_1_234
10
7.232682
20
12.9309353
40
0.224546
50
281.1055983
51
302.5132223
0
ARC
8
DEFAULT_255_1_234
10
7.2473719
20
12.9045823
40
0.1944357
50
303.0368945
51
311.8811219
0
ARC
8
DEFAULT_255_1_234
10
7.2545126
20
12.896089
40
0.1833454
50
311.9916004
51
351.7143462
0
ARC
8
DEFAULT_255_1_234
10
7.1728356
20
12.912593
40
0.2665871
50
350.7339597
51
0.2221581
0
ARC
8
DEFAULT_255_1_234
10
7.1620802
20
12.9182467
40
0.2773789
50
359.0456241
51
17.2296242
0
ARC
8
DEFAULT_255_1_234
10
7.2659919
20
12.9491163
40
0.1689915
50
17.6685481
51
78.9940892
0
ARC
8
DEFAULT_255_1_234
10
7.2143083
20
12.7636224
40
0.3612658
50
76.5635957
51
90.6980921
0
LINE
8
DEFAULT_255_1_234
10
7.2099067
20
13.1248613
11
7.2097129
21
13.1248614
0
ARC
8
DEFAULT_255_1_234
10
7.1878743
20
13.5771036
40
0.3285612
50
269.6064736
51
281.4533503
0
ARC
8
DEFAULT_255_1_234
10
7.2101563
20
13.4719688
40
0.2210975
50
281.2041486
51
302.5148063
0
ARC
8
DEFAULT_255_1_234
10
7.2238413
20
13.4473241
40
0.1929674
50
303.021671
51
309.8369575
0
ARC
8
DEFAULT_255_1_234
10
7.2421875
20
13.4267488
40
0.1654181
50
309.5228395
51
356.9509836
0
ARC
8
DEFAULT_255_1_234
10
7.1758457
20
13.4362932
40
0.2322512
50
355.4701227
51
0.0492546
0
ARC
8
DEFAULT_255_1_234
10
7.1479548
20
13.4385094
40
0.2601498
50
359.5558597
51
11.2096359
0
ARC
8
DEFAULT_255_1_234
10
7.2436838
20
13.458323
40
0.1623975
50
10.9182341
51
31.3230275
0
ARC
8
DEFAULT_255_1_234
10
7.2722571
20
13.4742214
40
0.1297302
50
31.8852677
51
52.1412565
0
ARC
8
DEFAULT_255_1_234
10
7.2448304
20
13.435475
40
0.1771663
50
52.8285564
51
71.9850297
0
ARC
8
DEFAULT_255_1_234
10
7.2072481
20
13.3248664
40
0.2939794
50
71.6863486
51
82.8455995
0
ARC
8
DEFAULT_255_1_234
10
7.1833016
20
13.1439149
40
0.476506
50
82.6984714
51
90.1729175
0
ARC
8
DEFAULT_255_1_234
10
7.1810651
20
13.2662623
40
0.3541573
50
89.8708275
51
90.0431131
0
LINE
8
DEFAULT_255_1_234
10
4.5033902
20
21.6848211
11
4.5033902
21
20.5154
0
LINE
8
DEFAULT_255_1_234
10
4.5033902
20
20.5154
11
4.3491808
21
20.5154
0
LINE
8
DEFAULT_255_1_234
10
4.3491808
20
20.5154
11
4.3491808
21
21.6848211
0
LINE
8
DEFAULT_255_1_234
10
4.3491808
20
21.6848211
11
4.5033902
21
21.6848211
0
LINE
8
DEFAULT_255_1_234
10
5.6840557
20
21.6848211
11
5.6840557
21
20.5154
0
LINE
8
DEFAULT_255_1_234
10
5.6840557
20
20.5154
11
5.5290432
21
20.5154
0
LINE
8
DEFAULT_255_1_234
10
5.5290432
20
20.5154
11
4.9403167
21
21.416561
0
LINE
8
DEFAULT_255_1_234
10
4.9403167
20
21.416561
11
4.9403167
21
20.5154
0
LINE
8
DEFAULT_255_1_234
10
4.9403167
20
20.5154
11
4.7853042
21
20.5154
0
LINE
8
DEFAULT_255_1_234
10
4.7853042
20
20.5154
11
4.7853042
21
21.6848211
0
LINE
8
DEFAULT_255_1_234
10
4.7853042
20
21.6848211
11
4.9403167
21
21.6848211
0
LINE
8
DEFAULT_255_1_234
10
4.9403167
20
21.6848211
11
5.5306495
21
20.7796442
0
LINE
8
DEFAULT_255_1_234
10
5.5306495
20
20.7796442
11
5.5306495
21
21.6848211
0
LINE
8
DEFAULT_255_1_234
10
5.5306495
20
21.6848211
11
5.6840557
21
21.6848211
0
LINE
8
DEFAULT_255_1_234
10
6.5466644
20
21.6848211
11
6.5466644
21
20.908152
0
LINE
8
DEFAULT_255_1_234
10
6.5466644
20
20.908152
11
6.7089055
21
20.908152
0
LINE
8
DEFAULT_255_1_234
10
6.7089055
20
20.908152
11
6.7089055
21
20.7868728
0
LINE
8
DEFAULT_255_1_234
10
6.7089055
20
20.7868728
11
6.5466644
21
20.7868728
0
LINE
8
DEFAULT_255_1_234
10
6.5466644
20
20.7868728
11
6.5466644
21
20.5154
0
LINE
8
DEFAULT_255_1_234
10
6.5466644
20
20.5154
11
6.3972741
21
20.5154
0
LINE
8
DEFAULT_255_1_234
10
6.3972741
20
20.5154
11
6.3972741
21
20.7868728
0
LINE
8
DEFAULT_255_1_234
10
6.3972741
20
20.7868728
11
5.8647698
21
20.7868728
0
LINE
8
DEFAULT_255_1_234
10
5.8647698
20
20.7868728
11
5.8647698
21
20.8744187
0
LINE
8
DEFAULT_255_1_234
10
5.8647698
20
20.8744187
11
6.3884392
21
21.6848211
0
LINE
8
DEFAULT_255_1_234
10
6.3884392
20
21.6848211
11
6.5466644
21
21.6848211
0
LINE
8
DEFAULT_255_1_234
10
6.3796042
20
21.4494912
11
6.0334363
21
20.908152
0
LINE
8
DEFAULT_255_1_234
10
6.0334363
20
20.908152
11
6.3972741
21
20.908152
0
LINE
8
DEFAULT_255_1_234
10
6.3972741
20
20.908152
11
6.3972741
21
21.4816181
0
LINE
8
DEFAULT_255_1_234
10
6.3972741
20
21.4816181
11
6.3796042
21
21.4494912
0
LINE
8
DEFAULT_255_1_234
10
7.6389808
20
20.5154
11
7.5273396
21
20.8206061
0
LINE
8
DEFAULT_255_1_234
10
7.5273396
20
20.8206061
11
7.0374036
21
20.8206061
0
LINE
8
DEFAULT_255_1_234
10
7.0374036
20
20.8206061
11
6.9273688
21
20.5154
0
LINE
8
DEFAULT_255_1_234
10
6.9273688
20
20.5154
11
6.7683404
21
20.5154
0
LINE
8
DEFAULT_255_1_234
10
6.7683404
20
20.5154
11
7.214905
21
21.6848211
0
LINE
8
DEFAULT_255_1_234
10
7.214905
20
21.6848211
11
7.3498382
21
21.6848211
0
LINE
8
DEFAULT_255_1_234
10
7.3498382
20
21.6848211
11
7.7972061
21
20.5154
0
LINE
8
DEFAULT_255_1_234
10
7.7972061
20
20.5154
11
7.6389808
21
20.5154
0
LINE
8
DEFAULT_255_1_234
10
7.2823716
20
21.4944689
11
7.0839877
21
20.9475075
0
LINE
8
DEFAULT_255_1_234
10
7.0839877
20
20.9475075
11
7.4815587
21
20.9475075
0
LINE
8
DEFAULT_255_1_234
10
7.4815587
20
20.9475075
11
7.2823716
21
21.4944689
0
LINE
8
DEFAULT_255_1_234
10
4.3660902
20
29.6223211
11
4.3660902
21
28.4529
0
LINE
8
DEFAULT_255_1_234
10
4.3660902
20
28.4529
11
4.2118808
21
28.4529
0
LINE
8
DEFAULT_255_1_234
10
4.2118808
20
28.4529
11
4.2118808
21
29.6223211
0
LINE
8
DEFAULT_255_1_234
10
4.2118808
20
29.6223211
11
4.3660902
21
29.6223211
0
LINE
8
DEFAULT_255_1_234
10
5.5467557
20
29.6223211
11
5.5467557
21
28.4529
0
LINE
8
DEFAULT_255_1_234
10
5.5467557
20
28.4529
11
5.3917432
21
28.4529
0
LINE
8
DEFAULT_255_1_234
10
5.3917432
20
28.4529
11
4.8030167
21
29.354061
0
LINE
8
DEFAULT_255_1_234
10
4.8030167
20
29.354061
11
4.8030167
21
28.4529
0
LINE
8
DEFAULT_255_1_234
10
4.8030167
20
28.4529
11
4.6480042
21
28.4529
0
LINE
8
DEFAULT_255_1_234
10
4.6480042
20
28.4529
11
4.6480042
21
29.6223211
0
LINE
8
DEFAULT_255_1_234
10
4.6480042
20
29.6223211
11
4.8030167
21
29.6223211
0
LINE
8
DEFAULT_255_1_234
10
4.8030167
20
29.6223211
11
5.3933495
21
28.7171442
0
LINE
8
DEFAULT_255_1_234
10
5.3933495
20
28.7171442
11
5.3933495
21
29.6223211
0
LINE
8
DEFAULT_255_1_234
10
5.3933495
20
29.6223211
11
5.5467557
21
29.6223211
0
LINE
8
DEFAULT_255_1_234
10
5.9981394
20
28.9886169
11
5.9981394
21
29.1098962
0
LINE
8
DEFAULT_255_1_234
10
5.9981394
20
29.1098962
11
6.1097806
21
29.1098962
0
LINE
8
DEFAULT_255_1_234
10
5.9194284
20
29.3155087
11
5.7708412
21
29.3155087
0
LINE
8
DEFAULT_255_1_234
10
5.7604
20
28.7613188
11
5.9097903
21
28.7613188
0
LINE
8
DEFAULT_255_1_234
10
6.1097806
20
28.9886169
11
5.9981394
21
28.9886169
0
ARC
8
DEFAULT_255_1_234
10
6.1068672
20
29.4491713
40
0.3392876
50
270.4919872
51
281.8951556
0
ARC
8
DEFAULT_255_1_234
10
6.1309934
20
29.3389702
40
0.2264817
50
281.6691735
51
301.2943132
0
ARC
8
DEFAULT_255_1_234
10
6.1480144
20
29.3078304
40
0.1910381
50
301.7833094
51
311.7545298
0
ARC
8
DEFAULT_255_1_234
10
6.157172
20
29.2976748
40
0.1773635
50
311.7323931
51
354.2802411
0
ARC
8
DEFAULT_255_1_234
10
6.0845345
20
29.3101722
40
0.2509385
50
353.0937916
51
0.1181479
0
ARC
8
DEFAULT_255_1_234
10
6.038413
20
29.3149386
40
0.2970898
50
359.1805295
51
15.0453146
0
ARC
8
DEFAULT_255_1_234
10
6.1729967
20
29.3541992
40
0.1569564
50
13.9577229
51
77.6713066
0
ARC
8
DEFAULT_255_1_234
10
6.1343496
20
29.2156949
40
0.3006298
50
76.1116566
51
90.7026153
0
ARC
8
DEFAULT_255_1_234
10
6.1284334
20
29.2430545
40
0.2732568
50
89.5324876
51
103.531937
0
ARC
8
DEFAULT_255_1_234
10
6.1083779
20
29.3229884
40
0.1908508
50
103.2931773
51
133.5619022
0
ARC
8
DEFAULT_255_1_234
10
6.1039267
20
29.3289375
40
0.1834746
50
133.8349307
51
173.5344437
0
ARC
8
DEFAULT_255_1_234
10
6.176231
20
29.3161213
40
0.2568033
50
172.5096846
51
180.1366907
0
ARC
8
DEFAULT_255_1_234
10
6.0811204
20
29.3195622
40
0.3103056
50
155.3484492
51
180.7484736
0
ARC
8
DEFAULT_255_1_234
10
6.0762293
20
29.3166846
40
0.3070957
50
131.5744599
51
154.4798489
0
ARC
8
DEFAULT_255_1_234
10
6.107544
20
29.285031
40
0.3515643
50
96.9875458
51
131.9690667
0
ARC
8
DEFAULT_255_1_234
10
6.129492
20
29.1604636
40
0.4779224
50
89.8596053
51
97.7825159
0
ARC
8
DEFAULT_255_1_234
10
6.1342983
20
29.1342616
40
0.5041361
50
78.3655447
51
90.4131539
0
ARC
8
DEFAULT_255_1_234
10
6.1700901
20
29.3001887
40
0.3344039
50
56.6229102
51
78.638727
0
ARC
8
DEFAULT_255_1_234
10
6.1915845
20
29.3377805
40
0.2912001
50
47.0253525
51
56.0854072
0
ARC
8
DEFAULT_255_1_234
10
6.1935625
20
29.3417223
40
0.2869704
50
10.9208013
51
46.7778124
0
ARC
8
DEFAULT_255_1_234
10
6.0571691
20
29.3101857
40
0.426899
50
359.6364486
51
11.6087304
0
ARC
8
DEFAULT_255_1_234
10
6.2406536
20
29.3086752
40
0.243409
50
332.3549906
51
359.7179418
0
ARC
8
DEFAULT_255_1_234
10
6.1756137
20
29.3395142
40
0.3153459
50
325.2333722
51
332.8745602
0
ARC
8
DEFAULT_255_1_234
10
6.1908761
20
29.3288828
40
0.2967456
50
292.9802137
51
325.2392345
0
ARC
8
DEFAULT_255_1_234
10
6.1634135
20
29.3822863
40
0.3566604
50
292.5402179
51
293.6924929
0
ARC
8
DEFAULT_255_1_234
10
6.202673
20
28.7368091
40
0.3307468
50
57.6435486
51
72.8625112
0
ARC
8
DEFAULT_255_1_234
10
6.238123
20
28.7942549
40
0.2632492
50
36.7248896
51
57.4697979
0
ARC
8
DEFAULT_255_1_234
10
6.2369863
20
28.795522
40
0.2634081
50
8.0545065
51
36.356114
0
ARC
8
DEFAULT_255_1_234
10
6.1507048
20
28.7800174
40
0.3510261
50
359.8320645
51
8.5869982
0
ARC
8
DEFAULT_255_1_234
10
6.1131824
20
28.7752101
40
0.3885653
50
343.9829931
51
0.5571613
0
ARC
8
DEFAULT_255_1_234
10
6.2018022
20
28.7509438
40
0.2966924
50
311.6359546
51
343.7651759
0
ARC
8
DEFAULT_255_1_234
10
6.1639591
20
28.7936102
40
0.3537231
50
279.7829875
51
311.6255694
0
ARC
8
DEFAULT_255_1_234
10
6.1338367
20
28.937328
40
0.5004971
50
269.7286406
51
280.3856417
0
ARC
8
DEFAULT_255_1_234
10
6.1276439
20
28.9331996
40
0.4963778
50
256.6828919
51
270.4412052
0
ARC
8
DEFAULT_255_1_234
10
6.0937735
20
28.7947394
40
0.3538406
50
229.4223008
51
256.8556159
0
ARC
8
DEFAULT_255_1_234
10
6.0523128
20
28.7480736
40
0.2914296
50
181.818294
51
229.6455059
0
ARC
8
DEFAULT_255_1_234
10
6.1563084
20
28.7611496
40
0.3959084
50
179.9755256
51
183.2323064
0
ARC
8
DEFAULT_255_1_234
10
6.139083
20
28.7591037
40
0.2293034
50
179.4465117
51
196.2869258
0
ARC
8
DEFAULT_255_1_234
10
6.0903238
20
28.7457651
40
0.1787621
50
196.5661473
51
227.705904
0
ARC
8
DEFAULT_255_1_234
10
6.1067333
20
28.7641155
40
0.2033784
50
227.7652068
51
257.8762805
0
ARC
8
DEFAULT_255_1_234
10
6.1292303
20
28.8584156
40
0.3003081
50
257.4584385
51
270.426602
0
ARC
8
DEFAULT_255_1_234
10
6.1337869
20
28.8873996
40
0.329292
50
269.5962073
51
280.8789248
0
ARC
8
DEFAULT_255_1_234
10
6.1567398
20
28.7727685
40
0.2123908
50
280.6346389
51
299.8595945
0
ARC
8
DEFAULT_255_1_234
10
6.1758305
20
28.7365212
40
0.171457
50
300.3576302
51
314.5517981
0
ARC
8
DEFAULT_255_1_234
10
6.1675365
20
28.7425919
40
0.1816095
50
315.0728369
51
345.0431014
0
ARC
8
DEFAULT_255_1_234
10
6.0752179
20
28.7694841
40
0.2777492
50
344.5986631
51
357.9269593
0
ARC
8
DEFAULT_255_1_234
10
5.9856506
20
28.7756276
40
0.3674917
50
357.4748886
51
0.0231117
0
ARC
8
DEFAULT_255_1_234
10
6.0879615
20
28.7780679
40
0.2651907
50
359.5047933
51
13.4239635
0
ARC
8
DEFAULT_255_1_234
10
6.1746259
20
28.8002478
40
0.1757509
50
12.9498199
51
48.7551375
0
ARC
8
DEFAULT_255_1_234
10
6.1563993
20
28.77534
40
0.2065134
50
49.5088623
51
72.1836453
0
ARC
8
DEFAULT_255_1_234
10
6.1206145
20
28.6691291
40
0.3185836
50
71.9010081
51
84.3554254
0
ARC
8
DEFAULT_255_1_234
10
6.1044777
20
28.5330326
40
0.4556151
50
84.0193428
51
89.333121
0
LINE
8
DEFAULT_255_1_234
10
7.4567031
20
28.8906297
11
7.4567031
21
28.877779
0
LINE
8
DEFAULT_255_1_234
10
6.864764
20
28.5532967
11
6.8575354
21
28.4529
0
LINE
8
DEFAULT_255_1_234
10
6.8575354
20
28.4529
11
6.7209958
21
28.4529
0
LINE
8
DEFAULT_255_1_234
10
6.7209958
20
28.4529
11
6.7209958
21
29.686575
0
LINE
8
DEFAULT_255_1_234
10
6.7209958
20
29.686575
11
6.869583
21
29.686575
0
LINE
8
DEFAULT_255_1_234
10
6.869583
20
29.686575
11
6.869583
21
29.2263564
0
LINE
8
DEFAULT_255_1_234
10
6.869583
20
29.0753597
11
6.869583
21
28.6994744
0
ARC
8
DEFAULT_255_1_234
10
6.7520306
20
28.8733573
40
0.7046863
50
349.4825105
51
0.3595108
0
ARC
8
DEFAULT_255_1_234
10
6.9797547
20
28.8295022
40
0.4727857
50
331.8602128
51
349.6704139
0
ARC
8
DEFAULT_255_1_234
10
7.0530315
20
28.7938125
40
0.3913503
50
322.8939783
51
331.4081204
0
ARC
8
DEFAULT_255_1_234
10
7.1225713
20
28.7358707
40
0.300965
50
296.7249167
51
323.7044215
0
ARC
8
DEFAULT_255_1_234
10
7.125561
20
28.7428043
40
0.3058683
50
270.6342811
51
295.6405548
0
ARC
8
DEFAULT_255_1_234
10
7.119392
20
28.8230995
40
0.3862632
50
269.9967524
51
271.4174733
0
ARC
8
DEFAULT_255_1_234
10
7.1155584
20
28.8095686
40
0.3727515
50
253.657532
51
270.5859025
0
ARC
8
DEFAULT_255_1_234
10
7.092469
20
28.7252235
40
0.2853216
50
217.0543181
51
253.3409865
0
ARC
8
DEFAULT_255_1_234
10
7.0991358
20
29.0436052
40
0.2934152
50
93.1931545
51
141.4760602
0
ARC
8
DEFAULT_255_1_234
10
7.1173574
20
28.9203453
40
0.4176524
50
89.9442578
51
94.747309
0
ARC
8
DEFAULT_255_1_234
10
7.1217321
20
29.002641
40
0.3353801
50
70.6103515
51
90.6779749
0
ARC
8
DEFAULT_255_1_234
10
7.1331623
20
29.048189
40
0.2886533
50
36.1152635
51
69.7489296
0
ARC
8
DEFAULT_255_1_234
10
7.0345027
20
28.9728708
40
0.4127561
50
15.4648517
51
36.4891396
0
ARC
8
DEFAULT_255_1_234
10
6.8286714
20
28.9129524
40
0.6271187
50
3.9220813
51
15.7265815
0
ARC
8
DEFAULT_255_1_234
10
6.5927557
20
28.8917325
40
0.863948
50
359.9268643
51
4.2559037
0
ARC
8
DEFAULT_255_1_234
10
6.6741938
20
28.8977103
40
0.6339295
50
359.7230081
51
7.7115859
0
ARC
8
DEFAULT_255_1_234
10
6.9003503
20
28.9293172
40
0.4055784
50
7.5740023
51
19.4151451
0
ARC
8
DEFAULT_255_1_234
10
7.0271142
20
28.9739519
40
0.2711858
50
19.4238354
51
34.9161182
0
ARC
8
DEFAULT_255_1_234
10
7.094188
20
29.0226172
40
0.1883373
50
34.4556322
51
84.4656458
0
ARC
8
DEFAULT_255_1_234
10
7.0813328
20
28.9471057
40
0.2647939
50
83.2727306
51
90.1114621
0
ARC
8
DEFAULT_255_1_234
10
7.0771186
20
28.9669509
40
0.2449763
50
89.1347934
51
111.4089923
0
ARC
8
DEFAULT_255_1_234
10
7.0691736
20
28.9997473
40
0.2115923
50
112.6478598
51
148.9260864
0
ARC
8
DEFAULT_255_1_234
10
7.1469534
20
28.9455985
40
0.3062228
50
147.7597608
51
154.928557
0
ARC
8
DEFAULT_255_1_234
10
7.1209595
20
28.8211379
40
0.2792708
50
205.8264786
51
224.5301003
0
ARC
8
DEFAULT_255_1_234
10
7.0731899
20
28.7784914
40
0.2153317
50
225.354483
51
269.2437579
0
ARC
8
DEFAULT_255_1_234
10
7.0823534
20
28.8591292
40
0.2961942
50
267.6770046
51
270.0136612
0
ARC
8
DEFAULT_255_1_234
10
7.0850885
20
28.7832938
40
0.2203751
50
269.3072485
51
289.499141
0
ARC
8
DEFAULT_255_1_234
10
7.092295
20
28.7536394
40
0.1900415
50
290.4353973
51
325.3766314
0
ARC
8
DEFAULT_255_1_234
10
7.0294172
20
28.7990643
40
0.2675986
50
325.0223901
51
342.692398
0
ARC
8
DEFAULT_255_1_234
10
6.859706
20
28.8542812
40
0.446058
50
342.4062876
51
352.8669243
0
ARC
8
DEFAULT_255_1_234
10
6.5876536
20
28.8899975
40
0.7204419
50
352.7350668
51
359.8556985
0
ARC
8
DEFAULT_255_1_234
10
6.3966231
20
28.8946018
40
0.9114927
50
359.5965197
51
0.0027543
0
LINE
8
DEFAULT_255_1_234
10
4.4202902
20
37.5598211
11
4.4202902
21
36.3904
0
LINE
8
DEFAULT_255_1_234
10
4.4202902
20
36.3904
11
4.2660808
21
36.3904
0
LINE
8
DEFAULT_255_1_234
10
4.2660808
20
36.3904
11
4.2660808
21
37.5598211
0
LINE
8
DEFAULT_255_1_234
10
4.2660808
20
37.5598211
11
4.4202902
21
37.5598211
0
LINE
8
DEFAULT_255_1_234
10
5.6009557
20
37.5598211
11
5.6009557
21
36.3904
0
LINE
8
DEFAULT_255_1_234
10
5.6009557
20
36.3904
11
5.4459432
21
36.3904
0
LINE
8
DEFAULT_255_1_234
10
5.4459432
20
36.3904
11
4.8572167
21
37.291561
0
LINE
8
DEFAULT_255_1_234
10
4.8572167
20
37.291561
11
4.8572167
21
36.3904
0
LINE
8
DEFAULT_255_1_234
10
4.8572167
20
36.3904
11
4.7022042
21
36.3904
0
LINE
8
DEFAULT_255_1_234
10
4.7022042
20
36.3904
11
4.7022042
21
37.5598211
0
LINE
8
DEFAULT_255_1_234
10
4.7022042
20
37.5598211
11
4.8572167
21
37.5598211
0
LINE
8
DEFAULT_255_1_234
10
4.8572167
20
37.5598211
11
5.4475495
21
36.6546442
0
LINE
8
DEFAULT_255_1_234
10
5.4475495
20
36.6546442
11
5.4475495
21
37.5598211
0
LINE
8
DEFAULT_255_1_234
10
5.4475495
20
37.5598211
11
5.6009557
21
37.5598211
0
LINE
8
DEFAULT_255_1_234
10
6.0523394
20
36.9261169
11
6.0523394
21
37.0473962
0
LINE
8
DEFAULT_255_1_234
10
6.0523394
20
37.0473962
11
6.1639806
21
37.0473962
0
LINE
8
DEFAULT_255_1_234
10
5.9736284
20
37.2530087
11
5.8250412
21
37.2530087
0
LINE
8
DEFAULT_255_1_234
10
5.8146
20
36.6988188
11
5.9639903
21
36.6988188
0
LINE
8
DEFAULT_255_1_234
10
6.1639806
20
36.9261169
11
6.0523394
21
36.9261169
0
ARC
8
DEFAULT_255_1_234
10
6.1610672
20
37.3866713
40
0.3392876
50
270.4919872
51
281.8951556
0
ARC
8
DEFAULT_255_1_234
10
6.1851934
20
37.2764702
40
0.2264817
50
281.6691735
51
301.2943132
0
ARC
8
DEFAULT_255_1_234
10
6.2022144
20
37.2453304
40
0.1910381
50
301.7833094
51
311.7545298
0
ARC
8
DEFAULT_255_1_234
10
6.211372
20
37.2351748
40
0.1773635
50
311.7323931
51
354.2802411
0
ARC
8
DEFAULT_255_1_234
10
6.1387345
20
37.2476722
40
0.2509385
50
353.0937916
51
0.1181479
0
ARC
8
DEFAULT_255_1_234
10
6.092613
20
37.2524386
40
0.2970898
50
359.1805295
51
15.0453146
0
ARC
8
DEFAULT_255_1_234
10
6.2271967
20
37.2916992
40
0.1569564
50
13.9577229
51
77.6713066
0
ARC
8
DEFAULT_255_1_234
10
6.1885496
20
37.1531949
40
0.3006298
50
76.1116566
51
90.7026153
0
ARC
8
DEFAULT_255_1_234
10
6.1826334
20
37.1805545
40
0.2732568
50
89.5324876
51
103.531937
0
ARC
8
DEFAULT_255_1_234
10
6.1625779
20
37.2604884
40
0.1908508
50
103.2931773
51
133.5619022
0
ARC
8
DEFAULT_255_1_234
10
6.1581267
20
37.2664375
40
0.1834746
50
133.8349307
51
173.5344437
0
ARC
8
DEFAULT_255_1_234
10
6.230431
20
37.2536213
40
0.2568033
50
172.5096846
51
180.1366907
0
ARC
8
DEFAULT_255_1_234
10
6.1353204
20
37.2570622
40
0.3103056
50
155.3484492
51
180.7484736
0
ARC
8
DEFAULT_255_1_234
10
6.1304293
20
37.2541846
40
0.3070957
50
131.5744599
51
154.4798489
0
ARC
8
DEFAULT_255_1_234
10
6.161744
20
37.222531
40
0.3515643
50
96.9875458
51
131.9690667
0
ARC
8
DEFAULT_255_1_234
10
6.183692
20
37.0979636
40
0.4779224
50
89.8596053
51
97.7825159
0
ARC
8
DEFAULT_255_1_234
10
6.1884983
20
37.0717616
40
0.5041361
50
78.3655447
51
90.4131539
0
ARC
8
DEFAULT_255_1_234
10
6.2242901
20
37.2376887
40
0.3344039
50
56.6229102
51
78.638727
0
ARC
8
DEFAULT_255_1_234
10
6.2457845
20
37.2752805
40
0.2912001
50
47.0253525
51
56.0854072
0
ARC
8
DEFAULT_255_1_234
10
6.2477625
20
37.2792223
40
0.2869704
50
10.9208013
51
46.7778124
0
ARC
8
DEFAULT_255_1_234
10
6.1113691
20
37.2476857
40
0.426899
50
359.6364486
51
11.6087304
0
ARC
8
DEFAULT_255_1_234
10
6.2948536
20
37.2461752
40
0.243409
50
332.3549906
51
359.7179418
0
ARC
8
DEFAULT_255_1_234
10
6.2298137
20
37.2770142
40
0.3153459
50
325.2333722
51
332.8745602
0
ARC
8
DEFAULT_255_1_234
10
6.2450761
20
37.2663828
40
0.2967456
50
292.9802137
51
325.2392345
0
ARC
8
DEFAULT_255_1_234
10
6.2176135
20
37.3197863
40
0.3566604
50
292.5402179
51
293.6924929
0
ARC
8
DEFAULT_255_1_234
10
6.256873
20
36.6743091
40
0.3307468
50
57.6435486
51
72.8625112
0
ARC
8
DEFAULT_255_1_234
10
6.292323
20
36.7317549
40
0.2632492
50
36.7248896
51
57.4697979
0
ARC
8
DEFAULT_255_1_234
10
6.2911863
20
36.733022
40
0.2634081
50
8.0545065
51
36.356114
0
ARC
8
DEFAULT_255_1_234
10
6.2049048
20
36.7175174
40
0.3510261
50
359.8320645
51
8.5869982
0
ARC
8
DEFAULT_255_1_234
10
6.1673824
20
36.7127101
40
0.3885653
50
343.9829931
51
0.5571613
0
ARC
8
DEFAULT_255_1_234
10
6.2560022
20
36.6884438
40
0.2966924
50
311.6359546
51
343.7651759
0
ARC
8
DEFAULT_255_1_234
10
6.2181591
20
36.7311102
40
0.3537231
50
279.7829875
51
311.6255694
0
ARC
8
DEFAULT_255_1_234
10
6.1880367
20
36.874828
40
0.5004971
50
269.7286406
51
280.3856417
0
ARC
8
DEFAULT_255_1_234
10
6.1818439
20
36.8706996
40
0.4963778
50
256.6828919
51
270.4412052
0
ARC
8
DEFAULT_255_1_234
10
6.1479735
20
36.7322394
40
0.3538406
50
229.4223008
51
256.8556159
0
ARC
8
DEFAULT_255_1_234
10
6.1065128
20
36.6855736
40
0.2914296
50
181.818294
51
229.6455059
0
ARC
8
DEFAULT_255_1_234
10
6.2105084
20
36.6986496
40
0.3959084
50
179.9755256
51
183.2323064
0
ARC
8
DEFAULT_255_1_234
10
6.193283
20
36.6966037
40
0.2293034
50
179.4465117
51
196.2869258
0
ARC
8
DEFAULT_255_1_234
10
6.1445238
20
36.6832651
40
0.1787621
50
196.5661473
51
227.705904
0
ARC
8
DEFAULT_255_1_234
10
6.1609333
20
36.7016155
40
0.2033784
50
227.7652068
51
257.8762805
0
ARC
8
DEFAULT_255_1_234
10
6.1834303
20
36.7959156
40
0.3003081
50
257.4584385
51
270.426602
0
ARC
8
DEFAULT_255_1_234
10
6.1879869
20
36.8248996
40
0.329292
50
269.5962073
51
280.8789248
0
ARC
8
DEFAULT_255_1_234
10
6.2109398
20
36.7102685
40
0.2123908
50
280.6346389
51
299.8595945
0
ARC
8
DEFAULT_255_1_234
10
6.2300305
20
36.6740212
40
0.171457
50
300.3576302
51
314.5517981
0
ARC
8
DEFAULT_255_1_234
10
6.2217365
20
36.6800919
40
0.1816095
50
315.0728369
51
345.0431014
0
ARC
8
DEFAULT_255_1_234
10
6.1294179
20
36.7069841
40
0.2777492
50
344.5986631
51
357.9269593
0
ARC
8
DEFAULT_255_1_234
10
6.0398506
20
36.7131276
40
0.3674917
50
357.4748886
51
0.0231117
0
ARC
8
DEFAULT_255_1_234
10
6.1421615
20
36.7155679
40
0.2651907
50
359.5047933
51
13.4239635
0
ARC
8
DEFAULT_255_1_234
10
6.2288259
20
36.7377478
40
0.1757509
50
12.9498199
51
48.7551375
0
ARC
8
DEFAULT_255_1_234
10
6.2105993
20
36.71284
40
0.2065134
50
49.5088623
51
72.1836453
0
ARC
8
DEFAULT_255_1_234
10
6.1748145
20
36.6066291
40
0.3185836
50
71.9010081
51
84.3554254
0
ARC
8
DEFAULT_255_1_234
10
6.1586777
20
36.4705326
40
0.4556151
50
84.0193428
51
89.333121
0
LINE
8
DEFAULT_255_1_234
10
7.2040907
20
36.3904
11
6.7984879
21
36.3904
0
LINE
8
DEFAULT_255_1_234
10
6.7984879
20
36.3904
11
6.7984879
21
37.5598211
0
LINE
8
DEFAULT_255_1_234
10
6.7984879
20
37.5598211
11
7.1807986
21
37.5598211
0
LINE
8
DEFAULT_255_1_234
10
7.2097129
20
36.9373614
11
6.9526973
21
36.9373614
0
LINE
8
DEFAULT_255_1_234
10
6.9526973
20
36.9373614
11
6.9526973
21
36.5164983
0
LINE
8
DEFAULT_255_1_234
10
6.9526973
20
36.5164983
11
7.2073034
21
36.5164983
0
LINE
8
DEFAULT_255_1_234
10
6.9526973
20
37.4329196
11
6.9526973
21
37.0610501
0
LINE
8
DEFAULT_255_1_234
10
6.9526973
20
37.0610501
11
7.1856177
21
37.0610501
0
LINE
8
DEFAULT_255_1_234
10
7.1807986
20
37.4329196
11
6.9526973
21
37.4329196
0
ARC
8
DEFAULT_255_1_234
10
7.1845695
20
36.8230901
40
0.7367406
50
82.1257326
51
90.2932599
0
ARC
8
DEFAULT_255_1_234
10
7.223465
20
37.0949013
40
0.4621653
50
69.9044149
51
82.2857423
0
ARC
8
DEFAULT_255_1_234
10
7.2805328
20
37.2491637
40
0.2976871
50
51.1838526
51
70.0181538
0
ARC
8
DEFAULT_255_1_234
10
7.3060294
20
37.286224
40
0.2528517
50
12.1017251
51
50.4214761
0
ARC
8
DEFAULT_255_1_234
10
7.1676168
20
37.2514676
40
0.3955061
50
359.5251267
51
12.8211707
0
ARC
8
DEFAULT_255_1_234
10
7.3256094
20
37.2445344
40
0.2375281
50
323.4908128
51
0.8817314
0
ARC
8
DEFAULT_255_1_234
10
7.2837781
20
37.276855
40
0.2903817
50
298.6825083
51
323.2756573
0
ARC
8
DEFAULT_255_1_234
10
7.2476144
20
37.3369649
40
0.3604842
50
293.1999386
51
299.1396394
0
ARC
8
DEFAULT_255_1_234
10
7.3149117
20
36.7284126
40
0.2871098
50
54.0011765
51
74.9167975
0
ARC
8
DEFAULT_255_1_234
10
7.3265476
20
36.7481332
40
0.2643248
50
36.3580696
51
53.5291921
0
ARC
8
DEFAULT_255_1_234
10
7.3138718
20
36.7390998
40
0.2798884
50
4.8189881
51
36.3089977
0
ARC
8
DEFAULT_255_1_234
10
7.2359554
20
36.728127
40
0.358478
50
359.9370252
51
5.5204067
0
ARC
8
DEFAULT_255_1_234
10
7.2035075
20
36.7240667
40
0.3909429
50
344.7478609
51
0.5373281
0
ARC
8
DEFAULT_255_1_234
10
7.3026046
20
36.6973544
40
0.2883093
50
311.1786488
51
344.6886812
0
ARC
8
DEFAULT_255_1_234
10
7.2734093
20
36.7336987
40
0.3348923
50
286.0418249
51
310.8441291
0
ARC
8
DEFAULT_255_1_234
10
7.2226925
20
36.8983807
40
0.5071869
50
274.1042341
51
286.4071509
0
ARC
8
DEFAULT_255_1_234
10
7.2050181
20
37.0867229
40
0.6963234
50
269.9236873
51
274.445647
0
ARC
8
DEFAULT_255_1_234
10
7.2096182
20
36.8527537
40
0.3362634
50
269.6055768
51
281.3740047
0
ARC
8
DEFAULT_255_1_234
10
7.232682
20
36.7434353
40
0.224546
50
281.1055983
51
302.5132223
0
ARC
8
DEFAULT_255_1_234
10
7.2473719
20
36.7170823
40
0.1944357
50
303.0368945
51
311.8811219
0
ARC
8
DEFAULT_255_1_234
10
7.2545126
20
36.708589
40
0.1833454
50
311.9916004
51
351.7143462
0
ARC
8
DEFAULT_255_1_234
10
7.1728356
20
36.725093
40
0.2665871
50
350.7339597
51
0.2221581
0
ARC
8
DEFAULT_255_1_234
10
7.1620802
20
36.7307467
40
0.2773789
50
359.0456241
51
17.2296242
0
ARC
8
DEFAULT_255_1_234
10
7.2659919
20
36.7616163
40
0.1689915
50
17.6685481
51
78.9940892
0
ARC
8
DEFAULT_255_1_234
10
7.2143083
20
36.5761224
40
0.3612658
50
76.5635957
51
90.6980921
0
LINE
8
DEFAULT_255_1_234
10
7.2099067
20
36.9373613
11
7.2097129
21
36.9373614
0
ARC
8
DEFAULT_255_1_234
10
7.1878743
20
37.3896036
40
0.3285612
50
269.6064736
51
281.4533503
0
ARC
8
DEFAULT_255_1_234
10
7.2101563
20
37.2844688
40
0.2210975
50
281.2041486
51
302.5148063
0
ARC
8
DEFAULT_255_1_234
10
7.2238413
20
37.2598241
40
0.1929674
50
303.021671
51
309.8369575
0
ARC
8
DEFAULT_255_1_234
10
7.2421875
20
37.2392488
40
0.1654181
50
309.5228395
51
356.9509836
0
ARC
8
DEFAULT_255_1_234
10
7.1758457
20
37.2487932
40
0.2322512
50
355.4701227
51
0.0492546
0
ARC
8
DEFAULT_255_1_234
10
7.1479548
20
37.2510094
40
0.2601498
50
359.5558597
51
11.2096359
0
ARC
8
DEFAULT_255_1_234
10
7.2436838
20
37.270823
40
0.1623975
50
10.9182341
51
31.3230275
0
ARC
8
DEFAULT_255_1_234
10
7.2722571
20
37.2867214
40
0.1297302
50
31.8852677
51
52.1412565
0
ARC
8
DEFAULT_255_1_234
10
7.2448304
20
37.247975
40
0.1771663
50
52.8285564
51
71.9850297
0
ARC
8
DEFAULT_255_1_234
10
7.2072481
20
37.1373664
40
0.2939794
50
71.6863486
51
82.8455995
0
ARC
8
DEFAULT_255_1_234
10
7.1833016
20
36.9564149
40
0.476506
50
82.6984714
51
90.1729175
0
ARC
8
DEFAULT_255_1_234
10
7.1810651
20
37.0787623
40
0.3541573
50
89.8708275
51
90.0431131
0
LINE
8
DEFAULT_255_1_234
10
4.5033902
20
45.4973211
11
4.5033902
21
44.3279
0
LINE
8
DEFAULT_255_1_234
10
4.5033902
20
44.3279
11
4.3491808
21
44.3279
0
LINE
8
DEFAULT_255_1_234
10
4.3491808
20
44.3279
11
4.3491808
21
45.4973211
0
LINE
8
DEFAULT_255_1_234
10
4.3491808
20
45.4973211
11
4.5033902
21
45.4973211
0
LINE
8
DEFAULT_255_1_234
10
5.6840557
20
45.4973211
11
5.6840557
21
44.3279
0
LINE
8
DEFAULT_255_1_234
10
5.6840557
20
44.3279
11
5.5290432
21
44.3279
0
LINE
8
DEFAULT_255_1_234
10
5.5290432
20
44.3279
11
4.9403167
21
45.229061
0
LINE
8
DEFAULT_255_1_234
10
4.9403167
20
45.229061
11
4.9403167
21
44.3279
0
LINE
8
DEFAULT_255_1_234
10
4.9403167
20
44.3279
11
4.7853042
21
44.3279
0
LINE
8
DEFAULT_255_1_234
10
4.7853042
20
44.3279
11
4.7853042
21
45.4973211
0
LINE
8
DEFAULT_255_1_234
10
4.7853042
20
45.4973211
11
4.9403167
21
45.4973211
0
LINE
8
DEFAULT_255_1_234
10
4.9403167
20
45.4973211
11
5.5306495
21
44.5921442
0
LINE
8
DEFAULT_255_1_234
10
5.5306495
20
44.5921442
11
5.5306495
21
45.4973211
0
LINE
8
DEFAULT_255_1_234
10
5.5306495
20
45.4973211
11
5.6840557
21
45.4973211
0
LINE
8
DEFAULT_255_1_234
10
6.1354394
20
44.8636169
11
6.1354394
21
44.9848962
0
LINE
8
DEFAULT_255_1_234
10
6.1354394
20
44.9848962
11
6.2470806
21
44.9848962
0
LINE
8
DEFAULT_255_1_234
10
6.0567284
20
45.1905087
11
5.9081412
21
45.1905087
0
LINE
8
DEFAULT_255_1_234
10
5.8977
20
44.6363188
11
6.0470903
21
44.6363188
0
LINE
8
DEFAULT_255_1_234
10
6.2470806
20
44.8636169
11
6.1354394
21
44.8636169
0
ARC
8
DEFAULT_255_1_234
10
6.2441672
20
45.3241713
40
0.3392876
50
270.4919872
51
281.8951556
0
ARC
8
DEFAULT_255_1_234
10
6.2682934
20
45.2139702
40
0.2264817
50
281.6691735
51
301.2943132
0
ARC
8
DEFAULT_255_1_234
10
6.2853144
20
45.1828304
40
0.1910381
50
301.7833094
51
311.7545298
0
ARC
8
DEFAULT_255_1_234
10
6.294472
20
45.1726748
40
0.1773635
50
311.7323931
51
354.2802411
0
ARC
8
DEFAULT_255_1_234
10
6.2218345
20
45.1851722
40
0.2509385
50
353.0937916
51
0.1181479
0
ARC
8
DEFAULT_255_1_234
10
6.175713
20
45.1899386
40
0.2970898
50
359.1805295
51
15.0453146
0
ARC
8
DEFAULT_255_1_234
10
6.3102967
20
45.2291992
40
0.1569564
50
13.9577229
51
77.6713066
0
ARC
8
DEFAULT_255_1_234
10
6.2716496
20
45.0906949
40
0.3006298
50
76.1116566
51
90.7026153
0
ARC
8
DEFAULT_255_1_234
10
6.2657334
20
45.1180545
40
0.2732568
50
89.5324876
51
103.531937
0
ARC
8
DEFAULT_255_1_234
10
6.2456779
20
45.1979884
40
0.1908508
50
103.2931773
51
133.5619022
0
ARC
8
DEFAULT_255_1_234
10
6.2412267
20
45.2039375
40
0.1834746
50
133.8349307
51
173.5344437
0
ARC
8
DEFAULT_255_1_234
10
6.313531
20
45.1911213
40
0.2568033
50
172.5096846
51
180.1366907
0
ARC
8
DEFAULT_255_1_234
10
6.2184204
20
45.1945622
40
0.3103056
50
155.3484492
51
180.7484736
0
ARC
8
DEFAULT_255_1_234
10
6.2135293
20
45.1916846
40
0.3070957
50
131.5744599
51
154.4798489
0
ARC
8
DEFAULT_255_1_234
10
6.244844
20
45.160031
40
0.3515643
50
96.9875458
51
131.9690667
0
ARC
8
DEFAULT_255_1_234
10
6.266792
20
45.0354636
40
0.4779224
50
89.8596053
51
97.7825159
0
ARC
8
DEFAULT_255_1_234
10
6.2715983
20
45.0092616
40
0.5041361
50
78.3655447
51
90.4131539
0
ARC
8
DEFAULT_255_1_234
10
6.3073901
20
45.1751887
40
0.3344039
50
56.6229102
51
78.638727
0
ARC
8
DEFAULT_255_1_234
10
6.3288845
20
45.2127805
40
0.2912001
50
47.0253525
51
56.0854072
0
ARC
8
DEFAULT_255_1_234
10
6.3308625
20
45.2167223
40
0.2869704
50
10.9208013
51
46.7778124
0
ARC
8
DEFAULT_255_1_234
10
6.1944691
20
45.1851857
40
0.426899
50
359.6364486
51
11.6087304
0
ARC
8
DEFAULT_255_1_234
10
6.3779536
20
45.1836752
40
0.243409
50
332.3549906
51
359.7179418
0
ARC
8
DEFAULT_255_1_234
10
6.3129137
20
45.2145142
40
0.3153459
50
325.2333722
51
332.8745602
0
ARC
8
DEFAULT_255_1_234
10
6.3281761
20
45.2038828
40
0.2967456
50
292.9802137
51
325.2392345
0
ARC
8
DEFAULT_255_1_234
10
6.3007135
20
45.2572863
40
0.3566604
50
292.5402179
51
293.6924929
0
ARC
8
DEFAULT_255_1_234
10
6.339973
20
44.6118091
40
0.3307468
50
57.6435486
51
72.8625112
0
ARC
8
DEFAULT_255_1_234
10
6.375423
20
44.6692549
40
0.2632492
50
36.7248896
51
57.4697979
0
ARC
8
DEFAULT_255_1_234
10
6.3742863
20
44.670522
40
0.2634081
50
8.0545065
51
36.356114
0
ARC
8
DEFAULT_255_1_234
10
6.2880048
20
44.6550174
40
0.3510261
50
359.8320645
51
8.5869982
0
ARC
8
DEFAULT_255_1_234
10
6.2504824
20
44.6502101
40
0.3885653
50
343.9829931
51
0.5571613
0
ARC
8
DEFAULT_255_1_234
10
6.3391022
20
44.6259438
40
0.2966924
50
311.6359546
51
343.7651759
0
ARC
8
DEFAULT_255_1_234
10
6.3012591
20
44.6686102
40
0.3537231
50
279.7829875
51
311.6255694
0
ARC
8
DEFAULT_255_1_234
10
6.2711367
20
44.812328
40
0.5004971
50
269.7286406
51
280.3856417
0
ARC
8
DEFAULT_255_1_234
10
6.2649439
20
44.8081996
40
0.4963778
50
256.6828919
51
270.4412052
0
ARC
8
DEFAULT_255_1_234
10
6.2310735
20
44.6697394
40
0.3538406
50
229.4223008
51
256.8556159
0
ARC
8
DEFAULT_255_1_234
10
6.1896128
20
44.6230736
40
0.2914296
50
181.818294
51
229.6455059
0
ARC
8
DEFAULT_255_1_234
10
6.2936084
20
44.6361496
40
0.3959084
50
179.9755256
51
183.2323064
0
ARC
8
DEFAULT_255_1_234
10
6.276383
20
44.6341037
40
0.2293034
50
179.4465117
51
196.2869258
0
ARC
8
DEFAULT_255_1_234
10
6.2276238
20
44.6207651
40
0.1787621
50
196.5661473
51
227.705904
0
ARC
8
DEFAULT_255_1_234
10
6.2440333
20
44.6391155
40
0.2033784
50
227.7652068
51
257.8762805
0
ARC
8
DEFAULT_255_1_234
10
6.2665303
20
44.7334156
40
0.3003081
50
257.4584385
51
270.426602
0
ARC
8
DEFAULT_255_1_234
10
6.2710869
20
44.7623996
40
0.329292
50
269.5962073
51
280.8789248
0
ARC
8
DEFAULT_255_1_234
10
6.2940398
20
44.6477685
40
0.2123908
50
280.6346389
51
299.8595945
0
ARC
8
DEFAULT_255_1_234
10
6.3131305
20
44.6115212
40
0.171457
50
300.3576302
51
314.5517981
0
ARC
8
DEFAULT_255_1_234
10
6.3048365
20
44.6175919
40
0.1816095
50
315.0728369
51
345.0431014
0
ARC
8
DEFAULT_255_1_234
10
6.2125179
20
44.6444841
40
0.2777492
50
344.5986631
51
357.9269593
0
ARC
8
DEFAULT_255_1_234
10
6.1229506
20
44.6506276
40
0.3674917
50
357.4748886
51
0.0231117
0
ARC
8
DEFAULT_255_1_234
10
6.2252615
20
44.6530679
40
0.2651907
50
359.5047933
51
13.4239635
0
ARC
8
DEFAULT_255_1_234
10
6.3119259
20
44.6752478
40
0.1757509
50
12.9498199
51
48.7551375
0
ARC
8
DEFAULT_255_1_234
10
6.2936993
20
44.65034
40
0.2065134
50
49.5088623
51
72.1836453
0
ARC
8
DEFAULT_255_1_234
10
6.2579145
20
44.5441291
40
0.3185836
50
71.9010081
51
84.3554254
0
ARC
8
DEFAULT_255_1_234
10
6.2417777
20
44.4080326
40
0.4556151
50
84.0193428
51
89.333121
0
LINE
8
DEFAULT_255_1_234
10
7.6389808
20
44.3279
11
7.5273396
21
44.6331061
0
LINE
8
DEFAULT_255_1_234
10
7.5273396
20
44.6331061
11
7.0374036
21
44.6331061
0
LINE
8
DEFAULT_255_1_234
10
7.0374036
20
44.6331061
11
6.9273688
21
44.3279
0
LINE
8
DEFAULT_255_1_234
10
6.9273688
20
44.3279
11
6.7683404
21
44.3279
0
LINE
8
DEFAULT_255_1_234
10
6.7683404
20
44.3279
11
7.214905
21
45.4973211
0
LINE
8
DEFAULT_255_1_234
10
7.214905
20
45.4973211
11
7.3498382
21
45.4973211
0
LINE
8
DEFAULT_255_1_234
10
7.3498382
20
45.4973211
11
7.7972061
21
44.3279
0
LINE
8
DEFAULT_255_1_234
10
7.7972061
20
44.3279
11
7.6389808
21
44.3279
0
LINE
8
DEFAULT_255_1_234
10
7.2823716
20
45.3069689
11
7.0839877
21
44.7600075
0
LINE
8
DEFAULT_255_1_234
10
7.0839877
20
44.7600075
11
7.4815587
21
44.7600075
0
LINE
8
DEFAULT_255_1_234
10
7.4815587
20
44.7600075
11
7.2823716
21
45.3069689
0
LINE
8
DEFAULT_255_1_234
10
4.3660902
20
53.4348211
11
4.3660902
21
52.2654
0
LINE
8
DEFAULT_255_1_234
10
4.3660902
20
52.2654
11
4.2118808
21
52.2654
0
LINE
8
DEFAULT_255_1_234
10
4.2118808
20
52.2654
11
4.2118808
21
53.4348211
0
LINE
8
DEFAULT_255_1_234
10
4.2118808
20
53.4348211
11
4.3660902
21
53.4348211
0
LINE
8
DEFAULT_255_1_234
10
5.5467557
20
53.4348211
11
5.5467557
21
52.2654
0
LINE
8
DEFAULT_255_1_234
10
5.5467557
20
52.2654
11
5.3917432
21
52.2654
0
LINE
8
DEFAULT_255_1_234
10
5.3917432
20
52.2654
11
4.8030167
21
53.166561
0
LINE
8
DEFAULT_255_1_234
10
4.8030167
20
53.166561
11
4.8030167
21
52.2654
0
LINE
8
DEFAULT_255_1_234
10
4.8030167
20
52.2654
11
4.6480042
21
52.2654
0
LINE
8
DEFAULT_255_1_234
10
4.6480042
20
52.2654
11
4.6480042
21
53.4348211
0
LINE
8
DEFAULT_255_1_234
10
4.6480042
20
53.4348211
11
4.8030167
21
53.4348211
0
LINE
8
DEFAULT_255_1_234
10
4.8030167
20
53.4348211
11
5.3933495
21
52.5296442
0
LINE
8
DEFAULT_255_1_234
10
5.3933495
20
52.5296442
11
5.3933495
21
53.4348211
0
LINE
8
DEFAULT_255_1_234
10
5.3933495
20
53.4348211
11
5.5467557
21
53.4348211
0
LINE
8
DEFAULT_255_1_234
10
6.5483135
20
52.3866792
11
6.5483135
21
52.2654
0
LINE
8
DEFAULT_255_1_234
10
6.5483135
20
52.2654
11
5.7820856
21
52.2654
0
LINE
8
DEFAULT_255_1_234
10
5.7820856
20
52.2654
11
5.7820856
21
52.3722221
0
LINE
8
DEFAULT_255_1_234
10
5.7820856
20
52.3722221
11
6.1868853
21
52.8219995
0
LINE
8
DEFAULT_255_1_234
10
5.9081839
20
53.0902595
11
5.7595968
21
53.0902595
0
LINE
8
DEFAULT_255_1_234
10
6.2744312
20
52.7264218
11
5.9611934
21
52.3866792
0
LINE
8
DEFAULT_255_1_234
10
5.9611934
20
52.3866792
11
6.5483135
21
52.3866792
0
ARC
8
DEFAULT_255_1_234
10
4.8378686
20
54.0149527
40
1.8008286
50
318.5132453
51
320.7828378
0
ARC
8
DEFAULT_255_1_234
10
5.366566
20
53.5846426
40
1.1191493
50
320.7372736
51
323.9737074
0
ARC
8
DEFAULT_255_1_234
10
5.7585517
20
53.3006361
40
0.6350923
50
323.8961724
51
328.6421089
0
ARC
8
DEFAULT_255_1_234
10
5.9632112
20
53.1744031
40
0.3946393
50
328.8299013
51
331.789948
0
ARC
8
DEFAULT_255_1_234
10
6.0629291
20
53.1229509
40
0.2824501
50
331.4255242
51
352.9364833
0
ARC
8
DEFAULT_255_1_234
10
6.0765791
20
53.1198976
40
0.2685315
50
353.2248685
51
0.0169286
0
ARC
8
DEFAULT_255_1_234
10
6.0975668
20
53.122195
40
0.2475536
50
359.4866256
51
15.9339782
0
ARC
8
DEFAULT_255_1_234
10
6.1482653
20
53.1358286
40
0.1950618
50
16.1714718
51
43.5284424
0
ARC
8
DEFAULT_255_1_234
10
6.1559962
20
53.1435573
40
0.184134
50
43.4415429
51
83.1661404
0
ARC
8
DEFAULT_255_1_234
10
6.142588
20
53.0698771
40
0.258926
50
82.160215
51
90.1505798
0
ARC
8
DEFAULT_255_1_234
10
6.1394308
20
53.0161865
40
0.3126255
50
89.5460705
51
102.5418777
0
ARC
8
DEFAULT_255_1_234
10
6.1151394
20
53.1192665
40
0.2067346
50
102.1739365
51
129.2061916
0
ARC
8
DEFAULT_255_1_234
10
6.1072465
20
53.1317094
40
0.1921118
50
129.7279328
51
135.7542026
0
ARC
8
DEFAULT_255_1_234
10
6.1193993
20
53.1220045
40
0.2075944
50
136.175737
51
166.3674722
0
ARC
8
DEFAULT_255_1_234
10
6.2200912
20
53.0950182
40
0.3118201
50
165.9092917
51
178.8683903
0
ARC
8
DEFAULT_255_1_234
10
6.3065774
20
53.0903179
40
0.3983935
50
178.438168
51
180.0083905
0
ARC
8
DEFAULT_255_1_234
10
6.1664376
20
53.0942231
40
0.4068601
50
163.2878735
51
180.5581814
0
ARC
8
DEFAULT_255_1_234
10
6.0862637
20
53.116284
40
0.3237344
50
133.454115
51
162.9470031
0
ARC
8
DEFAULT_255_1_234
10
6.1041178
20
53.0973
40
0.349795
50
100.7869394
51
133.4384016
0
ARC
8
DEFAULT_255_1_234
10
6.138895
20
52.9424319
40
0.5084616
50
89.6605301
51
101.3704185
0
ARC
8
DEFAULT_255_1_234
10
6.1455289
20
52.9485496
40
0.502348
50
78.2171172
51
90.4130393
0
ARC
8
DEFAULT_255_1_234
10
6.1810367
20
53.1109637
40
0.3361092
50
55.9268222
51
78.4888551
0
ARC
8
DEFAULT_255_1_234
10
6.2006807
20
53.1448324
40
0.2970617
50
47.9292255
51
55.4054003
0
ARC
8
DEFAULT_255_1_234
10
6.2108368
20
53.1551502
40
0.2825983
50
4.3347696
51
48.0560701
0
ARC
8
DEFAULT_255_1_234
10
6.1012761
20
53.1381601
40
0.393225
50
359.925209
51
5.5967654
0
ARC
8
DEFAULT_255_1_234
10
6.1441653
20
53.1437816
40
0.3503892
50
337.8914096
51
358.9967724
0
ARC
8
DEFAULT_255_1_234
10
5.8728065
20
53.2484706
40
0.6412172
50
326.9135351
51
338.3505194
0
ARC
8
DEFAULT_255_1_234
10
5.4742369
20
53.5039284
40
1.1146189
50
319.6472867
51
327.095818
0
ARC
8
DEFAULT_255_1_234
10
5.0909372
20
53.8201
40
1.6114559
50
317.2586784
51
319.9046139
0
LINE
8
DEFAULT_255_1_234
10
7.4567031
20
52.7031297
11
7.4567031
21
52.690279
0
LINE
8
DEFAULT_255_1_234
10
6.864764
20
52.3657967
11
6.8575354
21
52.2654
0
LINE
8
DEFAULT_255_1_234
10
6.8575354
20
52.2654
11
6.7209958
21
52.2654
0
LINE
8
DEFAULT_255_1_234
10
6.7209958
20
52.2654
11
6.7209958
21
53.499075
0
LINE
8
DEFAULT_255_1_234
10
6.7209958
20
53.499075
11
6.869583
21
53.499075
0
LINE
8
DEFAULT_255_1_234
10
6.869583
20
53.499075
11
6.869583
21
53.0388564
0
LINE
8
DEFAULT_255_1_234
10
6.869583
20
52.8878597
11
6.869583
21
52.5119744
0
ARC
8
DEFAULT_255_1_234
10
6.7520306
20
52.6858573
40
0.7046863
50
349.4825105
51
0.3595108
0
ARC
8
DEFAULT_255_1_234
10
6.9797547
20
52.6420022
40
0.4727857
50
331.8602128
51
349.6704139
0
ARC
8
DEFAULT_255_1_234
10
7.0530315
20
52.6063125
40
0.3913503
50
322.8939783
51
331.4081204
0
ARC
8
DEFAULT_255_1_234
10
7.1225713
20
52.5483707
40
0.300965
50
296.7249167
51
323.7044215
0
ARC
8
DEFAULT_255_1_234
10
7.125561
20
52.5553043
40
0.3058683
50
270.6342811
51
295.6405548
0
ARC
8
DEFAULT_255_1_234
10
7.119392
20
52.6355995
40
0.3862632
50
269.9967524
51
271.4174733
0
ARC
8
DEFAULT_255_1_234
10
7.1155584
20
52.6220686
40
0.3727515
50
253.657532
51
270.5859025
0
ARC
8
DEFAULT_255_1_234
10
7.092469
20
52.5377235
40
0.2853216
50
217.0543181
51
253.3409865
0
ARC
8
DEFAULT_255_1_234
10
7.0991358
20
52.8561052
40
0.2934152
50
93.1931545
51
141.4760602
0
ARC
8
DEFAULT_255_1_234
10
7.1173574
20
52.7328453
40
0.4176524
50
89.9442578
51
94.747309
0
ARC
8
DEFAULT_255_1_234
10
7.1217321
20
52.815141
40
0.3353801
50
70.6103515
51
90.6779749
0
ARC
8
DEFAULT_255_1_234
10
7.1331623
20
52.860689
40
0.2886533
50
36.1152635
51
69.7489296
0
ARC
8
DEFAULT_255_1_234
10
7.0345027
20
52.7853708
40
0.4127561
50
15.4648517
51
36.4891396
0
ARC
8
DEFAULT_255_1_234
10
6.8286714
20
52.7254524
40
0.6271187
50
3.9220813
51
15.7265815
0
ARC
8
DEFAULT_255_1_234
10
6.5927557
20
52.7042325
40
0.863948
50
359.9268643
51
4.2559037
0
ARC
8
DEFAULT_255_1_234
10
6.6741938
20
52.7102103
40
0.6339295
50
359.7230081
51
7.7115859
0
ARC
8
DEFAULT_255_1_234
10
6.9003503
20
52.7418172
40
0.4055784
50
7.5740023
51
19.4151451
0
ARC
8
DEFAULT_255_1_234
10
7.0271142
20
52.7864519
40
0.2711858
50
19.4238354
51
34.9161182
0
ARC
8
DEFAULT_255_1_234
10
7.094188
20
52.8351172
40
0.1883373
50
34.4556322
51
84.4656458
0
ARC
8
DEFAULT_255_1_234
10
7.0813328
20
52.7596057
40
0.2647939
50
83.2727306
51
90.1114621
0
ARC
8
DEFAULT_255_1_234
10
7.0771186
20
52.7794509
40
0.2449763
50
89.1347934
51
111.4089923
0
ARC
8
DEFAULT_255_1_234
10
7.0691736
20
52.8122473
40
0.2115923
50
112.6478598
51
148.9260864
0
ARC
8
DEFAULT_255_1_234
10
7.1469534
20
52.7580985
40
0.3062228
50
147.7597608
51
154.928557
0
ARC
8
DEFAULT_255_1_234
10
7.1209595
20
52.6336379
40
0.2792708
50
205.8264786
51
224.5301003
0
ARC
8
DEFAULT_255_1_234
10
7.0731899
20
52.5909914
40
0.2153317
50
225.354483
51
269.2437579
0
ARC
8
DEFAULT_255_1_234
10
7.0823534
20
52.6716292
40
0.2961942
50
267.6770046
51
270.0136612
0
ARC
8
DEFAULT_255_1_234
10
7.0850885
20
52.5957938
40
0.2203751
50
269.3072485
51
289.499141
0
ARC
8
DEFAULT_255_1_234
10
7.092295
20
52.5661394
40
0.1900415
50
290.4353973
51
325.3766314
0
ARC
8
DEFAULT_255_1_234
10
7.0294172
20
52.6115643
40
0.2675986
50
325.0223901
51
342.692398
0
ARC
8
DEFAULT_255_1_234
10
6.859706
20
52.6667812
40
0.446058
50
342.4062876
51
352.8669243
0
ARC
8
DEFAULT_255_1_234
10
6.5876536
20
52.7024975
40
0.7204419
50
352.7350668
51
359.8556985
0
ARC
8
DEFAULT_255_1_234
10
6.3966231
20
52.7071018
40
0.9114927
50
359.5965197
51
0.0027543
0
LINE
8
DEFAULT_255_1_234
10
4.4202902
20
61.3723211
11
4.4202902
21
60.2029
0
LINE
8
DEFAULT_255_1_234
10
4.4202902
20
60.2029
11
4.2660808
21
60.2029
0
LINE
8
DEFAULT_255_1_234
10
4.2660808
20
60.2029
11
4.2660808
21
61.3723211
0
LINE
8
DEFAULT_255_1_234
10
4.2660808
20
61.3723211
11
4.4202902
21
61.3723211
0
LINE
8
DEFAULT_255_1_234
10
5.6009557
20
61.3723211
11
5.6009557
21
60.2029
0
LINE
8
DEFAULT_255_1_234
10
5.6009557
20
60.2029
11
5.4459432
21
60.2029
0
LINE
8
DEFAULT_255_1_234
10
5.4459432
20
60.2029
11
4.8572167
21
61.104061
0
LINE
8
DEFAULT_255_1_234
10
4.8572167
20
61.104061
11
4.8572167
21
60.2029
0
LINE
8
DEFAULT_255_1_234
10
4.8572167
20
60.2029
11
4.7022042
21
60.2029
0
LINE
8
DEFAULT_255_1_234
10
4.7022042
20
60.2029
11
4.7022042
21
61.3723211
0
LINE
8
DEFAULT_255_1_234
10
4.7022042
20
61.3723211
11
4.8572167
21
61.3723211
0
LINE
8
DEFAULT_255_1_234
10
4.8572167
20
61.3723211
11
5.4475495
21
60.4671442
0
LINE
8
DEFAULT_255_1_234
10
5.4475495
20
60.4671442
11
5.4475495
21
61.3723211
0
LINE
8
DEFAULT_255_1_234
10
5.4475495
20
61.3723211
11
5.6009557
21
61.3723211
0
LINE
8
DEFAULT_255_1_234
10
6.6025135
20
60.3241792
11
6.6025135
21
60.2029
0
LINE
8
DEFAULT_255_1_234
10
6.6025135
20
60.2029
11
5.8362856
21
60.2029
0
LINE
8
DEFAULT_255_1_234
10
5.8362856
20
60.2029
11
5.8362856
21
60.3097221
0
LINE
8
DEFAULT_255_1_234
10
5.8362856
20
60.3097221
11
6.2410853
21
60.7594995
0
LINE
8
DEFAULT_255_1_234
10
5.9623839
20
61.0277595
11
5.8137968
21
61.0277595
0
LINE
8
DEFAULT_255_1_234
10
6.3286312
20
60.6639218
11
6.0153934
21
60.3241792
0
LINE
8
DEFAULT_255_1_234
10
6.0153934
20
60.3241792
11
6.6025135
21
60.3241792
0
ARC
8
DEFAULT_255_1_234
10
4.8920686
20
61.9524527
40
1.8008286
50
318.5132453
51
320.7828378
0
ARC
8
DEFAULT_255_1_234
10
5.420766
20
61.5221426
40
1.1191493
50
320.7372736
51
323.9737074
0
ARC
8
DEFAULT_255_1_234
10
5.8127517
20
61.2381361
40
0.6350923
50
323.8961724
51
328.6421089
0
ARC
8
DEFAULT_255_1_234
10
6.0174112
20
61.1119031
40
0.3946393
50
328.8299013
51
331.789948
0
ARC
8
DEFAULT_255_1_234
10
6.1171291
20
61.0604509
40
0.2824501
50
331.4255242
51
352.9364833
0
ARC
8
DEFAULT_255_1_234
10
6.1307791
20
61.0573976
40
0.2685315
50
353.2248685
51
0.0169286
0
ARC
8
DEFAULT_255_1_234
10
6.1517668
20
61.059695
40
0.2475536
50
359.4866256
51
15.9339782
0
ARC
8
DEFAULT_255_1_234
10
6.2024653
20
61.0733286
40
0.1950618
50
16.1714718
51
43.5284424
0
ARC
8
DEFAULT_255_1_234
10
6.2101962
20
61.0810573
40
0.184134
50
43.4415429
51
83.1661404
0
ARC
8
DEFAULT_255_1_234
10
6.196788
20
61.0073771
40
0.258926
50
82.160215
51
90.1505798
0
ARC
8
DEFAULT_255_1_234
10
6.1936308
20
60.9536865
40
0.3126255
50
89.5460705
51
102.5418777
0
ARC
8
DEFAULT_255_1_234
10
6.1693394
20
61.0567665
40
0.2067346
50
102.1739365
51
129.2061916
0
ARC
8
DEFAULT_255_1_234
10
6.1614465
20
61.0692094
40
0.1921118
50
129.7279328
51
135.7542026
0
ARC
8
DEFAULT_255_1_234
10
6.1735993
20
61.0595045
40
0.2075944
50
136.175737
51
166.3674722
0
ARC
8
DEFAULT_255_1_234
10
6.2742912
20
61.0325182
40
0.3118201
50
165.9092917
51
178.8683903
0
ARC
8
DEFAULT_255_1_234
10
6.3607774
20
61.0278179
40
0.3983935
50
178.438168
51
180.0083905
0
ARC
8
DEFAULT_255_1_234
10
6.2206376
20
61.0317231
40
0.4068601
50
163.2878735
51
180.5581814
0
ARC
8
DEFAULT_255_1_234
10
6.1404637
20
61.053784
40
0.3237344
50
133.454115
51
162.9470031
0
ARC
8
DEFAULT_255_1_234
10
6.1583178
20
61.0348
40
0.349795
50
100.7869394
51
133.4384016
0
ARC
8
DEFAULT_255_1_234
10
6.193095
20
60.8799319
40
0.5084616
50
89.6605301
51
101.3704185
0
ARC
8
DEFAULT_255_1_234
10
6.1997289
20
60.8860496
40
0.502348
50
78.2171172
51
90.4130393
0
ARC
8
DEFAULT_255_1_234
10
6.2352367
20
61.0484637
40
0.3361092
50
55.9268222
51
78.4888551
0
ARC
8
DEFAULT_255_1_234
10
6.2548807
20
61.0823324
40
0.2970617
50
47.9292255
51
55.4054003
0
ARC
8
DEFAULT_255_1_234
10
6.2650368
20
61.0926502
40
0.2825983
50
4.3347696
51
48.0560701
0
ARC
8
DEFAULT_255_1_234
10
6.1554761
20
61.0756601
40
0.393225
50
359.925209
51
5.5967654
0
ARC
8
DEFAULT_255_1_234
10
6.1983653
20
61.0812816
40
0.3503892
50
337.8914096
51
358.9967724
0
ARC
8
DEFAULT_255_1_234
10
5.9270065
20
61.1859706
40
0.6412172
50
326.9135351
51
338.3505194
0
ARC
8
DEFAULT_255_1_234
10
5.5284369
20
61.4414284
40
1.1146189
50
319.6472867
51
327.095818
0
ARC
8
DEFAULT_255_1_234
10
5.1451372
20
61.7576
40
1.6114559
50
317.2586784
51
319.9046139
0
LINE
8
DEFAULT_255_1_234
10
7.2040907
20
60.2029
11
6.7984879
21
60.2029
0
LINE
8
DEFAULT_255_1_234
10
6.7984879
20
60.2029
11
6.7984879
21
61.3723211
0
LINE
8
DEFAULT_255_1_234
10
6.7984879
20
61.3723211
11
7.1807986
21
61.3723211
0
LINE
8
DEFAULT_255_1_234
10
7.2097129
20
60.7498614
11
6.9526973
21
60.7498614
0
LINE
8
DEFAULT_255_1_234
10
6.9526973
20
60.7498614
11
6.9526973
21
60.3289983
0
LINE
8
DEFAULT_255_1_234
10
6.9526973
20
60.3289983
11
7.2073034
21
60.3289983
0
LINE
8
DEFAULT_255_1_234
10
6.9526973
20
61.2454196
11
6.9526973
21
60.8735501
0
LINE
8
DEFAULT_255_1_234
10
6.9526973
20
60.8735501
11
7.1856177
21
60.8735501
0
LINE
8
DEFAULT_255_1_234
10
7.1807986
20
61.2454196
11
6.9526973
21
61.2454196
0
ARC
8
DEFAULT_255_1_234
10
7.1845695
20
60.6355901
40
0.7367406
50
82.1257326
51
90.2932599
0
ARC
8
DEFAULT_255_1_234
10
7.223465
20
60.9074013
40
0.4621653
50
69.9044149
51
82.2857423
0
ARC
8
DEFAULT_255_1_234
10
7.2805328
20
61.0616637
40
0.2976871
50
51.1838526
51
70.0181538
0
ARC
8
DEFAULT_255_1_234
10
7.3060294
20
61.098724
40
0.2528517
50
12.1017251
51
50.4214761
0
ARC
8
DEFAULT_255_1_234
10
7.1676168
20
61.0639676
40
0.3955061
50
359.5251267
51
12.8211707
0
ARC
8
DEFAULT_255_1_234
10
7.3256094
20
61.0570344
40
0.2375281
50
323.4908128
51
0.8817314
0
ARC
8
DEFAULT_255_1_234
10
7.2837781
20
61.089355
40
0.2903817
50
298.6825083
51
323.2756573
0
ARC
8
DEFAULT_255_1_234
10
7.2476144
20
61.1494649
40
0.3604842
50
293.1999386
51
299.1396394
0
ARC
8
DEFAULT_255_1_234
10
7.3149117
20
60.5409126
40
0.2871098
50
54.0011765
51
74.9167975
0
ARC
8
DEFAULT_255_1_234
10
7.3265476
20
60.5606332
40
0.2643248
50
36.3580696
51
53.5291921
0
ARC
8
DEFAULT_255_1_234
10
7.3138718
20
60.5515998
40
0.2798884
50
4.8189881
51
36.3089977
0
ARC
8
DEFAULT_255_1_234
10
7.2359554
20
60.540627
40
0.358478
50
359.9370252
51
5.5204067
0
ARC
8
DEFAULT_255_1_234
10
7.2035075
20
60.5365667
40
0.3909429
50
344.7478609
51
0.5373281
0
ARC
8
DEFAULT_255_1_234
10
7.3026046
20
60.5098544
40
0.2883093
50
311.1786488
51
344.6886812
0
ARC
8
DEFAULT_255_1_234
10
7.2734093
20
60.5461987
40
0.3348923
50
286.0418249
51
310.8441291
0
ARC
8
DEFAULT_255_1_234
10
7.2226925
20
60.7108807
40
0.5071869
50
274.1042341
51
286.4071509
0
ARC
8
DEFAULT_255_1_234
10
7.2050181
20
60.8992229
40
0.6963234
50
269.9236873
51
274.445647
0
ARC
8
DEFAULT_255_1_234
10
7.2096182
20
60.6652537
40
0.3362634
50
269.6055768
51
281.3740047
0
ARC
8
DEFAULT_255_1_234
10
7.232682
20
60.5559353
40
0.224546
50
281.1055983
51
302.5132223
0
ARC
8
DEFAULT_255_1_234
10
7.2473719
20
60.5295823
40
0.1944357
50
303.0368945
51
311.8811219
0
ARC
8
DEFAULT_255_1_234
10
7.2545126
20
60.521089
40
0.1833454
50
311.9916004
51
351.7143462
0
ARC
8
DEFAULT_255_1_234
10
7.1728356
20
60.537593
40
0.2665871
50
350.7339597
51
0.2221581
0
ARC
8
DEFAULT_255_1_234
10
7.1620802
20
60.5432467
40
0.2773789
50
359.0456241
51
17.2296242
0
ARC
8
DEFAULT_255_1_234
10
7.2659919
20
60.5741163
40
0.1689915
50
17.6685481
51
78.9940892
0
ARC
8
DEFAULT_255_1_234
10
7.2143083
20
60.3886224
40
0.3612658
50
76.5635957
51
90.6980921
0
LINE
8
DEFAULT_255_1_234
10
7.2099067
20
60.7498613
11
7.2097129
21
60.7498614
0
ARC
8
DEFAULT_255_1_234
10
7.1878743
20
61.2021036
40
0.3285612
50
269.6064736
51
281.4533503
0
ARC
8
DEFAULT_255_1_234
10
7.2101563
20
61.0969688
40
0.2210975
50
281.2041486
51
302.5148063
0
ARC
8
DEFAULT_255_1_234
10
7.2238413
20
61.0723241
40
0.1929674
50
303.021671
51
309.8369575
0
ARC
8
DEFAULT_255_1_234
10
7.2421875
20
61.0517488
40
0.1654181
50
309.5228395
51
356.9509836
0
ARC
8
DEFAULT_255_1_234
10
7.1758457
20
61.0612932
40
0.2322512
50
355.4701227
51
0.0492546
0
ARC
8
DEFAULT_255_1_234
10
7.1479548
20
61.0635094
40
0.2601498
50
359.5558597
51
11.2096359
0
ARC
8
DEFAULT_255_1_234
10
7.2436838
20
61.083323
40
0.1623975
50
10.9182341
51
31.3230275
0
ARC
8
DEFAULT_255_1_234
10
7.2722571
20
61.0992214
40
0.1297302
50
31.8852677
51
52.1412565
0
ARC
8
DEFAULT_255_1_234
10
7.2448304
20
61.060475
40
0.1771663
50
52.8285564
51
71.9850297
0
ARC
8
DEFAULT_255_1_234
10
7.2072481
20
60.9498664
40
0.2939794
50
71.6863486
51
82.8455995
0
ARC
8
DEFAULT_255_1_234
10
7.1833016
20
60.7689149
40
0.476506
50
82.6984714
51
90.1729175
0
ARC
8
DEFAULT_255_1_234
10
7.1810651
20
60.8912623
40
0.3541573
50
89.8708275
51
90.0431131
0
LINE
8
DEFAULT_255_1_234
10
4.5033902
20
69.3098211
11
4.5033902
21
68.1404
0
LINE
8
DEFAULT_255_1_234
10
4.5033902
20
68.1404
11
4.3491808
21
68.1404
0
LINE
8
DEFAULT_255_1_234
10
4.3491808
20
68.1404
11
4.3491808
21
69.3098211
0
LINE
8
DEFAULT_255_1_234
10
4.3491808
20
69.3098211
11
4.5033902
21
69.3098211
0
LINE
8
DEFAULT_255_1_234
10
5.6840557
20
69.3098211
11
5.6840557
21
68.1404
0
LINE
8
DEFAULT_255_1_234
10
5.6840557
20
68.1404
11
5.5290432
21
68.1404
0
LINE
8
DEFAULT_255_1_234
10
5.5290432
20
68.1404
11
4.9403167
21
69.041561
0
LINE
8
DEFAULT_255_1_234
10
4.9403167
20
69.041561
11
4.9403167
21
68.1404
0
LINE
8
DEFAULT_255_1_234
10
4.9403167
20
68.1404
11
4.7853042
21
68.1404
0
LINE
8
DEFAULT_255_1_234
10
4.7853042
20
68.1404
11
4.7853042
21
69.3098211
0
LINE
8
DEFAULT_255_1_234
10
4.7853042
20
69.3098211
11
4.9403167
21
69.3098211
0
LINE
8
DEFAULT_255_1_234
10
4.9403167
20
69.3098211
11
5.5306495
21
68.4046442
0
LINE
8
DEFAULT_255_1_234
10
5.5306495
20
68.4046442
11
5.5306495
21
69.3098211
0
LINE
8
DEFAULT_255_1_234
10
5.5306495
20
69.3098211
11
5.6840557
21
69.3098211
0
LINE
8
DEFAULT_255_1_234
10
6.6856135
20
68.2616792
11
6.6856135
21
68.1404
0
LINE
8
DEFAULT_255_1_234
10
6.6856135
20
68.1404
11
5.9193856
21
68.1404
0
LINE
8
DEFAULT_255_1_234
10
5.9193856
20
68.1404
11
5.9193856
21
68.2472221
0
LINE
8
DEFAULT_255_1_234
10
5.9193856
20
68.2472221
11
6.3241853
21
68.6969995
0
LINE
8
DEFAULT_255_1_234
10
6.0454839
20
68.9652595
11
5.8968968
21
68.9652595
0
LINE
8
DEFAULT_255_1_234
10
6.4117312
20
68.6014218
11
6.0984934
21
68.2616792
0
LINE
8
DEFAULT_255_1_234
10
6.0984934
20
68.2616792
11
6.6856135
21
68.2616792
0
ARC
8
DEFAULT_255_1_234
10
4.9751686
20
69.8899527
40
1.8008286
50
318.5132453
51
320.7828378
0
ARC
8
DEFAULT_255_1_234
10
5.503866
20
69.4596426
40
1.1191493
50
320.7372736
51
323.9737074
0
ARC
8
DEFAULT_255_1_234
10
5.8958517
20
69.1756361
40
0.6350923
50
323.8961724
51
328.6421089
0
ARC
8
DEFAULT_255_1_234
10
6.1005112
20
69.0494031
40
0.3946393
50
328.8299013
51
331.789948
0
ARC
8
DEFAULT_255_1_234
10
6.2002291
20
68.9979509
40
0.2824501
50
331.4255242
51
352.9364833
0
ARC
8
DEFAULT_255_1_234
10
6.2138791
20
68.9948976
40
0.2685315
50
353.2248685
51
0.0169286
0
ARC
8
DEFAULT_255_1_234
10
6.2348668
20
68.997195
40
0.2475536
50
359.4866256
51
15.9339782
0
ARC
8
DEFAULT_255_1_234
10
6.2855653
20
69.0108286
40
0.1950618
50
16.1714718
51
43.5284424
0
ARC
8
DEFAULT_255_1_234
10
6.2932962
20
69.0185573
40
0.184134
50
43.4415429
51
83.1661404
0
ARC
8
DEFAULT_255_1_234
10
6.279888
20
68.9448771
40
0.258926
50
82.160215
51
90.1505798
0
ARC
8
DEFAULT_255_1_234
10
6.2767308
20
68.8911865
40
0.3126255
50
89.5460705
51
102.5418777
0
ARC
8
DEFAULT_255_1_234
10
6.2524394
20
68.9942665
40
0.2067346
50
102.1739365
51
129.2061916
0
ARC
8
DEFAULT_255_1_234
10
6.2445465
20
69.0067094
40
0.1921118
50
129.7279328
51
135.7542026
0
ARC
8
DEFAULT_255_1_234
10
6.2566993
20
68.9970045
40
0.2075944
50
136.175737
51
166.3674722
0
ARC
8
DEFAULT_255_1_234
10
6.3573912
20
68.9700182
40
0.3118201
50
165.9092917
51
178.8683903
0
ARC
8
DEFAULT_255_1_234
10
6.4438774
20
68.9653179
40
0.3983935
50
178.438168
51
180.0083905
0
ARC
8
DEFAULT_255_1_234
10
6.3037376
20
68.9692231
40
0.4068601
50
163.2878735
51
180.5581814
0
ARC
8
DEFAULT_255_1_234
10
6.2235637
20
68.991284
40
0.3237344
50
133.454115
51
162.9470031
0
ARC
8
DEFAULT_255_1_234
10
6.2414178
20
68.9723
40
0.349795
50
100.7869394
51
133.4384016
0
ARC
8
DEFAULT_255_1_234
10
6.276195
20
68.8174319
40
0.5084616
50
89.6605301
51
101.3704185
0
ARC
8
DEFAULT_255_1_234
10
6.2828289
20
68.8235496
40
0.502348
50
78.2171172
51
90.4130393
0
ARC
8
DEFAULT_255_1_234
10
6.3183367
20
68.9859637
40
0.3361092
50
55.9268222
51
78.4888551
0
ARC
8
DEFAULT_255_1_234
10
6.3379807
20
69.0198324
40
0.2970617
50
47.9292255
51
55.4054003
0
ARC
8
DEFAULT_255_1_234
10
6.3481368
20
69.0301502
40
0.2825983
50
4.3347696
51
48.0560701
0
ARC
8
DEFAULT_255_1_234
10
6.2385761
20
69.0131601
40
0.393225
50
359.925209
51
5.5967654
0
ARC
8
DEFAULT_255_1_234
10
6.2814653
20
69.0187816
40
0.3503892
50
337.8914096
51
358.9967724
0
ARC
8
DEFAULT_255_1_234
10
6.0101065
20
69.1234706
40
0.6412172
50
326.9135351
51
338.3505194
0
ARC
8
DEFAULT_255_1_234
10
5.6115369
20
69.3789284
40
1.1146189
50
319.6472867
51
327.095818
0
ARC
8
DEFAULT_255_1_234
10
5.2282372
20
69.6951
40
1.6114559
50
317.2586784
51
319.9046139
0
LINE
8
DEFAULT_255_1_234
10
7.6389808
20
68.1404
11
7.5273396
21
68.4456061
0
LINE
8
DEFAULT_255_1_234
10
7.5273396
20
68.4456061
11
7.0374036
21
68.4456061
0
LINE
8
DEFAULT_255_1_234
10
7.0374036
20
68.4456061
11
6.9273688
21
68.1404
0
LINE
8
DEFAULT_255_1_234
10
6.9273688
20
68.1404
11
6.7683404
21
68.1404
0
LINE
8
DEFAULT_255_1_234
10
6.7683404
20
68.1404
11
7.214905
21
69.3098211
0
LINE
8
DEFAULT_255_1_234
10
7.214905
20
69.3098211
11
7.3498382
21
69.3098211
0
LINE
8
DEFAULT_255_1_234
10
7.3498382
20
69.3098211
11
7.7972061
21
68.1404
0
LINE
8
DEFAULT_255_1_234
10
7.7972061
20
68.1404
11
7.6389808
21
68.1404
0
LINE
8
DEFAULT_255_1_234
10
7.2823716
20
69.1194689
11
7.0839877
21
68.5725075
0
LINE
8
DEFAULT_255_1_234
10
7.0839877
20
68.5725075
11
7.4815587
21
68.5725075
0
LINE
8
DEFAULT_255_1_234
10
7.4815587
20
68.5725075
11
7.2823716
21
69.1194689
0
LINE
8
DEFAULT_255_1_234
10
4.3660902
20
77.2473211
11
4.3660902
21
76.0779
0
LINE
8
DEFAULT_255_1_234
10
4.3660902
20
76.0779
11
4.2118808
21
76.0779
0
LINE
8
DEFAULT_255_1_234
10
4.2118808
20
76.0779
11
4.2118808
21
77.2473211
0
LINE
8
DEFAULT_255_1_234
10
4.2118808
20
77.2473211
11
4.3660902
21
77.2473211
0
LINE
8
DEFAULT_255_1_234
10
5.5467557
20
77.2473211
11
5.5467557
21
76.0779
0
LINE
8
DEFAULT_255_1_234
10
5.5467557
20
76.0779
11
5.3917432
21
76.0779
0
LINE
8
DEFAULT_255_1_234
10
5.3917432
20
76.0779
11
4.8030167
21
76.979061
0
LINE
8
DEFAULT_255_1_234
10
4.8030167
20
76.979061
11
4.8030167
21
76.0779
0
LINE
8
DEFAULT_255_1_234
10
4.8030167
20
76.0779
11
4.6480042
21
76.0779
0
LINE
8
DEFAULT_255_1_234
10
4.6480042
20
76.0779
11
4.6480042
21
77.2473211
0
LINE
8
DEFAULT_255_1_234
10
4.6480042
20
77.2473211
11
4.8030167
21
77.2473211
0
LINE
8
DEFAULT_255_1_234
10
4.8030167
20
77.2473211
11
5.3933495
21
76.3421442
0
LINE
8
DEFAULT_255_1_234
10
5.3933495
20
76.3421442
11
5.3933495
21
77.2473211
0
LINE
8
DEFAULT_255_1_234
10
5.3933495
20
77.2473211
11
5.5467557
21
77.2473211
0
LINE
8
DEFAULT_255_1_234
10
6.2704153
20
77.2529433
11
6.2704153
21
76.0779
0
LINE
8
DEFAULT_255_1_234
10
6.2704153
20
76.0779
11
6.121025
21
76.0779
0
LINE
8
DEFAULT_255_1_234
10
6.121025
20
76.0779
11
6.121025
21
77.0682133
0
LINE
8
DEFAULT_255_1_234
10
6.121025
20
77.0682133
11
5.8214412
21
76.9581785
0
LINE
8
DEFAULT_255_1_234
10
5.8214412
20
76.9581785
11
5.8214412
21
77.0931117
0
LINE
8
DEFAULT_255_1_234
10
5.8214412
20
77.0931117
11
6.2471233
21
77.2529433
0
LINE
8
DEFAULT_255_1_234
10
6.2471233
20
77.2529433
11
6.2704153
21
77.2529433
0
LINE
8
DEFAULT_255_1_234
10
7.4567031
20
76.5156297
11
7.4567031
21
76.502779
0
LINE
8
DEFAULT_255_1_234
10
6.864764
20
76.1782967
11
6.8575354
21
76.0779
0
LINE
8
DEFAULT_255_1_234
10
6.8575354
20
76.0779
11
6.7209958
21
76.0779
0
LINE
8
DEFAULT_255_1_234
10
6.7209958
20
76.0779
11
6.7209958
21
77.311575
0
LINE
8
DEFAULT_255_1_234
10
6.7209958
20
77.311575
11
6.869583
21
77.311575
0
LINE
8
DEFAULT_255_1_234
10
6.869583
20
77.311575
11
6.869583
21
76.8513564
0
LINE
8
DEFAULT_255_1_234
10
6.869583
20
76.7003597
11
6.869583
21
76.3244744
0
ARC
8
DEFAULT_255_1_234
10
6.7520306
20
76.4983573
40
0.7046863
50
349.4825105
51
0.3595108
0
ARC
8
DEFAULT_255_1_234
10
6.9797547
20
76.4545022
40
0.4727857
50
331.8602128
51
349.6704139
0
ARC
8
DEFAULT_255_1_234
10
7.0530315
20
76.4188125
40
0.3913503
50
322.8939783
51
331.4081204
0
ARC
8
DEFAULT_255_1_234
10
7.1225713
20
76.3608707
40
0.300965
50
296.7249167
51
323.7044215
0
ARC
8
DEFAULT_255_1_234
10
7.125561
20
76.3678043
40
0.3058683
50
270.6342811
51
295.6405548
0
ARC
8
DEFAULT_255_1_234
10
7.119392
20
76.4480995
40
0.3862632
50
269.9967524
51
271.4174733
0
ARC
8
DEFAULT_255_1_234
10
7.1155584
20
76.4345686
40
0.3727515
50
253.657532
51
270.5859025
0
ARC
8
DEFAULT_255_1_234
10
7.092469
20
76.3502235
40
0.2853216
50
217.0543181
51
253.3409865
0
ARC
8
DEFAULT_255_1_234
10
7.0991358
20
76.6686052
40
0.2934152
50
93.1931545
51
141.4760602
0
ARC
8
DEFAULT_255_1_234
10
7.1173574
20
76.5453453
40
0.4176524
50
89.9442578
51
94.747309
0
ARC
8
DEFAULT_255_1_234
10
7.1217321
20
76.627641
40
0.3353801
50
70.6103515
51
90.6779749
0
ARC
8
DEFAULT_255_1_234
10
7.1331623
20
76.673189
40
0.2886533
50
36.1152635
51
69.7489296
0
ARC
8
DEFAULT_255_1_234
10
7.0345027
20
76.5978708
40
0.4127561
50
15.4648517
51
36.4891396
0
ARC
8
DEFAULT_255_1_234
10
6.8286714
20
76.5379524
40
0.6271187
50
3.9220813
51
15.7265815
0
ARC
8
DEFAULT_255_1_234
10
6.5927557
20
76.5167325
40
0.863948
50
359.9268643
51
4.2559037
0
ARC
8
DEFAULT_255_1_234
10
6.6741938
20
76.5227103
40
0.6339295
50
359.7230081
51
7.7115859
0
ARC
8
DEFAULT_255_1_234
10
6.9003503
20
76.5543172
40
0.4055784
50
7.5740023
51
19.4151451
0
ARC
8
DEFAULT_255_1_234
10
7.0271142
20
76.5989519
40
0.2711858
50
19.4238354
51
34.9161182
0
ARC
8
DEFAULT_255_1_234
10
7.094188
20
76.6476172
40
0.1883373
50
34.4556322
51
84.4656458
0
ARC
8
DEFAULT_255_1_234
10
7.0813328
20
76.5721057
40
0.2647939
50
83.2727306
51
90.1114621
0
ARC
8
DEFAULT_255_1_234
10
7.0771186
20
76.5919509
40
0.2449763
50
89.1347934
51
111.4089923
0
ARC
8
DEFAULT_255_1_234
10
7.0691736
20
76.6247473
40
0.2115923
50
112.6478598
51
148.9260864
0
ARC
8
DEFAULT_255_1_234
10
7.1469534
20
76.5705985
40
0.3062228
50
147.7597608
51
154.928557
0
ARC
8
DEFAULT_255_1_234
10
7.1209595
20
76.4461379
40
0.2792708
50
205.8264786
51
224.5301003
0
ARC
8
DEFAULT_255_1_234
10
7.0731899
20
76.4034914
40
0.2153317
50
225.354483
51
269.2437579
0
ARC
8
DEFAULT_255_1_234
10
7.0823534
20
76.4841292
40
0.2961942
50
267.6770046
51
270.0136612
0
ARC
8
DEFAULT_255_1_234
10
7.0850885
20
76.4082938
40
0.2203751
50
269.3072485
51
289.499141
0
ARC
8
DEFAULT_255_1_234
10
7.092295
20
76.3786394
40
0.1900415
50
290.4353973
51
325.3766314
0
ARC
8
DEFAULT_255_1_234
10
7.0294172
20
76.4240643
40
0.2675986
50
325.0223901
51
342.692398
0
ARC
8
DEFAULT_255_1_234
10
6.859706
20
76.4792812
40
0.446058
50
342.4062876
51
352.8669243
0
ARC
8
DEFAULT_255_1_234
10
6.5876536
20
76.5149975
40
0.7204419
50
352.7350668
51
359.8556985
0
ARC
8
DEFAULT_255_1_234
10
6.3966231
20
76.5196018
40
0.9114927
50
359.5965197
51
0.0027543
0
LINE
8
DEFAULT_255_1_234
10
4.4202902
20
85.1848211
11
4.4202902
21
84.0154
0
LINE
8
DEFAULT_255_1_234
10
4.4202902
20
84.0154
11
4.2660808
21
84.0154
0
LINE
8
DEFAULT_255_1_234
10
4.2660808
20
84.0154
11
4.2660808
21
85.1848211
0
LINE
8
DEFAULT_255_1_234
10
4.2660808
20
85.1848211
11
4.4202902
21
85.1848211
0
LINE
8
DEFAULT_255_1_234
10
5.6009557
20
85.1848211
11
5.6009557
21
84.0154
0
LINE
8
DEFAULT_255_1_234
10
5.6009557
20
84.0154
11
5.4459432
21
84.0154
0
LINE
8
DEFAULT_255_1_234
10
5.4459432
20
84.0154
11
4.8572167
21
84.916561
0
LINE
8
DEFAULT_255_1_234
10
4.8572167
20
84.916561
11
4.8572167
21
84.0154
0
LINE
8
DEFAULT_255_1_234
10
4.8572167
20
84.0154
11
4.7022042
21
84.0154
0
LINE
8
DEFAULT_255_1_234
10
4.7022042
20
84.0154
11
4.7022042
21
85.1848211
0
LINE
8
DEFAULT_255_1_234
10
4.7022042
20
85.1848211
11
4.8572167
21
85.1848211
0
LINE
8
DEFAULT_255_1_234
10
4.8572167
20
85.1848211
11
5.4475495
21
84.2796442
0
LINE
8
DEFAULT_255_1_234
10
5.4475495
20
84.2796442
11
5.4475495
21
85.1848211
0
LINE
8
DEFAULT_255_1_234
10
5.4475495
20
85.1848211
11
5.6009557
21
85.1848211
0
LINE
8
DEFAULT_255_1_234
10
6.3246153
20
85.1904433
11
6.3246153
21
84.0154
0
LINE
8
DEFAULT_255_1_234
10
6.3246153
20
84.0154
11
6.175225
21
84.0154
0
LINE
8
DEFAULT_255_1_234
10
6.175225
20
84.0154
11
6.175225
21
85.0057133
0
LINE
8
DEFAULT_255_1_234
10
6.175225
20
85.0057133
11
5.8756412
21
84.8956785
0
LINE
8
DEFAULT_255_1_234
10
5.8756412
20
84.8956785
11
5.8756412
21
85.0306117
0
LINE
8
DEFAULT_255_1_234
10
5.8756412
20
85.0306117
11
6.3013233
21
85.1904433
0
LINE
8
DEFAULT_255_1_234
10
6.3013233
20
85.1904433
11
6.3246153
21
85.1904433
0
LINE
8
DEFAULT_255_1_234
10
7.2040907
20
84.0154
11
6.7984879
21
84.0154
0
LINE
8
DEFAULT_255_1_234
10
6.7984879
20
84.0154
11
6.7984879
21
85.1848211
0
LINE
8
DEFAULT_255_1_234
10
6.7984879
20
85.1848211
11
7.1807986
21
85.1848211
0
LINE
8
DEFAULT_255_1_234
10
7.2097129
20
84.5623614
11
6.9526973
21
84.5623614
0
LINE
8
DEFAULT_255_1_234
10
6.9526973
20
84.5623614
11
6.9526973
21
84.1414983
0
LINE
8
DEFAULT_255_1_234
10
6.9526973
20
84.1414983
11
7.2073034
21
84.1414983
0
LINE
8
DEFAULT_255_1_234
10
6.9526973
20
85.0579196
11
6.9526973
21
84.6860501
0
LINE
8
DEFAULT_255_1_234
10
6.9526973
20
84.6860501
11
7.1856177
21
84.6860501
0
LINE
8
DEFAULT_255_1_234
10
7.1807986
20
85.0579196
11
6.9526973
21
85.0579196
0
ARC
8
DEFAULT_255_1_234
10
7.1845695
20
84.4480901
40
0.7367406
50
82.1257326
51
90.2932599
0
ARC
8
DEFAULT_255_1_234
10
7.223465
20
84.7199013
40
0.4621653
50
69.9044149
51
82.2857423
0
ARC
8
DEFAULT_255_1_234
10
7.2805328
20
84.8741637
40
0.2976871
50
51.1838526
51
70.0181538
0
ARC
8
DEFAULT_255_1_234
10
7.3060294
20
84.911224
40
0.2528517
50
12.1017251
51
50.4214761
0
ARC
8
DEFAULT_255_1_234
10
7.1676168
20
84.8764676
40
0.3955061
50
359.5251267
51
12.8211707
0
ARC
8
DEFAULT_255_1_234
10
7.3256094
20
84.8695344
40
0.2375281
50
323.4908128
51
0.8817314
0
ARC
8
DEFAULT_255_1_234
10
7.2837781
20
84.901855
40
0.2903817
50
298.6825083
51
323.2756573
0
ARC
8
DEFAULT_255_1_234
10
7.2476144
20
84.9619649
40
0.3604842
50
293.1999386
51
299.1396394
0
ARC
8
DEFAULT_255_1_234
10
7.3149117
20
84.3534126
40
0.2871098
50
54.0011765
51
74.9167975
0
ARC
8
DEFAULT_255_1_234
10
7.3265476
20
84.3731332
40
0.2643248
50
36.3580696
51
53.5291921
0
ARC
8
DEFAULT_255_1_234
10
7.3138718
20
84.3640998
40
0.2798884
50
4.8189881
51
36.3089977
0
ARC
8
DEFAULT_255_1_234
10
7.2359554
20
84.353127
40
0.358478
50
359.9370252
51
5.5204067
0
ARC
8
DEFAULT_255_1_234
10
7.2035075
20
84.3490667
40
0.3909429
50
344.7478609
51
0.5373281
0
ARC
8
DEFAULT_255_1_234
10
7.3026046
20
84.3223544
40
0.2883093
50
311.1786488
51
344.6886812
0
ARC
8
DEFAULT_255_1_234
10
7.2734093
20
84.3586987
40
0.3348923
50
286.0418249
51
310.8441291
0
ARC
8
DEFAULT_255_1_234
10
7.2226925
20
84.5233807
40
0.5071869
50
274.1042341
51
286.4071509
0
ARC
8
DEFAULT_255_1_234
10
7.2050181
20
84.7117229
40
0.6963234
50
269.9236873
51
274.445647
0
ARC
8
DEFAULT_255_1_234
10
7.2096182
20
84.4777537
40
0.3362634
50
269.6055768
51
281.3740047
0
ARC
8
DEFAULT_255_1_234
10
7.232682
20
84.3684353
40
0.224546
50
281.1055983
51
302.5132223
0
ARC
8
DEFAULT_255_1_234
10
7.2473719
20
84.3420823
40
0.1944357
50
303.0368945
51
311.8811219
0
ARC
8
DEFAULT_255_1_234
10
7.2545126
20
84.333589
40
0.1833454
50
311.9916004
51
351.7143462
0
ARC
8
DEFAULT_255_1_234
10
7.1728356
20
84.350093
40
0.2665871
50
350.7339597
51
0.2221581
0
ARC
8
DEFAULT_255_1_234
10
7.1620802
20
84.3557467
40
0.2773789
50
359.0456241
51
17.2296242
0
ARC
8
DEFAULT_255_1_234
10
7.2659919
20
84.3866163
40
0.1689915
50
17.6685481
51
78.9940892
0
ARC
8
DEFAULT_255_1_234
10
7.2143083
20
84.2011224
40
0.3612658
50
76.5635957
51
90.6980921
0
LINE
8
DEFAULT_255_1_234
10
7.2099067
20
84.5623613
11
7.2097129
21
84.5623614
0
ARC
8
DEFAULT_255_1_234
10
7.1878743
20
85.0146036
40
0.3285612
50
269.6064736
51
281.4533503
0
ARC
8
DEFAULT_255_1_234
10
7.2101563
20
84.9094688
40
0.2210975
50
281.2041486
51
302.5148063
0
ARC
8
DEFAULT_255_1_234
10
7.2238413
20
84.8848241
40
0.1929674
50
303.021671
51
309.8369575
0
ARC
8
DEFAULT_255_1_234
10
7.2421875
20
84.8642488
40
0.1654181
50
309.5228395
51
356.9509836
0
ARC
8
DEFAULT_255_1_234
10
7.1758457
20
84.8737932
40
0.2322512
50
355.4701227
51
0.0492546
0
ARC
8
DEFAULT_255_1_234
10
7.1479548
20
84.8760094
40
0.2601498
50
359.5558597
51
11.2096359
0
ARC
8
DEFAULT_255_1_234
10
7.2436838
20
84.895823
40
0.1623975
50
10.9182341
51
31.3230275
0
ARC
8
DEFAULT_255_1_234
10
7.2722571
20
84.9117214
40
0.1297302
50
31.8852677
51
52.1412565
0
ARC
8
DEFAULT_255_1_234
10
7.2448304
20
84.872975
40
0.1771663
50
52.8285564
51
71.9850297
0
ARC
8
DEFAULT_255_1_234
10
7.2072481
20
84.7623664
40
0.2939794
50
71.6863486
51
82.8455995
0
ARC
8
DEFAULT_255_1_234
10
7.1833016
20
84.5814149
40
0.476506
50
82.6984714
51
90.1729175
0
ARC
8
DEFAULT_255_1_234
10
7.1810651
20
84.7037623
40
0.3541573
50
89.8708275
51
90.0431131
0
LINE
8
DEFAULT_255_1_234
10
4.5033902
20
93.1223211
11
4.5033902
21
91.9529
0
LINE
8
DEFAULT_255_1_234
10
4.5033902
20
91.9529
11
4.3491808
21
91.9529
0
LINE
8
DEFAULT_255_1_234
10
4.3491808
20
91.9529
11
4.3491808
21
93.1223211
0
LINE
8
DEFAULT_255_1_234
10
4.3491808
20
93.1223211
11
4.5033902
21
93.1223211
0
LINE
8
DEFAULT_255_1_234
10
5.6840557
20
93.1223211
11
5.6840557
21
91.9529
0
LINE
8
DEFAULT_255_1_234
10
5.6840557
20
91.9529
11
5.5290432
21
91.9529
0
LINE
8
DEFAULT_255_1_234
10
5.5290432
20
91.9529
11
4.9403167
21
92.854061
0
LINE
8
DEFAULT_255_1_234
10
4.9403167
20
92.854061
11
4.9403167
21
91.9529
0
LINE
8
DEFAULT_255_1_234
10
4.9403167
20
91.9529
11
4.7853042
21
91.9529
0
LINE
8
DEFAULT_255_1_234
10
4.7853042
20
91.9529
11
4.7853042
21
93.1223211
0
LINE
8
DEFAULT_255_1_234
10
4.7853042
20
93.1223211
11
4.9403167
21
93.1223211
0
LINE
8
DEFAULT_255_1_234
10
4.9403167
20
93.1223211
11
5.5306495
21
92.2171442
0
LINE
8
DEFAULT_255_1_234
10
5.5306495
20
92.2171442
11
5.5306495
21
93.1223211
0
LINE
8
DEFAULT_255_1_234
10
5.5306495
20
93.1223211
11
5.6840557
21
93.1223211
0
LINE
8
DEFAULT_255_1_234
10
6.4077153
20
93.1279433
11
6.4077153
21
91.9529
0
LINE
8
DEFAULT_255_1_234
10
6.4077153
20
91.9529
11
6.258325
21
91.9529
0
LINE
8
DEFAULT_255_1_234
10
6.258325
20
91.9529
11
6.258325
21
92.9432133
0
LINE
8
DEFAULT_255_1_234
10
6.258325
20
92.9432133
11
5.9587412
21
92.8331785
0
LINE
8
DEFAULT_255_1_234
10
5.9587412
20
92.8331785
11
5.9587412
21
92.9681117
0
LINE
8
DEFAULT_255_1_234
10
5.9587412
20
92.9681117
11
6.3844233
21
93.1279433
0
LINE
8
DEFAULT_255_1_234
10
6.3844233
20
93.1279433
11
6.4077153
21
93.1279433
0
LINE
8
DEFAULT_255_1_234
10
7.6389808
20
91.9529
11
7.5273396
21
92.2581061
0
LINE
8
DEFAULT_255_1_234
10
7.5273396
20
92.2581061
11
7.0374036
21
92.2581061
0
LINE
8
DEFAULT_255_1_234
10
7.0374036
20
92.2581061
11
6.9273688
21
91.9529
0
LINE
8
DEFAULT_255_1_234
10
6.9273688
20
91.9529
11
6.7683404
21
91.9529
0
LINE
8
DEFAULT_255_1_234
10
6.7683404
20
91.9529
11
7.214905
21
93.1223211
0
LINE
8
DEFAULT_255_1_234
10
7.214905
20
93.1223211
11
7.3498382
21
93.1223211
0
LINE
8
DEFAULT_255_1_234
10
7.3498382
20
93.1223211
11
7.7972061
21
91.9529
0
LINE
8
DEFAULT_255_1_234
10
7.7972061
20
91.9529
11
7.6389808
21
91.9529
0
LINE
8
DEFAULT_255_1_234
10
7.2823716
20
92.9319689
11
7.0839877
21
92.3850075
0
LINE
8
DEFAULT_255_1_234
10
7.0839877
20
92.3850075
11
7.4815587
21
92.3850075
0
LINE
8
DEFAULT_255_1_234
10
7.4815587
20
92.3850075
11
7.2823716
21
92.9319689
0
LINE
8
DEFAULT_255_1_234
10
23.1649817
20
100.5819327
11
23.1649817
21
100.3891709
0
LINE
8
DEFAULT_255_1_234
10
22.426865
20
100.3690916
11
22.426865
21
100.5674755
0
LINE
8
DEFAULT_255_1_234
10
23.0163946
20
100.3490123
11
23.0163946
21
100.5923739
0
LINE
8
DEFAULT_255_1_234
10
22.5754521
20
100.6036184
11
22.5754521
21
100.3658789
0
ARC
8
DEFAULT_255_1_234
10
21.9402707
20
100.3842805
40
1.2247208
50
353.8441951
51
0.2287902
0
ARC
8
DEFAULT_255_1_234
10
22.4042211
20
100.3324806
40
0.7578929
50
344.4934747
51
353.9765454
0
ARC
8
DEFAULT_255_1_234
10
22.7034801
20
100.2473981
40
0.4467846
50
329.2803592
51
344.7472793
0
ARC
8
DEFAULT_255_1_234
10
22.8027626
20
100.1929018
40
0.3336173
50
324.9352394
51
328.6160465
0
ARC
8
DEFAULT_255_1_234
10
22.8404734
20
100.1665427
40
0.2876076
50
280.580143
51
324.9173126
0
ARC
8
DEFAULT_255_1_234
10
22.8003527
20
100.3336099
40
0.4592847
50
269.5977311
51
281.6734359
0
ARC
8
DEFAULT_255_1_234
10
22.7931433
20
100.3216173
40
0.4472986
50
256.6228859
51
270.51044
0
ARC
8
DEFAULT_255_1_234
10
22.752941
20
100.1667877
40
0.2873874
50
215.8618325
51
257.2788573
0
ARC
8
DEFAULT_255_1_234
10
22.8550442
20
100.2352977
40
0.4102928
50
197.9693508
51
215.2623606
0
ARC
8
DEFAULT_255_1_234
10
23.1035558
20
100.3191709
40
0.6725652
50
187.8816417
51
198.2346507
0
ARC
8
DEFAULT_255_1_234
10
23.4993766
20
100.3763079
40
1.0724845
50
180.8976217
51
188.0055519
0
ARC
8
DEFAULT_255_1_234
10
23.7793954
20
100.3866777
40
1.3526448
50
180.7449369
51
181.1510016
0
ARC
8
DEFAULT_255_1_234
10
23.6216683
20
100.5723042
40
1.1948131
50
173.7675579
51
180.231553
0
ARC
8
DEFAULT_255_1_234
10
23.169883
20
100.6233666
40
0.7401564
50
164.3058563
51
173.9002247
0
ARC
8
DEFAULT_255_1_234
10
22.8786899
20
100.7072656
40
0.4371288
50
148.7922025
51
164.568378
0
ARC
8
DEFAULT_255_1_234
10
22.7835351
20
100.7603929
40
0.3282386
50
144.5883898
51
148.1176286
0
ARC
8
DEFAULT_255_1_234
10
22.7492249
20
100.7843315
40
0.2864044
50
101.6440918
51
144.514236
0
ARC
8
DEFAULT_255_1_234
10
22.7917315
20
100.6154069
40
0.4604934
50
89.5284041
51
102.5819763
0
ARC
8
DEFAULT_255_1_234
10
22.7996403
20
100.6115018
40
0.464401
50
77.0437873
51
90.5081339
0
ARC
8
DEFAULT_255_1_234
10
22.8398405
20
100.7757615
40
0.2953195
50
48.2778575
51
77.4994676
0
ARC
8
DEFAULT_255_1_234
10
22.8471036
20
100.7886746
40
0.2808655
50
36.3142134
51
47.6305865
0
ARC
8
DEFAULT_255_1_234
10
22.7602343
20
100.7301515
40
0.3855453
50
18.2931786
51
35.6769206
0
ARC
8
DEFAULT_255_1_234
10
22.5059102
20
100.6428593
40
0.654423
50
8.024666
51
18.5605216
0
ARC
8
DEFAULT_255_1_234
10
22.0896022
20
100.5813792
40
1.0752407
50
1.1274072
51
8.1718305
0
ARC
8
DEFAULT_255_1_234
10
21.7660213
20
100.5686885
40
1.3990231
50
0.5424119
51
1.3863029
0
ARC
8
DEFAULT_255_1_234
10
21.948159
20
100.5959342
40
1.0682415
50
359.8090433
51
4.9407866
0
ARC
8
DEFAULT_255_1_234
10
22.3691604
20
100.6335113
40
0.6455691
50
4.8362157
51
12.2904523
0
ARC
8
DEFAULT_255_1_234
10
22.6446719
20
100.6948965
40
0.3633074
50
12.0805627
51
23.8173984
0
ARC
8
DEFAULT_255_1_234
10
22.7620425
20
100.7445919
40
0.2358723
50
24.2871213
51
31.3935614
0
ARC
8
DEFAULT_255_1_234
10
22.8145122
20
100.7789233
40
0.1732111
50
30.7407893
51
82.4657128
0
ARC
8
DEFAULT_255_1_234
10
22.7965256
20
100.6905691
40
0.263235
50
81.1060089
51
90.2184952
0
ARC
8
DEFAULT_255_1_234
10
22.7929555
20
100.7163924
40
0.2374236
50
89.3806855
51
105.6762551
0
ARC
8
DEFAULT_255_1_234
10
22.7746186
20
100.7830567
40
0.1682847
50
105.7981136
51
149.7388061
0
ARC
8
DEFAULT_255_1_234
10
22.8810264
20
100.719095
40
0.2924306
50
149.4208916
51
163.6286378
0
ARC
8
DEFAULT_255_1_234
10
23.0901152
20
100.655325
40
0.5110213
50
163.3763315
51
172.1410975
0
ARC
8
DEFAULT_255_1_234
10
23.4201871
20
100.6080518
40
0.8444586
50
172.0259487
51
178.0703232
0
ARC
8
DEFAULT_255_1_234
10
23.723196
20
100.5936906
40
1.1477868
50
177.8631668
51
179.5044149
0
ARC
8
DEFAULT_255_1_234
10
23.6159365
20
100.3622389
40
1.0404907
50
179.7995573
51
185.2460446
0
ARC
8
DEFAULT_255_1_234
10
23.2116404
20
100.3239513
40
0.6343885
50
185.1411642
51
193.0079639
0
ARC
8
DEFAULT_255_1_234
10
22.9472877
20
100.2614641
40
0.3627568
50
192.7897626
51
205.2507664
0
ARC
8
DEFAULT_255_1_234
10
22.8426424
20
100.2147415
40
0.2481908
50
205.8005384
51
211.2537509
0
ARC
8
DEFAULT_255_1_234
10
22.7902864
20
100.179658
40
0.1852521
50
210.3789793
51
238.4008143
0
ARC
8
DEFAULT_255_1_234
10
22.7883386
20
100.1843376
40
0.1882621
50
239.6520629
51
265.9793761
0
ARC
8
DEFAULT_255_1_234
10
22.7968586
20
100.2515427
40
0.2559272
50
265.1315437
51
270.060332
0
ARC
8
DEFAULT_255_1_234
10
22.7997365
20
100.2191534
40
0.2235528
50
269.3314664
51
287.2178029
0
ARC
8
DEFAULT_255_1_234
10
22.8135217
20
100.1688279
40
0.1714108
50
287.7958004
51
329.080874
0
ARC
8
DEFAULT_255_1_234
10
22.7177674
20
100.228593
40
0.2842745
50
328.6634704
51
343.3325132
0
ARC
8
DEFAULT_255_1_234
10
22.5004694
20
100.2962863
40
0.5118644
50
343.0499468
51
351.9393422
0
ARC
8
DEFAULT_255_1_234
10
22.1537994
20
100.3473949
40
0.8622784
50
351.8069023
51
357.7959224
0
ARC
8
DEFAULT_255_1_234
10
21.830255
20
100.3641721
40
1.1862365
50
357.5871873
51
359.2677531
0
LINE
8
DEFAULT_255_1_234
10
23.4485021
20
101.0598211
11
23.7810161
21
100.0952093
0
LINE
8
DEFAULT_255_1_234
10
23.7810161
20
100.0952093
11
24.1151364
21
101.0598211
0
LINE
8
DEFAULT_255_1_234
10
24.1151364
20
101.0598211
11
24.2838029
21
101.0598211
0
LINE
8
DEFAULT_255_1_234
10
24.2838029
20
101.0598211
11
23.850089
21
99.8904
0
LINE
8
DEFAULT_255_1_234
10
23.850089
20
99.8904
11
23.7135495
21
99.8904
0
LINE
8
DEFAULT_255_1_234
10
23.7135495
20
99.8904
11
23.2806388
21
101.0598211
0
LINE
8
DEFAULT_255_1_234
10
23.2806388
20
101.0598211
11
23.4485021
21
101.0598211
0
LINE
8
DEFAULT_255_1_234
10
21.2668522
20
45.4973211
11
21.5993662
21
44.5327093
0
LINE
8
DEFAULT_255_1_234
10
21.5993662
20
44.5327093
11
21.9334865
21
45.4973211
0
LINE
8
DEFAULT_255_1_234
10
21.9334865
20
45.4973211
11
22.102153
21
45.4973211
0
LINE
8
DEFAULT_255_1_234
10
22.102153
20
45.4973211
11
21.6684391
21
44.3279
0
LINE
8
DEFAULT_255_1_234
10
21.6684391
20
44.3279
11
21.5318996
21
44.3279
0
LINE
8
DEFAULT_255_1_234
10
21.5318996
20
44.3279
11
21.0989889
21
45.4973211
0
LINE
8
DEFAULT_255_1_234
10
21.0989889
20
45.4973211
11
21.2668522
21
45.4973211
0
LINE
8
DEFAULT_255_1_234
10
23.1478853
20
44.9487534
11
23.1478853
21
44.8748614
0
LINE
8
DEFAULT_255_1_234
10
22.2073688
20
44.8644201
11
22.2073688
21
44.9487534
0
LINE
8
DEFAULT_255_1_234
10
22.9944791
20
44.8636169
11
22.9944791
21
44.9503597
0
LINE
8
DEFAULT_255_1_234
10
22.360775
20
44.960801
11
22.360775
21
44.8748614
0
ARC
8
DEFAULT_255_1_234
10
22.283688
20
44.8709015
40
0.8642064
50
350.487711
51
0.2625388
0
ARC
8
DEFAULT_255_1_234
10
22.5130121
20
44.8314578
40
0.631518
50
336.0277639
51
350.5787438
0
ARC
8
DEFAULT_255_1_234
10
22.6474944
20
44.7706892
40
0.4839466
50
319.8877444
51
336.1328423
0
ARC
8
DEFAULT_255_1_234
10
22.7077585
20
44.722458
40
0.4067874
50
302.4806467
51
319.6143626
0
ARC
8
DEFAULT_255_1_234
10
22.6962595
20
44.7446202
40
0.4316636
50
275.8195682
51
302.1884709
0
ARC
8
DEFAULT_255_1_234
10
22.6796229
20
44.8588665
40
0.5470306
50
269.9171439
51
276.3397983
0
ARC
8
DEFAULT_255_1_234
10
22.6751438
20
44.7902681
40
0.4784458
50
252.5219675
51
270.4416499
0
ARC
8
DEFAULT_255_1_234
10
22.6607697
20
44.7363592
40
0.422716
50
237.5352116
51
252.1857531
0
ARC
8
DEFAULT_255_1_234
10
22.6696893
20
44.7477363
40
0.4371052
50
209.063312
51
237.3492538
0
ARC
8
DEFAULT_255_1_234
10
22.7566741
20
44.8023685
40
0.5397041
50
205.1183774
51
209.6470015
0
ARC
8
DEFAULT_255_1_234
10
22.8363778
20
44.836183
40
0.6262326
50
188.7215458
51
204.8240747
0
ARC
8
DEFAULT_255_1_234
10
23.0361306
20
44.8698067
40
0.8287794
50
180.3723947
51
188.9252049
0
ARC
8
DEFAULT_255_1_234
10
23.0334058
20
44.9527402
40
0.8260467
50
169.5253763
51
180.2765336
0
ARC
8
DEFAULT_255_1_234
10
22.8431507
20
44.9877309
40
0.6326007
50
155.8315255
51
169.5089989
0
ARC
8
DEFAULT_255_1_234
10
22.7151008
20
45.0471348
40
0.4914567
50
139.6258461
51
156.0379525
0
ARC
8
DEFAULT_255_1_234
10
22.6561341
20
45.0945799
40
0.4158054
50
122.6416387
51
139.3430715
0
ARC
8
DEFAULT_255_1_234
10
22.6661961
20
45.0762451
40
0.4366739
50
93.0223692
51
122.455762
0
ARC
8
DEFAULT_255_1_234
10
22.6769958
20
44.9797709
40
0.5336137
50
89.975342
51
93.6341897
0
ARC
8
DEFAULT_255_1_234
10
22.6808737
20
45.0196242
40
0.4937738
50
73.746375
51
90.4233405
0
ARC
8
DEFAULT_255_1_234
10
22.6984316
20
45.0876287
40
0.4235786
50
57.662753
51
73.4518111
0
ARC
8
DEFAULT_255_1_234
10
22.6976322
20
45.0897832
40
0.4221899
50
29.1440151
51
57.414694
0
ARC
8
DEFAULT_255_1_234
10
22.6041517
20
45.0314005
40
0.5322966
50
24.0982783
51
29.7323517
0
ARC
8
DEFAULT_255_1_234
10
22.5007792
20
44.9885399
40
0.6441673
50
8.6655297
51
23.8241346
0
ARC
8
DEFAULT_255_1_234
10
22.277353
20
44.9520854
40
0.8705386
50
359.7806941
51
8.8218784
0
ARC
8
DEFAULT_255_1_234
10
22.1626528
20
44.9546345
40
0.8318373
50
359.7055579
51
8.036044
0
ARC
8
DEFAULT_255_1_234
10
22.4626534
20
44.9983239
40
0.5286768
50
7.8928306
51
20.2962107
0
ARC
8
DEFAULT_255_1_234
10
22.6254105
20
45.0583395
40
0.3552073
50
20.3231126
51
36.4992797
0
ARC
8
DEFAULT_255_1_234
10
22.6939651
20
45.1111402
40
0.2686974
50
36.1437156
51
85.6627023
0
ARC
8
DEFAULT_255_1_234
10
22.6777197
20
45.0071221
40
0.373739
50
84.3852322
51
90.0757696
0
ARC
8
DEFAULT_255_1_234
10
22.6734869
20
45.0731839
40
0.3076997
50
89.3038458
51
109.9045693
0
ARC
8
DEFAULT_255_1_234
10
22.664226
20
45.1114062
40
0.2686424
50
110.8228367
51
143.9179474
0
ARC
8
DEFAULT_255_1_234
10
22.757592
20
45.0401236
40
0.3860887
50
143.5289163
51
163.2980757
0
ARC
8
DEFAULT_255_1_234
10
22.9483741
20
44.9801433
40
0.5860659
50
163.0418846
51
174.3140048
0
ARC
8
DEFAULT_255_1_234
10
23.1887853
20
44.9523854
40
0.8280531
50
174.0509143
51
179.4176892
0
ARC
8
DEFAULT_255_1_234
10
23.1383592
20
44.8706954
40
0.7775954
50
179.6930361
51
188.7906598
0
ARC
8
DEFAULT_255_1_234
10
22.8720071
20
44.8280935
40
0.5078633
50
188.6331305
51
202.5629587
0
ARC
8
DEFAULT_255_1_234
10
22.7465663
20
44.7776996
40
0.3726913
50
202.8081362
51
216.1193925
0
ARC
8
DEFAULT_255_1_234
10
22.6656233
20
44.7125676
40
0.2689577
50
215.0755913
51
264.6379694
0
ARC
8
DEFAULT_255_1_234
10
22.6783183
20
44.7956513
40
0.3528978
50
263.846392
51
270.0833719
0
ARC
8
DEFAULT_255_1_234
10
22.6824573
20
44.7698374
40
0.3271036
50
269.3649385
51
287.5152008
0
ARC
8
DEFAULT_255_1_234
10
22.7002731
20
44.7051238
40
0.2600406
50
288.0630309
51
323.8113348
0
ARC
8
DEFAULT_255_1_234
10
22.6131573
20
44.7701049
40
0.3687189
50
323.6547608
51
342.6590488
0
ARC
8
DEFAULT_255_1_234
10
22.4100188
20
44.8361952
40
0.5823286
50
342.4091907
51
353.6451149
0
ARC
8
DEFAULT_255_1_234
10
22.1268699
20
44.871419
40
0.8676442
50
353.4029884
51
359.4847795
0
LINE
8
DEFAULT_255_1_234
10
24.0956304
20
45.4973211
11
24.0956304
21
45.413791
0
LINE
8
DEFAULT_255_1_234
10
24.0956304
20
45.413791
11
23.6113166
21
44.3279
0
LINE
8
DEFAULT_255_1_234
10
23.6113166
20
44.3279
11
23.4555009
21
44.3279
0
LINE
8
DEFAULT_255_1_234
10
23.4555009
20
44.3279
11
23.9382083
21
45.3752387
0
LINE
8
DEFAULT_255_1_234
10
23.9382083
20
45.3752387
11
23.3053074
21
45.3752387
0
LINE
8
DEFAULT_255_1_234
10
23.3053074
20
45.3752387
11
23.3053074
21
45.4973211
0
LINE
8
DEFAULT_255_1_234
10
23.3053074
20
45.4973211
11
24.0956304
21
45.4973211
0
LINE
8
DEFAULT_255_1_234
10
22.1795911
20
52.8862534
11
22.1795911
21
52.8123614
0
LINE
8
DEFAULT_255_1_234
10
21.2390745
20
52.8019201
11
21.2390745
21
52.8862534
0
LINE
8
DEFAULT_255_1_234
10
22.0261849
20
52.8011169
11
22.0261849
21
52.8878597
0
LINE
8
DEFAULT_255_1_234
10
21.3924807
20
52.898301
11
21.3924807
21
52.8123614
0
ARC
8
DEFAULT_255_1_234
10
21.3153937
20
52.8084015
40
0.8642064
50
350.487711
51
0.2625388
0
ARC
8
DEFAULT_255_1_234
10
21.5447178
20
52.7689578
40
0.631518
50
336.0277639
51
350.5787438
0
ARC
8
DEFAULT_255_1_234
10
21.6792002
20
52.7081892
40
0.4839466
50
319.8877444
51
336.1328423
0
ARC
8
DEFAULT_255_1_234
10
21.7394643
20
52.659958
40
0.4067874
50
302.4806467
51
319.6143626
0
ARC
8
DEFAULT_255_1_234
10
21.7279653
20
52.6821202
40
0.4316636
50
275.8195682
51
302.1884709
0
ARC
8
DEFAULT_255_1_234
10
21.7113286
20
52.7963665
40
0.5470306
50
269.9171439
51
276.3397983
0
ARC
8
DEFAULT_255_1_234
10
21.7068496
20
52.7277681
40
0.4784458
50
252.5219675
51
270.4416499
0
ARC
8
DEFAULT_255_1_234
10
21.6924755
20
52.6738592
40
0.422716
50
237.5352116
51
252.1857531
0
ARC
8
DEFAULT_255_1_234
10
21.7013951
20
52.6852363
40
0.4371052
50
209.063312
51
237.3492538
0
ARC
8
DEFAULT_255_1_234
10
21.7883799
20
52.7398685
40
0.5397041
50
205.1183774
51
209.6470015
0
ARC
8
DEFAULT_255_1_234
10
21.8680836
20
52.773683
40
0.6262326
50
188.7215458
51
204.8240747
0
ARC
8
DEFAULT_255_1_234
10
22.0678364
20
52.8073067
40
0.8287794
50
180.3723947
51
188.9252049
0
ARC
8
DEFAULT_255_1_234
10
22.0651116
20
52.8902402
40
0.8260467
50
169.5253763
51
180.2765336
0
ARC
8
DEFAULT_255_1_234
10
21.8748564
20
52.9252309
40
0.6326007
50
155.8315255
51
169.5089989
0
ARC
8
DEFAULT_255_1_234
10
21.7468066
20
52.9846348
40
0.4914567
50
139.6258461
51
156.0379525
0
ARC
8
DEFAULT_255_1_234
10
21.6878399
20
53.0320799
40
0.4158054
50
122.6416387
51
139.3430715
0
ARC
8
DEFAULT_255_1_234
10
21.6979019
20
53.0137451
40
0.4366739
50
93.0223692
51
122.455762
0
ARC
8
DEFAULT_255_1_234
10
21.7087016
20
52.9172709
40
0.5336137
50
89.975342
51
93.6341897
0
ARC
8
DEFAULT_255_1_234
10
21.7125795
20
52.9571242
40
0.4937738
50
73.746375
51
90.4233405
0
ARC
8
DEFAULT_255_1_234
10
21.7301373
20
53.0251287
40
0.4235786
50
57.662753
51
73.4518111
0
ARC
8
DEFAULT_255_1_234
10
21.729338
20
53.0272832
40
0.4221899
50
29.1440151
51
57.414694
0
ARC
8
DEFAULT_255_1_234
10
21.6358574
20
52.9689005
40
0.5322966
50
24.0982783
51
29.7323517
0
ARC
8
DEFAULT_255_1_234
10
21.532485
20
52.9260399
40
0.6441673
50
8.6655297
51
23.8241346
0
ARC
8
DEFAULT_255_1_234
10
21.3090588
20
52.8895854
40
0.8705386
50
359.7806941
51
8.8218784
0
ARC
8
DEFAULT_255_1_234
10
21.1943586
20
52.8921345
40
0.8318373
50
359.7055579
51
8.036044
0
ARC
8
DEFAULT_255_1_234
10
21.4943592
20
52.9358239
40
0.5286768
50
7.8928306
51
20.2962107
0
ARC
8
DEFAULT_255_1_234
10
21.6571162
20
52.9958395
40
0.3552073
50
20.3231126
51
36.4992797
0
ARC
8
DEFAULT_255_1_234
10
21.7256708
20
53.0486402
40
0.2686974
50
36.1437156
51
85.6627023
0
ARC
8
DEFAULT_255_1_234
10
21.7094254
20
52.9446221
40
0.373739
50
84.3852322
51
90.0757696
0
ARC
8
DEFAULT_255_1_234
10
21.7051927
20
53.0106839
40
0.3076997
50
89.3038458
51
109.9045693
0
ARC
8
DEFAULT_255_1_234
10
21.6959318
20
53.0489062
40
0.2686424
50
110.8228367
51
143.9179474
0
ARC
8
DEFAULT_255_1_234
10
21.7892978
20
52.9776236
40
0.3860887
50
143.5289163
51
163.2980757
0
ARC
8
DEFAULT_255_1_234
10
21.9800799
20
52.9176433
40
0.5860659
50
163.0418846
51
174.3140048
0
ARC
8
DEFAULT_255_1_234
10
22.2204911
20
52.8898854
40
0.8280531
50
174.0509143
51
179.4176892
0
ARC
8
DEFAULT_255_1_234
10
22.170065
20
52.8081954
40
0.7775954
50
179.6930361
51
188.7906598
0
ARC
8
DEFAULT_255_1_234
10
21.9037129
20
52.7655935
40
0.5078633
50
188.6331305
51
202.5629587
0
ARC
8
DEFAULT_255_1_234
10
21.7782721
20
52.7151996
40
0.3726913
50
202.8081362
51
216.1193925
0
ARC
8
DEFAULT_255_1_234
10
21.6973291
20
52.6500676
40
0.2689577
50
215.0755913
51
264.6379694
0
ARC
8
DEFAULT_255_1_234
10
21.710024
20
52.7331513
40
0.3528978
50
263.846392
51
270.0833719
0
ARC
8
DEFAULT_255_1_234
10
21.7141631
20
52.7073374
40
0.3271036
50
269.3649385
51
287.5152008
0
ARC
8
DEFAULT_255_1_234
10
21.7319788
20
52.6426238
40
0.2600406
50
288.0630309
51
323.8113348
0
ARC
8
DEFAULT_255_1_234
10
21.644863
20
52.7076049
40
0.3687189
50
323.6547608
51
342.6590488
0
ARC
8
DEFAULT_255_1_234
10
21.4417245
20
52.7736952
40
0.5823286
50
342.4091907
51
353.6451149
0
ARC
8
DEFAULT_255_1_234
10
21.1585756
20
52.808919
40
0.8676442
50
353.4029884
51
359.4847795
0
LINE
8
DEFAULT_255_1_234
10
23.1160917
20
52.6364663
11
23.2711043
21
52.6364663
0
LINE
8
DEFAULT_255_1_234
10
22.3707464
20
52.7954947
11
22.3707464
21
52.9079391
0
LINE
8
DEFAULT_255_1_234
10
23.2711043
20
53.0589357
11
23.1160917
21
53.0589357
0
LINE
8
DEFAULT_255_1_234
10
22.525759
20
52.9039232
11
22.525759
21
52.7906757
0
ARC
8
DEFAULT_255_1_234
10
22.723043
20
52.6961846
40
0.5513052
50
340.1774281
51
353.7814284
0
ARC
8
DEFAULT_255_1_234
10
22.8801782
20
52.6376582
40
0.3836379
50
311.4558989
51
340.4421614
0
ARC
8
DEFAULT_255_1_234
10
22.876845
20
52.6487528
40
0.3941894
50
282.4333181
51
310.7513653
0
ARC
8
DEFAULT_255_1_234
10
22.832919
20
52.8302679
40
0.5809175
50
269.9358511
51
282.809604
0
ARC
8
DEFAULT_255_1_234
10
22.8277256
20
52.9760212
40
0.7266847
50
270.0021091
51
270.3581957
0
ARC
8
DEFAULT_255_1_234
10
22.8224673
20
52.7159585
40
0.4666519
50
250.7884749
51
270.6489167
0
ARC
8
DEFAULT_255_1_234
10
22.8056507
20
52.6522319
40
0.4009729
50
219.3627325
51
250.0611886
0
ARC
8
DEFAULT_255_1_234
10
22.8885719
20
52.7227042
40
0.5097822
50
193.5479632
51
219.5756669
0
ARC
8
DEFAULT_255_1_234
10
23.1257339
20
52.7842919
40
0.7547848
50
181.1218675
51
193.87563
0
ARC
8
DEFAULT_255_1_234
10
23.332752
20
52.795358
40
0.9620055
50
179.9918545
51
181.5394234
0
ARC
8
DEFAULT_255_1_234
10
23.1476622
20
52.9116788
40
0.7769248
50
169.5837241
51
180.2757934
0
ARC
8
DEFAULT_255_1_234
10
22.9639561
20
52.9456229
40
0.590109
50
155.0365899
51
169.6003176
0
ARC
8
DEFAULT_255_1_234
10
22.8504024
20
53.0003677
40
0.4640625
50
136.783148
51
155.2472683
0
ARC
8
DEFAULT_255_1_234
10
22.8114501
20
53.0334562
40
0.4130255
50
121.7633186
51
136.428115
0
ARC
8
DEFAULT_255_1_234
10
22.8249464
20
53.0085227
40
0.4413323
50
95.6459699
51
121.5490577
0
ARC
8
DEFAULT_255_1_234
10
22.8406745
20
52.8976949
40
0.55319
50
89.924208
51
96.1377933
0
ARC
8
DEFAULT_255_1_234
10
22.8457178
20
52.9095542
40
0.5413475
50
76.6779277
51
90.4563316
0
ARC
8
DEFAULT_255_1_234
10
22.8850802
20
53.0686114
40
0.3775041
50
47.485847
51
76.9287264
0
ARC
8
DEFAULT_255_1_234
10
22.8703774
20
53.0586159
40
0.3948286
50
16.5424086
51
46.8933463
0
ARC
8
DEFAULT_255_1_234
10
22.7095931
20
53.0057861
40
0.564021
50
5.4072051
51
17.0365086
0
ARC
8
DEFAULT_255_1_234
10
22.5656949
20
52.9826679
40
0.5556559
50
7.8891745
51
15.9239216
0
ARC
8
DEFAULT_255_1_234
10
22.7643962
20
53.0403631
40
0.3487515
50
15.7653144
51
27.9410532
0
ARC
8
DEFAULT_255_1_234
10
22.874818
20
53.099479
40
0.2235026
50
27.8166557
51
46.4008329
0
ARC
8
DEFAULT_255_1_234
10
22.8797823
20
53.0989082
40
0.2205286
50
47.4371857
51
75.0698205
0
ARC
8
DEFAULT_255_1_234
10
22.8489217
20
52.9914765
40
0.3322915
50
74.7008593
51
87.8124495
0
ARC
8
DEFAULT_255_1_234
10
22.8415905
20
52.8858844
40
0.4380987
50
87.3814673
51
90.0240855
0
ARC
8
DEFAULT_255_1_234
10
22.8377448
20
53.0036291
40
0.3203749
50
89.3451631
51
108.5745436
0
ARC
8
DEFAULT_255_1_234
10
22.8240553
20
53.0549908
40
0.2673494
50
109.2998449
51
143.3037509
0
ARC
8
DEFAULT_255_1_234
10
22.9002626
20
52.9963881
40
0.3634757
50
143.0753173
51
163.1916937
0
ARC
8
DEFAULT_255_1_234
10
23.0954353
20
52.9347967
40
0.5681262
50
162.9373603
51
174.6208611
0
ARC
8
DEFAULT_255_1_234
10
23.3580396
20
52.906001
40
0.8322832
50
174.3419979
51
180.1430411
0
ARC
8
DEFAULT_255_1_234
10
23.2649552
20
52.7865698
40
0.7392076
50
179.6817502
51
189.150529
0
ARC
8
DEFAULT_255_1_234
10
23.01488
20
52.744919
40
0.4856932
50
188.9910863
51
203.5773039
0
ARC
8
DEFAULT_255_1_234
10
22.9069133
20
52.7001211
40
0.3688271
50
203.9077269
51
215.1312379
0
ARC
8
DEFAULT_255_1_234
10
22.8146226
20
52.6285941
40
0.2522457
50
213.9071664
51
263.8849284
0
ARC
8
DEFAULT_255_1_234
10
22.8271556
20
52.7070518
40
0.3316174
50
263.1758525
51
270.1031083
0
ARC
8
DEFAULT_255_1_234
10
22.8303647
20
52.8317365
40
0.4563091
50
269.6719807
51
279.0609165
0
ARC
8
DEFAULT_255_1_234
10
22.8570415
20
52.6704907
40
0.2928759
50
278.8750225
51
293.6346586
0
ARC
8
DEFAULT_255_1_234
10
22.8890624
20
52.59529
40
0.2111472
50
293.8553404
51
310.0518804
0
ARC
8
DEFAULT_255_1_234
10
22.8895477
20
52.5890516
40
0.2060917
50
311.0646779
51
332.0108348
0
ARC
8
DEFAULT_255_1_234
10
22.7703204
20
52.6547978
40
0.3422352
50
331.6588543
51
343.2878891
0
ARC
8
DEFAULT_255_1_234
10
22.5640719
20
52.7181798
40
0.5580003
50
343.1446044
51
351.010618
0
ARC
8
DEFAULT_255_1_234
10
22.4099365
20
52.7462871
40
0.7146438
50
350.7157277
51
351.1602153
0
LINE
8
DEFAULT_255_1_234
10
24.1979669
20
53.4348211
11
24.1979669
21
53.351291
0
LINE
8
DEFAULT_255_1_234
10
24.1979669
20
53.351291
11
23.7136531
21
52.2654
0
LINE
8
DEFAULT_255_1_234
10
23.7136531
20
52.2654
11
23.5578374
21
52.2654
0
LINE
8
DEFAULT_255_1_234
10
23.5578374
20
52.2654
11
24.0405448
21
53.3127387
0
LINE
8
DEFAULT_255_1_234
10
24.0405448
20
53.3127387
11
23.4076438
21
53.3127387
0
LINE
8
DEFAULT_255_1_234
10
23.4076438
20
53.3127387
11
23.4076438
21
53.4348211
0
LINE
8
DEFAULT_255_1_234
10
23.4076438
20
53.4348211
11
24.1979669
21
53.4348211
0
LINE
8
DEFAULT_255_1_234
10
22.1084902
20
61.3723211
11
22.1084902
21
60.2029
0
LINE
8
DEFAULT_255_1_234
10
22.1084902
20
60.2029
11
21.9542808
21
60.2029
0
LINE
8
DEFAULT_255_1_234
10
21.9542808
20
60.2029
11
21.9542808
21
61.3723211
0
LINE
8
DEFAULT_255_1_234
10
21.9542808
20
61.3723211
11
22.1084902
21
61.3723211
0
LINE
8
DEFAULT_255_1_234
10
23.2899589
20
60.8237534
11
23.2899589
21
60.7498614
0
LINE
8
DEFAULT_255_1_234
10
22.3494423
20
60.7394201
11
22.3494423
21
60.8237534
0
LINE
8
DEFAULT_255_1_234
10
23.1365527
20
60.7386169
11
23.1365527
21
60.8253597
0
LINE
8
DEFAULT_255_1_234
10
22.5028485
20
60.835801
11
22.5028485
21
60.7498614
0
ARC
8
DEFAULT_255_1_234
10
22.4257615
20
60.7459015
40
0.8642064
50
350.487711
51
0.2625388
0
ARC
8
DEFAULT_255_1_234
10
22.6550857
20
60.7064578
40
0.631518
50
336.0277639
51
350.5787438
0
ARC
8
DEFAULT_255_1_234
10
22.789568
20
60.6456892
40
0.4839466
50
319.8877444
51
336.1328423
0
ARC
8
DEFAULT_255_1_234
10
22.8498321
20
60.597458
40
0.4067874
50
302.4806467
51
319.6143626
0
ARC
8
DEFAULT_255_1_234
10
22.8383331
20
60.6196202
40
0.4316636
50
275.8195682
51
302.1884709
0
ARC
8
DEFAULT_255_1_234
10
22.8216964
20
60.7338665
40
0.5470306
50
269.9171439
51
276.3397983
0
ARC
8
DEFAULT_255_1_234
10
22.8172174
20
60.6652681
40
0.4784458
50
252.5219675
51
270.4416499
0
ARC
8
DEFAULT_255_1_234
10
22.8028433
20
60.6113592
40
0.422716
50
237.5352116
51
252.1857531
0
ARC
8
DEFAULT_255_1_234
10
22.8117629
20
60.6227363
40
0.4371052
50
209.063312
51
237.3492538
0
ARC
8
DEFAULT_255_1_234
10
22.8987477
20
60.6773685
40
0.5397041
50
205.1183774
51
209.6470015
0
ARC
8
DEFAULT_255_1_234
10
22.9784514
20
60.711183
40
0.6262326
50
188.7215458
51
204.8240747
0
ARC
8
DEFAULT_255_1_234
10
23.1782042
20
60.7448067
40
0.8287794
50
180.3723947
51
188.9252049
0
ARC
8
DEFAULT_255_1_234
10
23.1754794
20
60.8277402
40
0.8260467
50
169.5253763
51
180.2765336
0
ARC
8
DEFAULT_255_1_234
10
22.9852243
20
60.8627309
40
0.6326007
50
155.8315255
51
169.5089989
0
ARC
8
DEFAULT_255_1_234
10
22.8571744
20
60.9221348
40
0.4914567
50
139.6258461
51
156.0379525
0
ARC
8
DEFAULT_255_1_234
10
22.7982077
20
60.9695799
40
0.4158054
50
122.6416387
51
139.3430715
0
ARC
8
DEFAULT_255_1_234
10
22.8082697
20
60.9512451
40
0.4366739
50
93.0223692
51
122.455762
0
ARC
8
DEFAULT_255_1_234
10
22.8190694
20
60.8547709
40
0.5336137
50
89.975342
51
93.6341897
0
ARC
8
DEFAULT_255_1_234
10
22.8229473
20
60.8946242
40
0.4937738
50
73.746375
51
90.4233405
0
ARC
8
DEFAULT_255_1_234
10
22.8405052
20
60.9626287
40
0.4235786
50
57.662753
51
73.4518111
0
ARC
8
DEFAULT_255_1_234
10
22.8397058
20
60.9647832
40
0.4221899
50
29.1440151
51
57.414694
0
ARC
8
DEFAULT_255_1_234
10
22.7462253
20
60.9064005
40
0.5322966
50
24.0982783
51
29.7323517
0
ARC
8
DEFAULT_255_1_234
10
22.6428528
20
60.8635399
40
0.6441673
50
8.6655297
51
23.8241346
0
ARC
8
DEFAULT_255_1_234
10
22.4194266
20
60.8270854
40
0.8705386
50
359.7806941
51
8.8218784
0
ARC
8
DEFAULT_255_1_234
10
22.3047264
20
60.8296345
40
0.8318373
50
359.7055579
51
8.036044
0
ARC
8
DEFAULT_255_1_234
10
22.604727
20
60.8733239
40
0.5286768
50
7.8928306
51
20.2962107
0
ARC
8
DEFAULT_255_1_234
10
22.7674841
20
60.9333395
40
0.3552073
50
20.3231126
51
36.4992797
0
ARC
8
DEFAULT_255_1_234
10
22.8360387
20
60.9861402
40
0.2686974
50
36.1437156
51
85.6627023
0
ARC
8
DEFAULT_255_1_234
10
22.8197933
20
60.8821221
40
0.373739
50
84.3852322
51
90.0757696
0
ARC
8
DEFAULT_255_1_234
10
22.8155605
20
60.9481839
40
0.3076997
50
89.3038458
51
109.9045693
0
ARC
8
DEFAULT_255_1_234
10
22.8062996
20
60.9864062
40
0.2686424
50
110.8228367
51
143.9179474
0
ARC
8
DEFAULT_255_1_234
10
22.8996656
20
60.9151236
40
0.3860887
50
143.5289163
51
163.2980757
0
ARC
8
DEFAULT_255_1_234
10
23.0904477
20
60.8551433
40
0.5860659
50
163.0418846
51
174.3140048
0
ARC
8
DEFAULT_255_1_234
10
23.3308589
20
60.8273854
40
0.8280531
50
174.0509143
51
179.4176892
0
ARC
8
DEFAULT_255_1_234
10
23.2804328
20
60.7456954
40
0.7775954
50
179.6930361
51
188.7906598
0
ARC
8
DEFAULT_255_1_234
10
23.0140807
20
60.7030935
40
0.5078633
50
188.6331305
51
202.5629587
0
ARC
8
DEFAULT_255_1_234
10
22.8886399
20
60.6526996
40
0.3726913
50
202.8081362
51
216.1193925
0
ARC
8
DEFAULT_255_1_234
10
22.8076969
20
60.5875676
40
0.2689577
50
215.0755913
51
264.6379694
0
ARC
8
DEFAULT_255_1_234
10
22.8203919
20
60.6706513
40
0.3528978
50
263.846392
51
270.0833719
0
ARC
8
DEFAULT_255_1_234
10
22.8245309
20
60.6448374
40
0.3271036
50
269.3649385
51
287.5152008
0
ARC
8
DEFAULT_255_1_234
10
22.8423467
20
60.5801238
40
0.2600406
50
288.0630309
51
323.8113348
0
ARC
8
DEFAULT_255_1_234
10
22.7552309
20
60.6451049
40
0.3687189
50
323.6547608
51
342.6590488
0
ARC
8
DEFAULT_255_1_234
10
22.5520924
20
60.7111952
40
0.5823286
50
342.4091907
51
353.6451149
0
ARC
8
DEFAULT_255_1_234
10
22.2689434
20
60.746419
40
0.8676442
50
353.4029884
51
359.4847795
0
LINE
8
DEFAULT_255_1_234
10
24.237704
20
61.3723211
11
24.237704
21
61.288791
0
LINE
8
DEFAULT_255_1_234
10
24.237704
20
61.288791
11
23.7533902
21
60.2029
0
LINE
8
DEFAULT_255_1_234
10
23.7533902
20
60.2029
11
23.5975745
21
60.2029
0
LINE
8
DEFAULT_255_1_234
10
23.5975745
20
60.2029
11
24.0802819
21
61.2502387
0
LINE
8
DEFAULT_255_1_234
10
24.0802819
20
61.2502387
11
23.447381
21
61.2502387
0
LINE
8
DEFAULT_255_1_234
10
23.447381
20
61.2502387
11
23.447381
21
61.3723211
0
LINE
8
DEFAULT_255_1_234
10
23.447381
20
61.3723211
11
24.237704
21
61.3723211
0
LINE
8
DEFAULT_255_1_234
10
21.2668522
20
69.3098211
11
21.5993662
21
68.3452093
0
LINE
8
DEFAULT_255_1_234
10
21.5993662
20
68.3452093
11
21.9334865
21
69.3098211
0
LINE
8
DEFAULT_255_1_234
10
21.9334865
20
69.3098211
11
22.102153
21
69.3098211
0
LINE
8
DEFAULT_255_1_234
10
22.102153
20
69.3098211
11
21.6684391
21
68.1404
0
LINE
8
DEFAULT_255_1_234
10
21.6684391
20
68.1404
11
21.5318996
21
68.1404
0
LINE
8
DEFAULT_255_1_234
10
21.5318996
20
68.1404
11
21.0989889
21
69.3098211
0
LINE
8
DEFAULT_255_1_234
10
21.0989889
20
69.3098211
11
21.2668522
21
69.3098211
0
LINE
8
DEFAULT_255_1_234
10
23.1478853
20
68.7612534
11
23.1478853
21
68.6873614
0
LINE
8
DEFAULT_255_1_234
10
22.2073688
20
68.6769201
11
22.2073688
21
68.7612534
0
LINE
8
DEFAULT_255_1_234
10
22.9944791
20
68.6761169
11
22.9944791
21
68.7628597
0
LINE
8
DEFAULT_255_1_234
10
22.360775
20
68.773301
11
22.360775
21
68.6873614
0
ARC
8
DEFAULT_255_1_234
10
22.283688
20
68.6834015
40
0.8642064
50
350.487711
51
0.2625388
0
ARC
8
DEFAULT_255_1_234
10
22.5130121
20
68.6439578
40
0.631518
50
336.0277639
51
350.5787438
0
ARC
8
DEFAULT_255_1_234
10
22.6474944
20
68.5831892
40
0.4839466
50
319.8877444
51
336.1328423
0
ARC
8
DEFAULT_255_1_234
10
22.7077585
20
68.534958
40
0.4067874
50
302.4806467
51
319.6143626
0
ARC
8
DEFAULT_255_1_234
10
22.6962595
20
68.5571202
40
0.4316636
50
275.8195682
51
302.1884709
0
ARC
8
DEFAULT_255_1_234
10
22.6796229
20
68.6713665
40
0.5470306
50
269.9171439
51
276.3397983
0
ARC
8
DEFAULT_255_1_234
10
22.6751438
20
68.6027681
40
0.4784458
50
252.5219675
51
270.4416499
0
ARC
8
DEFAULT_255_1_234
10
22.6607697
20
68.5488592
40
0.422716
50
237.5352116
51
252.1857531
0
ARC
8
DEFAULT_255_1_234
10
22.6696893
20
68.5602363
40
0.4371052
50
209.063312
51
237.3492538
0
ARC
8
DEFAULT_255_1_234
10
22.7566741
20
68.6148685
40
0.5397041
50
205.1183774
51
209.6470015
0
ARC
8
DEFAULT_255_1_234
10
22.8363778
20
68.648683
40
0.6262326
50
188.7215458
51
204.8240747
0
ARC
8
DEFAULT_255_1_234
10
23.0361306
20
68.6823067
40
0.8287794
50
180.3723947
51
188.9252049
0
ARC
8
DEFAULT_255_1_234
10
23.0334058
20
68.7652402
40
0.8260467
50
169.5253763
51
180.2765336
0
ARC
8
DEFAULT_255_1_234
10
22.8431507
20
68.8002309
40
0.6326007
50
155.8315255
51
169.5089989
0
ARC
8
DEFAULT_255_1_234
10
22.7151008
20
68.8596348
40
0.4914567
50
139.6258461
51
156.0379525
0
ARC
8
DEFAULT_255_1_234
10
22.6561341
20
68.9070799
40
0.4158054
50
122.6416387
51
139.3430715
0
ARC
8
DEFAULT_255_1_234
10
22.6661961
20
68.8887451
40
0.4366739
50
93.0223692
51
122.455762
0
ARC
8
DEFAULT_255_1_234
10
22.6769958
20
68.7922709
40
0.5336137
50
89.975342
51
93.6341897
0
ARC
8
DEFAULT_255_1_234
10
22.6808737
20
68.8321242
40
0.4937738
50
73.746375
51
90.4233405
0
ARC
8
DEFAULT_255_1_234
10
22.6984316
20
68.9001287
40
0.4235786
50
57.662753
51
73.4518111
0
ARC
8
DEFAULT_255_1_234
10
22.6976322
20
68.9022832
40
0.4221899
50
29.1440151
51
57.414694
0
ARC
8
DEFAULT_255_1_234
10
22.6041517
20
68.8439005
40
0.5322966
50
24.0982783
51
29.7323517
0
ARC
8
DEFAULT_255_1_234
10
22.5007792
20
68.8010399
40
0.6441673
50
8.6655297
51
23.8241346
0
ARC
8
DEFAULT_255_1_234
10
22.277353
20
68.7645854
40
0.8705386
50
359.7806941
51
8.8218784
0
ARC
8
DEFAULT_255_1_234
10
22.1626528
20
68.7671345
40
0.8318373
50
359.7055579
51
8.036044
0
ARC
8
DEFAULT_255_1_234
10
22.4626534
20
68.8108239
40
0.5286768
50
7.8928306
51
20.2962107
0
ARC
8
DEFAULT_255_1_234
10
22.6254105
20
68.8708395
40
0.3552073
50
20.3231126
51
36.4992797
0
ARC
8
DEFAULT_255_1_234
10
22.6939651
20
68.9236402
40
0.2686974
50
36.1437156
51
85.6627023
0
ARC
8
DEFAULT_255_1_234
10
22.6777197
20
68.8196221
40
0.373739
50
84.3852322
51
90.0757696
0
ARC
8
DEFAULT_255_1_234
10
22.6734869
20
68.8856839
40
0.3076997
50
89.3038458
51
109.9045693
0
ARC
8
DEFAULT_255_1_234
10
22.664226
20
68.9239062
40
0.2686424
50
110.8228367
51
143.9179474
0
ARC
8
DEFAULT_255_1_234
10
22.757592
20
68.8526236
40
0.3860887
50
143.5289163
51
163.2980757
0
ARC
8
DEFAULT_255_1_234
10
22.9483741
20
68.7926433
40
0.5860659
50
163.0418846
51
174.3140048
0
ARC
8
DEFAULT_255_1_234
10
23.1887853
20
68.7648854
40
0.8280531
50
174.0509143
51
179.4176892
0
ARC
8
DEFAULT_255_1_234
10
23.1383592
20
68.6831954
40
0.7775954
50
179.6930361
51
188.7906598
0
ARC
8
DEFAULT_255_1_234
10
22.8720071
20
68.6405935
40
0.5078633
50
188.6331305
51
202.5629587
0
ARC
8
DEFAULT_255_1_234
10
22.7465663
20
68.5901996
40
0.3726913
50
202.8081362
51
216.1193925
0
ARC
8
DEFAULT_255_1_234
10
22.6656233
20
68.5250676
40
0.2689577
50
215.0755913
51
264.6379694
0
ARC
8
DEFAULT_255_1_234
10
22.6783183
20
68.6081513
40
0.3528978
50
263.846392
51
270.0833719
0
ARC
8
DEFAULT_255_1_234
10
22.6824573
20
68.5823374
40
0.3271036
50
269.3649385
51
287.5152008
0
ARC
8
DEFAULT_255_1_234
10
22.7002731
20
68.5176238
40
0.2600406
50
288.0630309
51
323.8113348
0
ARC
8
DEFAULT_255_1_234
10
22.6131573
20
68.5826049
40
0.3687189
50
323.6547608
51
342.6590488
0
ARC
8
DEFAULT_255_1_234
10
22.4100188
20
68.6486952
40
0.5823286
50
342.4091907
51
353.6451149
0
ARC
8
DEFAULT_255_1_234
10
22.1268699
20
68.683919
40
0.8676442
50
353.4029884
51
359.4847795
0
LINE
8
DEFAULT_255_1_234
10
23.8972465
20
69.3106243
11
23.9237512
21
69.3106243
0
LINE
8
DEFAULT_255_1_234
10
23.9237512
20
69.3106243
11
23.9237512
21
69.184526
0
LINE
8
DEFAULT_255_1_234
10
23.9237512
20
69.184526
11
23.8964433
21
69.184526
0
LINE
8
DEFAULT_255_1_234
10
23.3494819
20
68.5853583
11
23.3494819
21
68.6423836
0
LINE
8
DEFAULT_255_1_234
10
23.4988723
20
68.6231075
11
23.4988723
21
68.5684917
0
ARC
8
DEFAULT_255_1_234
10
23.9016781
20
68.6847455
40
0.4998079
50
90.6001036
51
104.514704
0
ARC
8
DEFAULT_255_1_234
10
23.8628296
20
68.8292131
40
0.3502176
50
104.2855254
51
133.862935
0
ARC
8
DEFAULT_255_1_234
10
23.8792054
20
68.818383
40
0.3693984
50
134.5302688
51
161.6210873
0
ARC
8
DEFAULT_255_1_234
10
24.0445242
20
68.7600895
40
0.5446739
50
161.2849839
51
174.2076652
0
ARC
8
DEFAULT_255_1_234
10
24.185218
20
68.7406787
40
0.6866274
50
173.7810589
51
174.9254635
0
ARC
8
DEFAULT_255_1_234
10
23.7302012
20
68.6023839
40
0.3033419
50
95.8330959
51
138.9954921
0
ARC
8
DEFAULT_255_1_234
10
23.7525368
20
68.4745375
40
0.4328947
50
89.8753725
51
97.0544009
0
ARC
8
DEFAULT_255_1_234
10
23.7572834
20
68.5580748
40
0.3493769
50
71.6407809
51
90.6240094
0
ARC
8
DEFAULT_255_1_234
10
23.7723407
20
68.6135082
40
0.2920396
50
39.6367836
51
71.019018
0
ARC
8
DEFAULT_255_1_234
10
23.708688
20
68.5584998
40
0.3761538
50
10.658731
51
39.9043955
0
ARC
8
DEFAULT_255_1_234
10
23.5538963
20
68.5248686
40
0.5345136
50
359.682601
51
11.132623
0
ARC
8
DEFAULT_255_1_234
10
23.5499094
20
68.517801
40
0.5385081
50
347.2486944
51
0.4369317
0
ARC
8
DEFAULT_255_1_234
10
23.7166571
20
68.4776807
40
0.3670249
50
318.1409698
51
347.6118597
0
ARC
8
DEFAULT_255_1_234
10
23.7491564
20
68.4509702
40
0.3250007
50
275.6342139
51
317.8248465
0
ARC
8
DEFAULT_255_1_234
10
23.7270675
20
68.5809219
40
0.4565864
50
269.8874292
51
276.7917694
0
ARC
8
DEFAULT_255_1_234
10
23.7215746
20
68.4783743
40
0.3540676
50
246.9140195
51
270.7437342
0
ARC
8
DEFAULT_255_1_234
10
23.7222136
20
68.4641384
40
0.3412781
50
218.1665114
51
245.878116
0
ARC
8
DEFAULT_255_1_234
10
23.8101597
20
68.5377279
40
0.455911
50
191.4115814
51
218.6077802
0
ARC
8
DEFAULT_255_1_234
10
24.0039686
20
68.5811833
40
0.6545001
50
179.6345085
51
191.7836486
0
ARC
8
DEFAULT_255_1_234
10
24.5622023
20
68.6490697
40
1.2127388
50
171.4525249
51
180.3158839
0
ARC
8
DEFAULT_255_1_234
10
24.1226898
20
68.7174608
40
0.7679464
50
157.9802646
51
171.6246686
0
ARC
8
DEFAULT_255_1_234
10
23.9012919
20
68.8057421
40
0.5296008
50
141.4298019
51
157.854097
0
ARC
8
DEFAULT_255_1_234
10
23.837124
20
68.8511381
40
0.4511509
50
102.8715806
51
140.8564722
0
ARC
8
DEFAULT_255_1_234
10
23.9018856
20
68.6071552
40
0.7034845
50
90.3778349
51
103.5869322
0
ARC
8
DEFAULT_255_1_234
10
23.7280632
20
68.546673
40
0.2370698
50
89.8751008
51
126.2071704
0
ARC
8
DEFAULT_255_1_234
10
23.7326422
20
68.5312303
40
0.2522934
50
124.9745049
51
144.895901
0
ARC
8
DEFAULT_255_1_234
10
23.7150612
20
68.545556
40
0.2296779
50
145.2974905
51
160.2660252
0
ARC
8
DEFAULT_255_1_234
10
24.0223151
20
68.5653071
40
0.5234525
50
179.6514266
51
190.2855912
0
ARC
8
DEFAULT_255_1_234
10
23.8529288
20
68.5333786
40
0.3510893
50
190.0945431
51
207.5098196
0
ARC
8
DEFAULT_255_1_234
10
23.7963558
20
68.5064623
40
0.288489
50
207.9583163
51
216.3251085
0
ARC
8
DEFAULT_255_1_234
10
23.7623666
20
68.4785105
40
0.2445587
50
215.7661442
51
232.5456785
0
ARC
8
DEFAULT_255_1_234
10
23.7240649
20
68.4298482
40
0.1826382
50
232.8005391
51
270.6605633
0
ARC
8
DEFAULT_255_1_234
10
23.728635
20
68.4662612
40
0.2190529
50
269.35537
51
288.4744281
0
ARC
8
DEFAULT_255_1_234
10
23.7379247
20
68.4313118
40
0.1829749
50
289.1833337
51
322.9683818
0
ARC
8
DEFAULT_255_1_234
10
23.6767769
20
68.4795391
40
0.2608399
50
322.6007884
51
346.5182367
0
ARC
8
DEFAULT_255_1_234
10
23.5610365
20
68.5090616
40
0.3802777
50
346.2582162
51
358.7741648
0
ARC
8
DEFAULT_255_1_234
10
23.4592034
20
68.5145965
40
0.4822176
50
358.3755224
51
0.0098023
0
ARC
8
DEFAULT_255_1_234
10
23.5348221
20
68.5173657
40
0.4066078
50
359.6214041
51
11.2839074
0
ARC
8
DEFAULT_255_1_234
10
23.6625368
20
68.5440066
40
0.2761514
50
11.0482309
51
31.8146458
0
ARC
8
DEFAULT_255_1_234
10
23.6934411
20
68.5607584
40
0.2410679
50
32.3035391
51
38.082671
0
ARC
8
DEFAULT_255_1_234
10
23.7355071
20
68.5988662
40
0.1844966
50
36.825067
51
85.7415724
0
ARC
8
DEFAULT_255_1_234
10
23.7287904
20
68.5488301
40
0.2349122
50
85.0140713
51
90.0513278
0
LINE
8
DEFAULT_255_1_234
10
22.1795911
20
76.6987534
11
22.1795911
21
76.6248614
0
LINE
8
DEFAULT_255_1_234
10
21.2390745
20
76.6144201
11
21.2390745
21
76.6987534
0
LINE
8
DEFAULT_255_1_234
10
22.0261849
20
76.6136169
11
22.0261849
21
76.7003597
0
LINE
8
DEFAULT_255_1_234
10
21.3924807
20
76.710801
11
21.3924807
21
76.6248614
0
ARC
8
DEFAULT_255_1_234
10
21.3153937
20
76.6209015
40
0.8642064
50
350.487711
51
0.2625388
0
ARC
8
DEFAULT_255_1_234
10
21.5447178
20
76.5814578
40
0.631518
50
336.0277639
51
350.5787438
0
ARC
8
DEFAULT_255_1_234
10
21.6792002
20
76.5206892
40
0.4839466
50
319.8877444
51
336.1328423
0
ARC
8
DEFAULT_255_1_234
10
21.7394643
20
76.472458
40
0.4067874
50
302.4806467
51
319.6143626
0
ARC
8
DEFAULT_255_1_234
10
21.7279653
20
76.4946202
40
0.4316636
50
275.8195682
51
302.1884709
0
ARC
8
DEFAULT_255_1_234
10
21.7113286
20
76.6088665
40
0.5470306
50
269.9171439
51
276.3397983
0
ARC
8
DEFAULT_255_1_234
10
21.7068496
20
76.5402681
40
0.4784458
50
252.5219675
51
270.4416499
0
ARC
8
DEFAULT_255_1_234
10
21.6924755
20
76.4863592
40
0.422716
50
237.5352116
51
252.1857531
0
ARC
8
DEFAULT_255_1_234
10
21.7013951
20
76.4977363
40
0.4371052
50
209.063312
51
237.3492538
0
ARC
8
DEFAULT_255_1_234
10
21.7883799
20
76.5523685
40
0.5397041
50
205.1183774
51
209.6470015
0
ARC
8
DEFAULT_255_1_234
10
21.8680836
20
76.586183
40
0.6262326
50
188.7215458
51
204.8240747
0
ARC
8
DEFAULT_255_1_234
10
22.0678364
20
76.6198067
40
0.8287794
50
180.3723947
51
188.9252049
0
ARC
8
DEFAULT_255_1_234
10
22.0651116
20
76.7027402
40
0.8260467
50
169.5253763
51
180.2765336
0
ARC
8
DEFAULT_255_1_234
10
21.8748564
20
76.7377309
40
0.6326007
50
155.8315255
51
169.5089989
0
ARC
8
DEFAULT_255_1_234
10
21.7468066
20
76.7971348
40
0.4914567
50
139.6258461
51
156.0379525
0
ARC
8
DEFAULT_255_1_234
10
21.6878399
20
76.8445799
40
0.4158054
50
122.6416387
51
139.3430715
0
ARC
8
DEFAULT_255_1_234
10
21.6979019
20
76.8262451
40
0.4366739
50
93.0223692
51
122.455762
0
ARC
8
DEFAULT_255_1_234
10
21.7087016
20
76.7297709
40
0.5336137
50
89.975342
51
93.6341897
0
ARC
8
DEFAULT_255_1_234
10
21.7125795
20
76.7696242
40
0.4937738
50
73.746375
51
90.4233405
0
ARC
8
DEFAULT_255_1_234
10
21.7301373
20
76.8376287
40
0.4235786
50
57.662753
51
73.4518111
0
ARC
8
DEFAULT_255_1_234
10
21.729338
20
76.8397832
40
0.4221899
50
29.1440151
51
57.414694
0
ARC
8
DEFAULT_255_1_234
10
21.6358574
20
76.7814005
40
0.5322966
50
24.0982783
51
29.7323517
0
ARC
8
DEFAULT_255_1_234
10
21.532485
20
76.7385399
40
0.6441673
50
8.6655297
51
23.8241346
0
ARC
8
DEFAULT_255_1_234
10
21.3090588
20
76.7020854
40
0.8705386
50
359.7806941
51
8.8218784
0
ARC
8
DEFAULT_255_1_234
10
21.1943586
20
76.7046345
40
0.8318373
50
359.7055579
51
8.036044
0
ARC
8
DEFAULT_255_1_234
10
21.4943592
20
76.7483239
40
0.5286768
50
7.8928306
51
20.2962107
0
ARC
8
DEFAULT_255_1_234
10
21.6571162
20
76.8083395
40
0.3552073
50
20.3231126
51
36.4992797
0
ARC
8
DEFAULT_255_1_234
10
21.7256708
20
76.8611402
40
0.2686974
50
36.1437156
51
85.6627023
0
ARC
8
DEFAULT_255_1_234
10
21.7094254
20
76.7571221
40
0.373739
50
84.3852322
51
90.0757696
0
ARC
8
DEFAULT_255_1_234
10
21.7051927
20
76.8231839
40
0.3076997
50
89.3038458
51
109.9045693
0
ARC
8
DEFAULT_255_1_234
10
21.6959318
20
76.8614062
40
0.2686424
50
110.8228367
51
143.9179474
0
ARC
8
DEFAULT_255_1_234
10
21.7892978
20
76.7901236
40
0.3860887
50
143.5289163
51
163.2980757
0
ARC
8
DEFAULT_255_1_234
10
21.9800799
20
76.7301433
40
0.5860659
50
163.0418846
51
174.3140048
0
ARC
8
DEFAULT_255_1_234
10
22.2204911
20
76.7023854
40
0.8280531
50
174.0509143
51
179.4176892
0
ARC
8
DEFAULT_255_1_234
10
22.170065
20
76.6206954
40
0.7775954
50
179.6930361
51
188.7906598
0
ARC
8
DEFAULT_255_1_234
10
21.9037129
20
76.5780935
40
0.5078633
50
188.6331305
51
202.5629587
0
ARC
8
DEFAULT_255_1_234
10
21.7782721
20
76.5276996
40
0.3726913
50
202.8081362
51
216.1193925
0
ARC
8
DEFAULT_255_1_234
10
21.6973291
20
76.4625676
40
0.2689577
50
215.0755913
51
264.6379694
0
ARC
8
DEFAULT_255_1_234
10
21.710024
20
76.5456513
40
0.3528978
50
263.846392
51
270.0833719
0
ARC
8
DEFAULT_255_1_234
10
21.7141631
20
76.5198374
40
0.3271036
50
269.3649385
51
287.5152008
0
ARC
8
DEFAULT_255_1_234
10
21.7319788
20
76.4551238
40
0.2600406
50
288.0630309
51
323.8113348
0
ARC
8
DEFAULT_255_1_234
10
21.644863
20
76.5201049
40
0.3687189
50
323.6547608
51
342.6590488
0
ARC
8
DEFAULT_255_1_234
10
21.4417245
20
76.5861952
40
0.5823286
50
342.4091907
51
353.6451149
0
ARC
8
DEFAULT_255_1_234
10
21.1585756
20
76.621419
40
0.8676442
50
353.4029884
51
359.4847795
0
LINE
8
DEFAULT_255_1_234
10
23.1160917
20
76.4489663
11
23.2711043
21
76.4489663
0
LINE
8
DEFAULT_255_1_234
10
22.3707464
20
76.6079947
11
22.3707464
21
76.7204391
0
LINE
8
DEFAULT_255_1_234
10
23.2711043
20
76.8714357
11
23.1160917
21
76.8714357
0
LINE
8
DEFAULT_255_1_234
10
22.525759
20
76.7164232
11
22.525759
21
76.6031757
0
ARC
8
DEFAULT_255_1_234
10
22.723043
20
76.5086846
40
0.5513052
50
340.1774281
51
353.7814284
0
ARC
8
DEFAULT_255_1_234
10
22.8801782
20
76.4501582
40
0.3836379
50
311.4558989
51
340.4421614
0
ARC
8
DEFAULT_255_1_234
10
22.876845
20
76.4612528
40
0.3941894
50
282.4333181
51
310.7513653
0
ARC
8
DEFAULT_255_1_234
10
22.832919
20
76.6427679
40
0.5809175
50
269.9358511
51
282.809604
0
ARC
8
DEFAULT_255_1_234
10
22.8277256
20
76.7885212
40
0.7266847
50
270.0021091
51
270.3581957
0
ARC
8
DEFAULT_255_1_234
10
22.8224673
20
76.5284585
40
0.4666519
50
250.7884749
51
270.6489167
0
ARC
8
DEFAULT_255_1_234
10
22.8056507
20
76.4647319
40
0.4009729
50
219.3627325
51
250.0611886
0
ARC
8
DEFAULT_255_1_234
10
22.8885719
20
76.5352042
40
0.5097822
50
193.5479632
51
219.5756669
0
ARC
8
DEFAULT_255_1_234
10
23.1257339
20
76.5967919
40
0.7547848
50
181.1218675
51
193.87563
0
ARC
8
DEFAULT_255_1_234
10
23.332752
20
76.607858
40
0.9620055
50
179.9918545
51
181.5394234
0
ARC
8
DEFAULT_255_1_234
10
23.1476622
20
76.7241788
40
0.7769248
50
169.5837241
51
180.2757934
0
ARC
8
DEFAULT_255_1_234
10
22.9639561
20
76.7581229
40
0.590109
50
155.0365899
51
169.6003176
0
ARC
8
DEFAULT_255_1_234
10
22.8504024
20
76.8128677
40
0.4640625
50
136.783148
51
155.2472683
0
ARC
8
DEFAULT_255_1_234
10
22.8114501
20
76.8459562
40
0.4130255
50
121.7633186
51
136.428115
0
ARC
8
DEFAULT_255_1_234
10
22.8249464
20
76.8210227
40
0.4413323
50
95.6459699
51
121.5490577
0
ARC
8
DEFAULT_255_1_234
10
22.8406745
20
76.7101949
40
0.55319
50
89.924208
51
96.1377933
0
ARC
8
DEFAULT_255_1_234
10
22.8457178
20
76.7220542
40
0.5413475
50
76.6779277
51
90.4563316
0
ARC
8
DEFAULT_255_1_234
10
22.8850802
20
76.8811114
40
0.3775041
50
47.485847
51
76.9287264
0
ARC
8
DEFAULT_255_1_234
10
22.8703774
20
76.8711159
40
0.3948286
50
16.5424086
51
46.8933463
0
ARC
8
DEFAULT_255_1_234
10
22.7095931
20
76.8182861
40
0.564021
50
5.4072051
51
17.0365086
0
ARC
8
DEFAULT_255_1_234
10
22.5656949
20
76.7951679
40
0.5556559
50
7.8891745
51
15.9239216
0
ARC
8
DEFAULT_255_1_234
10
22.7643962
20
76.8528631
40
0.3487515
50
15.7653144
51
27.9410532
0
ARC
8
DEFAULT_255_1_234
10
22.874818
20
76.911979
40
0.2235026
50
27.8166557
51
46.4008329
0
ARC
8
DEFAULT_255_1_234
10
22.8797823
20
76.9114082
40
0.2205286
50
47.4371857
51
75.0698205
0
ARC
8
DEFAULT_255_1_234
10
22.8489217
20
76.8039765
40
0.3322915
50
74.7008593
51
87.8124495
0
ARC
8
DEFAULT_255_1_234
10
22.8415905
20
76.6983844
40
0.4380987
50
87.3814673
51
90.0240855
0
ARC
8
DEFAULT_255_1_234
10
22.8377448
20
76.8161291
40
0.3203749
50
89.3451631
51
108.5745436
0
ARC
8
DEFAULT_255_1_234
10
22.8240553
20
76.8674908
40
0.2673494
50
109.2998449
51
143.3037509
0
ARC
8
DEFAULT_255_1_234
10
22.9002626
20
76.8088881
40
0.3634757
50
143.0753173
51
163.1916937
0
ARC
8
DEFAULT_255_1_234
10
23.0954353
20
76.7472967
40
0.5681262
50
162.9373603
51
174.6208611
0
ARC
8
DEFAULT_255_1_234
10
23.3580396
20
76.718501
40
0.8322832
50
174.3419979
51
180.1430411
0
ARC
8
DEFAULT_255_1_234
10
23.2649552
20
76.5990698
40
0.7392076
50
179.6817502
51
189.150529
0
ARC
8
DEFAULT_255_1_234
10
23.01488
20
76.557419
40
0.4856932
50
188.9910863
51
203.5773039
0
ARC
8
DEFAULT_255_1_234
10
22.9069133
20
76.5126211
40
0.3688271
50
203.9077269
51
215.1312379
0
ARC
8
DEFAULT_255_1_234
10
22.8146226
20
76.4410941
40
0.2522457
50
213.9071664
51
263.8849284
0
ARC
8
DEFAULT_255_1_234
10
22.8271556
20
76.5195518
40
0.3316174
50
263.1758525
51
270.1031083
0
ARC
8
DEFAULT_255_1_234
10
22.8303647
20
76.6442365
40
0.4563091
50
269.6719807
51
279.0609165
0
ARC
8
DEFAULT_255_1_234
10
22.8570415
20
76.4829907
40
0.2928759
50
278.8750225
51
293.6346586
0
ARC
8
DEFAULT_255_1_234
10
22.8890624
20
76.40779
40
0.2111472
50
293.8553404
51
310.0518804
0
ARC
8
DEFAULT_255_1_234
10
22.8895477
20
76.4015516
40
0.2060917
50
311.0646779
51
332.0108348
0
ARC
8
DEFAULT_255_1_234
10
22.7703204
20
76.4672978
40
0.3422352
50
331.6588543
51
343.2878891
0
ARC
8
DEFAULT_255_1_234
10
22.5640719
20
76.5306798
40
0.5580003
50
343.1446044
51
351.010618
0
ARC
8
DEFAULT_255_1_234
10
22.4099365
20
76.5587871
40
0.7146438
50
350.7157277
51
351.1602153
0
LINE
8
DEFAULT_255_1_234
10
23.999583
20
77.2481243
11
24.0260877
21
77.2481243
0
LINE
8
DEFAULT_255_1_234
10
24.0260877
20
77.2481243
11
24.0260877
21
77.122026
0
LINE
8
DEFAULT_255_1_234
10
24.0260877
20
77.122026
11
23.9987798
21
77.122026
0
LINE
8
DEFAULT_255_1_234
10
23.4518184
20
76.5228583
11
23.4518184
21
76.5798836
0
LINE
8
DEFAULT_255_1_234
10
23.6012087
20
76.5606075
11
23.6012087
21
76.5059917
0
ARC
8
DEFAULT_255_1_234
10
24.0040146
20
76.6222455
40
0.4998079
50
90.6001036
51
104.514704
0
ARC
8
DEFAULT_255_1_234
10
23.9651661
20
76.7667131
40
0.3502176
50
104.2855254
51
133.862935
0
ARC
8
DEFAULT_255_1_234
10
23.9815419
20
76.755883
40
0.3693984
50
134.5302688
51
161.6210873
0
ARC
8
DEFAULT_255_1_234
10
24.1468607
20
76.6975895
40
0.5446739
50
161.2849839
51
174.2076652
0
ARC
8
DEFAULT_255_1_234
10
24.2875544
20
76.6781787
40
0.6866274
50
173.7810589
51
174.9254635
0
ARC
8
DEFAULT_255_1_234
10
23.8325376
20
76.5398839
40
0.3033419
50
95.8330959
51
138.9954921
0
ARC
8
DEFAULT_255_1_234
10
23.8548732
20
76.4120375
40
0.4328947
50
89.8753725
51
97.0544009
0
ARC
8
DEFAULT_255_1_234
10
23.8596198
20
76.4955748
40
0.3493769
50
71.6407809
51
90.6240094
0
ARC
8
DEFAULT_255_1_234
10
23.8746772
20
76.5510082
40
0.2920396
50
39.6367836
51
71.019018
0
ARC
8
DEFAULT_255_1_234
10
23.8110245
20
76.4959998
40
0.3761538
50
10.658731
51
39.9043955
0
ARC
8
DEFAULT_255_1_234
10
23.6562328
20
76.4623686
40
0.5345136
50
359.682601
51
11.132623
0
ARC
8
DEFAULT_255_1_234
10
23.6522459
20
76.455301
40
0.5385081
50
347.2486944
51
0.4369317
0
ARC
8
DEFAULT_255_1_234
10
23.8189936
20
76.4151807
40
0.3670249
50
318.1409698
51
347.6118597
0
ARC
8
DEFAULT_255_1_234
10
23.8514929
20
76.3884702
40
0.3250007
50
275.6342139
51
317.8248465
0
ARC
8
DEFAULT_255_1_234
10
23.829404
20
76.5184219
40
0.4565864
50
269.8874292
51
276.7917694
0
ARC
8
DEFAULT_255_1_234
10
23.823911
20
76.4158743
40
0.3540676
50
246.9140195
51
270.7437342
0
ARC
8
DEFAULT_255_1_234
10
23.8245501
20
76.4016384
40
0.3412781
50
218.1665114
51
245.878116
0
ARC
8
DEFAULT_255_1_234
10
23.9124962
20
76.4752279
40
0.455911
50
191.4115814
51
218.6077802
0
ARC
8
DEFAULT_255_1_234
10
24.1063051
20
76.5186833
40
0.6545001
50
179.6345085
51
191.7836486
0
ARC
8
DEFAULT_255_1_234
10
24.6645388
20
76.5865697
40
1.2127388
50
171.4525249
51
180.3158839
0
ARC
8
DEFAULT_255_1_234
10
24.2250263
20
76.6549608
40
0.7679464
50
157.9802646
51
171.6246686
0
ARC
8
DEFAULT_255_1_234
10
24.0036284
20
76.7432421
40
0.5296008
50
141.4298019
51
157.854097
0
ARC
8
DEFAULT_255_1_234
10
23.9394605
20
76.7886381
40
0.4511509
50
102.8715806
51
140.8564722
0
ARC
8
DEFAULT_255_1_234
10
24.004222
20
76.5446552
40
0.7034845
50
90.3778349
51
103.5869322
0
ARC
8
DEFAULT_255_1_234
10
23.8303997
20
76.484173
40
0.2370698
50
89.8751008
51
126.2071704
0
ARC
8
DEFAULT_255_1_234
10
23.8349786
20
76.4687303
40
0.2522934
50
124.9745049
51
144.895901
0
ARC
8
DEFAULT_255_1_234
10
23.8173977
20
76.483056
40
0.2296779
50
145.2974905
51
160.2660252
0
ARC
8
DEFAULT_255_1_234
10
24.1246516
20
76.5028071
40
0.5234525
50
179.6514266
51
190.2855912
0
ARC
8
DEFAULT_255_1_234
10
23.9552653
20
76.4708786
40
0.3510893
50
190.0945431
51
207.5098196
0
ARC
8
DEFAULT_255_1_234
10
23.8986923
20
76.4439623
40
0.288489
50
207.9583163
51
216.3251085
0
ARC
8
DEFAULT_255_1_234
10
23.8647031
20
76.4160105
40
0.2445587
50
215.7661442
51
232.5456785
0
ARC
8
DEFAULT_255_1_234
10
23.8264013
20
76.3673482
40
0.1826382
50
232.8005391
51
270.6605633
0
ARC
8
DEFAULT_255_1_234
10
23.8309714
20
76.4037612
40
0.2190529
50
269.35537
51
288.4744281
0
ARC
8
DEFAULT_255_1_234
10
23.8402611
20
76.3688118
40
0.1829749
50
289.1833337
51
322.9683818
0
ARC
8
DEFAULT_255_1_234
10
23.7791134
20
76.4170391
40
0.2608399
50
322.6007884
51
346.5182367
0
ARC
8
DEFAULT_255_1_234
10
23.663373
20
76.4465616
40
0.3802777
50
346.2582162
51
358.7741648
0
ARC
8
DEFAULT_255_1_234
10
23.5615399
20
76.4520965
40
0.4822176
50
358.3755224
51
0.0098023
0
ARC
8
DEFAULT_255_1_234
10
23.6371586
20
76.4548657
40
0.4066078
50
359.6214041
51
11.2839074
0
ARC
8
DEFAULT_255_1_234
10
23.7648733
20
76.4815066
40
0.2761514
50
11.0482309
51
31.8146458
0
ARC
8
DEFAULT_255_1_234
10
23.7957776
20
76.4982584
40
0.2410679
50
32.3035391
51
38.082671
0
ARC
8
DEFAULT_255_1_234
10
23.8378435
20
76.5363662
40
0.1844966
50
36.825067
51
85.7415724
0
ARC
8
DEFAULT_255_1_234
10
23.8311269
20
76.4863301
40
0.2349122
50
85.0140713
51
90.0513278
0
LINE
8
DEFAULT_255_1_234
10
22.1084902
20
85.1848211
11
22.1084902
21
84.0154
0
LINE
8
DEFAULT_255_1_234
10
22.1084902
20
84.0154
11
21.9542808
21
84.0154
0
LINE
8
DEFAULT_255_1_234
10
21.9542808
20
84.0154
11
21.9542808
21
85.1848211
0
LINE
8
DEFAULT_255_1_234
10
21.9542808
20
85.1848211
11
22.1084902
21
85.1848211
0
LINE
8
DEFAULT_255_1_234
10
23.2899589
20
84.6362534
11
23.2899589
21
84.5623614
0
LINE
8
DEFAULT_255_1_234
10
22.3494423
20
84.5519201
11
22.3494423
21
84.6362534
0
LINE
8
DEFAULT_255_1_234
10
23.1365527
20
84.5511169
11
23.1365527
21
84.6378597
0
LINE
8
DEFAULT_255_1_234
10
22.5028485
20
84.648301
11
22.5028485
21
84.5623614
0
ARC
8
DEFAULT_255_1_234
10
22.4257615
20
84.5584015
40
0.8642064
50
350.487711
51
0.2625388
0
ARC
8
DEFAULT_255_1_234
10
22.6550857
20
84.5189578
40
0.631518
50
336.0277639
51
350.5787438
0
ARC
8
DEFAULT_255_1_234
10
22.789568
20
84.4581892
40
0.4839466
50
319.8877444
51
336.1328423
0
ARC
8
DEFAULT_255_1_234
10
22.8498321
20
84.409958
40
0.4067874
50
302.4806467
51
319.6143626
0
ARC
8
DEFAULT_255_1_234
10
22.8383331
20
84.4321202
40
0.4316636
50
275.8195682
51
302.1884709
0
ARC
8
DEFAULT_255_1_234
10
22.8216964
20
84.5463665
40
0.5470306
50
269.9171439
51
276.3397983
0
ARC
8
DEFAULT_255_1_234
10
22.8172174
20
84.4777681
40
0.4784458
50
252.5219675
51
270.4416499
0
ARC
8
DEFAULT_255_1_234
10
22.8028433
20
84.4238592
40
0.422716
50
237.5352116
51
252.1857531
0
ARC
8
DEFAULT_255_1_234
10
22.8117629
20
84.4352363
40
0.4371052
50
209.063312
51
237.3492538
0
ARC
8
DEFAULT_255_1_234
10
22.8987477
20
84.4898685
40
0.5397041
50
205.1183774
51
209.6470015
0
ARC
8
DEFAULT_255_1_234
10
22.9784514
20
84.523683
40
0.6262326
50
188.7215458
51
204.8240747
0
ARC
8
DEFAULT_255_1_234
10
23.1782042
20
84.5573067
40
0.8287794
50
180.3723947
51
188.9252049
0
ARC
8
DEFAULT_255_1_234
10
23.1754794
20
84.6402402
40
0.8260467
50
169.5253763
51
180.2765336
0
ARC
8
DEFAULT_255_1_234
10
22.9852243
20
84.6752309
40
0.6326007
50
155.8315255
51
169.5089989
0
ARC
8
DEFAULT_255_1_234
10
22.8571744
20
84.7346348
40
0.4914567
50
139.6258461
51
156.0379525
0
ARC
8
DEFAULT_255_1_234
10
22.7982077
20
84.7820799
40
0.4158054
50
122.6416387
51
139.3430715
0
ARC
8
DEFAULT_255_1_234
10
22.8082697
20
84.7637451
40
0.4366739
50
93.0223692
51
122.455762
0
ARC
8
DEFAULT_255_1_234
10
22.8190694
20
84.6672709
40
0.5336137
50
89.975342
51
93.6341897
0
ARC
8
DEFAULT_255_1_234
10
22.8229473
20
84.7071242
40
0.4937738
50
73.746375
51
90.4233405
0
ARC
8
DEFAULT_255_1_234
10
22.8405052
20
84.7751287
40
0.4235786
50
57.662753
51
73.4518111
0
ARC
8
DEFAULT_255_1_234
10
22.8397058
20
84.7772832
40
0.4221899
50
29.1440151
51
57.414694
0
ARC
8
DEFAULT_255_1_234
10
22.7462253
20
84.7189005
40
0.5322966
50
24.0982783
51
29.7323517
0
ARC
8
DEFAULT_255_1_234
10
22.6428528
20
84.6760399
40
0.6441673
50
8.6655297
51
23.8241346
0
ARC
8
DEFAULT_255_1_234
10
22.4194266
20
84.6395854
40
0.8705386
50
359.7806941
51
8.8218784
0
ARC
8
DEFAULT_255_1_234
10
22.3047264
20
84.6421345
40
0.8318373
50
359.7055579
51
8.036044
0
ARC
8
DEFAULT_255_1_234
10
22.604727
20
84.6858239
40
0.5286768
50
7.8928306
51
20.2962107
0
ARC
8
DEFAULT_255_1_234
10
22.7674841
20
84.7458395
40
0.3552073
50
20.3231126
51
36.4992797
0
ARC
8
DEFAULT_255_1_234
10
22.8360387
20
84.7986402
40
0.2686974
50
36.1437156
51
85.6627023
0
ARC
8
DEFAULT_255_1_234
10
22.8197933
20
84.6946221
40
0.373739
50
84.3852322
51
90.0757696
0
ARC
8
DEFAULT_255_1_234
10
22.8155605
20
84.7606839
40
0.3076997
50
89.3038458
51
109.9045693
0
ARC
8
DEFAULT_255_1_234
10
22.8062996
20
84.7989062
40
0.2686424
50
110.8228367
51
143.9179474
0
ARC
8
DEFAULT_255_1_234
10
22.8996656
20
84.7276236
40
0.3860887
50
143.5289163
51
163.2980757
0
ARC
8
DEFAULT_255_1_234
10
23.0904477
20
84.6676433
40
0.5860659
50
163.0418846
51
174.3140048
0
ARC
8
DEFAULT_255_1_234
10
23.3308589
20
84.6398854
40
0.8280531
50
174.0509143
51
179.4176892
0
ARC
8
DEFAULT_255_1_234
10
23.2804328
20
84.5581954
40
0.7775954
50
179.6930361
51
188.7906598
0
ARC
8
DEFAULT_255_1_234
10
23.0140807
20
84.5155935
40
0.5078633
50
188.6331305
51
202.5629587
0
ARC
8
DEFAULT_255_1_234
10
22.8886399
20
84.4651996
40
0.3726913
50
202.8081362
51
216.1193925
0
ARC
8
DEFAULT_255_1_234
10
22.8076969
20
84.4000676
40
0.2689577
50
215.0755913
51
264.6379694
0
ARC
8
DEFAULT_255_1_234
10
22.8203919
20
84.4831513
40
0.3528978
50
263.846392
51
270.0833719
0
ARC
8
DEFAULT_255_1_234
10
22.8245309
20
84.4573374
40
0.3271036
50
269.3649385
51
287.5152008
0
ARC
8
DEFAULT_255_1_234
10
22.8423467
20
84.3926238
40
0.2600406
50
288.0630309
51
323.8113348
0
ARC
8
DEFAULT_255_1_234
10
22.7552309
20
84.4576049
40
0.3687189
50
323.6547608
51
342.6590488
0
ARC
8
DEFAULT_255_1_234
10
22.5520924
20
84.5236952
40
0.5823286
50
342.4091907
51
353.6451149
0
ARC
8
DEFAULT_255_1_234
10
22.2689434
20
84.558919
40
0.8676442
50
353.4029884
51
359.4847795
0
LINE
8
DEFAULT_255_1_234
10
24.0393201
20
85.1856243
11
24.0658248
21
85.1856243
0
LINE
8
DEFAULT_255_1_234
10
24.0658248
20
85.1856243
11
24.0658248
21
85.059526
0
LINE
8
DEFAULT_255_1_234
10
24.0658248
20
85.059526
11
24.0385169
21
85.059526
0
LINE
8
DEFAULT_255_1_234
10
23.4915555
20
84.4603583
11
23.4915555
21
84.5173836
0
LINE
8
DEFAULT_255_1_234
10
23.6409458
20
84.4981075
11
23.6409458
21
84.4434917
0
ARC
8
DEFAULT_255_1_234
10
24.0437517
20
84.5597455
40
0.4998079
50
90.6001036
51
104.514704
0
ARC
8
DEFAULT_255_1_234
10
24.0049032
20
84.7042131
40
0.3502176
50
104.2855254
51
133.862935
0
ARC
8
DEFAULT_255_1_234
10
24.021279
20
84.693383
40
0.3693984
50
134.5302688
51
161.6210873
0
ARC
8
DEFAULT_255_1_234
10
24.1865978
20
84.6350895
40
0.5446739
50
161.2849839
51
174.2076652
0
ARC
8
DEFAULT_255_1_234
10
24.3272915
20
84.6156787
40
0.6866274
50
173.7810589
51
174.9254635
0
ARC
8
DEFAULT_255_1_234
10
23.8722747
20
84.4773839
40
0.3033419
50
95.8330959
51
138.9954921
0
ARC
8
DEFAULT_255_1_234
10
23.8946103
20
84.3495375
40
0.4328947
50
89.8753725
51
97.0544009
0
ARC
8
DEFAULT_255_1_234
10
23.8993569
20
84.4330748
40
0.3493769
50
71.6407809
51
90.6240094
0
ARC
8
DEFAULT_255_1_234
10
23.9144143
20
84.4885082
40
0.2920396
50
39.6367836
51
71.019018
0
ARC
8
DEFAULT_255_1_234
10
23.8507616
20
84.4334998
40
0.3761538
50
10.658731
51
39.9043955
0
ARC
8
DEFAULT_255_1_234
10
23.6959699
20
84.3998686
40
0.5345136
50
359.682601
51
11.132623
0
ARC
8
DEFAULT_255_1_234
10
23.691983
20
84.392801
40
0.5385081
50
347.2486944
51
0.4369317
0
ARC
8
DEFAULT_255_1_234
10
23.8587307
20
84.3526807
40
0.3670249
50
318.1409698
51
347.6118597
0
ARC
8
DEFAULT_255_1_234
10
23.89123
20
84.3259702
40
0.3250007
50
275.6342139
51
317.8248465
0
ARC
8
DEFAULT_255_1_234
10
23.8691411
20
84.4559219
40
0.4565864
50
269.8874292
51
276.7917694
0
ARC
8
DEFAULT_255_1_234
10
23.8636482
20
84.3533743
40
0.3540676
50
246.9140195
51
270.7437342
0
ARC
8
DEFAULT_255_1_234
10
23.8642872
20
84.3391384
40
0.3412781
50
218.1665114
51
245.878116
0
ARC
8
DEFAULT_255_1_234
10
23.9522333
20
84.4127279
40
0.455911
50
191.4115814
51
218.6077802
0
ARC
8
DEFAULT_255_1_234
10
24.1460422
20
84.4561833
40
0.6545001
50
179.6345085
51
191.7836486
0
ARC
8
DEFAULT_255_1_234
10
24.7042759
20
84.5240697
40
1.2127388
50
171.4525249
51
180.3158839
0
ARC
8
DEFAULT_255_1_234
10
24.2647634
20
84.5924608
40
0.7679464
50
157.9802646
51
171.6246686
0
ARC
8
DEFAULT_255_1_234
10
24.0433655
20
84.6807421
40
0.5296008
50
141.4298019
51
157.854097
0
ARC
8
DEFAULT_255_1_234
10
23.9791976
20
84.7261381
40
0.4511509
50
102.8715806
51
140.8564722
0
ARC
8
DEFAULT_255_1_234
10
24.0439591
20
84.4821552
40
0.7034845
50
90.3778349
51
103.5869322
0
ARC
8
DEFAULT_255_1_234
10
23.8701368
20
84.421673
40
0.2370698
50
89.8751008
51
126.2071704
0
ARC
8
DEFAULT_255_1_234
10
23.8747157
20
84.4062303
40
0.2522934
50
124.9745049
51
144.895901
0
ARC
8
DEFAULT_255_1_234
10
23.8571348
20
84.420556
40
0.2296779
50
145.2974905
51
160.2660252
0
ARC
8
DEFAULT_255_1_234
10
24.1643887
20
84.4403071
40
0.5234525
50
179.6514266
51
190.2855912
0
ARC
8
DEFAULT_255_1_234
10
23.9950024
20
84.4083786
40
0.3510893
50
190.0945431
51
207.5098196
0
ARC
8
DEFAULT_255_1_234
10
23.9384294
20
84.3814623
40
0.288489
50
207.9583163
51
216.3251085
0
ARC
8
DEFAULT_255_1_234
10
23.9044402
20
84.3535105
40
0.2445587
50
215.7661442
51
232.5456785
0
ARC
8
DEFAULT_255_1_234
10
23.8661385
20
84.3048482
40
0.1826382
50
232.8005391
51
270.6605633
0
ARC
8
DEFAULT_255_1_234
10
23.8707085
20
84.3412612
40
0.2190529
50
269.35537
51
288.4744281
0
ARC
8
DEFAULT_255_1_234
10
23.8799983
20
84.3063118
40
0.1829749
50
289.1833337
51
322.9683818
0
ARC
8
DEFAULT_255_1_234
10
23.8188505
20
84.3545391
40
0.2608399
50
322.6007884
51
346.5182367
0
ARC
8
DEFAULT_255_1_234
10
23.7031101
20
84.3840616
40
0.3802777
50
346.2582162
51
358.7741648
0
ARC
8
DEFAULT_255_1_234
10
23.601277
20
84.3895965
40
0.4822176
50
358.3755224
51
0.0098023
0
ARC
8
DEFAULT_255_1_234
10
23.6768957
20
84.3923657
40
0.4066078
50
359.6214041
51
11.2839074
0
ARC
8
DEFAULT_255_1_234
10
23.8046104
20
84.4190066
40
0.2761514
50
11.0482309
51
31.8146458
0
ARC
8
DEFAULT_255_1_234
10
23.8355147
20
84.4357584
40
0.2410679
50
32.3035391
51
38.082671
0
ARC
8
DEFAULT_255_1_234
10
23.8775807
20
84.4738662
40
0.1844966
50
36.825067
51
85.7415724
0
ARC
8
DEFAULT_255_1_234
10
23.870864
20
84.4238301
40
0.2349122
50
85.0140713
51
90.0513278
0
LINE
8
DEFAULT_255_1_234
10
21.8641482
20
92.535201
11
21.8641482
21
92.1063062
0
LINE
8
DEFAULT_255_1_234
10
20.9629872
20
92.4813884
11
20.9629872
21
92.5833915
0
LINE
8
DEFAULT_255_1_234
10
21.8641482
20
92.7793659
11
21.7099389
21
92.7793659
0
LINE
8
DEFAULT_255_1_234
10
21.1179998
20
92.5874073
11
21.1179998
21
92.4918296
0
LINE
8
DEFAULT_255_1_234
10
21.710742
20
92.1472681
11
21.710742
21
92.4099059
0
LINE
8
DEFAULT_255_1_234
10
21.710742
20
92.4099059
11
21.4400725
21
92.4099059
0
LINE
8
DEFAULT_255_1_234
10
21.4400725
20
92.4099059
11
21.4400725
21
92.535201
0
LINE
8
DEFAULT_255_1_234
10
21.4400725
20
92.535201
11
21.8641482
21
92.535201
0
ARC
8
DEFAULT_255_1_234
10
21.5809989
20
92.3056396
40
0.3462765
50
295.8437914
51
324.8549609
0
ARC
8
DEFAULT_255_1_234
10
21.5393956
20
92.3809567
40
0.4322211
50
291.5695085
51
296.4549398
0
ARC
8
DEFAULT_255_1_234
10
21.4883207
20
92.5174275
40
0.5779178
50
278.6622409
51
291.3045483
0
ARC
8
DEFAULT_255_1_234
10
21.4543699
20
92.7322408
40
0.7953952
50
270.020006
51
278.7494541
0
ARC
8
DEFAULT_255_1_234
10
21.4505623
20
92.8639036
40
0.927067
50
269.9969998
51
270.2524872
0
ARC
8
DEFAULT_255_1_234
10
21.4467336
20
92.4555589
40
0.5187361
50
253.5786322
51
270.4175299
0
ARC
8
DEFAULT_255_1_234
10
21.4293992
20
92.3884236
40
0.4494451
50
238.8203306
51
253.2788235
0
ARC
8
DEFAULT_255_1_234
10
21.4274365
20
92.3833231
40
0.4440665
50
206.7883783
51
238.6962764
0
ARC
8
DEFAULT_255_1_234
10
21.5048275
20
92.4297405
40
0.5341121
50
206.1129412
51
207.4916643
0
ARC
8
DEFAULT_255_1_234
10
21.564519
20
92.4551488
40
0.5989041
50
188.6921119
51
205.7821245
0
ARC
8
DEFAULT_255_1_234
10
21.7501552
20
92.486723
40
0.7871862
50
180.3882829
51
188.9219216
0
ARC
8
DEFAULT_255_1_234
10
21.8729366
20
92.5890464
40
0.909967
50
170.2024264
51
180.3560651
0
ARC
8
DEFAULT_255_1_234
10
21.5565884
20
92.6456237
40
0.5886083
50
154.2857445
51
170.3893044
0
ARC
8
DEFAULT_255_1_234
10
21.4284087
20
92.704295
40
0.4476743
50
139.8401567
51
153.9332699
0
ARC
8
DEFAULT_255_1_234
10
21.3924823
20
92.7330577
40
0.4016697
50
98.4190291
51
139.6707122
0
ARC
8
DEFAULT_255_1_234
10
21.4304341
20
92.5485328
40
0.5898566
50
89.7659205
51
99.4415478
0
ARC
8
DEFAULT_255_1_234
10
21.436959
20
92.5550844
40
0.5833147
50
78.0551672
51
90.4042112
0
ARC
8
DEFAULT_255_1_234
10
21.47741
20
92.7369644
40
0.3970055
50
54.6380464
51
78.3339173
0
ARC
8
DEFAULT_255_1_234
10
21.4964156
20
92.7689795
40
0.3599102
50
50.031736
51
54.1558201
0
ARC
8
DEFAULT_255_1_234
10
21.4856944
20
92.7593766
40
0.3741624
50
18.1092409
51
49.7180913
0
ARC
8
DEFAULT_255_1_234
10
21.3400144
20
92.7060089
40
0.5292424
50
7.9672797
51
18.6984571
0
ARC
8
DEFAULT_255_1_234
10
21.3550622
20
92.7183504
40
0.3600838
50
9.7557294
51
27.3215714
0
ARC
8
DEFAULT_255_1_234
10
21.4678094
20
92.7746912
40
0.2340608
50
27.7361077
51
84.5257964
0
ARC
8
DEFAULT_255_1_234
10
21.4350481
20
92.610364
40
0.4011215
50
82.106034
51
90.2001166
0
ARC
8
DEFAULT_255_1_234
10
21.4300698
20
92.6611215
40
0.3503799
50
89.4150119
51
105.5823402
0
ARC
8
DEFAULT_255_1_234
10
21.4043696
20
92.7546867
40
0.2533503
50
105.6678618
51
144.2648758
0
ARC
8
DEFAULT_255_1_234
10
21.4936951
20
92.6911289
40
0.3629787
50
144.3561283
51
162.8564086
0
ARC
8
DEFAULT_255_1_234
10
21.702086
20
92.6242017
40
0.5818441
50
162.6076014
51
173.6780284
0
ARC
8
DEFAULT_255_1_234
10
22.0082004
20
92.586989
40
0.8902007
50
173.4670142
51
179.9730753
0
ARC
8
DEFAULT_255_1_234
10
21.8173675
20
92.487626
40
0.6993804
50
179.6556203
51
190.0080463
0
ARC
8
DEFAULT_255_1_234
10
21.5857504
20
92.4451375
40
0.4639066
50
189.8116607
51
206.6796816
0
ARC
8
DEFAULT_255_1_234
10
21.5012656
20
92.4057503
40
0.3707421
50
207.1031645
51
217.7074368
0
ARC
8
DEFAULT_255_1_234
10
21.4378345
20
92.3505559
40
0.2868417
50
216.7345547
51
265.6812148
0
ARC
8
DEFAULT_255_1_234
10
21.4509136
20
92.4409855
40
0.3780509
50
264.7366618
51
270.0611241
0
ARC
8
DEFAULT_255_1_234
10
21.4532399
20
92.7250111
40
0.662079
50
269.8335834
51
276.0539546
0
ARC
8
DEFAULT_255_1_234
10
21.4739404
20
92.534856
40
0.4708016
50
275.9894168
51
284.4615085
0
ARC
8
DEFAULT_255_1_234
10
21.4937411
20
92.4515663
40
0.3852094
50
284.7034461
51
286.4953897
0
ARC
8
DEFAULT_255_1_234
10
21.5344424
20
92.3204965
40
0.2479842
50
286.0770838
51
304.2625829
0
ARC
8
DEFAULT_255_1_234
10
21.5477838
20
92.2986594
40
0.2224291
50
304.5891602
51
317.1073298
0
LINE
8
DEFAULT_255_1_234
10
23.0199154
20
93.1223211
11
23.0199154
21
91.9529
0
LINE
8
DEFAULT_255_1_234
10
23.0199154
20
91.9529
11
22.8649028
21
91.9529
0
LINE
8
DEFAULT_255_1_234
10
22.8649028
20
91.9529
11
22.2761764
21
92.854061
0
LINE
8
DEFAULT_255_1_234
10
22.2761764
20
92.854061
11
22.2761764
21
91.9529
0
LINE
8
DEFAULT_255_1_234
10
22.2761764
20
91.9529
11
22.1211639
21
91.9529
0
LINE
8
DEFAULT_255_1_234
10
22.1211639
20
91.9529
11
22.1211639
21
93.1223211
0
LINE
8
DEFAULT_255_1_234
10
22.1211639
20
93.1223211
11
22.2761764
21
93.1223211
0
LINE
8
DEFAULT_255_1_234
10
22.2761764
20
93.1223211
11
22.8665092
21
92.2171442
0
LINE
8
DEFAULT_255_1_234
10
22.8665092
20
92.2171442
11
22.8665092
21
93.1223211
0
LINE
8
DEFAULT_255_1_234
10
22.8665092
20
93.1223211
11
23.0199154
21
93.1223211
0
LINE
8
DEFAULT_255_1_234
10
23.6174767
20
91.9529
11
23.2937977
21
91.9529
0
LINE
8
DEFAULT_255_1_234
10
23.2937977
20
91.9529
11
23.2937977
21
93.1223211
0
LINE
8
DEFAULT_255_1_234
10
23.2937977
20
93.1223211
11
23.6239021
21
93.1223211
0
LINE
8
DEFAULT_255_1_234
10
24.1395397
20
92.5769661
11
24.1395397
21
92.5022709
0
LINE
8
DEFAULT_255_1_234
10
23.627918
20
92.9954196
11
23.448007
21
92.9954196
0
LINE
8
DEFAULT_255_1_234
10
23.448007
20
92.9954196
11
23.448007
21
92.0789983
0
LINE
8
DEFAULT_255_1_234
10
23.448007
20
92.0789983
11
23.6102481
21
92.0789983
0
LINE
8
DEFAULT_255_1_234
10
23.9869367
20
92.5054836
11
23.9869367
21
92.5737534
0
ARC
8
DEFAULT_255_1_234
10
23.6277963
20
92.5357894
40
0.5865446
50
75.4101064
51
90.3804066
0
ARC
8
DEFAULT_255_1_234
10
23.6507477
20
92.6314492
40
0.4881916
50
60.145586
51
75.1888407
0
ARC
8
DEFAULT_255_1_234
10
23.6666252
20
92.6591199
40
0.4562893
50
26.5253612
51
60.1450928
0
ARC
8
DEFAULT_255_1_234
10
23.5546002
20
92.5997158
40
0.5830602
50
7.4030428
51
26.8320788
0
ARC
8
DEFAULT_255_1_234
10
23.3951758
20
92.5748804
40
0.7443669
50
0.1605367
51
7.7176192
0
ARC
8
DEFAULT_255_1_234
10
23.4115663
20
92.4984434
40
0.7279835
50
348.7289388
51
0.3012466
0
ARC
8
DEFAULT_255_1_234
10
23.5772093
20
92.4655386
40
0.559104
50
333.0706509
51
348.7181832
0
ARC
8
DEFAULT_255_1_234
10
23.6738851
20
92.4130319
40
0.4491417
50
299.2531685
51
333.4571258
0
ARC
8
DEFAULT_255_1_234
10
23.6377991
20
92.4815828
40
0.5265881
50
278.107187
51
299.0339503
0
ARC
8
DEFAULT_255_1_234
10
23.612207
20
92.6323216
40
0.679442
50
270.4443897
51
278.4511052
0
ARC
8
DEFAULT_255_1_234
10
23.61429
20
92.5394213
40
0.4604407
50
269.4970433
51
284.0205042
0
ARC
8
DEFAULT_255_1_234
10
23.6498201
20
92.4028978
40
0.3193797
50
283.7700273
51
318.1555492
0
ARC
8
DEFAULT_255_1_234
10
23.6160959
20
92.4281367
40
0.3613588
50
318.7415601
51
343.6873628
0
ARC
8
DEFAULT_255_1_234
10
23.4356982
20
92.4844832
40
0.5503313
50
343.3325091
51
355.8548958
0
ARC
8
DEFAULT_255_1_234
10
23.2258666
20
92.5044319
40
0.7610708
50
355.4988528
51
0.0791727
0
ARC
8
DEFAULT_255_1_234
10
23.3041289
20
92.577978
40
0.6828208
50
359.6455037
51
9.8607896
0
ARC
8
DEFAULT_255_1_234
10
23.5401987
20
92.6206099
40
0.4429406
50
9.6571907
51
26.1932807
0
ARC
8
DEFAULT_255_1_234
10
23.6329975
20
92.6637118
40
0.3406537
50
26.5777228
51
40.1532208
0
ARC
8
DEFAULT_255_1_234
10
23.6585702
20
92.6836619
40
0.308246
50
40.3840491
51
80.1431104
0
ARC
8
DEFAULT_255_1_234
10
23.625882
20
92.5387333
40
0.4566909
50
79.2152159
51
89.7445637
0
ENDSEC
0
EOF