0
SECTION
2
HEADER
9
$MEASUREMENT
70
1
0
ENDSEC
0
SECTION
2
TABLES
0
TABLE
2
LTYPE
0
LTYPE
72
65
70
64
2
CONTINUOUS
3
______
73
0
40
0
0
ENDTAB
0
TABLE
2
LAYER
0
LAYER
2
DEFAULT_255_2_778
70
0
62
255
6
CONTINUOUS
0
LAYER
2
DEFAULT_255_1_234
70
0
62
255
6
CONTINUOUS
0
ENDTAB
0
ENDSEC
0
SECTION
2
ENTITIES
0
ARC
8
DEFAULT_255_2_778
10
3.5700693
20
165.7634684
40
0.7914215
50
129.1312896
51
180.1450914
0
ARC
8
DEFAULT_255_2_778
10
3.5703345
20
165.7639556
40
0.7912112
50
89.854026
51
129.1684493
0
ARC
8
DEFAULT_255_2_778
10
25.7993937
20
165.7636421
40
0.7915249
50
39.4792447
51
90.147911
0
ARC
8
DEFAULT_255_2_778
10
25.7999935
20
165.7634887
40
0.7911595
50
359.8533901
51
39.5154338
0
ARC
8
DEFAULT_255_2_778
10
25.7997714
20
-1.986444
40
0.7913815
50
309.1282118
51
0.1454017
0
ARC
8
DEFAULT_255_2_778
10
25.7993889
20
-1.9867613
40
0.7913769
50
269.8524075
51
309.1641908
0
ARC
8
DEFAULT_255_2_778
10
3.5703462
20
-1.9867167
40
0.7914215
50
219.1312896
51
270.1450914
0
ARC
8
DEFAULT_255_2_778
10
3.5698591
20
-1.9864515
40
0.7912112
50
179.854026
51
219.1684493
0
LINE
8
DEFAULT_255_2_778
10
3.5723503
20
166.5551643
11
25.7973503
21
166.5551643
0
LINE
8
DEFAULT_255_2_778
10
26.5911503
20
165.7614643
11
26.5911503
21
-1.9844357
0
LINE
8
DEFAULT_255_2_778
10
25.7973503
20
-2.7781357
11
3.5723503
21
-2.7781357
0
LINE
8
DEFAULT_255_2_778
10
2.7786503
20
-1.9844357
11
2.7786503
21
165.7614643
0
LINE
8
DEFAULT_255_1_234
10
10.3337364
20
0.5181211
11
10.5329235
21
0.5181211
0
LINE
8
DEFAULT_255_1_234
10
10.5329235
20
0.5181211
11
10.9152342
21
-0.4360494
0
LINE
8
DEFAULT_255_1_234
10
10.9152342
20
-0.4360494
11
11.297545
21
0.5181211
0
LINE
8
DEFAULT_255_1_234
10
11.297545
20
0.5181211
11
11.4975353
21
0.5181211
0
LINE
8
DEFAULT_255_1_234
10
11.4975353
20
0.5181211
11
11.4975353
21
-0.6513
0
LINE
8
DEFAULT_255_1_234
10
11.4975353
20
-0.6513
11
11.3433259
21
-0.6513
0
LINE
8
DEFAULT_255_1_234
10
11.3433259
20
-0.6513
11
11.3433259
21
-0.1959004
0
LINE
8
DEFAULT_255_1_234
10
11.3433259
20
-0.1959004
11
11.357783
21
0.2956419
0
LINE
8
DEFAULT_255_1_234
10
11.357783
20
0.2956419
11
10.9738659
21
-0.6513
0
LINE
8
DEFAULT_255_1_234
10
10.9738659
20
-0.6513
11
10.8557994
21
-0.6513
0
LINE
8
DEFAULT_255_1_234
10
10.8557994
20
-0.6513
11
10.4726854
21
0.2932324
0
LINE
8
DEFAULT_255_1_234
10
10.4726854
20
0.2932324
11
10.4879458
21
-0.1959004
0
LINE
8
DEFAULT_255_1_234
10
10.4879458
20
-0.1959004
11
10.4879458
21
-0.6513
0
LINE
8
DEFAULT_255_1_234
10
10.4879458
20
-0.6513
11
10.3337364
21
-0.6513
0
LINE
8
DEFAULT_255_1_234
10
10.3337364
20
-0.6513
11
10.3337364
21
0.5181211
0
LINE
8
DEFAULT_255_1_234
10
11.824427
20
0.5181211
11
12.156941
21
-0.4464907
0
LINE
8
DEFAULT_255_1_234
10
12.156941
20
-0.4464907
11
12.4910613
21
0.5181211
0
LINE
8
DEFAULT_255_1_234
10
12.4910613
20
0.5181211
11
12.6597278
21
0.5181211
0
LINE
8
DEFAULT_255_1_234
10
12.6597278
20
0.5181211
11
12.2260139
21
-0.6513
0
LINE
8
DEFAULT_255_1_234
10
12.2260139
20
-0.6513
11
12.0894744
21
-0.6513
0
LINE
8
DEFAULT_255_1_234
10
12.0894744
20
-0.6513
11
11.6565637
21
0.5181211
0
LINE
8
DEFAULT_255_1_234
10
11.6565637
20
0.5181211
11
11.824427
21
0.5181211
0
LINE
8
DEFAULT_255_1_234
10
13.0725591
20
-0.0938974
11
13.0725591
21
-0.2151766
0
LINE
8
DEFAULT_255_1_234
10
13.0725591
20
-0.2151766
11
12.6806103
21
-0.2151766
0
LINE
8
DEFAULT_255_1_234
10
12.6806103
20
-0.2151766
11
12.6806103
21
-0.0938974
0
LINE
8
DEFAULT_255_1_234
10
12.6806103
20
-0.0938974
11
13.0725591
21
-0.0938974
0
LINE
8
DEFAULT_255_1_234
10
13.9978154
20
-0.6513
11
13.8861742
21
-0.3460939
0
LINE
8
DEFAULT_255_1_234
10
13.8861742
20
-0.3460939
11
13.3962382
21
-0.3460939
0
LINE
8
DEFAULT_255_1_234
10
13.3962382
20
-0.3460939
11
13.2862034
21
-0.6513
0
LINE
8
DEFAULT_255_1_234
10
13.2862034
20
-0.6513
11
13.127175
21
-0.6513
0
LINE
8
DEFAULT_255_1_234
10
13.127175
20
-0.6513
11
13.5737396
21
0.5181211
0
LINE
8
DEFAULT_255_1_234
10
13.5737396
20
0.5181211
11
13.7086728
21
0.5181211
0
LINE
8
DEFAULT_255_1_234
10
13.7086728
20
0.5181211
11
14.1560406
21
-0.6513
0
LINE
8
DEFAULT_255_1_234
10
14.1560406
20
-0.6513
11
13.9978154
21
-0.6513
0
LINE
8
DEFAULT_255_1_234
10
13.6412062
20
0.3277689
11
13.4428223
21
-0.2191925
0
LINE
8
DEFAULT_255_1_234
10
13.4428223
20
-0.2191925
11
13.8403933
21
-0.2191925
0
LINE
8
DEFAULT_255_1_234
10
13.8403933
20
-0.2191925
11
13.6412062
21
0.3277689
0
LINE
8
DEFAULT_255_1_234
10
14.9021891
20
0.5181211
11
14.9021891
21
-0.258548
0
LINE
8
DEFAULT_255_1_234
10
14.9021891
20
-0.258548
11
15.0644302
21
-0.258548
0
LINE
8
DEFAULT_255_1_234
10
15.0644302
20
-0.258548
11
15.0644302
21
-0.3798272
0
LINE
8
DEFAULT_255_1_234
10
15.0644302
20
-0.3798272
11
14.9021891
21
-0.3798272
0
LINE
8
DEFAULT_255_1_234
10
14.9021891
20
-0.3798272
11
14.9021891
21
-0.6513
0
LINE
8
DEFAULT_255_1_234
10
14.9021891
20
-0.6513
11
14.7527988
21
-0.6513
0
LINE
8
DEFAULT_255_1_234
10
14.7527988
20
-0.6513
11
14.7527988
21
-0.3798272
0
LINE
8
DEFAULT_255_1_234
10
14.7527988
20
-0.3798272
11
14.2202945
21
-0.3798272
0
LINE
8
DEFAULT_255_1_234
10
14.2202945
20
-0.3798272
11
14.2202945
21
-0.2922813
0
LINE
8
DEFAULT_255_1_234
10
14.2202945
20
-0.2922813
11
14.7439639
21
0.5181211
0
LINE
8
DEFAULT_255_1_234
10
14.7439639
20
0.5181211
11
14.9021891
21
0.5181211
0
LINE
8
DEFAULT_255_1_234
10
14.735129
20
0.2827912
11
14.388961
21
-0.258548
0
LINE
8
DEFAULT_255_1_234
10
14.388961
20
-0.258548
11
14.7527988
21
-0.258548
0
LINE
8
DEFAULT_255_1_234
10
14.7527988
20
-0.258548
11
14.7527988
21
0.3149181
0
LINE
8
DEFAULT_255_1_234
10
14.7527988
20
0.3149181
11
14.735129
21
0.2827912
0
LINE
8
DEFAULT_255_1_234
10
15.931858
20
0.0402327
11
15.931858
21
-0.1525291
0
LINE
8
DEFAULT_255_1_234
10
15.1937412
20
-0.1726084
11
15.1937412
21
0.0257755
0
LINE
8
DEFAULT_255_1_234
10
15.7832708
20
-0.1926877
11
15.7832708
21
0.0506739
0
LINE
8
DEFAULT_255_1_234
10
15.3423284
20
0.0619184
11
15.3423284
21
-0.1758211
0
ARC
8
DEFAULT_255_1_234
10
14.7071469
20
-0.1574195
40
1.2247208
50
353.8441951
51
0.2287902
0
ARC
8
DEFAULT_255_1_234
10
15.1710973
20
-0.2092194
40
0.7578929
50
344.4934747
51
353.9765454
0
ARC
8
DEFAULT_255_1_234
10
15.4703563
20
-0.2943019
40
0.4467846
50
329.2803592
51
344.7472793
0
ARC
8
DEFAULT_255_1_234
10
15.5696388
20
-0.3487982
40
0.3336173
50
324.9352394
51
328.6160465
0
ARC
8
DEFAULT_255_1_234
10
15.6073497
20
-0.3751573
40
0.2876076
50
280.580143
51
324.9173126
0
ARC
8
DEFAULT_255_1_234
10
15.5672289
20
-0.2080901
40
0.4592847
50
269.5977311
51
281.6734359
0
ARC
8
DEFAULT_255_1_234
10
15.5600195
20
-0.2200827
40
0.4472986
50
256.6228859
51
270.51044
0
ARC
8
DEFAULT_255_1_234
10
15.5198173
20
-0.3749123
40
0.2873874
50
215.8618325
51
257.2788573
0
ARC
8
DEFAULT_255_1_234
10
15.6219204
20
-0.3064023
40
0.4102928
50
197.9693508
51
215.2623606
0
ARC
8
DEFAULT_255_1_234
10
15.870432
20
-0.2225291
40
0.6725652
50
187.8816417
51
198.2346507
0
ARC
8
DEFAULT_255_1_234
10
16.2662528
20
-0.1653921
40
1.0724845
50
180.8976217
51
188.0055519
0
ARC
8
DEFAULT_255_1_234
10
16.5462716
20
-0.1550223
40
1.3526448
50
180.7449369
51
181.1510016
0
ARC
8
DEFAULT_255_1_234
10
16.3885445
20
0.0306042
40
1.1948131
50
173.7675579
51
180.231553
0
ARC
8
DEFAULT_255_1_234
10
15.9367592
20
0.0816666
40
0.7401564
50
164.3058563
51
173.9002247
0
ARC
8
DEFAULT_255_1_234
10
15.6455661
20
0.1655656
40
0.4371288
50
148.7922025
51
164.568378
0
ARC
8
DEFAULT_255_1_234
10
15.5504113
20
0.2186929
40
0.3282386
50
144.5883898
51
148.1176286
0
ARC
8
DEFAULT_255_1_234
10
15.5161011
20
0.2426315
40
0.2864044
50
101.6440918
51
144.514236
0
ARC
8
DEFAULT_255_1_234
10
15.5586078
20
0.0737069
40
0.4604934
50
89.5284041
51
102.5819763
0
ARC
8
DEFAULT_255_1_234
10
15.5665165
20
0.0698018
40
0.464401
50
77.0437873
51
90.5081339
0
ARC
8
DEFAULT_255_1_234
10
15.6067167
20
0.2340615
40
0.2953195
50
48.2778575
51
77.4994676
0
ARC
8
DEFAULT_255_1_234
10
15.6139798
20
0.2469746
40
0.2808655
50
36.3142134
51
47.6305865
0
ARC
8
DEFAULT_255_1_234
10
15.5271105
20
0.1884515
40
0.3855453
50
18.2931786
51
35.6769206
0
ARC
8
DEFAULT_255_1_234
10
15.2727864
20
0.1011593
40
0.654423
50
8.024666
51
18.5605216
0
ARC
8
DEFAULT_255_1_234
10
14.8564784
20
0.0396792
40
1.0752407
50
1.1274072
51
8.1718305
0
ARC
8
DEFAULT_255_1_234
10
14.5328975
20
0.0269885
40
1.3990231
50
0.5424119
51
1.3863029
0
ARC
8
DEFAULT_255_1_234
10
14.7150353
20
0.0542342
40
1.0682415
50
359.8090433
51
4.9407866
0
ARC
8
DEFAULT_255_1_234
10
15.1360367
20
0.0918113
40
0.6455691
50
4.8362157
51
12.2904523
0
ARC
8
DEFAULT_255_1_234
10
15.4115482
20
0.1531965
40
0.3633074
50
12.0805627
51
23.8173984
0
ARC
8
DEFAULT_255_1_234
10
15.5289187
20
0.2028919
40
0.2358723
50
24.2871213
51
31.3935614
0
ARC
8
DEFAULT_255_1_234
10
15.5813884
20
0.2372233
40
0.1732111
50
30.7407893
51
82.4657128
0
ARC
8
DEFAULT_255_1_234
10
15.5634018
20
0.1488691
40
0.263235
50
81.1060089
51
90.2184952
0
ARC
8
DEFAULT_255_1_234
10
15.5598317
20
0.1746924
40
0.2374236
50
89.3806855
51
105.6762551
0
ARC
8
DEFAULT_255_1_234
10
15.5414948
20
0.2413567
40
0.1682847
50
105.7981136
51
149.7388061
0
ARC
8
DEFAULT_255_1_234
10
15.6479026
20
0.177395
40
0.2924306
50
149.4208916
51
163.6286378
0
ARC
8
DEFAULT_255_1_234
10
15.8569914
20
0.113625
40
0.5110213
50
163.3763315
51
172.1410975
0
ARC
8
DEFAULT_255_1_234
10
16.1870633
20
0.0663518
40
0.8444586
50
172.0259487
51
178.0703232
0
ARC
8
DEFAULT_255_1_234
10
16.4900723
20
0.0519906
40
1.1477868
50
177.8631668
51
179.5044149
0
ARC
8
DEFAULT_255_1_234
10
16.3828127
20
-0.1794611
40
1.0404907
50
179.7995573
51
185.2460446
0
ARC
8
DEFAULT_255_1_234
10
15.9785167
20
-0.2177487
40
0.6343885
50
185.1411642
51
193.0079639
0
ARC
8
DEFAULT_255_1_234
10
15.7141639
20
-0.2802359
40
0.3627568
50
192.7897626
51
205.2507664
0
ARC
8
DEFAULT_255_1_234
10
15.6095186
20
-0.3269585
40
0.2481908
50
205.8005384
51
211.2537509
0
ARC
8
DEFAULT_255_1_234
10
15.5571626
20
-0.362042
40
0.1852521
50
210.3789793
51
238.4008143
0
ARC
8
DEFAULT_255_1_234
10
15.5552148
20
-0.3573624
40
0.1882621
50
239.6520629
51
265.9793761
0
ARC
8
DEFAULT_255_1_234
10
15.5637349
20
-0.2901573
40
0.2559272
50
265.1315437
51
270.060332
0
ARC
8
DEFAULT_255_1_234
10
15.5666127
20
-0.3225466
40
0.2235528
50
269.3314664
51
287.2178029
0
ARC
8
DEFAULT_255_1_234
10
15.5803979
20
-0.3728721
40
0.1714108
50
287.7958004
51
329.080874
0
ARC
8
DEFAULT_255_1_234
10
15.4846436
20
-0.313107
40
0.2842745
50
328.6634704
51
343.3325132
0
ARC
8
DEFAULT_255_1_234
10
15.2673456
20
-0.2454137
40
0.5118644
50
343.0499468
51
351.9393422
0
ARC
8
DEFAULT_255_1_234
10
14.9206756
20
-0.1943051
40
0.8622784
50
351.8069023
51
357.7959224
0
ARC
8
DEFAULT_255_1_234
10
14.5971312
20
-0.1775279
40
1.1862365
50
357.5871873
51
359.2677531
0
LINE
8
DEFAULT_255_1_234
10
16.4844416
20
-0.6513
11
16.1607625
21
-0.6513
0
LINE
8
DEFAULT_255_1_234
10
16.1607625
20
-0.6513
11
16.1607625
21
0.5181211
0
LINE
8
DEFAULT_255_1_234
10
16.1607625
20
0.5181211
11
16.4908669
21
0.5181211
0
LINE
8
DEFAULT_255_1_234
10
17.0065045
20
-0.0272339
11
17.0065045
21
-0.1019291
0
LINE
8
DEFAULT_255_1_234
10
16.4948828
20
0.3912196
11
16.3149719
21
0.3912196
0
LINE
8
DEFAULT_255_1_234
10
16.3149719
20
0.3912196
11
16.3149719
21
-0.5252017
0
LINE
8
DEFAULT_255_1_234
10
16.3149719
20
-0.5252017
11
16.477213
21
-0.5252017
0
LINE
8
DEFAULT_255_1_234
10
16.8539015
20
-0.0987164
11
16.8539015
21
-0.0304466
0
ARC
8
DEFAULT_255_1_234
10
16.4947612
20
-0.0684106
40
0.5865446
50
75.4101064
51
90.3804066
0
ARC
8
DEFAULT_255_1_234
10
16.5177126
20
0.0272492
40
0.4881916
50
60.145586
51
75.1888407
0
ARC
8
DEFAULT_255_1_234
10
16.5335901
20
0.0549199
40
0.4562893
50
26.5253612
51
60.1450928
0
ARC
8
DEFAULT_255_1_234
10
16.421565
20
-0.0044842
40
0.5830602
50
7.4030428
51
26.8320788
0
ARC
8
DEFAULT_255_1_234
10
16.2621407
20
-0.0293196
40
0.7443669
50
0.1605367
51
7.7176192
0
ARC
8
DEFAULT_255_1_234
10
16.2785311
20
-0.1057566
40
0.7279835
50
348.7289388
51
0.3012466
0
ARC
8
DEFAULT_255_1_234
10
16.4441742
20
-0.1386614
40
0.559104
50
333.0706509
51
348.7181832
0
ARC
8
DEFAULT_255_1_234
10
16.54085
20
-0.1911681
40
0.4491417
50
299.2531685
51
333.4571258
0
ARC
8
DEFAULT_255_1_234
10
16.5047639
20
-0.1226172
40
0.5265881
50
278.107187
51
299.0339503
0
ARC
8
DEFAULT_255_1_234
10
16.4791718
20
0.0281216
40
0.679442
50
270.4443897
51
278.4511052
0
ARC
8
DEFAULT_255_1_234
10
16.4812548
20
-0.0647787
40
0.4604407
50
269.4970433
51
284.0205042
0
ARC
8
DEFAULT_255_1_234
10
16.5167849
20
-0.2013022
40
0.3193797
50
283.7700273
51
318.1555492
0
ARC
8
DEFAULT_255_1_234
10
16.4830607
20
-0.1760633
40
0.3613588
50
318.7415601
51
343.6873628
0
ARC
8
DEFAULT_255_1_234
10
16.3026631
20
-0.1197168
40
0.5503313
50
343.3325091
51
355.8548958
0
ARC
8
DEFAULT_255_1_234
10
16.0928315
20
-0.0997681
40
0.7610708
50
355.4988528
51
0.0791727
0
ARC
8
DEFAULT_255_1_234
10
16.1710938
20
-0.026222
40
0.6828208
50
359.6455037
51
9.8607896
0
ARC
8
DEFAULT_255_1_234
10
16.4071635
20
0.0164099
40
0.4429406
50
9.6571907
51
26.1932807
0
ARC
8
DEFAULT_255_1_234
10
16.4999624
20
0.0595118
40
0.3406537
50
26.5777228
51
40.1532208
0
ARC
8
DEFAULT_255_1_234
10
16.525535
20
0.0794619
40
0.308246
50
40.3840491
51
80.1431104
0
ARC
8
DEFAULT_255_1_234
10
16.4928468
20
-0.0654667
40
0.4566909
50
79.2152159
51
89.7445637
0
LINE
8
DEFAULT_255_1_234
10
17.9221227
20
-0.6513
11
17.6683198
21
-0.1782306
0
LINE
8
DEFAULT_255_1_234
10
17.6683198
20
-0.1782306
11
17.3936343
21
-0.1782306
0
LINE
8
DEFAULT_255_1_234
10
17.3936343
20
-0.1782306
11
17.3936343
21
-0.6513
0
LINE
8
DEFAULT_255_1_234
10
17.3936343
20
-0.6513
11
17.2386218
21
-0.6513
0
LINE
8
DEFAULT_255_1_234
10
17.2386218
20
-0.6513
11
17.2386218
21
0.5181211
0
LINE
8
DEFAULT_255_1_234
10
17.2386218
20
0.5181211
11
17.6257516
21
0.5181211
0
LINE
8
DEFAULT_255_1_234
10
17.8128911
20
-0.1453005
11
18.0875765
21
-0.6416619
0
LINE
8
DEFAULT_255_1_234
10
18.0875765
20
-0.6416619
11
18.0875765
21
-0.6513
0
LINE
8
DEFAULT_255_1_234
10
18.0875765
20
-0.6513
11
17.9221227
21
-0.6513
0
LINE
8
DEFAULT_255_1_234
10
17.3936343
20
0.3912196
11
17.3936343
21
-0.0521323
0
LINE
8
DEFAULT_255_1_234
10
17.3936343
20
-0.0521323
11
17.6305706
21
-0.0521323
0
LINE
8
DEFAULT_255_1_234
10
17.6297674
20
0.3912196
11
17.3936343
21
0.3912196
0
ARC
8
DEFAULT_255_1_234
10
17.6299155
20
-0.1780239
40
0.6961575
50
80.653586
51
90.3427061
0
ARC
8
DEFAULT_255_1_234
10
17.671863
20
0.0682348
40
0.4463577
50
65.6987447
51
80.8329603
0
ARC
8
DEFAULT_255_1_234
10
17.719627
20
0.1777322
40
0.3269094
50
50.0017161
51
65.4305835
0
ARC
8
DEFAULT_255_1_234
10
17.7414735
20
0.2072482
40
0.2902647
50
11.628416
51
49.5603263
0
ARC
8
DEFAULT_255_1_234
10
17.5879071
20
0.1697299
40
0.4482792
50
359.5655735
51
12.3691
0
ARC
8
DEFAULT_255_1_234
10
17.695593
20
0.1634644
40
0.3405924
50
341.9983148
51
0.4822259
0
ARC
8
DEFAULT_255_1_234
10
17.7350771
20
0.1527471
40
0.2997359
50
323.8609373
51
341.61416
0
ARC
8
DEFAULT_255_1_234
10
17.7049015
20
0.1760484
40
0.3378487
50
296.7018614
51
323.6876402
0
ARC
8
DEFAULT_255_1_234
10
17.660791
20
0.2549235
40
0.4281516
50
290.8086567
51
297.2323311
0
ARC
8
DEFAULT_255_1_234
10
17.6331439
20
0.3072351
40
0.3593766
50
269.589728
51
281.8058135
0
ARC
8
DEFAULT_255_1_234
10
17.6582339
20
0.1924743
40
0.2419125
50
281.5501019
51
303.9357432
0
ARC
8
DEFAULT_255_1_234
10
17.6719526
20
0.1686936
40
0.2145323
50
304.4415616
51
311.2106213
0
ARC
8
DEFAULT_255_1_234
10
17.6851632
20
0.1547632
40
0.1953505
50
310.9875673
51
356.2715578
0
ARC
8
DEFAULT_255_1_234
10
17.609528
20
0.1660422
40
0.2716331
50
354.9348262
51
0.0609027
0
ARC
8
DEFAULT_255_1_234
10
17.5908155
20
0.1687435
40
0.2903554
50
359.5239371
51
12.8808918
0
ARC
8
DEFAULT_255_1_234
10
17.688571
20
0.1926728
40
0.1897315
50
12.4173452
51
43.1022135
0
ARC
8
DEFAULT_255_1_234
10
17.6947315
20
0.1963724
40
0.1827118
50
43.5751728
51
48.203944
0
ARC
8
DEFAULT_255_1_234
10
17.6777807
20
0.1742302
40
0.2105272
50
48.7809703
51
72.6969569
0
ARC
8
DEFAULT_255_1_234
10
17.6423431
20
0.066682
40
0.3237537
50
72.3702241
51
84.8791103
0
ARC
8
DEFAULT_255_1_234
10
17.6275908
20
-0.0675231
40
0.4587478
50
84.5400526
51
89.7281406
0
LINE
8
DEFAULT_255_2_778
10
20.8173981
20
165.1603229
11
21.4603981
21
165.1603229
0
LINE
8
DEFAULT_255_2_778
10
19.5074981
20
165.1603229
11
19.5074981
21
164.1559229
0
LINE
8
DEFAULT_255_2_778
10
19.5074981
20
164.1559229
11
20.8173981
21
164.1559229
0
LINE
8
DEFAULT_255_2_778
10
20.8173981
20
164.1559229
11
20.8173981
21
165.1603229
0
LINE
8
DEFAULT_255_2_778
10
21.4603981
20
165.1603229
11
21.4603981
21
162.6431229
0
LINE
8
DEFAULT_255_2_778
10
21.4603981
20
162.6431229
11
20.8173981
21
162.6431229
0
LINE
8
DEFAULT_255_2_778
10
20.8173981
20
162.6431229
11
20.8173981
21
163.7530229
0
LINE
8
DEFAULT_255_2_778
10
20.8173981
20
163.7530229
11
19.5074981
21
163.7530229
0
LINE
8
DEFAULT_255_2_778
10
19.5074981
20
163.7530229
11
19.5074981
21
162.6454229
0
LINE
8
DEFAULT_255_2_778
10
19.5074981
20
162.6454229
11
18.8644981
21
162.6454229
0
LINE
8
DEFAULT_255_2_778
10
18.8644981
20
162.6454229
11
18.8644981
21
165.1603229
0
LINE
8
DEFAULT_255_2_778
10
18.8644981
20
165.1603229
11
19.5074981
21
165.1603229
0
LINE
8
DEFAULT_255_2_778
10
13.3725981
20
165.1603229
11
13.3725981
21
164.7322229
0
LINE
8
DEFAULT_255_2_778
10
13.3725981
20
164.7322229
11
12.3798981
21
164.7322229
0
LINE
8
DEFAULT_255_2_778
10
12.3798981
20
164.7322229
11
12.3798981
21
162.6431229
0
LINE
8
DEFAULT_255_2_778
10
12.3798981
20
162.6431229
11
11.7286981
21
162.6431229
0
LINE
8
DEFAULT_255_2_778
10
11.7286981
20
162.6431229
11
11.7286981
21
164.7322229
0
LINE
8
DEFAULT_255_2_778
10
11.7286981
20
164.7322229
11
10.7441981
21
164.7322229
0
LINE
8
DEFAULT_255_2_778
10
10.7441981
20
164.7322229
11
10.7441981
21
165.1603229
0
LINE
8
DEFAULT_255_2_778
10
10.7441981
20
165.1603229
11
13.3722981
21
165.1603229
0
LINE
8
DEFAULT_255_2_778
10
15.8865981
20
162.6431229
11
15.1624981
21
162.6431229
0
LINE
8
DEFAULT_255_2_778
10
15.1624981
20
162.6431229
11
14.9507981
21
163.1886229
0
LINE
8
DEFAULT_255_2_778
10
14.9507981
20
163.1886229
11
13.7381981
21
163.1886229
0
LINE
8
DEFAULT_255_2_778
10
13.7381981
20
163.1886229
11
13.5265981
21
162.6431229
0
LINE
8
DEFAULT_255_2_778
10
13.5265981
20
162.6431229
11
12.8108981
21
162.6431229
0
LINE
8
DEFAULT_255_2_778
10
12.8108981
20
162.6431229
11
13.9498981
21
165.1603229
0
LINE
8
DEFAULT_255_2_778
10
13.9498981
20
165.1603229
11
14.7390981
21
165.1603229
0
LINE
8
DEFAULT_255_2_778
10
14.7390981
20
165.1603229
11
15.8865981
21
162.6431229
0
LINE
8
DEFAULT_255_2_778
10
14.3488981
20
164.7322229
11
13.8932981
21
163.5911229
0
LINE
8
DEFAULT_255_2_778
10
13.8932981
20
163.5911229
11
14.7965981
21
163.5911229
0
LINE
8
DEFAULT_255_2_778
10
14.7965981
20
163.5911229
11
14.3488981
21
164.7322229
0
LINE
8
DEFAULT_255_2_778
10
21.9714981
20
162.6431229
11
21.9714981
21
165.1603229
0
LINE
8
DEFAULT_255_2_778
10
21.9714981
20
165.1603229
11
22.6223981
21
165.1603229
0
LINE
8
DEFAULT_255_2_778
10
22.6223981
20
165.1603229
11
22.6223981
21
162.6431229
0
LINE
8
DEFAULT_255_2_778
10
22.6223981
20
162.6431229
11
21.9714981
21
162.6431229
0
ARC
8
DEFAULT_255_2_778
10
17.4928634
20
163.8901794
40
1.7203324
50
180.3751097
51
198.5875868
0
ARC
8
DEFAULT_255_2_778
10
17.3530966
20
163.9109502
40
1.5808533
50
158.0492629
51
181.1610924
0
ARC
8
DEFAULT_255_2_778
10
16.9861786
20
164.0342311
40
1.1946691
50
150.7860107
51
156.955066
0
ARC
8
DEFAULT_255_2_778
10
16.8982418
20
164.0765339
40
1.0972872
50
111.4504449
51
150.4728397
0
ARC
8
DEFAULT_255_2_778
10
17.220305
20
163.2186999
40
2.0135283
50
90.194553
51
111.0534438
0
ARC
8
DEFAULT_255_2_778
10
17.2087739
20
163.24405
40
1.9881721
50
65.6958049
51
89.8647264
0
ARC
8
DEFAULT_255_2_778
10
17.6787121
20
164.3054284
40
0.8274868
50
11.2255456
51
65.1035005
0
ARC
8
DEFAULT_255_2_778
10
-0.0805551
20
162.1959931
40
18.0460455
50
6.7184719
51
6.747037
0
ARC
8
DEFAULT_255_2_778
10
17.1626023
20
164.2666943
40
0.6797124
50
4.1726408
51
20.1118961
0
ARC
8
DEFAULT_255_2_778
10
17.3614062
20
164.3513115
40
0.4640677
50
18.7415785
51
72.5888136
0
ARC
8
DEFAULT_255_2_778
10
17.2025943
20
163.757107
40
1.0788876
50
73.9838784
51
89.311007
0
ARC
8
DEFAULT_255_2_778
10
17.1983401
20
164.044835
40
0.7912692
50
88.7524372
51
112.3015844
0
ARC
8
DEFAULT_255_2_778
10
17.0838187
20
164.2382903
40
0.5697558
50
109.0272801
51
162.6899679
0
ARC
8
DEFAULT_255_2_778
10
18.0476601
20
163.8800427
40
1.5974926
50
160.7083741
51
180.0013584
0
ARC
8
DEFAULT_255_2_778
10
17.4360492
20
163.8797828
40
0.9858816
50
179.9870956
51
180.0387134
0
ARC
8
DEFAULT_255_2_778
10
17.978404
20
163.8841368
40
1.5282444
50
180.1882118
51
196.7846852
0
ARC
8
DEFAULT_255_2_778
10
17.0900469
20
163.5885436
40
0.5929648
50
194.2267498
51
247.7026219
0
ARC
8
DEFAULT_255_2_778
10
17.2253599
20
163.9744028
40
1.0015362
50
248.915808
51
269.4283674
0
ARC
8
DEFAULT_255_2_778
10
17.2167111
20
163.5457228
40
0.5728078
50
269.8656425
51
270.0448116
0
ARC
8
DEFAULT_255_2_778
10
17.2177548
20
163.876357
40
0.9034423
50
269.9622192
51
289.2672362
0
ARC
8
DEFAULT_255_2_778
10
17.3566218
20
163.4839187
40
0.4871646
50
289.079723
51
335.6836304
0
ARC
8
DEFAULT_255_2_778
10
17.1094676
20
163.5473273
40
0.7398116
50
339.0923962
51
0.0324791
0
ARC
8
DEFAULT_255_2_778
10
17.1096199
20
163.5477463
40
0.7396591
50
0.0000282
51
0.3153016
0
ARC
8
DEFAULT_255_2_778
10
17.7379321
20
163.4770467
40
0.7766289
50
293.0868009
51
348.0633563
0
ARC
8
DEFAULT_255_2_778
10
17.2274897
20
164.558676
40
1.972313
50
269.5781363
51
294.4066005
0
ARC
8
DEFAULT_255_2_778
10
17.2068626
20
164.7611305
40
2.1747224
50
252.5126234
51
270.1608511
0
ARC
8
DEFAULT_255_2_778
10
16.8655784
20
163.7095887
40
1.0692678
50
200.1518087
51
253.0231459
0
LINE
8
DEFAULT_255_2_778
10
7.4003679
20
165.1602166
11
7.4003679
21
164.1559166
0
LINE
8
DEFAULT_255_2_778
10
7.4003679
20
164.1559166
11
8.7020679
21
164.1559166
0
LINE
8
DEFAULT_255_2_778
10
8.7020679
20
164.1559166
11
8.7020679
21
165.1602166
0
LINE
8
DEFAULT_255_2_778
10
8.7020679
20
165.1602166
11
9.3508679
21
165.1602166
0
LINE
8
DEFAULT_255_2_778
10
9.3508679
20
165.1602166
11
9.3508679
21
162.6430166
0
LINE
8
DEFAULT_255_2_778
10
9.3508679
20
162.6430166
11
8.6999679
21
162.6430166
0
LINE
8
DEFAULT_255_2_778
10
8.6999679
20
162.6430166
11
8.6999679
21
163.7532166
0
LINE
8
DEFAULT_255_2_778
10
8.6999679
20
163.7532166
11
7.3982679
21
163.7532166
0
LINE
8
DEFAULT_255_2_778
10
7.3982679
20
163.7532166
11
7.3982679
21
162.6456166
0
LINE
8
DEFAULT_255_2_778
10
7.3982679
20
162.6456166
11
6.7473679
21
162.6456166
0
LINE
8
DEFAULT_255_2_778
10
6.7473679
20
162.6456166
11
6.7473679
21
165.1602166
0
LINE
8
DEFAULT_255_2_778
10
6.7473679
20
165.1602166
11
7.3982679
21
165.1602166
0
LINE
8
DEFAULT_255_2_778
10
9.8654679
20
162.6430166
11
9.8654679
21
165.1602166
0
LINE
8
DEFAULT_255_2_778
10
9.8654679
20
165.1602166
11
10.5084679
21
165.1602166
0
LINE
8
DEFAULT_255_2_778
10
10.5084679
20
165.1602166
11
10.5084679
21
162.6430166
0
LINE
8
DEFAULT_255_2_778
10
10.5084679
20
162.6430166
11
9.8654679
21
162.6430166
0
LINE
8
DEFAULT_255_2_778
10
18.4903679
20
164.4665166
11
18.5152679
21
164.3072166
0
LINE
8
DEFAULT_255_2_778
10
18.5152679
20
164.3072166
11
17.8415679
21
164.3072166
0
LINE
8
DEFAULT_255_2_778
10
17.8492679
20
163.5518166
11
18.5332679
21
163.5518166
0
LINE
8
DEFAULT_255_2_778
10
18.5332679
20
163.5518166
11
18.4977679
21
163.3164166
0
LINE
8
DEFAULT_255_1_234
10
9.9589364
20
161.2524211
11
10.1581235
21
161.2524211
0
LINE
8
DEFAULT_255_1_234
10
10.1581235
20
161.2524211
11
10.5404342
21
160.2982506
0
LINE
8
DEFAULT_255_1_234
10
10.5404342
20
160.2982506
11
10.922745
21
161.2524211
0
LINE
8
DEFAULT_255_1_234
10
10.922745
20
161.2524211
11
11.1227353
21
161.2524211
0
LINE
8
DEFAULT_255_1_234
10
11.1227353
20
161.2524211
11
11.1227353
21
160.083
0
LINE
8
DEFAULT_255_1_234
10
11.1227353
20
160.083
11
10.9685259
21
160.083
0
LINE
8
DEFAULT_255_1_234
10
10.9685259
20
160.083
11
10.9685259
21
160.5383996
0
LINE
8
DEFAULT_255_1_234
10
10.9685259
20
160.5383996
11
10.982983
21
161.0299419
0
LINE
8
DEFAULT_255_1_234
10
10.982983
20
161.0299419
11
10.5990659
21
160.083
0
LINE
8
DEFAULT_255_1_234
10
10.5990659
20
160.083
11
10.4809994
21
160.083
0
LINE
8
DEFAULT_255_1_234
10
10.4809994
20
160.083
11
10.0978854
21
161.0275324
0
LINE
8
DEFAULT_255_1_234
10
10.0978854
20
161.0275324
11
10.1131458
21
160.5383996
0
LINE
8
DEFAULT_255_1_234
10
10.1131458
20
160.5383996
11
10.1131458
21
160.083
0
LINE
8
DEFAULT_255_1_234
10
10.1131458
20
160.083
11
9.9589364
21
160.083
0
LINE
8
DEFAULT_255_1_234
10
9.9589364
20
160.083
11
9.9589364
21
161.2524211
0
LINE
8
DEFAULT_255_1_234
10
11.5331571
20
160.9520341
11
11.5331571
21
160.083
0
LINE
8
DEFAULT_255_1_234
10
11.5331571
20
160.083
11
11.3845699
21
160.083
0
LINE
8
DEFAULT_255_1_234
10
11.3845699
20
160.083
11
11.3845699
21
160.9520341
0
LINE
8
DEFAULT_255_1_234
10
11.3845699
20
160.9520341
11
11.5331571
21
160.9520341
0
ARC
8
DEFAULT_255_1_234
10
11.4703848
20
161.1834889
40
0.097867
50
161.415052
51
180.5526306
0
ARC
8
DEFAULT_255_1_234
10
11.4579626
20
161.1869077
40
0.0850062
50
138.1827368
51
160.9307106
0
ARC
8
DEFAULT_255_1_234
10
11.4469572
20
161.1964588
40
0.0704362
50
104.6368899
51
138.0039868
0
ARC
8
DEFAULT_255_1_234
10
11.4576726
20
161.1597963
40
0.1086221
50
92.0600725
51
105.2189128
0
ARC
8
DEFAULT_255_1_234
10
11.4600075
20
161.1255117
40
0.1429728
50
89.9756393
51
92.5012496
0
ARC
8
DEFAULT_255_1_234
10
11.4610094
20
161.1480731
40
0.1204151
50
78.0235316
51
90.4478182
0
ARC
8
DEFAULT_255_1_234
10
11.4702186
20
161.1894295
40
0.0780493
50
55.051506
51
78.3369085
0
ARC
8
DEFAULT_255_1_234
10
11.475246
20
161.1978711
40
0.0682538
50
42.0501187
51
54.4513741
0
ARC
8
DEFAULT_255_1_234
10
11.4617328
20
161.1854798
40
0.0865878
50
1.7497075
51
42.1496013
0
ARC
8
DEFAULT_255_1_234
10
11.436266
20
161.1825738
40
0.1121515
50
359.9852656
51
2.8364544
0
ARC
8
DEFAULT_255_1_234
10
11.4528653
20
161.1816229
40
0.0955566
50
342.1070653
51
0.552888
0
ARC
8
DEFAULT_255_1_234
10
11.467135
20
161.1776904
40
0.0807713
50
316.7107116
51
341.6516965
0
ARC
8
DEFAULT_255_1_234
10
11.4738387
20
161.1716823
40
0.0717724
50
285.4397031
51
316.5324284
0
ARC
8
DEFAULT_255_1_234
10
11.4628304
20
161.2082554
40
0.1099597
50
272.3547054
51
285.8953117
0
ARC
8
DEFAULT_255_1_234
10
11.4601462
20
161.2448048
40
0.1465932
50
269.9695369
51
272.8160237
0
ARC
8
DEFAULT_255_1_234
10
11.4591644
20
161.2228863
40
0.1246779
50
258.8431134
51
270.4153935
0
ARC
8
DEFAULT_255_1_234
10
11.4501686
20
161.1793414
40
0.0802162
50
238.5431189
51
259.1288175
0
ARC
8
DEFAULT_255_1_234
10
11.4433571
20
161.1669856
40
0.0661247
50
222.5062634
51
237.9906969
0
ARC
8
DEFAULT_255_1_234
10
11.4561158
20
161.1785889
40
0.0833707
50
184.1069131
51
222.460413
0
ARC
8
DEFAULT_255_1_234
10
11.4830399
20
161.1824349
40
0.1105176
50
179.9429482
51
185.0960898
0
LINE
8
DEFAULT_255_1_234
10
12.3242833
20
160.3568823
11
12.4648387
21
160.3568823
0
LINE
8
DEFAULT_255_1_234
10
11.7323442
20
160.5094853
11
11.7323442
21
160.5343837
0
LINE
8
DEFAULT_255_1_234
10
12.4648387
20
160.6532534
11
12.3242833
21
160.6532534
0
LINE
8
DEFAULT_255_1_234
10
11.8809313
20
160.5287615
11
11.8809313
21
160.5006504
0
ARC
8
DEFAULT_255_1_234
10
12.1230868
20
160.4022121
40
0.2140268
50
269.0327816
51
309.2224514
0
ARC
8
DEFAULT_255_1_234
10
12.1440623
20
160.3807108
40
0.1841255
50
308.396669
51
329.6984113
0
ARC
8
DEFAULT_255_1_234
10
12.1578478
20
160.370282
40
0.166974
50
330.401383
51
355.3970571
0
ARC
8
DEFAULT_255_1_234
10
12.2035344
20
160.3720082
40
0.2617417
50
329.2357853
51
356.6870514
0
ARC
8
DEFAULT_255_1_234
10
12.1485366
20
160.4010971
40
0.3238945
50
324.8706984
51
329.7905871
0
ARC
8
DEFAULT_255_1_234
10
12.1407084
20
160.4078106
40
0.3341614
50
298.8769168
51
324.7016144
0
ARC
8
DEFAULT_255_1_234
10
12.1075276
20
160.4606917
40
0.3965068
50
296.9023738
51
299.385174
0
ARC
8
DEFAULT_255_1_234
10
12.1204889
20
160.4319422
40
0.365007
50
269.8406811
51
297.1299281
0
ARC
8
DEFAULT_255_1_234
10
12.1151546
20
160.4957407
40
0.4288259
50
253.315473
51
270.5771285
0
ARC
8
DEFAULT_255_1_234
10
12.0904581
20
160.4063739
40
0.3361372
50
221.1002312
51
252.9744583
0
ARC
8
DEFAULT_255_1_234
10
12.1364578
20
160.445859
40
0.3967576
50
194.5394537
51
221.0302238
0
ARC
8
DEFAULT_255_1_234
10
12.3213399
20
160.4973952
40
0.5886672
50
182.0499201
51
194.8773585
0
ARC
8
DEFAULT_255_1_234
10
12.4983597
20
160.509206
40
0.7660157
50
179.9791086
51
182.4591564
0
ARC
8
DEFAULT_255_1_234
10
12.3245642
20
160.5373498
40
0.5922274
50
168.614861
51
180.2869651
0
ARC
8
DEFAULT_255_1_234
10
12.2043786
20
160.5609269
40
0.4697532
50
154.9162259
51
168.5402336
0
ARC
8
DEFAULT_255_1_234
10
12.1122294
20
160.606463
40
0.3669966
50
133.5746694
51
155.2558665
0
ARC
8
DEFAULT_255_1_234
10
12.0959453
20
160.6203467
40
0.3457206
50
122.0165146
51
133.2055214
0
ARC
8
DEFAULT_255_1_234
10
12.0995292
20
160.6115361
40
0.355095
50
97.8731644
51
121.7531281
0
ARC
8
DEFAULT_255_1_234
10
12.1174374
20
160.5058159
40
0.4622833
50
89.8471353
51
98.2769494
0
ARC
8
DEFAULT_255_1_234
10
12.1223127
20
160.5668091
40
0.401305
50
73.3760412
51
90.5199766
0
ARC
8
DEFAULT_255_1_234
10
12.141949
20
160.6390516
40
0.3264695
50
47.7085968
51
73.0509704
0
ARC
8
DEFAULT_255_1_234
10
12.154936
20
160.6503128
40
0.309407
50
3.7443473
51
48.0843753
0
ARC
8
DEFAULT_255_1_234
10
12.056231
20
160.6345614
40
0.4090351
50
2.6192045
51
5.0432185
0
ARC
8
DEFAULT_255_1_234
10
12.1019163
20
160.6385592
40
0.2228519
50
3.780656
51
23.9356886
0
ARC
8
DEFAULT_255_1_234
10
12.1247779
20
160.6466155
40
0.198697
50
24.4869552
51
46.9440088
0
ARC
8
DEFAULT_255_1_234
10
12.124863
20
160.6489484
40
0.1969404
50
46.498716
51
89.3298174
0
ARC
8
DEFAULT_255_1_234
10
12.1186984
20
160.5894723
40
0.2565428
50
88.1083975
51
90.0061569
0
ARC
8
DEFAULT_255_1_234
10
12.1159414
20
160.5948759
40
0.251154
50
89.3773333
51
107.2071161
0
ARC
8
DEFAULT_255_1_234
10
12.1016537
20
160.646619
40
0.1975072
50
107.6883219
51
143.3583002
0
ARC
8
DEFAULT_255_1_234
10
12.158392
20
160.6039873
40
0.2684762
50
143.2846717
51
162.935323
0
ARC
8
DEFAULT_255_1_234
10
12.3089522
20
160.5556652
40
0.4265927
50
162.6650068
51
174.0805419
0
ARC
8
DEFAULT_255_1_234
10
12.5232361
20
160.5307636
40
0.6423078
50
173.8423985
51
180.1785963
0
ARC
8
DEFAULT_255_1_234
10
12.4684461
20
160.4976039
40
0.5875227
50
179.7028978
51
188.2277152
0
ARC
8
DEFAULT_255_1_234
10
12.2582763
20
160.4661247
40
0.3750127
50
188.0629871
51
201.1160002
0
ARC
8
DEFAULT_255_1_234
10
12.1484961
20
160.4242238
40
0.2575093
50
201.2187293
51
216.9761968
0
ARC
8
DEFAULT_255_1_234
10
12.1033524
20
160.3903993
40
0.2010998
50
217.0135981
51
265.2056839
0
ARC
8
DEFAULT_255_1_234
10
12.1189384
20
160.4825695
40
0.2943543
50
263.681807
51
270.104251
0
LINE
8
DEFAULT_255_1_234
10
13.0519588
20
160.9568531
11
13.0519588
21
160.8187072
0
LINE
8
DEFAULT_255_1_234
10
12.780486
20
160.6998375
11
12.780486
21
160.083
0
LINE
8
DEFAULT_255_1_234
10
12.780486
20
160.083
11
12.6318989
21
160.083
0
LINE
8
DEFAULT_255_1_234
10
12.6318989
20
160.083
11
12.6318989
21
160.9520341
0
LINE
8
DEFAULT_255_1_234
10
12.6318989
20
160.9520341
11
12.7764702
21
160.9520341
0
LINE
8
DEFAULT_255_1_234
10
12.7764702
20
160.9520341
11
12.7788797
21
160.8516374
0
ARC
8
DEFAULT_255_1_234
10
12.9852993
20
160.4127342
40
0.4114092
50
80.6754243
51
86.8932892
0
ARC
8
DEFAULT_255_1_234
10
12.9792528
20
160.31597
40
0.5083596
50
86.8038578
51
90.0431435
0
ARC
8
DEFAULT_255_1_234
10
12.9755509
20
160.5616866
40
0.2626638
50
89.2759698
51
106.6213787
0
ARC
8
DEFAULT_255_1_234
10
12.9551072
20
160.635983
40
0.1856317
50
107.1346045
51
157.6458115
0
ARC
8
DEFAULT_255_1_234
10
13.0242674
20
160.5976311
40
0.2643398
50
155.6586782
51
157.2539184
0
ARC
8
DEFAULT_255_1_234
10
13.0037876
20
160.7145157
40
0.2634121
50
127.8165941
51
148.6302098
0
ARC
8
DEFAULT_255_1_234
10
12.9784345
20
160.7405218
40
0.2273596
50
91.3329982
51
126.7875809
0
ARC
8
DEFAULT_255_1_234
10
12.9860286
20
160.6690195
40
0.299078
50
89.986594
51
92.4688449
0
ARC
8
DEFAULT_255_1_234
10
12.9868681
20
160.6965078
40
0.2715908
50
85.3589899
51
90.1623399
0
ARC
8
DEFAULT_255_1_234
10
12.9953196
20
160.7969164
40
0.1708278
50
78.401942
51
85.4594656
0
ARC
8
DEFAULT_255_1_234
10
13.009808
20
160.8660236
40
0.1002194
50
67.7858312
51
78.5728455
0
ARC
8
DEFAULT_255_1_234
10
13.0205933
20
160.8939887
40
0.0702548
50
63.4835954
51
67.3062642
0
LINE
8
DEFAULT_255_1_234
10
13.1330793
20
160.5151075
11
13.1330793
21
160.5255488
0
LINE
8
DEFAULT_255_1_234
10
13.9242056
20
160.5183202
11
13.9242056
21
160.507879
0
ARC
8
DEFAULT_255_1_234
10
13.6916973
20
160.5287837
40
0.5586273
50
166.3003825
51
180.3317926
0
ARC
8
DEFAULT_255_1_234
10
13.6054132
20
160.5480964
40
0.4702272
50
153.8608245
51
166.0967125
0
ARC
8
DEFAULT_255_1_234
10
13.5388535
20
160.583775
40
0.3947658
50
135.1316692
51
154.253643
0
ARC
8
DEFAULT_255_1_234
10
13.5110094
20
160.6083666
40
0.3576898
50
121.7044358
51
134.776924
0
ARC
8
DEFAULT_255_1_234
10
13.5177088
20
160.5954867
40
0.3721701
50
93.4002104
51
121.5398234
0
ARC
8
DEFAULT_255_1_234
10
13.5272044
20
160.5129228
40
0.4551749
50
89.9706281
51
93.9769836
0
ARC
8
DEFAULT_255_1_234
10
13.5319136
20
160.5519362
40
0.4161854
50
71.3323442
51
90.6161982
0
ARC
8
DEFAULT_255_1_234
10
13.5481832
20
160.6121578
40
0.3539455
50
41.1815071
51
70.707185
0
ARC
8
DEFAULT_255_1_234
10
13.5004232
20
160.5687919
40
0.4184468
50
12.1971897
51
41.3445735
0
ARC
8
DEFAULT_255_1_234
10
13.307824
20
160.5229425
40
0.616399
50
359.5703439
51
12.5804035
0
ARC
8
DEFAULT_255_1_234
10
13.3551315
20
160.5047116
40
0.5690829
50
347.0197749
51
0.3188898
0
ARC
8
DEFAULT_255_1_234
10
13.4509817
20
160.4840808
40
0.4710501
50
334.3504053
51
346.846361
0
ARC
8
DEFAULT_255_1_234
10
13.535524
20
160.4401805
40
0.3758475
50
310.422922
51
334.8045033
0
ARC
8
DEFAULT_255_1_234
10
13.5437066
20
160.4337782
40
0.3656736
50
301.8486886
51
310.097356
0
ARC
8
DEFAULT_255_1_234
10
13.5404792
20
160.4413638
40
0.3738224
50
274.307774
51
301.655379
0
ARC
8
DEFAULT_255_1_234
10
13.5294099
20
160.5291361
40
0.4621997
50
269.9546461
51
274.8588071
0
ARC
8
DEFAULT_255_1_234
10
13.5245033
20
160.4790249
40
0.4121134
50
250.888809
51
270.631312
0
ARC
8
DEFAULT_255_1_234
10
13.5094953
20
160.4231277
40
0.3544073
50
221.1701932
51
250.2227191
0
ARC
8
DEFAULT_255_1_234
10
13.5579107
20
160.4672439
40
0.4198961
50
191.6263638
51
221.3526367
0
ARC
8
DEFAULT_255_1_234
10
13.7467103
20
160.5109329
40
0.6136451
50
179.610213
51
192.0693181
0
ARC
8
DEFAULT_255_1_234
10
13.7890331
20
160.5046633
40
0.5065736
50
179.636298
51
190.6162791
0
ARC
8
DEFAULT_255_1_234
10
13.6247999
20
160.472659
40
0.3392576
50
190.4136628
51
208.7170242
0
ARC
8
DEFAULT_255_1_234
10
13.5737623
20
160.4473366
40
0.2823401
50
209.1867941
51
217.4225593
0
ARC
8
DEFAULT_255_1_234
10
13.5208457
20
160.4007558
40
0.2120636
50
216.1156896
51
265.2575835
0
ARC
8
DEFAULT_255_1_234
10
13.5287606
20
160.4581109
40
0.2698952
50
264.5897417
51
270.0601757
0
ARC
8
DEFAULT_255_1_234
10
13.5320666
20
160.4201185
40
0.2319225
50
269.2532621
51
291.8792492
0
ARC
8
DEFAULT_255_1_234
10
13.5349888
20
160.4023238
40
0.2143562
50
292.9269754
51
323.1776747
0
ARC
8
DEFAULT_255_1_234
10
13.495671
20
160.4371452
40
0.2667346
50
322.2518483
51
323.0930371
0
ARC
8
DEFAULT_255_1_234
10
13.4662369
20
160.455299
40
0.3011886
50
323.6941278
51
343.8493282
0
ARC
8
DEFAULT_255_1_234
10
13.3083912
20
160.503335
40
0.4661719
50
343.5748474
51
355.0079071
0
ARC
8
DEFAULT_255_1_234
10
13.1076157
20
160.5241424
40
0.6680042
50
354.7285225
51
0.1206288
0
ARC
8
DEFAULT_255_1_234
10
13.2844623
20
160.5287751
40
0.4911667
50
359.623636
51
11.2015604
0
ARC
8
DEFAULT_255_1_234
10
13.4378851
20
160.560364
40
0.3345323
50
10.9989411
51
30.8319188
0
ARC
8
DEFAULT_255_1_234
10
13.4774723
20
160.5812297
40
0.2898553
50
31.3008956
51
37.3959224
0
ARC
8
DEFAULT_255_1_234
10
13.5271302
20
160.6231653
40
0.2249582
50
36.5915954
51
62.2442953
0
ARC
8
DEFAULT_255_1_234
10
13.5317755
20
160.6228602
40
0.2231053
50
63.3365542
51
89.7195421
0
ARC
8
DEFAULT_255_1_234
10
13.5274609
20
160.5659884
40
0.2800267
50
88.8936788
51
90.0047485
0
ARC
8
DEFAULT_255_1_234
10
13.5242968
20
160.6232787
40
0.2227586
50
89.1921125
51
114.7099455
0
ARC
8
DEFAULT_255_1_234
10
13.5271732
20
160.6270628
40
0.2205633
50
115.7997161
51
142.2900762
0
ARC
8
DEFAULT_255_1_234
10
13.5710465
20
160.5880658
40
0.2791541
50
141.4658779
51
142.3795754
0
ARC
8
DEFAULT_255_1_234
10
13.5819369
20
160.5837557
40
0.2904292
50
143.0175714
51
163.234115
0
ARC
8
DEFAULT_255_1_234
10
13.7397542
20
160.5338054
40
0.4559523
50
162.9447461
51
174.3732162
0
ARC
8
DEFAULT_255_1_234
10
13.9543356
20
160.5097143
40
0.6718682
50
174.1228657
51
180.1565175
0
LINE
8
DEFAULT_255_1_234
10
15.2020551
20
160.7496343
11
15.2020551
21
160.623536
0
LINE
8
DEFAULT_255_1_234
10
15.2020551
20
160.623536
11
14.6952524
21
160.623536
0
LINE
8
DEFAULT_255_1_234
10
14.6952524
20
160.623536
11
14.6952524
21
160.2090983
0
LINE
8
DEFAULT_255_1_234
10
14.6952524
20
160.2090983
11
15.2839789
21
160.2090983
0
LINE
8
DEFAULT_255_1_234
10
15.2839789
20
160.2090983
11
15.2839789
21
160.083
0
LINE
8
DEFAULT_255_1_234
10
15.2839789
20
160.083
11
14.5410431
21
160.083
0
LINE
8
DEFAULT_255_1_234
10
14.5410431
20
160.083
11
14.5410431
21
161.2524211
0
LINE
8
DEFAULT_255_1_234
10
14.5410431
20
161.2524211
11
15.2759471
21
161.2524211
0
LINE
8
DEFAULT_255_1_234
10
15.2759471
20
161.2524211
11
15.2759471
21
161.1255196
0
LINE
8
DEFAULT_255_1_234
10
15.2759471
20
161.1255196
11
14.6952524
21
161.1255196
0
LINE
8
DEFAULT_255_1_234
10
14.6952524
20
161.1255196
11
14.6952524
21
160.7496343
0
LINE
8
DEFAULT_255_1_234
10
14.6952524
20
160.7496343
11
15.2020551
21
160.7496343
0
LINE
8
DEFAULT_255_1_234
10
16.3746889
20
161.2524211
11
16.3746889
21
160.083
0
LINE
8
DEFAULT_255_1_234
10
16.3746889
20
160.083
11
16.2196764
21
160.083
0
LINE
8
DEFAULT_255_1_234
10
16.2196764
20
160.083
11
16.2196764
21
160.623536
0
LINE
8
DEFAULT_255_1_234
10
16.2196764
20
160.623536
11
15.6301468
21
160.623536
0
LINE
8
DEFAULT_255_1_234
10
15.6301468
20
160.623536
11
15.6301468
21
160.083
0
LINE
8
DEFAULT_255_1_234
10
15.6301468
20
160.083
11
15.4759374
21
160.083
0
LINE
8
DEFAULT_255_1_234
10
15.4759374
20
160.083
11
15.4759374
21
161.2524211
0
LINE
8
DEFAULT_255_1_234
10
15.4759374
20
161.2524211
11
15.6301468
21
161.2524211
0
LINE
8
DEFAULT_255_1_234
10
15.6301468
20
161.2524211
11
15.6301468
21
160.7496343
0
LINE
8
DEFAULT_255_1_234
10
15.6301468
20
160.7496343
11
16.2196764
21
160.7496343
0
LINE
8
DEFAULT_255_1_234
10
16.2196764
20
160.7496343
11
16.2196764
21
161.2524211
0
LINE
8
DEFAULT_255_1_234
10
16.2196764
20
161.2524211
11
16.3746889
21
161.2524211
0
LINE
8
DEFAULT_255_1_234
10
16.703187
20
161.2524211
11
17.035701
21
160.2878093
0
LINE
8
DEFAULT_255_1_234
10
17.035701
20
160.2878093
11
17.3698213
21
161.2524211
0
LINE
8
DEFAULT_255_1_234
10
17.3698213
20
161.2524211
11
17.5384878
21
161.2524211
0
LINE
8
DEFAULT_255_1_234
10
17.5384878
20
161.2524211
11
17.1047739
21
160.083
0
LINE
8
DEFAULT_255_1_234
10
17.1047739
20
160.083
11
16.9682344
21
160.083
0
LINE
8
DEFAULT_255_1_234
10
16.9682344
20
160.083
11
16.5353237
21
161.2524211
0
LINE
8
DEFAULT_255_1_234
10
16.5353237
20
161.2524211
11
16.703187
21
161.2524211
0
LINE
8
DEFAULT_255_1_234
10
18.0974968
20
161.0516276
11
18.0974968
21
160.7102788
0
LINE
8
DEFAULT_255_1_234
10
18.0974968
20
160.7102788
11
18.4235854
21
160.7102788
0
LINE
8
DEFAULT_255_1_234
10
18.4235854
20
160.7102788
11
18.4235854
21
160.5697233
0
LINE
8
DEFAULT_255_1_234
10
18.4235854
20
160.5697233
11
18.0974968
21
160.5697233
0
LINE
8
DEFAULT_255_1_234
10
18.0974968
20
160.5697233
11
18.0974968
21
160.2002634
0
LINE
8
DEFAULT_255_1_234
10
18.0974968
20
160.2002634
11
17.9481064
21
160.2002634
0
LINE
8
DEFAULT_255_1_234
10
17.9481064
20
160.2002634
11
17.9481064
21
160.5697233
0
LINE
8
DEFAULT_255_1_234
10
17.9481064
20
160.5697233
11
17.6220179
21
160.5697233
0
LINE
8
DEFAULT_255_1_234
10
17.6220179
20
160.5697233
11
17.6220179
21
160.7102788
0
LINE
8
DEFAULT_255_1_234
10
17.6220179
20
160.7102788
11
17.9481064
21
160.7102788
0
LINE
8
DEFAULT_255_1_234
10
17.9481064
20
160.7102788
11
17.9481064
21
161.0516276
0
LINE
8
DEFAULT_255_1_234
10
17.9481064
20
161.0516276
11
18.0974968
21
161.0516276
0
LINE
8
DEFAULT_255_2_778
10
9.3932417
20
148.0343324
11
10.7161417
21
148.0343324
0
LINE
8
DEFAULT_255_2_778
10
10.7161417
20
148.0343324
11
10.7161417
21
79.2426324
0
LINE
8
DEFAULT_255_2_778
10
9.3932834
20
79.2426333
11
12.0390834
21
79.2426333
0
LINE
8
DEFAULT_255_2_778
10
12.0390834
20
79.2426333
11
12.0390834
21
73.9509333
0
LINE
8
DEFAULT_255_2_778
10
12.0390834
20
73.9509333
11
9.3932834
21
73.9509333
0
LINE
8
DEFAULT_255_2_778
10
9.3932834
20
73.9509333
11
9.3932834
21
79.2426333
0
LINE
8
DEFAULT_255_2_778
10
10.187
20
74.4801666
11
10.187
21
78.7134666
0
LINE
8
DEFAULT_255_2_778
10
9.9224167
20
77.919775
11
10.1870167
21
78.713475
0
LINE
8
DEFAULT_255_2_778
10
10.1870167
20
78.713475
11
10.4516167
21
77.919775
0
LINE
8
DEFAULT_255_2_778
10
10.4516167
20
77.919775
11
9.9224167
21
77.919775
0
LINE
8
DEFAULT_255_2_778
10
11.2453
20
78.7134666
11
11.2453
21
74.4801666
0
LINE
8
DEFAULT_255_2_778
10
10.9807167
20
75.273975
11
11.2453167
21
74.480275
0
LINE
8
DEFAULT_255_2_778
10
11.2453167
20
74.480275
11
11.5099167
21
75.273975
0
LINE
8
DEFAULT_255_2_778
10
11.5099167
20
75.273975
11
10.9807167
21
75.273975
0
LINE
8
DEFAULT_255_2_778
10
10.7161417
20
73.9510324
11
10.7161417
21
5.1593324
0
LINE
8
DEFAULT_255_2_778
10
10.7161417
20
5.1593324
11
9.3932417
21
5.1593324
0
LINE
8
DEFAULT_255_2_778
10
17.3307834
20
89.8260333
11
19.9765834
21
89.8260333
0
LINE
8
DEFAULT_255_2_778
10
19.9765834
20
89.8260333
11
19.9765834
21
84.5343333
0
LINE
8
DEFAULT_255_2_778
10
19.9765834
20
84.5343333
11
17.3307834
21
84.5343333
0
LINE
8
DEFAULT_255_2_778
10
17.3307834
20
84.5343333
11
17.3307834
21
89.8260333
0
LINE
8
DEFAULT_255_2_778
10
18.1245
20
85.0635666
11
18.1245
21
89.2968666
0
LINE
8
DEFAULT_255_2_778
10
17.8599167
20
88.503175
11
18.1245167
21
89.296875
0
LINE
8
DEFAULT_255_2_778
10
18.1245167
20
89.296875
11
18.3891167
21
88.503175
0
LINE
8
DEFAULT_255_2_778
10
18.3891167
20
88.503175
11
17.8599167
21
88.503175
0
LINE
8
DEFAULT_255_2_778
10
19.1828
20
89.2968666
11
19.1828
21
85.0635666
0
LINE
8
DEFAULT_255_2_778
10
18.9182167
20
85.857275
11
19.1828167
21
85.063575
0
LINE
8
DEFAULT_255_2_778
10
19.1828167
20
85.063575
11
19.4474167
21
85.857275
0
LINE
8
DEFAULT_255_2_778
10
19.4474167
20
85.857275
11
18.9182167
21
85.857275
0
LINE
8
DEFAULT_255_2_778
10
19.9765417
20
142.7426985
11
18.6536417
21
142.7426985
0
LINE
8
DEFAULT_255_2_778
10
18.6536417
20
142.7426985
11
18.6536417
21
89.8259985
0
LINE
8
DEFAULT_255_2_778
10
18.6536417
20
84.5343985
11
18.6536417
21
31.6176985
0
LINE
8
DEFAULT_255_2_778
10
18.6536417
20
31.6176985
11
19.9765417
21
31.6176985
0
LINE
8
DEFAULT_255_1_234
10
4.9274119
20
158.2199792
11
4.9274119
21
158.0987
0
LINE
8
DEFAULT_255_1_234
10
4.9274119
20
158.0987
11
4.161184
21
158.0987
0
LINE
8
DEFAULT_255_1_234
10
4.161184
20
158.0987
11
4.161184
21
158.2055221
0
LINE
8
DEFAULT_255_1_234
10
4.161184
20
158.2055221
11
4.5659836
21
158.6552995
0
LINE
8
DEFAULT_255_1_234
10
4.2872823
20
158.9235595
11
4.1386952
21
158.9235595
0
LINE
8
DEFAULT_255_1_234
10
4.6535296
20
158.5597218
11
4.3402918
21
158.2199792
0
LINE
8
DEFAULT_255_1_234
10
4.3402918
20
158.2199792
11
4.9274119
21
158.2199792
0
ARC
8
DEFAULT_255_1_234
10
3.216967
20
159.8482527
40
1.8008286
50
318.5132453
51
320.7828378
0
ARC
8
DEFAULT_255_1_234
10
3.7456644
20
159.4179426
40
1.1191493
50
320.7372736
51
323.9737074
0
ARC
8
DEFAULT_255_1_234
10
4.1376501
20
159.1339361
40
0.6350923
50
323.8961724
51
328.6421089
0
ARC
8
DEFAULT_255_1_234
10
4.3423096
20
159.0077031
40
0.3946393
50
328.8299013
51
331.789948
0
ARC
8
DEFAULT_255_1_234
10
4.4420274
20
158.9562509
40
0.2824501
50
331.4255242
51
352.9364833
0
ARC
8
DEFAULT_255_1_234
10
4.4556775
20
158.9531976
40
0.2685315
50
353.2248685
51
0.0169286
0
ARC
8
DEFAULT_255_1_234
10
4.4766652
20
158.955495
40
0.2475536
50
359.4866256
51
15.9339782
0
ARC
8
DEFAULT_255_1_234
10
4.5273637
20
158.9691286
40
0.1950618
50
16.1714718
51
43.5284424
0
ARC
8
DEFAULT_255_1_234
10
4.5350946
20
158.9768573
40
0.184134
50
43.4415429
51
83.1661404
0
ARC
8
DEFAULT_255_1_234
10
4.5216864
20
158.9031771
40
0.258926
50
82.160215
51
90.1505798
0
ARC
8
DEFAULT_255_1_234
10
4.5185291
20
158.8494865
40
0.3126255
50
89.5460705
51
102.5418777
0
ARC
8
DEFAULT_255_1_234
10
4.4942377
20
158.9525665
40
0.2067346
50
102.1739365
51
129.2061916
0
ARC
8
DEFAULT_255_1_234
10
4.4863449
20
158.9650094
40
0.1921118
50
129.7279328
51
135.7542026
0
ARC
8
DEFAULT_255_1_234
10
4.4984977
20
158.9553045
40
0.2075944
50
136.175737
51
166.3674722
0
ARC
8
DEFAULT_255_1_234
10
4.5991896
20
158.9283182
40
0.3118201
50
165.9092917
51
178.8683903
0
ARC
8
DEFAULT_255_1_234
10
4.6856757
20
158.9236179
40
0.3983935
50
178.438168
51
180.0083905
0
ARC
8
DEFAULT_255_1_234
10
4.5455359
20
158.9275231
40
0.4068601
50
163.2878735
51
180.5581814
0
ARC
8
DEFAULT_255_1_234
10
4.4653621
20
158.949584
40
0.3237344
50
133.454115
51
162.9470031
0
ARC
8
DEFAULT_255_1_234
10
4.4832162
20
158.9306
40
0.349795
50
100.7869394
51
133.4384016
0
ARC
8
DEFAULT_255_1_234
10
4.5179934
20
158.7757319
40
0.5084616
50
89.6605301
51
101.3704185
0
ARC
8
DEFAULT_255_1_234
10
4.5246273
20
158.7818496
40
0.502348
50
78.2171172
51
90.4130393
0
ARC
8
DEFAULT_255_1_234
10
4.5601351
20
158.9442637
40
0.3361092
50
55.9268222
51
78.4888551
0
ARC
8
DEFAULT_255_1_234
10
4.5797791
20
158.9781324
40
0.2970617
50
47.9292255
51
55.4054003
0
ARC
8
DEFAULT_255_1_234
10
4.5899352
20
158.9884502
40
0.2825983
50
4.3347696
51
48.0560701
0
ARC
8
DEFAULT_255_1_234
10
4.4803745
20
158.9714601
40
0.393225
50
359.925209
51
5.5967654
0
ARC
8
DEFAULT_255_1_234
10
4.5232637
20
158.9770816
40
0.3503892
50
337.8914096
51
358.9967724
0
ARC
8
DEFAULT_255_1_234
10
4.2519049
20
159.0817706
40
0.6412172
50
326.9135351
51
338.3505194
0
ARC
8
DEFAULT_255_1_234
10
3.8533353
20
159.3372284
40
1.1146189
50
319.6472867
51
327.095818
0
ARC
8
DEFAULT_255_1_234
10
3.4700356
20
159.6534
40
1.6114559
50
317.2586784
51
319.9046139
0
LINE
8
DEFAULT_255_1_234
10
5.7121127
20
159.2681211
11
5.7121127
21
158.491452
0
LINE
8
DEFAULT_255_1_234
10
5.7121127
20
158.491452
11
5.8743538
21
158.491452
0
LINE
8
DEFAULT_255_1_234
10
5.8743538
20
158.491452
11
5.8743538
21
158.3701728
0
LINE
8
DEFAULT_255_1_234
10
5.8743538
20
158.3701728
11
5.7121127
21
158.3701728
0
LINE
8
DEFAULT_255_1_234
10
5.7121127
20
158.3701728
11
5.7121127
21
158.0987
0
LINE
8
DEFAULT_255_1_234
10
5.7121127
20
158.0987
11
5.5627224
21
158.0987
0
LINE
8
DEFAULT_255_1_234
10
5.5627224
20
158.0987
11
5.5627224
21
158.3701728
0
LINE
8
DEFAULT_255_1_234
10
5.5627224
20
158.3701728
11
5.0302181
21
158.3701728
0
LINE
8
DEFAULT_255_1_234
10
5.0302181
20
158.3701728
11
5.0302181
21
158.4577187
0
LINE
8
DEFAULT_255_1_234
10
5.0302181
20
158.4577187
11
5.5538875
21
159.2681211
0
LINE
8
DEFAULT_255_1_234
10
5.5538875
20
159.2681211
11
5.7121127
21
159.2681211
0
LINE
8
DEFAULT_255_1_234
10
5.5450525
20
159.0327912
11
5.1988846
21
158.491452
0
LINE
8
DEFAULT_255_1_234
10
5.1988846
20
158.491452
11
5.5627224
21
158.491452
0
LINE
8
DEFAULT_255_1_234
10
5.5627224
20
158.491452
11
5.5627224
21
159.0649181
0
LINE
8
DEFAULT_255_1_234
10
5.5627224
20
159.0649181
11
5.5450525
21
159.0327912
0
LINE
8
DEFAULT_255_1_234
10
6.101652
20
159.2681211
11
6.434166
21
158.3035093
0
LINE
8
DEFAULT_255_1_234
10
6.434166
20
158.3035093
11
6.7682863
21
159.2681211
0
LINE
8
DEFAULT_255_1_234
10
6.7682863
20
159.2681211
11
6.9369528
21
159.2681211
0
LINE
8
DEFAULT_255_1_234
10
6.9369528
20
159.2681211
11
6.5032389
21
158.0987
0
LINE
8
DEFAULT_255_1_234
10
6.5032389
20
158.0987
11
6.3666994
21
158.0987
0
LINE
8
DEFAULT_255_1_234
10
6.3666994
20
158.0987
11
5.9337887
21
159.2681211
0
LINE
8
DEFAULT_255_1_234
10
5.9337887
20
159.2681211
11
6.101652
21
159.2681211
0
LINE
8
DEFAULT_255_1_234
10
4.801923
20
5.0113663
11
4.9569355
21
5.0113663
0
LINE
8
DEFAULT_255_1_234
10
4.0565777
20
5.1703947
11
4.0565777
21
5.2828391
0
LINE
8
DEFAULT_255_1_234
10
4.9569355
20
5.4338357
11
4.801923
21
5.4338357
0
LINE
8
DEFAULT_255_1_234
10
4.2115902
20
5.2788232
11
4.2115902
21
5.1655757
0
ARC
8
DEFAULT_255_1_234
10
4.4088742
20
5.0710846
40
0.5513052
50
340.1774281
51
353.7814284
0
ARC
8
DEFAULT_255_1_234
10
4.5660095
20
5.0125582
40
0.3836379
50
311.4558989
51
340.4421614
0
ARC
8
DEFAULT_255_1_234
10
4.5626763
20
5.0236528
40
0.3941894
50
282.4333181
51
310.7513653
0
ARC
8
DEFAULT_255_1_234
10
4.5187502
20
5.2051679
40
0.5809175
50
269.9358511
51
282.809604
0
ARC
8
DEFAULT_255_1_234
10
4.5135568
20
5.3509212
40
0.7266847
50
270.0021091
51
270.3581957
0
ARC
8
DEFAULT_255_1_234
10
4.5082985
20
5.0908585
40
0.4666519
50
250.7884749
51
270.6489167
0
ARC
8
DEFAULT_255_1_234
10
4.491482
20
5.0271319
40
0.4009729
50
219.3627325
51
250.0611886
0
ARC
8
DEFAULT_255_1_234
10
4.5744031
20
5.0976042
40
0.5097822
50
193.5479632
51
219.5756669
0
ARC
8
DEFAULT_255_1_234
10
4.8115652
20
5.1591919
40
0.7547848
50
181.1218675
51
193.87563
0
ARC
8
DEFAULT_255_1_234
10
5.0185833
20
5.170258
40
0.9620055
50
179.9918545
51
181.5394234
0
ARC
8
DEFAULT_255_1_234
10
4.8334935
20
5.2865788
40
0.7769248
50
169.5837241
51
180.2757934
0
ARC
8
DEFAULT_255_1_234
10
4.6497873
20
5.3205229
40
0.590109
50
155.0365899
51
169.6003176
0
ARC
8
DEFAULT_255_1_234
10
4.5362337
20
5.3752677
40
0.4640625
50
136.783148
51
155.2472683
0
ARC
8
DEFAULT_255_1_234
10
4.4972814
20
5.4083562
40
0.4130255
50
121.7633186
51
136.428115
0
ARC
8
DEFAULT_255_1_234
10
4.5107776
20
5.3834227
40
0.4413323
50
95.6459699
51
121.5490577
0
ARC
8
DEFAULT_255_1_234
10
4.5265058
20
5.2725949
40
0.55319
50
89.924208
51
96.1377933
0
ARC
8
DEFAULT_255_1_234
10
4.5315491
20
5.2844542
40
0.5413475
50
76.6779277
51
90.4563316
0
ARC
8
DEFAULT_255_1_234
10
4.5709114
20
5.4435114
40
0.3775041
50
47.485847
51
76.9287264
0
ARC
8
DEFAULT_255_1_234
10
4.5562087
20
5.4335159
40
0.3948286
50
16.5424086
51
46.8933463
0
ARC
8
DEFAULT_255_1_234
10
4.3954244
20
5.3806861
40
0.564021
50
5.4072051
51
17.0365086
0
ARC
8
DEFAULT_255_1_234
10
4.2515261
20
5.3575679
40
0.5556559
50
7.8891745
51
15.9239216
0
ARC
8
DEFAULT_255_1_234
10
4.4502274
20
5.4152631
40
0.3487515
50
15.7653144
51
27.9410532
0
ARC
8
DEFAULT_255_1_234
10
4.5606492
20
5.474379
40
0.2235026
50
27.8166557
51
46.4008329
0
ARC
8
DEFAULT_255_1_234
10
4.5656135
20
5.4738082
40
0.2205286
50
47.4371857
51
75.0698205
0
ARC
8
DEFAULT_255_1_234
10
4.5347529
20
5.3663765
40
0.3322915
50
74.7008593
51
87.8124495
0
ARC
8
DEFAULT_255_1_234
10
4.5274217
20
5.2607844
40
0.4380987
50
87.3814673
51
90.0240855
0
ARC
8
DEFAULT_255_1_234
10
4.523576
20
5.3785291
40
0.3203749
50
89.3451631
51
108.5745436
0
ARC
8
DEFAULT_255_1_234
10
4.5098865
20
5.4298908
40
0.2673494
50
109.2998449
51
143.3037509
0
ARC
8
DEFAULT_255_1_234
10
4.5860938
20
5.3712881
40
0.3634757
50
143.0753173
51
163.1916937
0
ARC
8
DEFAULT_255_1_234
10
4.7812666
20
5.3096967
40
0.5681262
50
162.9373603
51
174.6208611
0
ARC
8
DEFAULT_255_1_234
10
5.0438708
20
5.280901
40
0.8322832
50
174.3419979
51
180.1430411
0
ARC
8
DEFAULT_255_1_234
10
4.9507864
20
5.1614698
40
0.7392076
50
179.6817502
51
189.150529
0
ARC
8
DEFAULT_255_1_234
10
4.7007112
20
5.119819
40
0.4856932
50
188.9910863
51
203.5773039
0
ARC
8
DEFAULT_255_1_234
10
4.5927445
20
5.0750211
40
0.3688271
50
203.9077269
51
215.1312379
0
ARC
8
DEFAULT_255_1_234
10
4.5004539
20
5.0034941
40
0.2522457
50
213.9071664
51
263.8849284
0
ARC
8
DEFAULT_255_1_234
10
4.5129868
20
5.0819518
40
0.3316174
50
263.1758525
51
270.1031083
0
ARC
8
DEFAULT_255_1_234
10
4.516196
20
5.2066365
40
0.4563091
50
269.6719807
51
279.0609165
0
ARC
8
DEFAULT_255_1_234
10
4.5428728
20
5.0453907
40
0.2928759
50
278.8750225
51
293.6346586
0
ARC
8
DEFAULT_255_1_234
10
4.5748936
20
4.97019
40
0.2111472
50
293.8553404
51
310.0518804
0
ARC
8
DEFAULT_255_1_234
10
4.575379
20
4.9639516
40
0.2060917
50
311.0646779
51
332.0108348
0
ARC
8
DEFAULT_255_1_234
10
4.4561517
20
5.0296978
40
0.3422352
50
331.6588543
51
343.2878891
0
ARC
8
DEFAULT_255_1_234
10
4.2499032
20
5.0930798
40
0.5580003
50
343.1446044
51
351.010618
0
ARC
8
DEFAULT_255_1_234
10
4.0957678
20
5.1211871
40
0.7146438
50
350.7157277
51
351.1602153
0
LINE
8
DEFAULT_255_1_234
10
5.6171444
20
5.8153433
11
5.6171444
21
4.6403
0
LINE
8
DEFAULT_255_1_234
10
5.6171444
20
4.6403
11
5.4677541
21
4.6403
0
LINE
8
DEFAULT_255_1_234
10
5.4677541
20
4.6403
11
5.4677541
21
5.6306133
0
LINE
8
DEFAULT_255_1_234
10
5.4677541
20
5.6306133
11
5.1681703
21
5.5205785
0
LINE
8
DEFAULT_255_1_234
10
5.1681703
20
5.5205785
11
5.1681703
21
5.6555117
0
LINE
8
DEFAULT_255_1_234
10
5.1681703
20
5.6555117
11
5.5938524
21
5.8153433
0
LINE
8
DEFAULT_255_1_234
10
5.5938524
20
5.8153433
11
5.6171444
21
5.8153433
0
LINE
8
DEFAULT_255_1_234
10
4.801923
20
10.3030663
11
4.9569355
21
10.3030663
0
LINE
8
DEFAULT_255_1_234
10
4.0565777
20
10.4620947
11
4.0565777
21
10.5745391
0
LINE
8
DEFAULT_255_1_234
10
4.9569355
20
10.7255357
11
4.801923
21
10.7255357
0
LINE
8
DEFAULT_255_1_234
10
4.2115902
20
10.5705232
11
4.2115902
21
10.4572757
0
ARC
8
DEFAULT_255_1_234
10
4.4088742
20
10.3627846
40
0.5513052
50
340.1774281
51
353.7814284
0
ARC
8
DEFAULT_255_1_234
10
4.5660095
20
10.3042582
40
0.3836379
50
311.4558989
51
340.4421614
0
ARC
8
DEFAULT_255_1_234
10
4.5626763
20
10.3153528
40
0.3941894
50
282.4333181
51
310.7513653
0
ARC
8
DEFAULT_255_1_234
10
4.5187502
20
10.4968679
40
0.5809175
50
269.9358511
51
282.809604
0
ARC
8
DEFAULT_255_1_234
10
4.5135568
20
10.6426212
40
0.7266847
50
270.0021091
51
270.3581957
0
ARC
8
DEFAULT_255_1_234
10
4.5082985
20
10.3825585
40
0.4666519
50
250.7884749
51
270.6489167
0
ARC
8
DEFAULT_255_1_234
10
4.491482
20
10.3188319
40
0.4009729
50
219.3627325
51
250.0611886
0
ARC
8
DEFAULT_255_1_234
10
4.5744031
20
10.3893042
40
0.5097822
50
193.5479632
51
219.5756669
0
ARC
8
DEFAULT_255_1_234
10
4.8115652
20
10.4508919
40
0.7547848
50
181.1218675
51
193.87563
0
ARC
8
DEFAULT_255_1_234
10
5.0185833
20
10.461958
40
0.9620055
50
179.9918545
51
181.5394234
0
ARC
8
DEFAULT_255_1_234
10
4.8334935
20
10.5782788
40
0.7769248
50
169.5837241
51
180.2757934
0
ARC
8
DEFAULT_255_1_234
10
4.6497873
20
10.6122229
40
0.590109
50
155.0365899
51
169.6003176
0
ARC
8
DEFAULT_255_1_234
10
4.5362337
20
10.6669677
40
0.4640625
50
136.783148
51
155.2472683
0
ARC
8
DEFAULT_255_1_234
10
4.4972814
20
10.7000562
40
0.4130255
50
121.7633186
51
136.428115
0
ARC
8
DEFAULT_255_1_234
10
4.5107776
20
10.6751227
40
0.4413323
50
95.6459699
51
121.5490577
0
ARC
8
DEFAULT_255_1_234
10
4.5265058
20
10.5642949
40
0.55319
50
89.924208
51
96.1377933
0
ARC
8
DEFAULT_255_1_234
10
4.5315491
20
10.5761542
40
0.5413475
50
76.6779277
51
90.4563316
0
ARC
8
DEFAULT_255_1_234
10
4.5709114
20
10.7352114
40
0.3775041
50
47.485847
51
76.9287264
0
ARC
8
DEFAULT_255_1_234
10
4.5562087
20
10.7252159
40
0.3948286
50
16.5424086
51
46.8933463
0
ARC
8
DEFAULT_255_1_234
10
4.3954244
20
10.6723861
40
0.564021
50
5.4072051
51
17.0365086
0
ARC
8
DEFAULT_255_1_234
10
4.2515261
20
10.6492679
40
0.5556559
50
7.8891745
51
15.9239216
0
ARC
8
DEFAULT_255_1_234
10
4.4502274
20
10.7069631
40
0.3487515
50
15.7653144
51
27.9410532
0
ARC
8
DEFAULT_255_1_234
10
4.5606492
20
10.766079
40
0.2235026
50
27.8166557
51
46.4008329
0
ARC
8
DEFAULT_255_1_234
10
4.5656135
20
10.7655082
40
0.2205286
50
47.4371857
51
75.0698205
0
ARC
8
DEFAULT_255_1_234
10
4.5347529
20
10.6580765
40
0.3322915
50
74.7008593
51
87.8124495
0
ARC
8
DEFAULT_255_1_234
10
4.5274217
20
10.5524844
40
0.4380987
50
87.3814673
51
90.0240855
0
ARC
8
DEFAULT_255_1_234
10
4.523576
20
10.6702291
40
0.3203749
50
89.3451631
51
108.5745436
0
ARC
8
DEFAULT_255_1_234
10
4.5098865
20
10.7215908
40
0.2673494
50
109.2998449
51
143.3037509
0
ARC
8
DEFAULT_255_1_234
10
4.5860938
20
10.6629881
40
0.3634757
50
143.0753173
51
163.1916937
0
ARC
8
DEFAULT_255_1_234
10
4.7812666
20
10.6013967
40
0.5681262
50
162.9373603
51
174.6208611
0
ARC
8
DEFAULT_255_1_234
10
5.0438708
20
10.572601
40
0.8322832
50
174.3419979
51
180.1430411
0
ARC
8
DEFAULT_255_1_234
10
4.9507864
20
10.4531698
40
0.7392076
50
179.6817502
51
189.150529
0
ARC
8
DEFAULT_255_1_234
10
4.7007112
20
10.411519
40
0.4856932
50
188.9910863
51
203.5773039
0
ARC
8
DEFAULT_255_1_234
10
4.5927445
20
10.3667211
40
0.3688271
50
203.9077269
51
215.1312379
0
ARC
8
DEFAULT_255_1_234
10
4.5004539
20
10.2951941
40
0.2522457
50
213.9071664
51
263.8849284
0
ARC
8
DEFAULT_255_1_234
10
4.5129868
20
10.3736518
40
0.3316174
50
263.1758525
51
270.1031083
0
ARC
8
DEFAULT_255_1_234
10
4.516196
20
10.4983365
40
0.4563091
50
269.6719807
51
279.0609165
0
ARC
8
DEFAULT_255_1_234
10
4.5428728
20
10.3370907
40
0.2928759
50
278.8750225
51
293.6346586
0
ARC
8
DEFAULT_255_1_234
10
4.5748936
20
10.26189
40
0.2111472
50
293.8553404
51
310.0518804
0
ARC
8
DEFAULT_255_1_234
10
4.575379
20
10.2556516
40
0.2060917
50
311.0646779
51
332.0108348
0
ARC
8
DEFAULT_255_1_234
10
4.4561517
20
10.3213978
40
0.3422352
50
331.6588543
51
343.2878891
0
ARC
8
DEFAULT_255_1_234
10
4.2499032
20
10.3847798
40
0.5580003
50
343.1446044
51
351.010618
0
ARC
8
DEFAULT_255_1_234
10
4.0957678
20
10.4128871
40
0.7146438
50
350.7157277
51
351.1602153
0
LINE
8
DEFAULT_255_1_234
10
5.6171444
20
11.1070433
11
5.6171444
21
9.932
0
LINE
8
DEFAULT_255_1_234
10
5.6171444
20
9.932
11
5.4677541
21
9.932
0
LINE
8
DEFAULT_255_1_234
10
5.4677541
20
9.932
11
5.4677541
21
10.9223133
0
LINE
8
DEFAULT_255_1_234
10
5.4677541
20
10.9223133
11
5.1681703
21
10.8122785
0
LINE
8
DEFAULT_255_1_234
10
5.1681703
20
10.8122785
11
5.1681703
21
10.9472117
0
LINE
8
DEFAULT_255_1_234
10
5.1681703
20
10.9472117
11
5.5938524
21
11.1070433
0
LINE
8
DEFAULT_255_1_234
10
5.5938524
20
11.1070433
11
5.6171444
21
11.1070433
0
LINE
8
DEFAULT_255_1_234
10
4.8252119
20
15.3449792
11
4.8252119
21
15.2237
0
LINE
8
DEFAULT_255_1_234
10
4.8252119
20
15.2237
11
4.058984
21
15.2237
0
LINE
8
DEFAULT_255_1_234
10
4.058984
20
15.2237
11
4.058984
21
15.3305221
0
LINE
8
DEFAULT_255_1_234
10
4.058984
20
15.3305221
11
4.4637836
21
15.7802995
0
LINE
8
DEFAULT_255_1_234
10
4.1850823
20
16.0485595
11
4.0364952
21
16.0485595
0
LINE
8
DEFAULT_255_1_234
10
4.5513296
20
15.6847218
11
4.2380918
21
15.3449792
0
LINE
8
DEFAULT_255_1_234
10
4.2380918
20
15.3449792
11
4.8252119
21
15.3449792
0
ARC
8
DEFAULT_255_1_234
10
3.114767
20
16.9732527
40
1.8008286
50
318.5132453
51
320.7828378
0
ARC
8
DEFAULT_255_1_234
10
3.6434644
20
16.5429426
40
1.1191493
50
320.7372736
51
323.9737074
0
ARC
8
DEFAULT_255_1_234
10
4.0354501
20
16.2589361
40
0.6350923
50
323.8961724
51
328.6421089
0
ARC
8
DEFAULT_255_1_234
10
4.2401096
20
16.1327031
40
0.3946393
50
328.8299013
51
331.789948
0
ARC
8
DEFAULT_255_1_234
10
4.3398274
20
16.0812509
40
0.2824501
50
331.4255242
51
352.9364833
0
ARC
8
DEFAULT_255_1_234
10
4.3534775
20
16.0781976
40
0.2685315
50
353.2248685
51
0.0169286
0
ARC
8
DEFAULT_255_1_234
10
4.3744652
20
16.080495
40
0.2475536
50
359.4866256
51
15.9339782
0
ARC
8
DEFAULT_255_1_234
10
4.4251637
20
16.0941286
40
0.1950618
50
16.1714718
51
43.5284424
0
ARC
8
DEFAULT_255_1_234
10
4.4328946
20
16.1018573
40
0.184134
50
43.4415429
51
83.1661404
0
ARC
8
DEFAULT_255_1_234
10
4.4194864
20
16.0281771
40
0.258926
50
82.160215
51
90.1505798
0
ARC
8
DEFAULT_255_1_234
10
4.4163291
20
15.9744865
40
0.3126255
50
89.5460705
51
102.5418777
0
ARC
8
DEFAULT_255_1_234
10
4.3920377
20
16.0775665
40
0.2067346
50
102.1739365
51
129.2061916
0
ARC
8
DEFAULT_255_1_234
10
4.3841449
20
16.0900094
40
0.1921118
50
129.7279328
51
135.7542026
0
ARC
8
DEFAULT_255_1_234
10
4.3962977
20
16.0803045
40
0.2075944
50
136.175737
51
166.3674722
0
ARC
8
DEFAULT_255_1_234
10
4.4969896
20
16.0533182
40
0.3118201
50
165.9092917
51
178.8683903
0
ARC
8
DEFAULT_255_1_234
10
4.5834757
20
16.0486179
40
0.3983935
50
178.438168
51
180.0083905
0
ARC
8
DEFAULT_255_1_234
10
4.4433359
20
16.0525231
40
0.4068601
50
163.2878735
51
180.5581814
0
ARC
8
DEFAULT_255_1_234
10
4.3631621
20
16.074584
40
0.3237344
50
133.454115
51
162.9470031
0
ARC
8
DEFAULT_255_1_234
10
4.3810162
20
16.0556
40
0.349795
50
100.7869394
51
133.4384016
0
ARC
8
DEFAULT_255_1_234
10
4.4157934
20
15.9007319
40
0.5084616
50
89.6605301
51
101.3704185
0
ARC
8
DEFAULT_255_1_234
10
4.4224273
20
15.9068496
40
0.502348
50
78.2171172
51
90.4130393
0
ARC
8
DEFAULT_255_1_234
10
4.4579351
20
16.0692637
40
0.3361092
50
55.9268222
51
78.4888551
0
ARC
8
DEFAULT_255_1_234
10
4.4775791
20
16.1031324
40
0.2970617
50
47.9292255
51
55.4054003
0
ARC
8
DEFAULT_255_1_234
10
4.4877352
20
16.1134502
40
0.2825983
50
4.3347696
51
48.0560701
0
ARC
8
DEFAULT_255_1_234
10
4.3781745
20
16.0964601
40
0.393225
50
359.925209
51
5.5967654
0
ARC
8
DEFAULT_255_1_234
10
4.4210637
20
16.1020816
40
0.3503892
50
337.8914096
51
358.9967724
0
ARC
8
DEFAULT_255_1_234
10
4.1497049
20
16.2067706
40
0.6412172
50
326.9135351
51
338.3505194
0
ARC
8
DEFAULT_255_1_234
10
3.7511353
20
16.4622284
40
1.1146189
50
319.6472867
51
327.095818
0
ARC
8
DEFAULT_255_1_234
10
3.3678356
20
16.7784
40
1.6114559
50
317.2586784
51
319.9046139
0
LINE
8
DEFAULT_255_1_234
10
5.1986877
20
15.7594169
11
5.1986877
21
15.8806962
0
LINE
8
DEFAULT_255_1_234
10
5.1986877
20
15.8806962
11
5.3103289
21
15.8806962
0
LINE
8
DEFAULT_255_1_234
10
5.1199767
20
16.0863087
11
4.9713895
21
16.0863087
0
LINE
8
DEFAULT_255_1_234
10
4.9609482
20
15.5321188
11
5.1103386
21
15.5321188
0
LINE
8
DEFAULT_255_1_234
10
5.3103289
20
15.7594169
11
5.1986877
21
15.7594169
0
ARC
8
DEFAULT_255_1_234
10
5.3074155
20
16.2199713
40
0.3392876
50
270.4919872
51
281.8951556
0
ARC
8
DEFAULT_255_1_234
10
5.3315417
20
16.1097702
40
0.2264817
50
281.6691735
51
301.2943132
0
ARC
8
DEFAULT_255_1_234
10
5.3485627
20
16.0786304
40
0.1910381
50
301.7833094
51
311.7545298
0
ARC
8
DEFAULT_255_1_234
10
5.3577203
20
16.0684748
40
0.1773635
50
311.7323931
51
354.2802411
0
ARC
8
DEFAULT_255_1_234
10
5.2850828
20
16.0809722
40
0.2509385
50
353.0937916
51
0.1181479
0
ARC
8
DEFAULT_255_1_234
10
5.2389613
20
16.0857386
40
0.2970898
50
359.1805295
51
15.0453146
0
ARC
8
DEFAULT_255_1_234
10
5.373545
20
16.1249992
40
0.1569564
50
13.9577229
51
77.6713066
0
ARC
8
DEFAULT_255_1_234
10
5.3348979
20
15.9864949
40
0.3006298
50
76.1116566
51
90.7026153
0
ARC
8
DEFAULT_255_1_234
10
5.3289817
20
16.0138545
40
0.2732568
50
89.5324876
51
103.531937
0
ARC
8
DEFAULT_255_1_234
10
5.3089261
20
16.0937884
40
0.1908508
50
103.2931773
51
133.5619022
0
ARC
8
DEFAULT_255_1_234
10
5.304475
20
16.0997375
40
0.1834746
50
133.8349307
51
173.5344437
0
ARC
8
DEFAULT_255_1_234
10
5.3767793
20
16.0869213
40
0.2568033
50
172.5096846
51
180.1366907
0
ARC
8
DEFAULT_255_1_234
10
5.2816687
20
16.0903622
40
0.3103056
50
155.3484492
51
180.7484736
0
ARC
8
DEFAULT_255_1_234
10
5.2767776
20
16.0874846
40
0.3070957
50
131.5744599
51
154.4798489
0
ARC
8
DEFAULT_255_1_234
10
5.3080923
20
16.055831
40
0.3515643
50
96.9875458
51
131.9690667
0
ARC
8
DEFAULT_255_1_234
10
5.3300403
20
15.9312636
40
0.4779224
50
89.8596053
51
97.7825159
0
ARC
8
DEFAULT_255_1_234
10
5.3348466
20
15.9050616
40
0.5041361
50
78.3655447
51
90.4131539
0
ARC
8
DEFAULT_255_1_234
10
5.3706384
20
16.0709887
40
0.3344039
50
56.6229102
51
78.638727
0
ARC
8
DEFAULT_255_1_234
10
5.3921328
20
16.1085805
40
0.2912001
50
47.0253525
51
56.0854072
0
ARC
8
DEFAULT_255_1_234
10
5.3941108
20
16.1125223
40
0.2869704
50
10.9208013
51
46.7778124
0
ARC
8
DEFAULT_255_1_234
10
5.2577174
20
16.0809857
40
0.426899
50
359.6364486
51
11.6087304
0
ARC
8
DEFAULT_255_1_234
10
5.4412018
20
16.0794752
40
0.243409
50
332.3549906
51
359.7179418
0
ARC
8
DEFAULT_255_1_234
10
5.376162
20
16.1103142
40
0.3153459
50
325.2333722
51
332.8745602
0
ARC
8
DEFAULT_255_1_234
10
5.3914244
20
16.0996828
40
0.2967456
50
292.9802137
51
325.2392345
0
ARC
8
DEFAULT_255_1_234
10
5.3639617
20
16.1530863
40
0.3566604
50
292.5402179
51
293.6924929
0
ARC
8
DEFAULT_255_1_234
10
5.4032213
20
15.5076091
40
0.3307468
50
57.6435486
51
72.8625112
0
ARC
8
DEFAULT_255_1_234
10
5.4386713
20
15.5650549
40
0.2632492
50
36.7248896
51
57.4697979
0
ARC
8
DEFAULT_255_1_234
10
5.4375346
20
15.566322
40
0.2634081
50
8.0545065
51
36.356114
0
ARC
8
DEFAULT_255_1_234
10
5.3512531
20
15.5508174
40
0.3510261
50
359.8320645
51
8.5869982
0
ARC
8
DEFAULT_255_1_234
10
5.3137307
20
15.5460101
40
0.3885653
50
343.9829931
51
0.5571613
0
ARC
8
DEFAULT_255_1_234
10
5.4023504
20
15.5217438
40
0.2966924
50
311.6359546
51
343.7651759
0
ARC
8
DEFAULT_255_1_234
10
5.3645074
20
15.5644102
40
0.3537231
50
279.7829875
51
311.6255694
0
ARC
8
DEFAULT_255_1_234
10
5.334385
20
15.708128
40
0.5004971
50
269.7286406
51
280.3856417
0
ARC
8
DEFAULT_255_1_234
10
5.3281922
20
15.7039996
40
0.4963778
50
256.6828919
51
270.4412052
0
ARC
8
DEFAULT_255_1_234
10
5.2943218
20
15.5655394
40
0.3538406
50
229.4223008
51
256.8556159
0
ARC
8
DEFAULT_255_1_234
10
5.2528611
20
15.5188736
40
0.2914296
50
181.818294
51
229.6455059
0
ARC
8
DEFAULT_255_1_234
10
5.3568567
20
15.5319496
40
0.3959084
50
179.9755256
51
183.2323064
0
ARC
8
DEFAULT_255_1_234
10
5.3396313
20
15.5299037
40
0.2293034
50
179.4465117
51
196.2869258
0
ARC
8
DEFAULT_255_1_234
10
5.2908721
20
15.5165651
40
0.1787621
50
196.5661473
51
227.705904
0
ARC
8
DEFAULT_255_1_234
10
5.3072816
20
15.5349155
40
0.2033784
50
227.7652068
51
257.8762805
0
ARC
8
DEFAULT_255_1_234
10
5.3297786
20
15.6292156
40
0.3003081
50
257.4584385
51
270.426602
0
ARC
8
DEFAULT_255_1_234
10
5.3343352
20
15.6581996
40
0.329292
50
269.5962073
51
280.8789248
0
ARC
8
DEFAULT_255_1_234
10
5.3572881
20
15.5435685
40
0.2123908
50
280.6346389
51
299.8595945
0
ARC
8
DEFAULT_255_1_234
10
5.3763788
20
15.5073212
40
0.171457
50
300.3576302
51
314.5517981
0
ARC
8
DEFAULT_255_1_234
10
5.3680848
20
15.5133919
40
0.1816095
50
315.0728369
51
345.0431014
0
ARC
8
DEFAULT_255_1_234
10
5.2757662
20
15.5402841
40
0.2777492
50
344.5986631
51
357.9269593
0
ARC
8
DEFAULT_255_1_234
10
5.1861989
20
15.5464276
40
0.3674917
50
357.4748886
51
0.0231117
0
ARC
8
DEFAULT_255_1_234
10
5.2885098
20
15.5488679
40
0.2651907
50
359.5047933
51
13.4239635
0
ARC
8
DEFAULT_255_1_234
10
5.3751741
20
15.5710478
40
0.1757509
50
12.9498199
51
48.7551375
0
ARC
8
DEFAULT_255_1_234
10
5.3569475
20
15.54614
40
0.2065134
50
49.5088623
51
72.1836453
0
ARC
8
DEFAULT_255_1_234
10
5.3211628
20
15.4399291
40
0.3185836
50
71.9010081
51
84.3554254
0
ARC
8
DEFAULT_255_1_234
10
5.305026
20
15.3038326
40
0.4556151
50
84.0193428
51
89.333121
0
LINE
8
DEFAULT_255_1_234
10
4.8252119
20
20.6365792
11
4.8252119
21
20.5153
0
LINE
8
DEFAULT_255_1_234
10
4.8252119
20
20.5153
11
4.058984
21
20.5153
0
LINE
8
DEFAULT_255_1_234
10
4.058984
20
20.5153
11
4.058984
21
20.6221221
0
LINE
8
DEFAULT_255_1_234
10
4.058984
20
20.6221221
11
4.4637836
21
21.0718995
0
LINE
8
DEFAULT_255_1_234
10
4.1850823
20
21.3401595
11
4.0364952
21
21.3401595
0
LINE
8
DEFAULT_255_1_234
10
4.5513296
20
20.9763218
11
4.2380918
21
20.6365792
0
LINE
8
DEFAULT_255_1_234
10
4.2380918
20
20.6365792
11
4.8252119
21
20.6365792
0
ARC
8
DEFAULT_255_1_234
10
3.114767
20
22.2648527
40
1.8008286
50
318.5132453
51
320.7828378
0
ARC
8
DEFAULT_255_1_234
10
3.6434644
20
21.8345426
40
1.1191493
50
320.7372736
51
323.9737074
0
ARC
8
DEFAULT_255_1_234
10
4.0354501
20
21.5505361
40
0.6350923
50
323.8961724
51
328.6421089
0
ARC
8
DEFAULT_255_1_234
10
4.2401096
20
21.4243031
40
0.3946393
50
328.8299013
51
331.789948
0
ARC
8
DEFAULT_255_1_234
10
4.3398274
20
21.3728509
40
0.2824501
50
331.4255242
51
352.9364833
0
ARC
8
DEFAULT_255_1_234
10
4.3534775
20
21.3697976
40
0.2685315
50
353.2248685
51
0.0169286
0
ARC
8
DEFAULT_255_1_234
10
4.3744652
20
21.372095
40
0.2475536
50
359.4866256
51
15.9339782
0
ARC
8
DEFAULT_255_1_234
10
4.4251637
20
21.3857286
40
0.1950618
50
16.1714718
51
43.5284424
0
ARC
8
DEFAULT_255_1_234
10
4.4328946
20
21.3934573
40
0.184134
50
43.4415429
51
83.1661404
0
ARC
8
DEFAULT_255_1_234
10
4.4194864
20
21.3197771
40
0.258926
50
82.160215
51
90.1505798
0
ARC
8
DEFAULT_255_1_234
10
4.4163291
20
21.2660865
40
0.3126255
50
89.5460705
51
102.5418777
0
ARC
8
DEFAULT_255_1_234
10
4.3920377
20
21.3691665
40
0.2067346
50
102.1739365
51
129.2061916
0
ARC
8
DEFAULT_255_1_234
10
4.3841449
20
21.3816094
40
0.1921118
50
129.7279328
51
135.7542026
0
ARC
8
DEFAULT_255_1_234
10
4.3962977
20
21.3719045
40
0.2075944
50
136.175737
51
166.3674722
0
ARC
8
DEFAULT_255_1_234
10
4.4969896
20
21.3449182
40
0.3118201
50
165.9092917
51
178.8683903
0
ARC
8
DEFAULT_255_1_234
10
4.5834757
20
21.3402179
40
0.3983935
50
178.438168
51
180.0083905
0
ARC
8
DEFAULT_255_1_234
10
4.4433359
20
21.3441231
40
0.4068601
50
163.2878735
51
180.5581814
0
ARC
8
DEFAULT_255_1_234
10
4.3631621
20
21.366184
40
0.3237344
50
133.454115
51
162.9470031
0
ARC
8
DEFAULT_255_1_234
10
4.3810162
20
21.3472
40
0.349795
50
100.7869394
51
133.4384016
0
ARC
8
DEFAULT_255_1_234
10
4.4157934
20
21.1923319
40
0.5084616
50
89.6605301
51
101.3704185
0
ARC
8
DEFAULT_255_1_234
10
4.4224273
20
21.1984496
40
0.502348
50
78.2171172
51
90.4130393
0
ARC
8
DEFAULT_255_1_234
10
4.4579351
20
21.3608637
40
0.3361092
50
55.9268222
51
78.4888551
0
ARC
8
DEFAULT_255_1_234
10
4.4775791
20
21.3947324
40
0.2970617
50
47.9292255
51
55.4054003
0
ARC
8
DEFAULT_255_1_234
10
4.4877352
20
21.4050502
40
0.2825983
50
4.3347696
51
48.0560701
0
ARC
8
DEFAULT_255_1_234
10
4.3781745
20
21.3880601
40
0.393225
50
359.925209
51
5.5967654
0
ARC
8
DEFAULT_255_1_234
10
4.4210637
20
21.3936816
40
0.3503892
50
337.8914096
51
358.9967724
0
ARC
8
DEFAULT_255_1_234
10
4.1497049
20
21.4983706
40
0.6412172
50
326.9135351
51
338.3505194
0
ARC
8
DEFAULT_255_1_234
10
3.7511353
20
21.7538284
40
1.1146189
50
319.6472867
51
327.095818
0
ARC
8
DEFAULT_255_1_234
10
3.3678356
20
22.07
40
1.6114559
50
317.2586784
51
319.9046139
0
LINE
8
DEFAULT_255_1_234
10
5.7488618
20
20.6365792
11
5.7488618
21
20.5153
0
LINE
8
DEFAULT_255_1_234
10
5.7488618
20
20.5153
11
4.9826339
21
20.5153
0
LINE
8
DEFAULT_255_1_234
10
4.9826339
20
20.5153
11
4.9826339
21
20.6221221
0
LINE
8
DEFAULT_255_1_234
10
4.9826339
20
20.6221221
11
5.3874335
21
21.0718995
0
LINE
8
DEFAULT_255_1_234
10
5.1087322
20
21.3401595
11
4.9601451
21
21.3401595
0
LINE
8
DEFAULT_255_1_234
10
5.4749795
20
20.9763218
11
5.1617417
21
20.6365792
0
LINE
8
DEFAULT_255_1_234
10
5.1617417
20
20.6365792
11
5.7488618
21
20.6365792
0
ARC
8
DEFAULT_255_1_234
10
4.0384169
20
22.2648527
40
1.8008286
50
318.5132453
51
320.7828378
0
ARC
8
DEFAULT_255_1_234
10
4.5671143
20
21.8345426
40
1.1191493
50
320.7372736
51
323.9737074
0
ARC
8
DEFAULT_255_1_234
10
4.9591
20
21.5505361
40
0.6350923
50
323.8961724
51
328.6421089
0
ARC
8
DEFAULT_255_1_234
10
5.1637595
20
21.4243031
40
0.3946393
50
328.8299013
51
331.789948
0
ARC
8
DEFAULT_255_1_234
10
5.2634774
20
21.3728509
40
0.2824501
50
331.4255242
51
352.9364833
0
ARC
8
DEFAULT_255_1_234
10
5.2771274
20
21.3697976
40
0.2685315
50
353.2248685
51
0.0169286
0
ARC
8
DEFAULT_255_1_234
10
5.2981151
20
21.372095
40
0.2475536
50
359.4866256
51
15.9339782
0
ARC
8
DEFAULT_255_1_234
10
5.3488136
20
21.3857286
40
0.1950618
50
16.1714718
51
43.5284424
0
ARC
8
DEFAULT_255_1_234
10
5.3565445
20
21.3934573
40
0.184134
50
43.4415429
51
83.1661404
0
ARC
8
DEFAULT_255_1_234
10
5.3431363
20
21.3197771
40
0.258926
50
82.160215
51
90.1505798
0
ARC
8
DEFAULT_255_1_234
10
5.339979
20
21.2660865
40
0.3126255
50
89.5460705
51
102.5418777
0
ARC
8
DEFAULT_255_1_234
10
5.3156876
20
21.3691665
40
0.2067346
50
102.1739365
51
129.2061916
0
ARC
8
DEFAULT_255_1_234
10
5.3077948
20
21.3816094
40
0.1921118
50
129.7279328
51
135.7542026
0
ARC
8
DEFAULT_255_1_234
10
5.3199476
20
21.3719045
40
0.2075944
50
136.175737
51
166.3674722
0
ARC
8
DEFAULT_255_1_234
10
5.4206395
20
21.3449182
40
0.3118201
50
165.9092917
51
178.8683903
0
ARC
8
DEFAULT_255_1_234
10
5.5071256
20
21.3402179
40
0.3983935
50
178.438168
51
180.0083905
0
ARC
8
DEFAULT_255_1_234
10
5.3669859
20
21.3441231
40
0.4068601
50
163.2878735
51
180.5581814
0
ARC
8
DEFAULT_255_1_234
10
5.286812
20
21.366184
40
0.3237344
50
133.454115
51
162.9470031
0
ARC
8
DEFAULT_255_1_234
10
5.3046661
20
21.3472
40
0.349795
50
100.7869394
51
133.4384016
0
ARC
8
DEFAULT_255_1_234
10
5.3394433
20
21.1923319
40
0.5084616
50
89.6605301
51
101.3704185
0
ARC
8
DEFAULT_255_1_234
10
5.3460772
20
21.1984496
40
0.502348
50
78.2171172
51
90.4130393
0
ARC
8
DEFAULT_255_1_234
10
5.381585
20
21.3608637
40
0.3361092
50
55.9268222
51
78.4888551
0
ARC
8
DEFAULT_255_1_234
10
5.401229
20
21.3947324
40
0.2970617
50
47.9292255
51
55.4054003
0
ARC
8
DEFAULT_255_1_234
10
5.4113851
20
21.4050502
40
0.2825983
50
4.3347696
51
48.0560701
0
ARC
8
DEFAULT_255_1_234
10
5.3018244
20
21.3880601
40
0.393225
50
359.925209
51
5.5967654
0
ARC
8
DEFAULT_255_1_234
10
5.3447136
20
21.3936816
40
0.3503892
50
337.8914096
51
358.9967724
0
ARC
8
DEFAULT_255_1_234
10
5.0733548
20
21.4983706
40
0.6412172
50
326.9135351
51
338.3505194
0
ARC
8
DEFAULT_255_1_234
10
4.6747852
20
21.7538284
40
1.1146189
50
319.6472867
51
327.095818
0
ARC
8
DEFAULT_255_1_234
10
4.2914855
20
22.07
40
1.6114559
50
317.2586784
51
319.9046139
0
LINE
8
DEFAULT_255_1_234
10
4.8162119
20
25.9282792
11
4.8162119
21
25.807
0
LINE
8
DEFAULT_255_1_234
10
4.8162119
20
25.807
11
4.049984
21
25.807
0
LINE
8
DEFAULT_255_1_234
10
4.049984
20
25.807
11
4.049984
21
25.9138221
0
LINE
8
DEFAULT_255_1_234
10
4.049984
20
25.9138221
11
4.4547836
21
26.3635995
0
LINE
8
DEFAULT_255_1_234
10
4.1760823
20
26.6318595
11
4.0274952
21
26.6318595
0
LINE
8
DEFAULT_255_1_234
10
4.5423296
20
26.2680218
11
4.2290918
21
25.9282792
0
LINE
8
DEFAULT_255_1_234
10
4.2290918
20
25.9282792
11
4.8162119
21
25.9282792
0
ARC
8
DEFAULT_255_1_234
10
3.105767
20
27.5565527
40
1.8008286
50
318.5132453
51
320.7828378
0
ARC
8
DEFAULT_255_1_234
10
3.6344644
20
27.1262426
40
1.1191493
50
320.7372736
51
323.9737074
0
ARC
8
DEFAULT_255_1_234
10
4.0264501
20
26.8422361
40
0.6350923
50
323.8961724
51
328.6421089
0
ARC
8
DEFAULT_255_1_234
10
4.2311096
20
26.7160031
40
0.3946393
50
328.8299013
51
331.789948
0
ARC
8
DEFAULT_255_1_234
10
4.3308274
20
26.6645509
40
0.2824501
50
331.4255242
51
352.9364833
0
ARC
8
DEFAULT_255_1_234
10
4.3444775
20
26.6614976
40
0.2685315
50
353.2248685
51
0.0169286
0
ARC
8
DEFAULT_255_1_234
10
4.3654652
20
26.663795
40
0.2475536
50
359.4866256
51
15.9339782
0
ARC
8
DEFAULT_255_1_234
10
4.4161637
20
26.6774286
40
0.1950618
50
16.1714718
51
43.5284424
0
ARC
8
DEFAULT_255_1_234
10
4.4238946
20
26.6851573
40
0.184134
50
43.4415429
51
83.1661404
0
ARC
8
DEFAULT_255_1_234
10
4.4104864
20
26.6114771
40
0.258926
50
82.160215
51
90.1505798
0
ARC
8
DEFAULT_255_1_234
10
4.4073291
20
26.5577865
40
0.3126255
50
89.5460705
51
102.5418777
0
ARC
8
DEFAULT_255_1_234
10
4.3830377
20
26.6608665
40
0.2067346
50
102.1739365
51
129.2061916
0
ARC
8
DEFAULT_255_1_234
10
4.3751449
20
26.6733094
40
0.1921118
50
129.7279328
51
135.7542026
0
ARC
8
DEFAULT_255_1_234
10
4.3872977
20
26.6636045
40
0.2075944
50
136.175737
51
166.3674722
0
ARC
8
DEFAULT_255_1_234
10
4.4879896
20
26.6366182
40
0.3118201
50
165.9092917
51
178.8683903
0
ARC
8
DEFAULT_255_1_234
10
4.5744757
20
26.6319179
40
0.3983935
50
178.438168
51
180.0083905
0
ARC
8
DEFAULT_255_1_234
10
4.4343359
20
26.6358231
40
0.4068601
50
163.2878735
51
180.5581814
0
ARC
8
DEFAULT_255_1_234
10
4.3541621
20
26.657884
40
0.3237344
50
133.454115
51
162.9470031
0
ARC
8
DEFAULT_255_1_234
10
4.3720162
20
26.6389
40
0.349795
50
100.7869394
51
133.4384016
0
ARC
8
DEFAULT_255_1_234
10
4.4067934
20
26.4840319
40
0.5084616
50
89.6605301
51
101.3704185
0
ARC
8
DEFAULT_255_1_234
10
4.4134273
20
26.4901496
40
0.502348
50
78.2171172
51
90.4130393
0
ARC
8
DEFAULT_255_1_234
10
4.4489351
20
26.6525637
40
0.3361092
50
55.9268222
51
78.4888551
0
ARC
8
DEFAULT_255_1_234
10
4.4685791
20
26.6864324
40
0.2970617
50
47.9292255
51
55.4054003
0
ARC
8
DEFAULT_255_1_234
10
4.4787352
20
26.6967502
40
0.2825983
50
4.3347696
51
48.0560701
0
ARC
8
DEFAULT_255_1_234
10
4.3691745
20
26.6797601
40
0.393225
50
359.925209
51
5.5967654
0
ARC
8
DEFAULT_255_1_234
10
4.4120637
20
26.6853816
40
0.3503892
50
337.8914096
51
358.9967724
0
ARC
8
DEFAULT_255_1_234
10
4.1407049
20
26.7900706
40
0.6412172
50
326.9135351
51
338.3505194
0
ARC
8
DEFAULT_255_1_234
10
3.7421353
20
27.0455284
40
1.1146189
50
319.6472867
51
327.095818
0
ARC
8
DEFAULT_255_1_234
10
3.3588356
20
27.3617
40
1.6114559
50
317.2586784
51
319.9046139
0
LINE
8
DEFAULT_255_1_234
10
5.4619636
20
26.9820433
11
5.4619636
21
25.807
0
LINE
8
DEFAULT_255_1_234
10
5.4619636
20
25.807
11
5.3125733
21
25.807
0
LINE
8
DEFAULT_255_1_234
10
5.3125733
20
25.807
11
5.3125733
21
26.7973133
0
LINE
8
DEFAULT_255_1_234
10
5.3125733
20
26.7973133
11
5.0129895
21
26.6872785
0
LINE
8
DEFAULT_255_1_234
10
5.0129895
20
26.6872785
11
5.0129895
21
26.8222117
0
LINE
8
DEFAULT_255_1_234
10
5.0129895
20
26.8222117
11
5.4386716
21
26.9820433
0
LINE
8
DEFAULT_255_1_234
10
5.4386716
20
26.9820433
11
5.4619636
21
26.9820433
0
LINE
8
DEFAULT_255_1_234
10
4.8252119
20
31.2199792
11
4.8252119
21
31.0987
0
LINE
8
DEFAULT_255_1_234
10
4.8252119
20
31.0987
11
4.058984
21
31.0987
0
LINE
8
DEFAULT_255_1_234
10
4.058984
20
31.0987
11
4.058984
21
31.2055221
0
LINE
8
DEFAULT_255_1_234
10
4.058984
20
31.2055221
11
4.4637836
21
31.6552995
0
LINE
8
DEFAULT_255_1_234
10
4.1850823
20
31.9235595
11
4.0364952
21
31.9235595
0
LINE
8
DEFAULT_255_1_234
10
4.5513296
20
31.5597218
11
4.2380918
21
31.2199792
0
LINE
8
DEFAULT_255_1_234
10
4.2380918
20
31.2199792
11
4.8252119
21
31.2199792
0
ARC
8
DEFAULT_255_1_234
10
3.114767
20
32.8482527
40
1.8008286
50
318.5132453
51
320.7828378
0
ARC
8
DEFAULT_255_1_234
10
3.6434644
20
32.4179426
40
1.1191493
50
320.7372736
51
323.9737074
0
ARC
8
DEFAULT_255_1_234
10
4.0354501
20
32.1339361
40
0.6350923
50
323.8961724
51
328.6421089
0
ARC
8
DEFAULT_255_1_234
10
4.2401096
20
32.0077031
40
0.3946393
50
328.8299013
51
331.789948
0
ARC
8
DEFAULT_255_1_234
10
4.3398274
20
31.9562509
40
0.2824501
50
331.4255242
51
352.9364833
0
ARC
8
DEFAULT_255_1_234
10
4.3534775
20
31.9531976
40
0.2685315
50
353.2248685
51
0.0169286
0
ARC
8
DEFAULT_255_1_234
10
4.3744652
20
31.955495
40
0.2475536
50
359.4866256
51
15.9339782
0
ARC
8
DEFAULT_255_1_234
10
4.4251637
20
31.9691286
40
0.1950618
50
16.1714718
51
43.5284424
0
ARC
8
DEFAULT_255_1_234
10
4.4328946
20
31.9768573
40
0.184134
50
43.4415429
51
83.1661404
0
ARC
8
DEFAULT_255_1_234
10
4.4194864
20
31.9031771
40
0.258926
50
82.160215
51
90.1505798
0
ARC
8
DEFAULT_255_1_234
10
4.4163291
20
31.8494865
40
0.3126255
50
89.5460705
51
102.5418777
0
ARC
8
DEFAULT_255_1_234
10
4.3920377
20
31.9525665
40
0.2067346
50
102.1739365
51
129.2061916
0
ARC
8
DEFAULT_255_1_234
10
4.3841449
20
31.9650094
40
0.1921118
50
129.7279328
51
135.7542026
0
ARC
8
DEFAULT_255_1_234
10
4.3962977
20
31.9553045
40
0.2075944
50
136.175737
51
166.3674722
0
ARC
8
DEFAULT_255_1_234
10
4.4969896
20
31.9283182
40
0.3118201
50
165.9092917
51
178.8683903
0
ARC
8
DEFAULT_255_1_234
10
4.5834757
20
31.9236179
40
0.3983935
50
178.438168
51
180.0083905
0
ARC
8
DEFAULT_255_1_234
10
4.4433359
20
31.9275231
40
0.4068601
50
163.2878735
51
180.5581814
0
ARC
8
DEFAULT_255_1_234
10
4.3631621
20
31.949584
40
0.3237344
50
133.454115
51
162.9470031
0
ARC
8
DEFAULT_255_1_234
10
4.3810162
20
31.9306
40
0.349795
50
100.7869394
51
133.4384016
0
ARC
8
DEFAULT_255_1_234
10
4.4157934
20
31.7757319
40
0.5084616
50
89.6605301
51
101.3704185
0
ARC
8
DEFAULT_255_1_234
10
4.4224273
20
31.7818496
40
0.502348
50
78.2171172
51
90.4130393
0
ARC
8
DEFAULT_255_1_234
10
4.4579351
20
31.9442637
40
0.3361092
50
55.9268222
51
78.4888551
0
ARC
8
DEFAULT_255_1_234
10
4.4775791
20
31.9781324
40
0.2970617
50
47.9292255
51
55.4054003
0
ARC
8
DEFAULT_255_1_234
10
4.4877352
20
31.9884502
40
0.2825983
50
4.3347696
51
48.0560701
0
ARC
8
DEFAULT_255_1_234
10
4.3781745
20
31.9714601
40
0.393225
50
359.925209
51
5.5967654
0
ARC
8
DEFAULT_255_1_234
10
4.4210637
20
31.9770816
40
0.3503892
50
337.8914096
51
358.9967724
0
ARC
8
DEFAULT_255_1_234
10
4.1497049
20
32.0817706
40
0.6412172
50
326.9135351
51
338.3505194
0
ARC
8
DEFAULT_255_1_234
10
3.7511353
20
32.3372284
40
1.1146189
50
319.6472867
51
327.095818
0
ARC
8
DEFAULT_255_1_234
10
3.3678356
20
32.6534
40
1.6114559
50
317.2586784
51
319.9046139
0
LINE
8
DEFAULT_255_1_234
10
5.7159316
20
31.7902327
11
5.7159316
21
31.5974709
0
LINE
8
DEFAULT_255_1_234
10
4.9778149
20
31.5773916
11
4.9778149
21
31.7757755
0
LINE
8
DEFAULT_255_1_234
10
5.5673445
20
31.5573123
11
5.5673445
21
31.8006739
0
LINE
8
DEFAULT_255_1_234
10
5.1264021
20
31.8119184
11
5.1264021
21
31.5741789
0
ARC
8
DEFAULT_255_1_234
10
4.4912206
20
31.5925805
40
1.2247208
50
353.8441951
51
0.2287902
0
ARC
8
DEFAULT_255_1_234
10
4.955171
20
31.5407806
40
0.7578929
50
344.4934747
51
353.9765454
0
ARC
8
DEFAULT_255_1_234
10
5.25443
20
31.4556981
40
0.4467846
50
329.2803592
51
344.7472793
0
ARC
8
DEFAULT_255_1_234
10
5.3537125
20
31.4012018
40
0.3336173
50
324.9352394
51
328.6160465
0
ARC
8
DEFAULT_255_1_234
10
5.3914233
20
31.3748427
40
0.2876076
50
280.580143
51
324.9173126
0
ARC
8
DEFAULT_255_1_234
10
5.3513026
20
31.5419099
40
0.4592847
50
269.5977311
51
281.6734359
0
ARC
8
DEFAULT_255_1_234
10
5.3440932
20
31.5299173
40
0.4472986
50
256.6228859
51
270.51044
0
ARC
8
DEFAULT_255_1_234
10
5.3038909
20
31.3750877
40
0.2873874
50
215.8618325
51
257.2788573
0
ARC
8
DEFAULT_255_1_234
10
5.4059941
20
31.4435977
40
0.4102928
50
197.9693508
51
215.2623606
0
ARC
8
DEFAULT_255_1_234
10
5.6545057
20
31.5274709
40
0.6725652
50
187.8816417
51
198.2346507
0
ARC
8
DEFAULT_255_1_234
10
6.0503265
20
31.5846079
40
1.0724845
50
180.8976217
51
188.0055519
0
ARC
8
DEFAULT_255_1_234
10
6.3303453
20
31.5949777
40
1.3526448
50
180.7449369
51
181.1510016
0
ARC
8
DEFAULT_255_1_234
10
6.1726182
20
31.7806042
40
1.1948131
50
173.7675579
51
180.231553
0
ARC
8
DEFAULT_255_1_234
10
5.7208329
20
31.8316666
40
0.7401564
50
164.3058563
51
173.9002247
0
ARC
8
DEFAULT_255_1_234
10
5.4296398
20
31.9155656
40
0.4371288
50
148.7922025
51
164.568378
0
ARC
8
DEFAULT_255_1_234
10
5.334485
20
31.9686929
40
0.3282386
50
144.5883898
51
148.1176286
0
ARC
8
DEFAULT_255_1_234
10
5.3001748
20
31.9926315
40
0.2864044
50
101.6440918
51
144.514236
0
ARC
8
DEFAULT_255_1_234
10
5.3426814
20
31.8237069
40
0.4604934
50
89.5284041
51
102.5819763
0
ARC
8
DEFAULT_255_1_234
10
5.3505902
20
31.8198018
40
0.464401
50
77.0437873
51
90.5081339
0
ARC
8
DEFAULT_255_1_234
10
5.3907904
20
31.9840615
40
0.2953195
50
48.2778575
51
77.4994676
0
ARC
8
DEFAULT_255_1_234
10
5.3980535
20
31.9969746
40
0.2808655
50
36.3142134
51
47.6305865
0
ARC
8
DEFAULT_255_1_234
10
5.3111842
20
31.9384515
40
0.3855453
50
18.2931786
51
35.6769206
0
ARC
8
DEFAULT_255_1_234
10
5.0568601
20
31.8511593
40
0.654423
50
8.024666
51
18.5605216
0
ARC
8
DEFAULT_255_1_234
10
4.6405521
20
31.7896792
40
1.0752407
50
1.1274072
51
8.1718305
0
ARC
8
DEFAULT_255_1_234
10
4.3169712
20
31.7769885
40
1.3990231
50
0.5424119
51
1.3863029
0
ARC
8
DEFAULT_255_1_234
10
4.4991089
20
31.8042342
40
1.0682415
50
359.8090433
51
4.9407866
0
ARC
8
DEFAULT_255_1_234
10
4.9201103
20
31.8418113
40
0.6455691
50
4.8362157
51
12.2904523
0
ARC
8
DEFAULT_255_1_234
10
5.1956218
20
31.9031965
40
0.3633074
50
12.0805627
51
23.8173984
0
ARC
8
DEFAULT_255_1_234
10
5.3129924
20
31.9528919
40
0.2358723
50
24.2871213
51
31.3935614
0
ARC
8
DEFAULT_255_1_234
10
5.3654621
20
31.9872233
40
0.1732111
50
30.7407893
51
82.4657128
0
ARC
8
DEFAULT_255_1_234
10
5.3474755
20
31.8988691
40
0.263235
50
81.1060089
51
90.2184952
0
ARC
8
DEFAULT_255_1_234
10
5.3439054
20
31.9246924
40
0.2374236
50
89.3806855
51
105.6762551
0
ARC
8
DEFAULT_255_1_234
10
5.3255685
20
31.9913567
40
0.1682847
50
105.7981136
51
149.7388061
0
ARC
8
DEFAULT_255_1_234
10
5.4319763
20
31.927395
40
0.2924306
50
149.4208916
51
163.6286378
0
ARC
8
DEFAULT_255_1_234
10
5.6410651
20
31.863625
40
0.5110213
50
163.3763315
51
172.1410975
0
ARC
8
DEFAULT_255_1_234
10
5.971137
20
31.8163518
40
0.8444586
50
172.0259487
51
178.0703232
0
ARC
8
DEFAULT_255_1_234
10
6.274146
20
31.8019906
40
1.1477868
50
177.8631668
51
179.5044149
0
ARC
8
DEFAULT_255_1_234
10
6.1668864
20
31.5705389
40
1.0404907
50
179.7995573
51
185.2460446
0
ARC
8
DEFAULT_255_1_234
10
5.7625903
20
31.5322513
40
0.6343885
50
185.1411642
51
193.0079639
0
ARC
8
DEFAULT_255_1_234
10
5.4982376
20
31.4697641
40
0.3627568
50
192.7897626
51
205.2507664
0
ARC
8
DEFAULT_255_1_234
10
5.3935923
20
31.4230415
40
0.2481908
50
205.8005384
51
211.2537509
0
ARC
8
DEFAULT_255_1_234
10
5.3412363
20
31.387958
40
0.1852521
50
210.3789793
51
238.4008143
0
ARC
8
DEFAULT_255_1_234
10
5.3392885
20
31.3926376
40
0.1882621
50
239.6520629
51
265.9793761
0
ARC
8
DEFAULT_255_1_234
10
5.3478085
20
31.4598427
40
0.2559272
50
265.1315437
51
270.060332
0
ARC
8
DEFAULT_255_1_234
10
5.3506864
20
31.4274534
40
0.2235528
50
269.3314664
51
287.2178029
0
ARC
8
DEFAULT_255_1_234
10
5.3644716
20
31.3771279
40
0.1714108
50
287.7958004
51
329.080874
0
ARC
8
DEFAULT_255_1_234
10
5.2687173
20
31.436893
40
0.2842745
50
328.6634704
51
343.3325132
0
ARC
8
DEFAULT_255_1_234
10
5.0514193
20
31.5045863
40
0.5118644
50
343.0499468
51
351.9393422
0
ARC
8
DEFAULT_255_1_234
10
4.7047493
20
31.5556949
40
0.8622784
50
351.8069023
51
357.7959224
0
ARC
8
DEFAULT_255_1_234
10
4.3812049
20
31.5724721
40
1.1862365
50
357.5871873
51
359.2677531
0
LINE
8
DEFAULT_255_1_234
10
4.5473137
20
37.5653433
11
4.5473137
21
36.3903
0
LINE
8
DEFAULT_255_1_234
10
4.5473137
20
36.3903
11
4.3979234
21
36.3903
0
LINE
8
DEFAULT_255_1_234
10
4.3979234
20
36.3903
11
4.3979234
21
37.3806133
0
LINE
8
DEFAULT_255_1_234
10
4.3979234
20
37.3806133
11
4.0983396
21
37.2705785
0
LINE
8
DEFAULT_255_1_234
10
4.0983396
20
37.2705785
11
4.0983396
21
37.4055117
0
LINE
8
DEFAULT_255_1_234
10
4.0983396
20
37.4055117
11
4.5240217
21
37.5653433
0
LINE
8
DEFAULT_255_1_234
10
4.5240217
20
37.5653433
11
4.5473137
21
37.5653433
0
LINE
8
DEFAULT_255_1_234
10
5.7014745
20
37.0922739
11
5.7014745
21
37.0489025
0
LINE
8
DEFAULT_255_1_234
10
5.1593322
20
36.3894968
11
5.1304179
21
36.3894968
0
LINE
8
DEFAULT_255_1_234
10
5.1304179
20
36.3894968
11
5.1304179
21
36.5147919
0
LINE
8
DEFAULT_255_1_234
10
5.1304179
20
36.5147919
11
5.1617417
21
36.5147919
0
LINE
8
DEFAULT_255_1_234
10
5.5528874
20
37.0633597
11
5.5528874
21
37.1227945
0
ARC
8
DEFAULT_255_1_234
10
5.2735143
20
37.1379403
40
0.3635579
50
297.4037347
51
320.016758
0
ARC
8
DEFAULT_255_1_234
10
5.3025092
20
37.082224
40
0.3007486
50
270.2633101
51
297.3851877
0
ARC
8
DEFAULT_255_1_234
10
5.2991048
20
37.1285904
40
0.3471448
50
269.9966443
51
270.7900392
0
ARC
8
DEFAULT_255_1_234
10
5.2965529
20
37.1284143
40
0.3469779
50
254.5999133
51
270.4180344
0
ARC
8
DEFAULT_255_1_234
10
5.2822888
20
37.0719647
40
0.2887697
50
236.4717942
51
254.3541279
0
ARC
8
DEFAULT_255_1_234
10
5.2979106
20
37.0929711
40
0.3149125
50
208.4727207
51
236.2134933
0
ARC
8
DEFAULT_255_1_234
10
5.3617881
20
37.1320455
40
0.3897115
50
204.3447514
51
209.0453999
0
ARC
8
DEFAULT_255_1_234
10
5.4297457
20
37.1608656
40
0.4635101
50
183.9375985
51
204.1276318
0
ARC
8
DEFAULT_255_1_234
10
5.5205708
20
37.1706482
40
0.5548037
50
179.9652252
51
184.3013875
0
ARC
8
DEFAULT_255_1_234
10
5.4965754
20
37.1739507
40
0.5308164
50
166.7585989
51
180.3201225
0
ARC
8
DEFAULT_255_1_234
10
5.4119368
20
37.1923488
40
0.4442163
50
154.6955053
51
166.5679793
0
ARC
8
DEFAULT_255_1_234
10
5.3266238
20
37.235321
40
0.3487299
50
136.3324195
51
155.0871442
0
ARC
8
DEFAULT_255_1_234
10
5.2985311
20
37.2593954
40
0.3117924
50
121.236733
51
135.9680508
0
ARC
8
DEFAULT_255_1_234
10
5.3125809
20
37.2333743
40
0.3413302
50
96.845628
51
120.9881519
0
ARC
8
DEFAULT_255_1_234
10
5.3271391
20
37.1398515
40
0.4359341
50
89.8870174
51
97.2802754
0
ARC
8
DEFAULT_255_1_234
10
5.3323829
20
37.2036095
40
0.3722009
50
70.6505584
51
90.6749113
0
ARC
8
DEFAULT_255_1_234
10
5.3455108
20
37.2549361
40
0.3194571
50
36.7492984
51
69.8219918
0
ARC
8
DEFAULT_255_1_234
10
5.2456273
20
37.1770993
40
0.4460685
50
15.39587
51
37.0840084
0
ARC
8
DEFAULT_255_1_234
10
5.0326706
20
37.1150242
40
0.6678714
50
3.9488873
51
15.6798563
0
ARC
8
DEFAULT_255_1_234
10
4.7925334
20
37.0933964
40
0.9089418
50
359.929245
51
4.2665314
0
ARC
8
DEFAULT_255_1_234
10
4.3319771
20
37.0422513
40
1.3695135
50
352.8366322
51
0.2782669
0
ARC
8
DEFAULT_255_1_234
10
4.860745
20
36.9735629
40
0.8363105
50
341.8359505
51
352.9884176
0
ARC
8
DEFAULT_255_1_234
10
5.1826169
20
36.86507
40
0.4966642
50
322.8578092
51
342.1527901
0
ARC
8
DEFAULT_255_1_234
10
5.2690125
20
36.8061384
40
0.3922466
50
319.334325
51
322.0998941
0
ARC
8
DEFAULT_255_1_234
10
5.2380462
20
36.8372209
40
0.4360033
50
285.9541367
51
318.8878087
0
ARC
8
DEFAULT_255_1_234
10
5.1653723
20
37.06826
40
0.678149
50
272.9281676
51
286.4922826
0
ARC
8
DEFAULT_255_1_234
10
5.1463841
20
37.2933587
40
0.9039547
50
270.8207226
51
273.4012994
0
ARC
8
DEFAULT_255_1_234
10
5.1552692
20
37.1114666
40
0.5967098
50
270.6214993
51
281.4062806
0
ARC
8
DEFAULT_255_1_234
10
5.1982673
20
36.9058833
40
0.3866861
50
281.1852553
51
299.0621114
0
ARC
8
DEFAULT_255_1_234
10
5.2356244
20
36.8337798
40
0.3055236
50
299.5067782
51
313.1200873
0
ARC
8
DEFAULT_255_1_234
10
5.2378211
20
36.8258554
40
0.2982623
50
313.8526205
51
338.5989322
0
ARC
8
DEFAULT_255_1_234
10
5.0754285
20
36.8925781
40
0.4738131
50
338.2523585
51
351.2430902
0
ARC
8
DEFAULT_255_1_234
10
4.8343581
20
36.9335447
40
0.7183203
50
350.9409515
51
357.6691871
0
ARC
8
DEFAULT_255_1_234
10
5.3234011
20
37.1337764
40
0.2294452
50
269.9447023
51
306.8248917
0
ARC
8
DEFAULT_255_1_234
10
5.2996926
20
37.1760898
40
0.2775994
50
305.5072438
51
327.0773448
0
ARC
8
DEFAULT_255_1_234
10
5.3115367
20
37.1666025
40
0.2625056
50
327.4104943
51
336.840169
0
ARC
8
DEFAULT_255_1_234
10
5.0021432
20
37.1260302
40
0.5507537
50
359.6633817
51
10.117533
0
ARC
8
DEFAULT_255_1_234
10
5.177523
20
37.1584777
40
0.372403
50
9.9430141
51
26.7700076
0
ARC
8
DEFAULT_255_1_234
10
5.2372442
20
37.1860187
40
0.3066865
50
27.2015464
51
34.6829435
0
ARC
8
DEFAULT_255_1_234
10
5.2861922
20
37.2227977
40
0.245519
50
34.1250343
51
50.3070065
0
ARC
8
DEFAULT_255_1_234
10
5.3308602
20
37.2762385
40
0.1758693
50
50.3851167
51
90.6705993
0
ARC
8
DEFAULT_255_1_234
10
5.3261835
20
37.2457799
40
0.2063326
50
89.272901
51
111.9140407
0
ARC
8
DEFAULT_255_1_234
10
5.3242363
20
37.259844
40
0.1925887
50
112.9382311
51
142.5320782
0
ARC
8
DEFAULT_255_1_234
10
5.3788543
20
37.2154969
40
0.2629232
50
142.1021256
51
166.3835592
0
ARC
8
DEFAULT_255_1_234
10
5.4969848
20
37.1849915
40
0.3849193
50
166.1100289
51
178.665427
0
ARC
8
DEFAULT_255_1_234
10
5.6017437
20
37.1791117
40
0.4897989
50
178.2632126
51
180.0111093
0
ARC
8
DEFAULT_255_1_234
10
5.5215558
20
37.1762728
40
0.40962
50
179.6161962
51
191.8787166
0
ARC
8
DEFAULT_255_1_234
10
5.3995397
20
37.1492896
40
0.2846655
50
191.6191692
51
215.2972286
0
ARC
8
DEFAULT_255_1_234
10
5.3798588
20
37.1377918
40
0.2619665
50
215.7320102
51
216.5355409
0
ARC
8
DEFAULT_255_1_234
10
5.3259674
20
37.0945647
40
0.1929497
50
215.7486685
51
239.9727502
0
ARC
8
DEFAULT_255_1_234
10
5.318959
20
37.0894894
40
0.1850822
50
241.0650169
51
269.2810483
0
ARC
8
DEFAULT_255_1_234
10
5.3231505
20
37.1385371
40
0.2342059
50
268.4062526
51
270.0071348
0
LINE
8
DEFAULT_255_1_234
10
4.5473137
20
42.8570433
11
4.5473137
21
41.682
0
LINE
8
DEFAULT_255_1_234
10
4.5473137
20
41.682
11
4.3979234
21
41.682
0
LINE
8
DEFAULT_255_1_234
10
4.3979234
20
41.682
11
4.3979234
21
42.6723133
0
LINE
8
DEFAULT_255_1_234
10
4.3979234
20
42.6723133
11
4.0983396
21
42.5622785
0
LINE
8
DEFAULT_255_1_234
10
4.0983396
20
42.5622785
11
4.0983396
21
42.6972117
0
LINE
8
DEFAULT_255_1_234
10
4.0983396
20
42.6972117
11
4.5240217
21
42.8570433
0
LINE
8
DEFAULT_255_1_234
10
4.5240217
20
42.8570433
11
4.5473137
21
42.8570433
0
ARC
8
DEFAULT_255_1_234
10
5.4096123
20
42.5436703
40
0.2822356
50
338.8763615
51
0.5166041
0
ARC
8
DEFAULT_255_1_234
10
5.4264777
20
42.5391208
40
0.2648703
50
325.8412414
51
338.4795939
0
ARC
8
DEFAULT_255_1_234
10
5.3874145
20
42.5662042
40
0.3124019
50
296.7586019
51
325.753654
0
ARC
8
DEFAULT_255_1_234
10
5.3586253
20
42.6146789
40
0.368668
50
296.0902311
51
297.3618122
0
ARC
8
DEFAULT_255_1_234
10
5.3843711
20
41.9592041
40
0.3518806
50
47.9009248
51
67.1946869
0
ARC
8
DEFAULT_255_1_234
10
5.4039953
20
41.9838395
40
0.320451
50
35.236241
51
47.551371
0
ARC
8
DEFAULT_255_1_234
10
5.4301571
20
42.0012993
40
0.2890103
50
359.2759738
51
35.4014081
0
ARC
8
DEFAULT_255_1_234
10
5.3556602
20
41.9939826
40
0.3635026
50
343.1294516
51
0.5776525
0
ARC
8
DEFAULT_255_1_234
10
5.4281147
20
41.974033
40
0.2883832
50
310.8497458
51
342.744803
0
ARC
8
DEFAULT_255_1_234
10
5.386326
20
42.0217294
40
0.3517954
50
281.5473923
51
310.9169905
0
ARC
8
DEFAULT_255_1_234
10
5.350671
20
42.1770084
40
0.5110832
50
269.6192722
51
281.9789957
0
ARC
8
DEFAULT_255_1_234
10
5.3434499
20
42.1770828
40
0.5111606
50
257.4584469
51
270.4287458
0
ARC
8
DEFAULT_255_1_234
10
5.3053642
20
42.0167344
40
0.3463762
50
228.7553743
51
257.8484423
0
ARC
8
DEFAULT_255_1_234
10
5.274384
20
41.9794442
40
0.297916
50
184.0104442
51
228.5071787
0
ARC
8
DEFAULT_255_1_234
10
5.3906784
20
41.9971512
40
0.4152734
50
179.9315461
51
185.3254504
0
ARC
8
DEFAULT_255_1_234
10
5.273043
20
42.0008992
40
0.2976554
50
145.6795913
51
180.6259649
0
ARC
8
DEFAULT_255_1_234
10
5.2893779
20
41.9894929
40
0.3175776
50
115.5537925
51
145.6416199
0
ARC
8
DEFAULT_255_1_234
10
5.3234709
20
41.9284028
40
0.3874232
50
113.2437915
51
116.2054627
0
ARC
8
DEFAULT_255_1_234
10
5.3081922
20
42.568258
40
0.3154751
50
222.9548379
51
244.1372485
0
ARC
8
DEFAULT_255_1_234
10
5.2959997
20
42.5545834
40
0.2972382
50
213.3439227
51
222.6271327
0
ARC
8
DEFAULT_255_1_234
10
5.2767932
20
42.5415308
40
0.274019
50
180.4316517
51
213.2713999
0
ARC
8
DEFAULT_255_1_234
10
5.3342933
20
42.546211
40
0.33158
50
179.9992944
51
181.1655061
0
ARC
8
DEFAULT_255_1_234
10
5.375235
20
42.5496561
40
0.3725376
50
164.6186108
51
180.5292368
0
ARC
8
DEFAULT_255_1_234
10
5.2854213
20
42.5738101
40
0.2795349
50
132.2454369
51
164.5092287
0
ARC
8
DEFAULT_255_1_234
10
5.3141317
20
42.5413028
40
0.3229019
50
100.7052766
51
132.1387266
0
ARC
8
DEFAULT_255_1_234
10
5.3446289
20
42.4035086
40
0.4639835
50
89.6732617
51
101.2449487
0
ARC
8
DEFAULT_255_1_234
10
5.3508487
20
42.420999
40
0.4464999
50
76.2876631
51
90.4586123
0
ARC
8
DEFAULT_255_1_234
10
5.3814719
20
42.543222
40
0.3205023
50
47.8240157
51
76.4266918
0
ARC
8
DEFAULT_255_1_234
10
5.4037269
20
42.569259
40
0.2862661
50
6.9168658
51
47.6261438
0
ARC
8
DEFAULT_255_1_234
10
5.2850672
20
42.547337
40
0.4067708
50
359.8419705
51
7.9694496
0
ARC
8
DEFAULT_255_1_234
10
5.3192569
20
42.0032925
40
0.2513121
50
359.4454068
51
16.9256425
0
ARC
8
DEFAULT_255_1_234
10
5.366138
20
42.0162033
40
0.2027071
50
17.292259
51
45.462717
0
ARC
8
DEFAULT_255_1_234
10
5.3607316
20
42.0115434
40
0.2098212
50
45.3028762
51
83.1921472
0
ARC
8
DEFAULT_255_1_234
10
5.3464
20
41.9313895
40
0.2911472
50
82.2614531
51
90.143954
0
ARC
8
DEFAULT_255_1_234
10
5.343312
20
41.954695
40
0.2678513
50
89.4959189
51
104.8579811
0
ARC
8
DEFAULT_255_1_234
10
5.3256379
20
42.021689
40
0.1985654
50
104.8855873
51
135.2448349
0
ARC
8
DEFAULT_255_1_234
10
5.3306152
20
42.0172336
40
0.2052373
50
135.3398955
51
172.104394
0
ARC
8
DEFAULT_255_1_234
10
5.411321
20
42.0017925
40
0.2873299
50
171.2651929
51
180.1859362
0
ARC
8
DEFAULT_255_1_234
10
5.3943911
20
41.9985733
40
0.2704083
50
179.515471
51
193.6466734
0
ARC
8
DEFAULT_255_1_234
10
5.312768
20
41.9777777
40
0.1861855
50
193.3540587
51
225.8256931
0
ARC
8
DEFAULT_255_1_234
10
5.3168437
20
41.9848524
40
0.1941102
50
226.418029
51
255.8553723
0
ARC
8
DEFAULT_255_1_234
10
5.342487
20
42.0784998
40
0.2911917
50
255.4655572
51
268.7985967
0
ARC
8
DEFAULT_255_1_234
10
5.3472062
20
42.1623491
40
0.3751331
50
268.3464808
51
270.0104874
0
ARC
8
DEFAULT_255_1_234
10
5.349545
20
42.0939138
40
0.3067064
50
269.575914
51
282.0823146
0
ARC
8
DEFAULT_255_1_234
10
5.3720359
20
41.9944803
40
0.2047712
50
281.7522535
51
306.6056425
0
ARC
8
DEFAULT_255_1_234
10
5.3818785
20
41.9783487
40
0.1859604
50
307.1350025
51
314.0277951
0
ARC
8
DEFAULT_255_1_234
10
5.3782869
20
41.9809766
40
0.1903475
50
314.2553419
51
350.169324
0
ARC
8
DEFAULT_255_1_234
10
5.2931338
20
41.9994409
40
0.2774269
50
349.4145679
51
0.2930737
0
ARC
8
DEFAULT_255_1_234
10
5.3451771
20
42.5153353
40
0.2300764
50
89.477591
51
105.729794
0
ARC
8
DEFAULT_255_1_234
10
5.3315684
20
42.5658637
40
0.1777519
50
105.922966
51
135.1662921
0
ARC
8
DEFAULT_255_1_234
10
5.3336187
20
42.5644419
40
0.1802087
50
135.3053131
51
168.9882338
0
ARC
8
DEFAULT_255_1_234
10
5.4163759
20
42.5454721
40
0.2650806
50
168.3802067
51
180.3602358
0
ARC
8
DEFAULT_255_1_234
10
5.3935339
20
42.5417041
40
0.2422425
50
179.5029707
51
194.9126783
0
ARC
8
DEFAULT_255_1_234
10
5.335
20
42.526311
40
0.1817188
50
194.9722181
51
224.1943972
0
ARC
8
DEFAULT_255_1_234
10
5.3321867
20
42.5240169
40
0.1781027
50
224.2961434
51
262.0157375
0
ARC
8
DEFAULT_255_1_234
10
5.346411
20
42.5971661
40
0.2525492
50
261.1250369
51
270.1959853
0
ARC
8
DEFAULT_255_1_234
10
5.3493865
20
42.5784339
40
0.233825
50
269.4825617
51
285.0988277
0
ARC
8
DEFAULT_255_1_234
10
5.3648024
20
42.520599
40
0.1739712
50
285.1585659
51
315.9484648
0
ARC
8
DEFAULT_255_1_234
10
5.3559036
20
42.5287886
40
0.1860616
50
316.0412958
51
351.9162715
0
ARC
8
DEFAULT_255_1_234
10
5.2825991
20
42.5429245
40
0.2606517
50
351.1056823
51
0.1936567
0
ARC
8
DEFAULT_255_1_234
10
5.308882
20
42.5459369
40
0.234377
50
359.4789506
51
16.0679113
0
ARC
8
DEFAULT_255_1_234
10
5.3564779
20
42.558781
40
0.1850875
50
16.3251951
51
44.791304
0
ARC
8
DEFAULT_255_1_234
10
5.354706
20
42.5588339
40
0.186312
50
44.3958661
51
88.2498933
0
ARC
8
DEFAULT_255_1_234
10
5.3473614
20
42.4977154
40
0.2476868
50
86.9833827
51
90.0200148
0
LINE
8
DEFAULT_255_1_234
10
4.5473137
20
48.1487433
11
4.5473137
21
46.9737
0
LINE
8
DEFAULT_255_1_234
10
4.5473137
20
46.9737
11
4.3979234
21
46.9737
0
LINE
8
DEFAULT_255_1_234
10
4.3979234
20
46.9737
11
4.3979234
21
47.9640133
0
LINE
8
DEFAULT_255_1_234
10
4.3979234
20
47.9640133
11
4.0983396
21
47.8539785
0
LINE
8
DEFAULT_255_1_234
10
4.0983396
20
47.8539785
11
4.0983396
21
47.9889117
0
LINE
8
DEFAULT_255_1_234
10
4.0983396
20
47.9889117
11
4.5240217
21
48.1487433
0
LINE
8
DEFAULT_255_1_234
10
4.5240217
20
48.1487433
11
4.5473137
21
48.1487433
0
LINE
8
DEFAULT_255_1_234
10
5.7376173
20
48.1431211
11
5.7376173
21
48.059591
0
LINE
8
DEFAULT_255_1_234
10
5.7376173
20
48.059591
11
5.2533035
21
46.9737
0
LINE
8
DEFAULT_255_1_234
10
5.2533035
20
46.9737
11
5.0974878
21
46.9737
0
LINE
8
DEFAULT_255_1_234
10
5.0974878
20
46.9737
11
5.5801953
21
48.0210387
0
LINE
8
DEFAULT_255_1_234
10
5.5801953
20
48.0210387
11
4.9472943
21
48.0210387
0
LINE
8
DEFAULT_255_1_234
10
4.9472943
20
48.0210387
11
4.9472943
21
48.1431211
0
LINE
8
DEFAULT_255_1_234
10
4.9472943
20
48.1431211
11
5.7376173
21
48.1431211
0
LINE
8
DEFAULT_255_1_234
10
4.5473137
20
53.4403433
11
4.5473137
21
52.2653
0
LINE
8
DEFAULT_255_1_234
10
4.5473137
20
52.2653
11
4.3979234
21
52.2653
0
LINE
8
DEFAULT_255_1_234
10
4.3979234
20
52.2653
11
4.3979234
21
53.2556133
0
LINE
8
DEFAULT_255_1_234
10
4.3979234
20
53.2556133
11
4.0983396
21
53.1455785
0
LINE
8
DEFAULT_255_1_234
10
4.0983396
20
53.1455785
11
4.0983396
21
53.2805117
0
LINE
8
DEFAULT_255_1_234
10
4.0983396
20
53.2805117
11
4.5240217
21
53.4403433
0
LINE
8
DEFAULT_255_1_234
10
4.5240217
20
53.4403433
11
4.5473137
21
53.4403433
0
LINE
8
DEFAULT_255_1_234
10
5.5392334
20
53.4355243
11
5.5657381
21
53.4355243
0
LINE
8
DEFAULT_255_1_234
10
5.5657381
20
53.4355243
11
5.5657381
21
53.309426
0
LINE
8
DEFAULT_255_1_234
10
5.5657381
20
53.309426
11
5.5384302
21
53.309426
0
LINE
8
DEFAULT_255_1_234
10
4.9914688
20
52.7102583
11
4.9914688
21
52.7672836
0
LINE
8
DEFAULT_255_1_234
10
5.1408592
20
52.7480075
11
5.1408592
21
52.6933917
0
ARC
8
DEFAULT_255_1_234
10
5.543665
20
52.8096455
40
0.4998079
50
90.6001036
51
104.514704
0
ARC
8
DEFAULT_255_1_234
10
5.5048166
20
52.9541131
40
0.3502176
50
104.2855254
51
133.862935
0
ARC
8
DEFAULT_255_1_234
10
5.5211923
20
52.943283
40
0.3693984
50
134.5302688
51
161.6210873
0
ARC
8
DEFAULT_255_1_234
10
5.6865112
20
52.8849895
40
0.5446739
50
161.2849839
51
174.2076652
0
ARC
8
DEFAULT_255_1_234
10
5.8272049
20
52.8655787
40
0.6866274
50
173.7810589
51
174.9254635
0
ARC
8
DEFAULT_255_1_234
10
5.3721881
20
52.7272839
40
0.3033419
50
95.8330959
51
138.9954921
0
ARC
8
DEFAULT_255_1_234
10
5.3945237
20
52.5994375
40
0.4328947
50
89.8753725
51
97.0544009
0
ARC
8
DEFAULT_255_1_234
10
5.3992703
20
52.6829748
40
0.3493769
50
71.6407809
51
90.6240094
0
ARC
8
DEFAULT_255_1_234
10
5.4143276
20
52.7384082
40
0.2920396
50
39.6367836
51
71.019018
0
ARC
8
DEFAULT_255_1_234
10
5.3506749
20
52.6833998
40
0.3761538
50
10.658731
51
39.9043955
0
ARC
8
DEFAULT_255_1_234
10
5.1958832
20
52.6497686
40
0.5345136
50
359.682601
51
11.132623
0
ARC
8
DEFAULT_255_1_234
10
5.1918963
20
52.642701
40
0.5385081
50
347.2486944
51
0.4369317
0
ARC
8
DEFAULT_255_1_234
10
5.358644
20
52.6025807
40
0.3670249
50
318.1409698
51
347.6118597
0
ARC
8
DEFAULT_255_1_234
10
5.3911433
20
52.5758702
40
0.3250007
50
275.6342139
51
317.8248465
0
ARC
8
DEFAULT_255_1_234
10
5.3690544
20
52.7058219
40
0.4565864
50
269.8874292
51
276.7917694
0
ARC
8
DEFAULT_255_1_234
10
5.3635615
20
52.6032743
40
0.3540676
50
246.9140195
51
270.7437342
0
ARC
8
DEFAULT_255_1_234
10
5.3642005
20
52.5890384
40
0.3412781
50
218.1665114
51
245.878116
0
ARC
8
DEFAULT_255_1_234
10
5.4521466
20
52.6626279
40
0.455911
50
191.4115814
51
218.6077802
0
ARC
8
DEFAULT_255_1_234
10
5.6459555
20
52.7060833
40
0.6545001
50
179.6345085
51
191.7836486
0
ARC
8
DEFAULT_255_1_234
10
6.2041892
20
52.7739697
40
1.2127388
50
171.4525249
51
180.3158839
0
ARC
8
DEFAULT_255_1_234
10
5.7646768
20
52.8423608
40
0.7679464
50
157.9802646
51
171.6246686
0
ARC
8
DEFAULT_255_1_234
10
5.5432789
20
52.9306421
40
0.5296008
50
141.4298019
51
157.854097
0
ARC
8
DEFAULT_255_1_234
10
5.4791109
20
52.9760381
40
0.4511509
50
102.8715806
51
140.8564722
0
ARC
8
DEFAULT_255_1_234
10
5.5438725
20
52.7320552
40
0.7034845
50
90.3778349
51
103.5869322
0
ARC
8
DEFAULT_255_1_234
10
5.3700501
20
52.671573
40
0.2370698
50
89.8751008
51
126.2071704
0
ARC
8
DEFAULT_255_1_234
10
5.3746291
20
52.6561303
40
0.2522934
50
124.9745049
51
144.895901
0
ARC
8
DEFAULT_255_1_234
10
5.3570481
20
52.670456
40
0.2296779
50
145.2974905
51
160.2660252
0
ARC
8
DEFAULT_255_1_234
10
5.664302
20
52.6902071
40
0.5234525
50
179.6514266
51
190.2855912
0
ARC
8
DEFAULT_255_1_234
10
5.4949157
20
52.6582786
40
0.3510893
50
190.0945431
51
207.5098196
0
ARC
8
DEFAULT_255_1_234
10
5.4383427
20
52.6313623
40
0.288489
50
207.9583163
51
216.3251085
0
ARC
8
DEFAULT_255_1_234
10
5.4043535
20
52.6034105
40
0.2445587
50
215.7661442
51
232.5456785
0
ARC
8
DEFAULT_255_1_234
10
5.3660518
20
52.5547482
40
0.1826382
50
232.8005391
51
270.6605633
0
ARC
8
DEFAULT_255_1_234
10
5.3706219
20
52.5911612
40
0.2190529
50
269.35537
51
288.4744281
0
ARC
8
DEFAULT_255_1_234
10
5.3799116
20
52.5562118
40
0.1829749
50
289.1833337
51
322.9683818
0
ARC
8
DEFAULT_255_1_234
10
5.3187638
20
52.6044391
40
0.2608399
50
322.6007884
51
346.5182367
0
ARC
8
DEFAULT_255_1_234
10
5.2030234
20
52.6339616
40
0.3802777
50
346.2582162
51
358.7741648
0
ARC
8
DEFAULT_255_1_234
10
5.1011903
20
52.6394965
40
0.4822176
50
358.3755224
51
0.0098023
0
ARC
8
DEFAULT_255_1_234
10
5.176809
20
52.6422657
40
0.4066078
50
359.6214041
51
11.2839074
0
ARC
8
DEFAULT_255_1_234
10
5.3045237
20
52.6689066
40
0.2761514
50
11.0482309
51
31.8146458
0
ARC
8
DEFAULT_255_1_234
10
5.335428
20
52.6856584
40
0.2410679
50
32.3035391
51
38.082671
0
ARC
8
DEFAULT_255_1_234
10
5.377494
20
52.7237662
40
0.1844966
50
36.825067
51
85.7415724
0
ARC
8
DEFAULT_255_1_234
10
5.3707773
20
52.6737301
40
0.2349122
50
85.0140713
51
90.0513278
0
LINE
8
DEFAULT_255_1_234
10
4.5473137
20
58.7320433
11
4.5473137
21
57.557
0
LINE
8
DEFAULT_255_1_234
10
4.5473137
20
57.557
11
4.3979234
21
57.557
0
LINE
8
DEFAULT_255_1_234
10
4.3979234
20
57.557
11
4.3979234
21
58.5473133
0
LINE
8
DEFAULT_255_1_234
10
4.3979234
20
58.5473133
11
4.0983396
21
58.4372785
0
LINE
8
DEFAULT_255_1_234
10
4.0983396
20
58.4372785
11
4.0983396
21
58.5722117
0
LINE
8
DEFAULT_255_1_234
10
4.0983396
20
58.5722117
11
4.5240217
21
58.7320433
0
LINE
8
DEFAULT_255_1_234
10
4.5240217
20
58.7320433
11
4.5473137
21
58.7320433
0
LINE
8
DEFAULT_255_1_234
10
5.1697734
20
58.1127963
11
5.0509037
21
58.1433169
0
LINE
8
DEFAULT_255_1_234
10
5.0509037
20
58.1433169
11
5.1103386
21
58.7264211
0
LINE
8
DEFAULT_255_1_234
10
5.1103386
20
58.7264211
11
5.7095063
21
58.7264211
0
LINE
8
DEFAULT_255_1_234
10
5.7095063
20
58.7264211
11
5.7095063
21
58.5890784
0
LINE
8
DEFAULT_255_1_234
10
5.7095063
20
58.5890784
11
5.2364369
21
58.5890784
0
LINE
8
DEFAULT_255_1_234
10
5.2364369
20
58.5890784
11
5.2010972
21
58.2702184
0
LINE
8
DEFAULT_255_1_234
10
5.0091387
20
57.8646156
11
5.1496941
21
57.8646156
0
LINE
8
DEFAULT_255_1_234
10
5.209129
20
58.1449232
11
5.1697734
21
58.1127963
0
ARC
8
DEFAULT_255_1_234
10
5.3865756
20
57.952223
40
0.3681349
50
93.7182161
51
120.2538958
0
ARC
8
DEFAULT_255_1_234
10
5.3960019
20
57.8714394
40
0.449379
50
89.9660152
51
94.2496022
0
ARC
8
DEFAULT_255_1_234
10
5.4000753
20
57.9303549
40
0.390482
50
73.8043271
51
90.5585896
0
ARC
8
DEFAULT_255_1_234
10
5.423565
20
58.0161602
40
0.3015334
50
41.3071453
51
73.5430202
0
ARC
8
DEFAULT_255_1_234
10
5.3819477
20
57.9803324
40
0.3564457
50
13.5075983
51
41.2174222
0
ARC
8
DEFAULT_255_1_234
10
5.2177681
20
57.9373486
40
0.5261351
50
1.1331335
51
13.8829381
0
ARC
8
DEFAULT_255_1_234
10
5.076605
20
57.9297665
40
0.6674378
50
359.9919444
51
1.544251
0
ARC
8
DEFAULT_255_1_234
10
5.2042876
20
57.925628
40
0.5397702
50
347.8572367
51
0.4293338
0
ARC
8
DEFAULT_255_1_234
10
5.3793194
20
57.8859736
40
0.3603188
50
323.673004
51
348.1672506
0
ARC
8
DEFAULT_255_1_234
10
5.4087702
20
57.8680168
40
0.3259678
50
316.8171152
51
323.1492751
0
ARC
8
DEFAULT_255_1_234
10
5.4148891
20
57.864346
40
0.3189975
50
281.8396411
51
316.5457803
0
ARC
8
DEFAULT_255_1_234
10
5.3773155
20
58.0198762
40
0.4789527
50
269.5770101
51
282.4214771
0
ARC
8
DEFAULT_255_1_234
10
5.3701966
20
57.9985125
40
0.45759
50
256.2427136
51
270.4486331
0
ARC
8
DEFAULT_255_1_234
10
5.3402869
20
57.8785229
40
0.3339303
50
228.9023911
51
256.3314342
0
ARC
8
DEFAULT_255_1_234
10
5.3329101
20
57.8668746
40
0.32031
50
193.753695
51
228.5271154
0
ARC
8
DEFAULT_255_1_234
10
5.4567055
20
57.90318
40
0.4492253
50
184.924711
51
194.497588
0
ARC
8
DEFAULT_255_1_234
10
5.4759622
20
57.9067591
40
0.3289787
50
187.3600538
51
198.6732863
0
ARC
8
DEFAULT_255_1_234
10
5.3709916
20
57.8703674
40
0.217884
50
198.4451669
51
217.794479
0
ARC
8
DEFAULT_255_1_234
10
5.3414091
20
57.8494085
40
0.1816698
50
218.2887171
51
228.5612368
0
ARC
8
DEFAULT_255_1_234
10
5.3511878
20
57.8625963
40
0.1980329
50
228.9654866
51
258.1234728
0
ARC
8
DEFAULT_255_1_234
10
5.3717588
20
57.9506833
40
0.2884748
50
257.7258293
51
270.401361
0
ARC
8
DEFAULT_255_1_234
10
5.3762474
20
57.9061821
40
0.2439788
50
269.4204404
51
286.4209037
0
ARC
8
DEFAULT_255_1_234
10
5.3910962
20
57.8522657
40
0.1880666
50
286.7251356
51
320.600362
0
ARC
8
DEFAULT_255_1_234
10
5.3527787
20
57.8833595
40
0.2374121
50
320.6712579
51
344.5441685
0
ARC
8
DEFAULT_255_1_234
10
5.2371113
20
57.9173045
40
0.3579479
50
344.2412205
51
356.7357071
0
ARC
8
DEFAULT_255_1_234
10
5.1122262
20
57.9276444
40
0.4832297
50
356.3548756
51
0.0500261
0
ARC
8
DEFAULT_255_1_234
10
5.2458771
20
57.930765
40
0.3495889
50
359.5576869
51
12.953486
0
ARC
8
DEFAULT_255_1_234
10
5.3513668
20
57.9563434
40
0.2410532
50
12.6490276
51
41.6081334
0
ARC
8
DEFAULT_255_1_234
10
5.3744039
20
57.9759321
40
0.2108218
50
41.7850273
51
85.9892764
0
ARC
8
DEFAULT_255_1_234
10
5.3620776
20
57.8946462
40
0.2928454
50
84.6957577
51
90.0676183
0
ARC
8
DEFAULT_255_1_234
10
5.359726
20
57.8277716
40
0.3597255
50
89.6804936
51
99.1614436
0
ARC
8
DEFAULT_255_1_234
10
5.3391891
20
57.9505131
40
0.235281
50
98.9830931
51
113.8908934
0
ARC
8
DEFAULT_255_1_234
10
5.3162301
20
58.0046587
40
0.176479
50
114.1950727
51
127.3641004
0
LINE
8
DEFAULT_255_1_234
10
4.6531137
20
64.0237433
11
4.6531137
21
62.8487
0
LINE
8
DEFAULT_255_1_234
10
4.6531137
20
62.8487
11
4.5037234
21
62.8487
0
LINE
8
DEFAULT_255_1_234
10
4.5037234
20
62.8487
11
4.5037234
21
63.8390133
0
LINE
8
DEFAULT_255_1_234
10
4.5037234
20
63.8390133
11
4.2041396
21
63.7289785
0
LINE
8
DEFAULT_255_1_234
10
4.2041396
20
63.7289785
11
4.2041396
21
63.8639117
0
LINE
8
DEFAULT_255_1_234
10
4.2041396
20
63.8639117
11
4.6298217
21
64.0237433
0
LINE
8
DEFAULT_255_1_234
10
4.6298217
20
64.0237433
11
4.6531137
21
64.0237433
0
LINE
8
DEFAULT_255_1_234
10
5.7157127
20
64.0181211
11
5.7157127
21
63.241452
0
LINE
8
DEFAULT_255_1_234
10
5.7157127
20
63.241452
11
5.8779538
21
63.241452
0
LINE
8
DEFAULT_255_1_234
10
5.8779538
20
63.241452
11
5.8779538
21
63.1201728
0
LINE
8
DEFAULT_255_1_234
10
5.8779538
20
63.1201728
11
5.7157127
21
63.1201728
0
LINE
8
DEFAULT_255_1_234
10
5.7157127
20
63.1201728
11
5.7157127
21
62.8487
0
LINE
8
DEFAULT_255_1_234
10
5.7157127
20
62.8487
11
5.5663224
21
62.8487
0
LINE
8
DEFAULT_255_1_234
10
5.5663224
20
62.8487
11
5.5663224
21
63.1201728
0
LINE
8
DEFAULT_255_1_234
10
5.5663224
20
63.1201728
11
5.0338181
21
63.1201728
0
LINE
8
DEFAULT_255_1_234
10
5.0338181
20
63.1201728
11
5.0338181
21
63.2077187
0
LINE
8
DEFAULT_255_1_234
10
5.0338181
20
63.2077187
11
5.5574875
21
64.0181211
0
LINE
8
DEFAULT_255_1_234
10
5.5574875
20
64.0181211
11
5.7157127
21
64.0181211
0
LINE
8
DEFAULT_255_1_234
10
5.5486525
20
63.7827912
11
5.2024846
21
63.241452
0
LINE
8
DEFAULT_255_1_234
10
5.2024846
20
63.241452
11
5.5663224
21
63.241452
0
LINE
8
DEFAULT_255_1_234
10
5.5663224
20
63.241452
11
5.5663224
21
63.8149181
0
LINE
8
DEFAULT_255_1_234
10
5.5663224
20
63.8149181
11
5.5486525
21
63.7827912
0
LINE
8
DEFAULT_255_1_234
10
4.5473137
20
69.3153433
11
4.5473137
21
68.1403
0
LINE
8
DEFAULT_255_1_234
10
4.5473137
20
68.1403
11
4.3979234
21
68.1403
0
LINE
8
DEFAULT_255_1_234
10
4.3979234
20
68.1403
11
4.3979234
21
69.1306133
0
LINE
8
DEFAULT_255_1_234
10
4.3979234
20
69.1306133
11
4.0983396
21
69.0205785
0
LINE
8
DEFAULT_255_1_234
10
4.0983396
20
69.0205785
11
4.0983396
21
69.1555117
0
LINE
8
DEFAULT_255_1_234
10
4.0983396
20
69.1555117
11
4.5240217
21
69.3153433
0
LINE
8
DEFAULT_255_1_234
10
4.5240217
20
69.3153433
11
4.5473137
21
69.3153433
0
LINE
8
DEFAULT_255_1_234
10
5.1986877
20
68.6760169
11
5.1986877
21
68.7972962
0
LINE
8
DEFAULT_255_1_234
10
5.1986877
20
68.7972962
11
5.3103289
21
68.7972962
0
LINE
8
DEFAULT_255_1_234
10
5.1199767
20
69.0029087
11
4.9713895
21
69.0029087
0
LINE
8
DEFAULT_255_1_234
10
4.9609482
20
68.4487188
11
5.1103386
21
68.4487188
0
LINE
8
DEFAULT_255_1_234
10
5.3103289
20
68.6760169
11
5.1986877
21
68.6760169
0
ARC
8
DEFAULT_255_1_234
10
5.3074155
20
69.1365713
40
0.3392876
50
270.4919872
51
281.8951556
0
ARC
8
DEFAULT_255_1_234
10
5.3315417
20
69.0263702
40
0.2264817
50
281.6691735
51
301.2943132
0
ARC
8
DEFAULT_255_1_234
10
5.3485627
20
68.9952304
40
0.1910381
50
301.7833094
51
311.7545298
0
ARC
8
DEFAULT_255_1_234
10
5.3577203
20
68.9850748
40
0.1773635
50
311.7323931
51
354.2802411
0
ARC
8
DEFAULT_255_1_234
10
5.2850828
20
68.9975722
40
0.2509385
50
353.0937916
51
0.1181479
0
ARC
8
DEFAULT_255_1_234
10
5.2389613
20
69.0023386
40
0.2970898
50
359.1805295
51
15.0453146
0
ARC
8
DEFAULT_255_1_234
10
5.373545
20
69.0415992
40
0.1569564
50
13.9577229
51
77.6713066
0
ARC
8
DEFAULT_255_1_234
10
5.3348979
20
68.9030949
40
0.3006298
50
76.1116566
51
90.7026153
0
ARC
8
DEFAULT_255_1_234
10
5.3289817
20
68.9304545
40
0.2732568
50
89.5324876
51
103.531937
0
ARC
8
DEFAULT_255_1_234
10
5.3089261
20
69.0103884
40
0.1908508
50
103.2931773
51
133.5619022
0
ARC
8
DEFAULT_255_1_234
10
5.304475
20
69.0163375
40
0.1834746
50
133.8349307
51
173.5344437
0
ARC
8
DEFAULT_255_1_234
10
5.3767793
20
69.0035213
40
0.2568033
50
172.5096846
51
180.1366907
0
ARC
8
DEFAULT_255_1_234
10
5.2816687
20
69.0069622
40
0.3103056
50
155.3484492
51
180.7484736
0
ARC
8
DEFAULT_255_1_234
10
5.2767776
20
69.0040846
40
0.3070957
50
131.5744599
51
154.4798489
0
ARC
8
DEFAULT_255_1_234
10
5.3080923
20
68.972431
40
0.3515643
50
96.9875458
51
131.9690667
0
ARC
8
DEFAULT_255_1_234
10
5.3300403
20
68.8478636
40
0.4779224
50
89.8596053
51
97.7825159
0
ARC
8
DEFAULT_255_1_234
10
5.3348466
20
68.8216616
40
0.5041361
50
78.3655447
51
90.4131539
0
ARC
8
DEFAULT_255_1_234
10
5.3706384
20
68.9875887
40
0.3344039
50
56.6229102
51
78.638727
0
ARC
8
DEFAULT_255_1_234
10
5.3921328
20
69.0251805
40
0.2912001
50
47.0253525
51
56.0854072
0
ARC
8
DEFAULT_255_1_234
10
5.3941108
20
69.0291223
40
0.2869704
50
10.9208013
51
46.7778124
0
ARC
8
DEFAULT_255_1_234
10
5.2577174
20
68.9975857
40
0.426899
50
359.6364486
51
11.6087304
0
ARC
8
DEFAULT_255_1_234
10
5.4412018
20
68.9960752
40
0.243409
50
332.3549906
51
359.7179418
0
ARC
8
DEFAULT_255_1_234
10
5.376162
20
69.0269142
40
0.3153459
50
325.2333722
51
332.8745602
0
ARC
8
DEFAULT_255_1_234
10
5.3914244
20
69.0162828
40
0.2967456
50
292.9802137
51
325.2392345
0
ARC
8
DEFAULT_255_1_234
10
5.3639617
20
69.0696863
40
0.3566604
50
292.5402179
51
293.6924929
0
ARC
8
DEFAULT_255_1_234
10
5.4032213
20
68.4242091
40
0.3307468
50
57.6435486
51
72.8625112
0
ARC
8
DEFAULT_255_1_234
10
5.4386713
20
68.4816549
40
0.2632492
50
36.7248896
51
57.4697979
0
ARC
8
DEFAULT_255_1_234
10
5.4375346
20
68.482922
40
0.2634081
50
8.0545065
51
36.356114
0
ARC
8
DEFAULT_255_1_234
10
5.3512531
20
68.4674174
40
0.3510261
50
359.8320645
51
8.5869982
0
ARC
8
DEFAULT_255_1_234
10
5.3137307
20
68.4626101
40
0.3885653
50
343.9829931
51
0.5571613
0
ARC
8
DEFAULT_255_1_234
10
5.4023504
20
68.4383438
40
0.2966924
50
311.6359546
51
343.7651759
0
ARC
8
DEFAULT_255_1_234
10
5.3645074
20
68.4810102
40
0.3537231
50
279.7829875
51
311.6255694
0
ARC
8
DEFAULT_255_1_234
10
5.334385
20
68.624728
40
0.5004971
50
269.7286406
51
280.3856417
0
ARC
8
DEFAULT_255_1_234
10
5.3281922
20
68.6205996
40
0.4963778
50
256.6828919
51
270.4412052
0
ARC
8
DEFAULT_255_1_234
10
5.2943218
20
68.4821394
40
0.3538406
50
229.4223008
51
256.8556159
0
ARC
8
DEFAULT_255_1_234
10
5.2528611
20
68.4354736
40
0.2914296
50
181.818294
51
229.6455059
0
ARC
8
DEFAULT_255_1_234
10
5.3568567
20
68.4485496
40
0.3959084
50
179.9755256
51
183.2323064
0
ARC
8
DEFAULT_255_1_234
10
5.3396313
20
68.4465037
40
0.2293034
50
179.4465117
51
196.2869258
0
ARC
8
DEFAULT_255_1_234
10
5.2908721
20
68.4331651
40
0.1787621
50
196.5661473
51
227.705904
0
ARC
8
DEFAULT_255_1_234
10
5.3072816
20
68.4515155
40
0.2033784
50
227.7652068
51
257.8762805
0
ARC
8
DEFAULT_255_1_234
10
5.3297786
20
68.5458156
40
0.3003081
50
257.4584385
51
270.426602
0
ARC
8
DEFAULT_255_1_234
10
5.3343352
20
68.5747996
40
0.329292
50
269.5962073
51
280.8789248
0
ARC
8
DEFAULT_255_1_234
10
5.3572881
20
68.4601685
40
0.2123908
50
280.6346389
51
299.8595945
0
ARC
8
DEFAULT_255_1_234
10
5.3763788
20
68.4239212
40
0.171457
50
300.3576302
51
314.5517981
0
ARC
8
DEFAULT_255_1_234
10
5.3680848
20
68.4299919
40
0.1816095
50
315.0728369
51
345.0431014
0
ARC
8
DEFAULT_255_1_234
10
5.2757662
20
68.4568841
40
0.2777492
50
344.5986631
51
357.9269593
0
ARC
8
DEFAULT_255_1_234
10
5.1861989
20
68.4630276
40
0.3674917
50
357.4748886
51
0.0231117
0
ARC
8
DEFAULT_255_1_234
10
5.2885098
20
68.4654679
40
0.2651907
50
359.5047933
51
13.4239635
0
ARC
8
DEFAULT_255_1_234
10
5.3751741
20
68.4876478
40
0.1757509
50
12.9498199
51
48.7551375
0
ARC
8
DEFAULT_255_1_234
10
5.3569475
20
68.46274
40
0.2065134
50
49.5088623
51
72.1836453
0
ARC
8
DEFAULT_255_1_234
10
5.3211628
20
68.3565291
40
0.3185836
50
71.9010081
51
84.3554254
0
ARC
8
DEFAULT_255_1_234
10
5.305026
20
68.2204326
40
0.4556151
50
84.0193428
51
89.333121
0
LINE
8
DEFAULT_255_1_234
10
4.5473137
20
74.6070433
11
4.5473137
21
73.432
0
LINE
8
DEFAULT_255_1_234
10
4.5473137
20
73.432
11
4.3979234
21
73.432
0
LINE
8
DEFAULT_255_1_234
10
4.3979234
20
73.432
11
4.3979234
21
74.4223133
0
LINE
8
DEFAULT_255_1_234
10
4.3979234
20
74.4223133
11
4.0983396
21
74.3122785
0
LINE
8
DEFAULT_255_1_234
10
4.0983396
20
74.3122785
11
4.0983396
21
74.4472117
0
LINE
8
DEFAULT_255_1_234
10
4.0983396
20
74.4472117
11
4.5240217
21
74.6070433
0
LINE
8
DEFAULT_255_1_234
10
4.5240217
20
74.6070433
11
4.5473137
21
74.6070433
0
LINE
8
DEFAULT_255_1_234
10
5.7488618
20
73.5532792
11
5.7488618
21
73.432
0
LINE
8
DEFAULT_255_1_234
10
5.7488618
20
73.432
11
4.9826339
21
73.432
0
LINE
8
DEFAULT_255_1_234
10
4.9826339
20
73.432
11
4.9826339
21
73.5388221
0
LINE
8
DEFAULT_255_1_234
10
4.9826339
20
73.5388221
11
5.3874335
21
73.9885995
0
LINE
8
DEFAULT_255_1_234
10
5.1087322
20
74.2568595
11
4.9601451
21
74.2568595
0
LINE
8
DEFAULT_255_1_234
10
5.4749795
20
73.8930218
11
5.1617417
21
73.5532792
0
LINE
8
DEFAULT_255_1_234
10
5.1617417
20
73.5532792
11
5.7488618
21
73.5532792
0
ARC
8
DEFAULT_255_1_234
10
4.0384169
20
75.1815527
40
1.8008286
50
318.5132453
51
320.7828378
0
ARC
8
DEFAULT_255_1_234
10
4.5671143
20
74.7512426
40
1.1191493
50
320.7372736
51
323.9737074
0
ARC
8
DEFAULT_255_1_234
10
4.9591
20
74.4672361
40
0.6350923
50
323.8961724
51
328.6421089
0
ARC
8
DEFAULT_255_1_234
10
5.1637595
20
74.3410031
40
0.3946393
50
328.8299013
51
331.789948
0
ARC
8
DEFAULT_255_1_234
10
5.2634774
20
74.2895509
40
0.2824501
50
331.4255242
51
352.9364833
0
ARC
8
DEFAULT_255_1_234
10
5.2771274
20
74.2864976
40
0.2685315
50
353.2248685
51
0.0169286
0
ARC
8
DEFAULT_255_1_234
10
5.2981151
20
74.288795
40
0.2475536
50
359.4866256
51
15.9339782
0
ARC
8
DEFAULT_255_1_234
10
5.3488136
20
74.3024286
40
0.1950618
50
16.1714718
51
43.5284424
0
ARC
8
DEFAULT_255_1_234
10
5.3565445
20
74.3101573
40
0.184134
50
43.4415429
51
83.1661404
0
ARC
8
DEFAULT_255_1_234
10
5.3431363
20
74.2364771
40
0.258926
50
82.160215
51
90.1505798
0
ARC
8
DEFAULT_255_1_234
10
5.339979
20
74.1827865
40
0.3126255
50
89.5460705
51
102.5418777
0
ARC
8
DEFAULT_255_1_234
10
5.3156876
20
74.2858665
40
0.2067346
50
102.1739365
51
129.2061916
0
ARC
8
DEFAULT_255_1_234
10
5.3077948
20
74.2983094
40
0.1921118
50
129.7279328
51
135.7542026
0
ARC
8
DEFAULT_255_1_234
10
5.3199476
20
74.2886045
40
0.2075944
50
136.175737
51
166.3674722
0
ARC
8
DEFAULT_255_1_234
10
5.4206395
20
74.2616182
40
0.3118201
50
165.9092917
51
178.8683903
0
ARC
8
DEFAULT_255_1_234
10
5.5071256
20
74.2569179
40
0.3983935
50
178.438168
51
180.0083905
0
ARC
8
DEFAULT_255_1_234
10
5.3669859
20
74.2608231
40
0.4068601
50
163.2878735
51
180.5581814
0
ARC
8
DEFAULT_255_1_234
10
5.286812
20
74.282884
40
0.3237344
50
133.454115
51
162.9470031
0
ARC
8
DEFAULT_255_1_234
10
5.3046661
20
74.2639
40
0.349795
50
100.7869394
51
133.4384016
0
ARC
8
DEFAULT_255_1_234
10
5.3394433
20
74.1090319
40
0.5084616
50
89.6605301
51
101.3704185
0
ARC
8
DEFAULT_255_1_234
10
5.3460772
20
74.1151496
40
0.502348
50
78.2171172
51
90.4130393
0
ARC
8
DEFAULT_255_1_234
10
5.381585
20
74.2775637
40
0.3361092
50
55.9268222
51
78.4888551
0
ARC
8
DEFAULT_255_1_234
10
5.401229
20
74.3114324
40
0.2970617
50
47.9292255
51
55.4054003
0
ARC
8
DEFAULT_255_1_234
10
5.4113851
20
74.3217502
40
0.2825983
50
4.3347696
51
48.0560701
0
ARC
8
DEFAULT_255_1_234
10
5.3018244
20
74.3047601
40
0.393225
50
359.925209
51
5.5967654
0
ARC
8
DEFAULT_255_1_234
10
5.3447136
20
74.3103816
40
0.3503892
50
337.8914096
51
358.9967724
0
ARC
8
DEFAULT_255_1_234
10
5.0733548
20
74.4150706
40
0.6412172
50
326.9135351
51
338.3505194
0
ARC
8
DEFAULT_255_1_234
10
4.6747852
20
74.6705284
40
1.1146189
50
319.6472867
51
327.095818
0
ARC
8
DEFAULT_255_1_234
10
4.2914855
20
74.9867
40
1.6114559
50
317.2586784
51
319.9046139
0
LINE
8
DEFAULT_255_1_234
10
4.5383137
20
79.8987433
11
4.5383137
21
78.7237
0
LINE
8
DEFAULT_255_1_234
10
4.5383137
20
78.7237
11
4.3889234
21
78.7237
0
LINE
8
DEFAULT_255_1_234
10
4.3889234
20
78.7237
11
4.3889234
21
79.7140133
0
LINE
8
DEFAULT_255_1_234
10
4.3889234
20
79.7140133
11
4.0893396
21
79.6039785
0
LINE
8
DEFAULT_255_1_234
10
4.0893396
20
79.6039785
11
4.0893396
21
79.7389117
0
LINE
8
DEFAULT_255_1_234
10
4.0893396
20
79.7389117
11
4.5150217
21
79.8987433
0
LINE
8
DEFAULT_255_1_234
10
4.5150217
20
79.8987433
11
4.5383137
21
79.8987433
0
LINE
8
DEFAULT_255_1_234
10
5.4619636
20
79.8987433
11
5.4619636
21
78.7237
0
LINE
8
DEFAULT_255_1_234
10
5.4619636
20
78.7237
11
5.3125733
21
78.7237
0
LINE
8
DEFAULT_255_1_234
10
5.3125733
20
78.7237
11
5.3125733
21
79.7140133
0
LINE
8
DEFAULT_255_1_234
10
5.3125733
20
79.7140133
11
5.0129895
21
79.6039785
0
LINE
8
DEFAULT_255_1_234
10
5.0129895
20
79.6039785
11
5.0129895
21
79.7389117
0
LINE
8
DEFAULT_255_1_234
10
5.0129895
20
79.7389117
11
5.4386716
21
79.8987433
0
LINE
8
DEFAULT_255_1_234
10
5.4386716
20
79.8987433
11
5.4619636
21
79.8987433
0
LINE
8
DEFAULT_255_1_234
10
4.5473137
20
85.1903433
11
4.5473137
21
84.0153
0
LINE
8
DEFAULT_255_1_234
10
4.5473137
20
84.0153
11
4.3979234
21
84.0153
0
LINE
8
DEFAULT_255_1_234
10
4.3979234
20
84.0153
11
4.3979234
21
85.0056133
0
LINE
8
DEFAULT_255_1_234
10
4.3979234
20
85.0056133
11
4.0983396
21
84.8955785
0
LINE
8
DEFAULT_255_1_234
10
4.0983396
20
84.8955785
11
4.0983396
21
85.0305117
0
LINE
8
DEFAULT_255_1_234
10
4.0983396
20
85.0305117
11
4.5240217
21
85.1903433
0
LINE
8
DEFAULT_255_1_234
10
4.5240217
20
85.1903433
11
4.5473137
21
85.1903433
0
LINE
8
DEFAULT_255_1_234
10
5.7159316
20
84.7068327
11
5.7159316
21
84.5140709
0
LINE
8
DEFAULT_255_1_234
10
4.9778149
20
84.4939916
11
4.9778149
21
84.6923755
0
LINE
8
DEFAULT_255_1_234
10
5.5673445
20
84.4739123
11
5.5673445
21
84.7172739
0
LINE
8
DEFAULT_255_1_234
10
5.1264021
20
84.7285184
11
5.1264021
21
84.4907789
0
ARC
8
DEFAULT_255_1_234
10
4.4912206
20
84.5091805
40
1.2247208
50
353.8441951
51
0.2287902
0
ARC
8
DEFAULT_255_1_234
10
4.955171
20
84.4573806
40
0.7578929
50
344.4934747
51
353.9765454
0
ARC
8
DEFAULT_255_1_234
10
5.25443
20
84.3722981
40
0.4467846
50
329.2803592
51
344.7472793
0
ARC
8
DEFAULT_255_1_234
10
5.3537125
20
84.3178018
40
0.3336173
50
324.9352394
51
328.6160465
0
ARC
8
DEFAULT_255_1_234
10
5.3914233
20
84.2914427
40
0.2876076
50
280.580143
51
324.9173126
0
ARC
8
DEFAULT_255_1_234
10
5.3513026
20
84.4585099
40
0.4592847
50
269.5977311
51
281.6734359
0
ARC
8
DEFAULT_255_1_234
10
5.3440932
20
84.4465173
40
0.4472986
50
256.6228859
51
270.51044
0
ARC
8
DEFAULT_255_1_234
10
5.3038909
20
84.2916877
40
0.2873874
50
215.8618325
51
257.2788573
0
ARC
8
DEFAULT_255_1_234
10
5.4059941
20
84.3601977
40
0.4102928
50
197.9693508
51
215.2623606
0
ARC
8
DEFAULT_255_1_234
10
5.6545057
20
84.4440709
40
0.6725652
50
187.8816417
51
198.2346507
0
ARC
8
DEFAULT_255_1_234
10
6.0503265
20
84.5012079
40
1.0724845
50
180.8976217
51
188.0055519
0
ARC
8
DEFAULT_255_1_234
10
6.3303453
20
84.5115777
40
1.3526448
50
180.7449369
51
181.1510016
0
ARC
8
DEFAULT_255_1_234
10
6.1726182
20
84.6972042
40
1.1948131
50
173.7675579
51
180.231553
0
ARC
8
DEFAULT_255_1_234
10
5.7208329
20
84.7482666
40
0.7401564
50
164.3058563
51
173.9002247
0
ARC
8
DEFAULT_255_1_234
10
5.4296398
20
84.8321656
40
0.4371288
50
148.7922025
51
164.568378
0
ARC
8
DEFAULT_255_1_234
10
5.334485
20
84.8852929
40
0.3282386
50
144.5883898
51
148.1176286
0
ARC
8
DEFAULT_255_1_234
10
5.3001748
20
84.9092315
40
0.2864044
50
101.6440918
51
144.514236
0
ARC
8
DEFAULT_255_1_234
10
5.3426814
20
84.7403069
40
0.4604934
50
89.5284041
51
102.5819763
0
ARC
8
DEFAULT_255_1_234
10
5.3505902
20
84.7364018
40
0.464401
50
77.0437873
51
90.5081339
0
ARC
8
DEFAULT_255_1_234
10
5.3907904
20
84.9006615
40
0.2953195
50
48.2778575
51
77.4994676
0
ARC
8
DEFAULT_255_1_234
10
5.3980535
20
84.9135746
40
0.2808655
50
36.3142134
51
47.6305865
0
ARC
8
DEFAULT_255_1_234
10
5.3111842
20
84.8550515
40
0.3855453
50
18.2931786
51
35.6769206
0
ARC
8
DEFAULT_255_1_234
10
5.0568601
20
84.7677593
40
0.654423
50
8.024666
51
18.5605216
0
ARC
8
DEFAULT_255_1_234
10
4.6405521
20
84.7062792
40
1.0752407
50
1.1274072
51
8.1718305
0
ARC
8
DEFAULT_255_1_234
10
4.3169712
20
84.6935885
40
1.3990231
50
0.5424119
51
1.3863029
0
ARC
8
DEFAULT_255_1_234
10
4.4991089
20
84.7208342
40
1.0682415
50
359.8090433
51
4.9407866
0
ARC
8
DEFAULT_255_1_234
10
4.9201103
20
84.7584113
40
0.6455691
50
4.8362157
51
12.2904523
0
ARC
8
DEFAULT_255_1_234
10
5.1956218
20
84.8197965
40
0.3633074
50
12.0805627
51
23.8173984
0
ARC
8
DEFAULT_255_1_234
10
5.3129924
20
84.8694919
40
0.2358723
50
24.2871213
51
31.3935614
0
ARC
8
DEFAULT_255_1_234
10
5.3654621
20
84.9038233
40
0.1732111
50
30.7407893
51
82.4657128
0
ARC
8
DEFAULT_255_1_234
10
5.3474755
20
84.8154691
40
0.263235
50
81.1060089
51
90.2184952
0
ARC
8
DEFAULT_255_1_234
10
5.3439054
20
84.8412924
40
0.2374236
50
89.3806855
51
105.6762551
0
ARC
8
DEFAULT_255_1_234
10
5.3255685
20
84.9079567
40
0.1682847
50
105.7981136
51
149.7388061
0
ARC
8
DEFAULT_255_1_234
10
5.4319763
20
84.843995
40
0.2924306
50
149.4208916
51
163.6286378
0
ARC
8
DEFAULT_255_1_234
10
5.6410651
20
84.780225
40
0.5110213
50
163.3763315
51
172.1410975
0
ARC
8
DEFAULT_255_1_234
10
5.971137
20
84.7329518
40
0.8444586
50
172.0259487
51
178.0703232
0
ARC
8
DEFAULT_255_1_234
10
6.274146
20
84.7185906
40
1.1477868
50
177.8631668
51
179.5044149
0
ARC
8
DEFAULT_255_1_234
10
6.1668864
20
84.4871389
40
1.0404907
50
179.7995573
51
185.2460446
0
ARC
8
DEFAULT_255_1_234
10
5.7625903
20
84.4488513
40
0.6343885
50
185.1411642
51
193.0079639
0
ARC
8
DEFAULT_255_1_234
10
5.4982376
20
84.3863641
40
0.3627568
50
192.7897626
51
205.2507664
0
ARC
8
DEFAULT_255_1_234
10
5.3935923
20
84.3396415
40
0.2481908
50
205.8005384
51
211.2537509
0
ARC
8
DEFAULT_255_1_234
10
5.3412363
20
84.304558
40
0.1852521
50
210.3789793
51
238.4008143
0
ARC
8
DEFAULT_255_1_234
10
5.3392885
20
84.3092376
40
0.1882621
50
239.6520629
51
265.9793761
0
ARC
8
DEFAULT_255_1_234
10
5.3478085
20
84.3764427
40
0.2559272
50
265.1315437
51
270.060332
0
ARC
8
DEFAULT_255_1_234
10
5.3506864
20
84.3440534
40
0.2235528
50
269.3314664
51
287.2178029
0
ARC
8
DEFAULT_255_1_234
10
5.3644716
20
84.2937279
40
0.1714108
50
287.7958004
51
329.080874
0
ARC
8
DEFAULT_255_1_234
10
5.2687173
20
84.353493
40
0.2842745
50
328.6634704
51
343.3325132
0
ARC
8
DEFAULT_255_1_234
10
5.0514193
20
84.4211863
40
0.5118644
50
343.0499468
51
351.9393422
0
ARC
8
DEFAULT_255_1_234
10
4.7047493
20
84.4722949
40
0.8622784
50
351.8069023
51
357.7959224
0
ARC
8
DEFAULT_255_1_234
10
4.3812049
20
84.4890721
40
1.1862365
50
357.5871873
51
359.2677531
0
LINE
8
DEFAULT_255_1_234
10
4.7181246
20
90.0089739
11
4.7181246
21
89.9656025
0
LINE
8
DEFAULT_255_1_234
10
4.1759823
20
89.3061968
11
4.147068
21
89.3061968
0
LINE
8
DEFAULT_255_1_234
10
4.147068
20
89.3061968
11
4.147068
21
89.4314919
0
LINE
8
DEFAULT_255_1_234
10
4.147068
20
89.4314919
11
4.1783918
21
89.4314919
0
LINE
8
DEFAULT_255_1_234
10
4.5695375
20
89.9800597
11
4.5695375
21
90.0394945
0
ARC
8
DEFAULT_255_1_234
10
4.2901644
20
90.0546403
40
0.3635579
50
297.4037347
51
320.016758
0
ARC
8
DEFAULT_255_1_234
10
4.3191593
20
89.998924
40
0.3007486
50
270.2633101
51
297.3851877
0
ARC
8
DEFAULT_255_1_234
10
4.3157549
20
90.0452904
40
0.3471448
50
269.9966443
51
270.7900392
0
ARC
8
DEFAULT_255_1_234
10
4.313203
20
90.0451143
40
0.3469779
50
254.5999133
51
270.4180344
0
ARC
8
DEFAULT_255_1_234
10
4.2989389
20
89.9886647
40
0.2887697
50
236.4717942
51
254.3541279
0
ARC
8
DEFAULT_255_1_234
10
4.3145607
20
90.0096711
40
0.3149125
50
208.4727207
51
236.2134933
0
ARC
8
DEFAULT_255_1_234
10
4.3784382
20
90.0487455
40
0.3897115
50
204.3447514
51
209.0453999
0
ARC
8
DEFAULT_255_1_234
10
4.4463958
20
90.0775656
40
0.4635101
50
183.9375985
51
204.1276318
0
ARC
8
DEFAULT_255_1_234
10
4.5372209
20
90.0873482
40
0.5548037
50
179.9652252
51
184.3013875
0
ARC
8
DEFAULT_255_1_234
10
4.5132255
20
90.0906507
40
0.5308164
50
166.7585989
51
180.3201225
0
ARC
8
DEFAULT_255_1_234
10
4.4285869
20
90.1090488
40
0.4442163
50
154.6955053
51
166.5679793
0
ARC
8
DEFAULT_255_1_234
10
4.3432739
20
90.152021
40
0.3487299
50
136.3324195
51
155.0871442
0
ARC
8
DEFAULT_255_1_234
10
4.3151812
20
90.1760954
40
0.3117924
50
121.236733
51
135.9680508
0
ARC
8
DEFAULT_255_1_234
10
4.329231
20
90.1500743
40
0.3413302
50
96.845628
51
120.9881519
0
ARC
8
DEFAULT_255_1_234
10
4.3437892
20
90.0565515
40
0.4359341
50
89.8870174
51
97.2802754
0
ARC
8
DEFAULT_255_1_234
10
4.349033
20
90.1203095
40
0.3722009
50
70.6505584
51
90.6749113
0
ARC
8
DEFAULT_255_1_234
10
4.3621609
20
90.1716361
40
0.3194571
50
36.7492984
51
69.8219918
0
ARC
8
DEFAULT_255_1_234
10
4.2622774
20
90.0937993
40
0.4460685
50
15.39587
51
37.0840084
0
ARC
8
DEFAULT_255_1_234
10
4.0493207
20
90.0317242
40
0.6678714
50
3.9488873
51
15.6798563
0
ARC
8
DEFAULT_255_1_234
10
3.8091835
20
90.0100964
40
0.9089418
50
359.929245
51
4.2665314
0
ARC
8
DEFAULT_255_1_234
10
3.3486272
20
89.9589513
40
1.3695135
50
352.8366322
51
0.2782669
0
ARC
8
DEFAULT_255_1_234
10
3.8773951
20
89.8902629
40
0.8363105
50
341.8359505
51
352.9884176
0
ARC
8
DEFAULT_255_1_234
10
4.199267
20
89.78177
40
0.4966642
50
322.8578092
51
342.1527901
0
ARC
8
DEFAULT_255_1_234
10
4.2856626
20
89.7228384
40
0.3922466
50
319.334325
51
322.0998941
0
ARC
8
DEFAULT_255_1_234
10
4.2546963
20
89.7539209
40
0.4360033
50
285.9541367
51
318.8878087
0
ARC
8
DEFAULT_255_1_234
10
4.1820224
20
89.98496
40
0.678149
50
272.9281676
51
286.4922826
0
ARC
8
DEFAULT_255_1_234
10
4.1630342
20
90.2100587
40
0.9039547
50
270.8207226
51
273.4012994
0
ARC
8
DEFAULT_255_1_234
10
4.1719193
20
90.0281666
40
0.5967098
50
270.6214993
51
281.4062806
0
ARC
8
DEFAULT_255_1_234
10
4.2149174
20
89.8225833
40
0.3866861
50
281.1852553
51
299.0621114
0
ARC
8
DEFAULT_255_1_234
10
4.2522745
20
89.7504798
40
0.3055236
50
299.5067782
51
313.1200873
0
ARC
8
DEFAULT_255_1_234
10
4.2544712
20
89.7425554
40
0.2982623
50
313.8526205
51
338.5989322
0
ARC
8
DEFAULT_255_1_234
10
4.0920786
20
89.8092781
40
0.4738131
50
338.2523585
51
351.2430902
0
ARC
8
DEFAULT_255_1_234
10
3.8510082
20
89.8502447
40
0.7183203
50
350.9409515
51
357.6691871
0
ARC
8
DEFAULT_255_1_234
10
4.3400512
20
90.0504764
40
0.2294452
50
269.9447023
51
306.8248917
0
ARC
8
DEFAULT_255_1_234
10
4.3163427
20
90.0927898
40
0.2775994
50
305.5072438
51
327.0773448
0
ARC
8
DEFAULT_255_1_234
10
4.3281868
20
90.0833025
40
0.2625056
50
327.4104943
51
336.840169
0
ARC
8
DEFAULT_255_1_234
10
4.0187933
20
90.0427302
40
0.5507537
50
359.6633817
51
10.117533
0
ARC
8
DEFAULT_255_1_234
10
4.1941731
20
90.0751777
40
0.372403
50
9.9430141
51
26.7700076
0
ARC
8
DEFAULT_255_1_234
10
4.2538943
20
90.1027187
40
0.3066865
50
27.2015464
51
34.6829435
0
ARC
8
DEFAULT_255_1_234
10
4.3028423
20
90.1394977
40
0.245519
50
34.1250343
51
50.3070065
0
ARC
8
DEFAULT_255_1_234
10
4.3475103
20
90.1929385
40
0.1758693
50
50.3851167
51
90.6705993
0
ARC
8
DEFAULT_255_1_234
10
4.3428336
20
90.1624799
40
0.2063326
50
89.272901
51
111.9140407
0
ARC
8
DEFAULT_255_1_234
10
4.3408864
20
90.176544
40
0.1925887
50
112.9382311
51
142.5320782
0
ARC
8
DEFAULT_255_1_234
10
4.3955044
20
90.1321969
40
0.2629232
50
142.1021256
51
166.3835592
0
ARC
8
DEFAULT_255_1_234
10
4.5136349
20
90.1016915
40
0.3849193
50
166.1100289
51
178.665427
0
ARC
8
DEFAULT_255_1_234
10
4.6183938
20
90.0958117
40
0.4897989
50
178.2632126
51
180.0111093
0
ARC
8
DEFAULT_255_1_234
10
4.5382059
20
90.0929728
40
0.40962
50
179.6161962
51
191.8787166
0
ARC
8
DEFAULT_255_1_234
10
4.4161898
20
90.0659896
40
0.2846655
50
191.6191692
51
215.2972286
0
ARC
8
DEFAULT_255_1_234
10
4.3965089
20
90.0544918
40
0.2619665
50
215.7320102
51
216.5355409
0
ARC
8
DEFAULT_255_1_234
10
4.3426175
20
90.0112647
40
0.1929497
50
215.7486685
51
239.9727502
0
ARC
8
DEFAULT_255_1_234
10
4.3356091
20
90.0061894
40
0.1850822
50
241.0650169
51
269.2810483
0
ARC
8
DEFAULT_255_1_234
10
4.3398006
20
90.0552371
40
0.2342059
50
268.4062526
51
270.0071348
0
ARC
8
DEFAULT_255_1_234
10
4.4262624
20
95.4603703
40
0.2822356
50
338.8763615
51
0.5166041
0
ARC
8
DEFAULT_255_1_234
10
4.4431278
20
95.4558208
40
0.2648703
50
325.8412414
51
338.4795939
0
ARC
8
DEFAULT_255_1_234
10
4.4040646
20
95.4829042
40
0.3124019
50
296.7586019
51
325.753654
0
ARC
8
DEFAULT_255_1_234
10
4.3752754
20
95.5313789
40
0.368668
50
296.0902311
51
297.3618122
0
ARC
8
DEFAULT_255_1_234
10
4.4010212
20
94.8759041
40
0.3518806
50
47.9009248
51
67.1946869
0
ARC
8
DEFAULT_255_1_234
10
4.4206454
20
94.9005395
40
0.320451
50
35.236241
51
47.551371
0
ARC
8
DEFAULT_255_1_234
10
4.4468072
20
94.9179993
40
0.2890103
50
359.2759738
51
35.4014081
0
ARC
8
DEFAULT_255_1_234
10
4.3723103
20
94.9106826
40
0.3635026
50
343.1294516
51
0.5776525
0
ARC
8
DEFAULT_255_1_234
10
4.4447648
20
94.890733
40
0.2883832
50
310.8497458
51
342.744803
0
ARC
8
DEFAULT_255_1_234
10
4.4029761
20
94.9384294
40
0.3517954
50
281.5473923
51
310.9169905
0
ARC
8
DEFAULT_255_1_234
10
4.367321
20
95.0937084
40
0.5110832
50
269.6192722
51
281.9789957
0
ARC
8
DEFAULT_255_1_234
10
4.3601
20
95.0937828
40
0.5111606
50
257.4584469
51
270.4287458
0
ARC
8
DEFAULT_255_1_234
10
4.3220143
20
94.9334344
40
0.3463762
50
228.7553743
51
257.8484423
0
ARC
8
DEFAULT_255_1_234
10
4.2910341
20
94.8961442
40
0.297916
50
184.0104442
51
228.5071787
0
ARC
8
DEFAULT_255_1_234
10
4.4073285
20
94.9138512
40
0.4152734
50
179.9315461
51
185.3254504
0
ARC
8
DEFAULT_255_1_234
10
4.2896931
20
94.9175992
40
0.2976554
50
145.6795913
51
180.6259649
0
ARC
8
DEFAULT_255_1_234
10
4.306028
20
94.9061929
40
0.3175776
50
115.5537925
51
145.6416199
0
ARC
8
DEFAULT_255_1_234
10
4.340121
20
94.8451028
40
0.3874232
50
113.2437915
51
116.2054627
0
ARC
8
DEFAULT_255_1_234
10
4.3248423
20
95.484958
40
0.3154751
50
222.9548379
51
244.1372485
0
ARC
8
DEFAULT_255_1_234
10
4.3126498
20
95.4712834
40
0.2972382
50
213.3439227
51
222.6271327
0
ARC
8
DEFAULT_255_1_234
10
4.2934433
20
95.4582308
40
0.274019
50
180.4316517
51
213.2713999
0
ARC
8
DEFAULT_255_1_234
10
4.3509434
20
95.462911
40
0.33158
50
179.9992944
51
181.1655061
0
ARC
8
DEFAULT_255_1_234
10
4.3918851
20
95.4663561
40
0.3725376
50
164.6186108
51
180.5292368
0
ARC
8
DEFAULT_255_1_234
10
4.3020714
20
95.4905101
40
0.2795349
50
132.2454369
51
164.5092287
0
ARC
8
DEFAULT_255_1_234
10
4.3307818
20
95.4580028
40
0.3229019
50
100.7052766
51
132.1387266
0
ARC
8
DEFAULT_255_1_234
10
4.361279
20
95.3202086
40
0.4639835
50
89.6732617
51
101.2449487
0
ARC
8
DEFAULT_255_1_234
10
4.3674988
20
95.337699
40
0.4464999
50
76.2876631
51
90.4586123
0
ARC
8
DEFAULT_255_1_234
10
4.398122
20
95.459922
40
0.3205023
50
47.8240157
51
76.4266918
0
ARC
8
DEFAULT_255_1_234
10
4.420377
20
95.485959
40
0.2862661
50
6.9168658
51
47.6261438
0
ARC
8
DEFAULT_255_1_234
10
4.3017173
20
95.464037
40
0.4067708
50
359.8419705
51
7.9694496
0
ARC
8
DEFAULT_255_1_234
10
4.335907
20
94.9199925
40
0.2513121
50
359.4454068
51
16.9256425
0
ARC
8
DEFAULT_255_1_234
10
4.3827881
20
94.9329033
40
0.2027071
50
17.292259
51
45.462717
0
ARC
8
DEFAULT_255_1_234
10
4.3773817
20
94.9282434
40
0.2098212
50
45.3028762
51
83.1921472
0
ARC
8
DEFAULT_255_1_234
10
4.3630501
20
94.8480895
40
0.2911472
50
82.2614531
51
90.143954
0
ARC
8
DEFAULT_255_1_234
10
4.3599621
20
94.871395
40
0.2678513
50
89.4959189
51
104.8579811
0
ARC
8
DEFAULT_255_1_234
10
4.342288
20
94.938389
40
0.1985654
50
104.8855873
51
135.2448349
0
ARC
8
DEFAULT_255_1_234
10
4.3472653
20
94.9339336
40
0.2052373
50
135.3398955
51
172.104394
0
ARC
8
DEFAULT_255_1_234
10
4.4279711
20
94.9184925
40
0.2873299
50
171.2651929
51
180.1859362
0
ARC
8
DEFAULT_255_1_234
10
4.4110412
20
94.9152733
40
0.2704083
50
179.515471
51
193.6466734
0
ARC
8
DEFAULT_255_1_234
10
4.3294181
20
94.8944777
40
0.1861855
50
193.3540587
51
225.8256931
0
ARC
8
DEFAULT_255_1_234
10
4.3334938
20
94.9015524
40
0.1941102
50
226.418029
51
255.8553723
0
ARC
8
DEFAULT_255_1_234
10
4.3591371
20
94.9951998
40
0.2911917
50
255.4655572
51
268.7985967
0
ARC
8
DEFAULT_255_1_234
10
4.3638563
20
95.0790491
40
0.3751331
50
268.3464808
51
270.0104874
0
ARC
8
DEFAULT_255_1_234
10
4.3661951
20
95.0106138
40
0.3067064
50
269.575914
51
282.0823146
0
ARC
8
DEFAULT_255_1_234
10
4.388686
20
94.9111803
40
0.2047712
50
281.7522535
51
306.6056425
0
ARC
8
DEFAULT_255_1_234
10
4.3985286
20
94.8950487
40
0.1859604
50
307.1350025
51
314.0277951
0
ARC
8
DEFAULT_255_1_234
10
4.394937
20
94.8976766
40
0.1903475
50
314.2553419
51
350.169324
0
ARC
8
DEFAULT_255_1_234
10
4.3097839
20
94.9161409
40
0.2774269
50
349.4145679
51
0.2930737
0
ARC
8
DEFAULT_255_1_234
10
4.3618272
20
95.4320353
40
0.2300764
50
89.477591
51
105.729794
0
ARC
8
DEFAULT_255_1_234
10
4.3482185
20
95.4825637
40
0.1777519
50
105.922966
51
135.1662921
0
ARC
8
DEFAULT_255_1_234
10
4.3502688
20
95.4811419
40
0.1802087
50
135.3053131
51
168.9882338
0
ARC
8
DEFAULT_255_1_234
10
4.433026
20
95.4621721
40
0.2650806
50
168.3802067
51
180.3602358
0
ARC
8
DEFAULT_255_1_234
10
4.410184
20
95.4584041
40
0.2422425
50
179.5029707
51
194.9126783
0
ARC
8
DEFAULT_255_1_234
10
4.3516501
20
95.443011
40
0.1817188
50
194.9722181
51
224.1943972
0
ARC
8
DEFAULT_255_1_234
10
4.3488368
20
95.4407169
40
0.1781027
50
224.2961434
51
262.0157375
0
ARC
8
DEFAULT_255_1_234
10
4.3630611
20
95.5138661
40
0.2525492
50
261.1250369
51
270.1959853
0
ARC
8
DEFAULT_255_1_234
10
4.3660366
20
95.4951339
40
0.233825
50
269.4825617
51
285.0988277
0
ARC
8
DEFAULT_255_1_234
10
4.3814525
20
95.437299
40
0.1739712
50
285.1585659
51
315.9484648
0
ARC
8
DEFAULT_255_1_234
10
4.3725537
20
95.4454886
40
0.1860616
50
316.0412958
51
351.9162715
0
ARC
8
DEFAULT_255_1_234
10
4.2992492
20
95.4596245
40
0.2606517
50
351.1056823
51
0.1936567
0
ARC
8
DEFAULT_255_1_234
10
4.3255321
20
95.4626369
40
0.234377
50
359.4789506
51
16.0679113
0
ARC
8
DEFAULT_255_1_234
10
4.373128
20
95.475481
40
0.1850875
50
16.3251951
51
44.791304
0
ARC
8
DEFAULT_255_1_234
10
4.3713561
20
95.4755339
40
0.186312
50
44.3958661
51
88.2498933
0
ARC
8
DEFAULT_255_1_234
10
4.3640115
20
95.4144154
40
0.2476868
50
86.9833827
51
90.0200148
0
LINE
8
DEFAULT_255_1_234
10
4.811023
20
100.2613663
11
4.9660355
21
100.2613663
0
LINE
8
DEFAULT_255_1_234
10
4.0656777
20
100.4203947
11
4.0656777
21
100.5328391
0
LINE
8
DEFAULT_255_1_234
10
4.9660355
20
100.6838357
11
4.811023
21
100.6838357
0
LINE
8
DEFAULT_255_1_234
10
4.2206902
20
100.5288232
11
4.2206902
21
100.4155757
0
ARC
8
DEFAULT_255_1_234
10
4.4179742
20
100.3210846
40
0.5513052
50
340.1774281
51
353.7814284
0
ARC
8
DEFAULT_255_1_234
10
4.5751095
20
100.2625582
40
0.3836379
50
311.4558989
51
340.4421614
0
ARC
8
DEFAULT_255_1_234
10
4.5717763
20
100.2736528
40
0.3941894
50
282.4333181
51
310.7513653
0
ARC
8
DEFAULT_255_1_234
10
4.5278502
20
100.4551679
40
0.5809175
50
269.9358511
51
282.809604
0
ARC
8
DEFAULT_255_1_234
10
4.5226568
20
100.6009212
40
0.7266847
50
270.0021091
51
270.3581957
0
ARC
8
DEFAULT_255_1_234
10
4.5173985
20
100.3408585
40
0.4666519
50
250.7884749
51
270.6489167
0
ARC
8
DEFAULT_255_1_234
10
4.500582
20
100.2771319
40
0.4009729
50
219.3627325
51
250.0611886
0
ARC
8
DEFAULT_255_1_234
10
4.5835031
20
100.3476042
40
0.5097822
50
193.5479632
51
219.5756669
0
ARC
8
DEFAULT_255_1_234
10
4.8206652
20
100.4091919
40
0.7547848
50
181.1218675
51
193.87563
0
ARC
8
DEFAULT_255_1_234
10
5.0276833
20
100.420258
40
0.9620055
50
179.9918545
51
181.5394234
0
ARC
8
DEFAULT_255_1_234
10
4.8425935
20
100.5365788
40
0.7769248
50
169.5837241
51
180.2757934
0
ARC
8
DEFAULT_255_1_234
10
4.6588873
20
100.5705229
40
0.590109
50
155.0365899
51
169.6003176
0
ARC
8
DEFAULT_255_1_234
10
4.5453337
20
100.6252677
40
0.4640625
50
136.783148
51
155.2472683
0
ARC
8
DEFAULT_255_1_234
10
4.5063814
20
100.6583562
40
0.4130255
50
121.7633186
51
136.428115
0
ARC
8
DEFAULT_255_1_234
10
4.5198776
20
100.6334227
40
0.4413323
50
95.6459699
51
121.5490577
0
ARC
8
DEFAULT_255_1_234
10
4.5356058
20
100.5225949
40
0.55319
50
89.924208
51
96.1377933
0
ARC
8
DEFAULT_255_1_234
10
4.5406491
20
100.5344542
40
0.5413475
50
76.6779277
51
90.4563316
0
ARC
8
DEFAULT_255_1_234
10
4.5800114
20
100.6935114
40
0.3775041
50
47.485847
51
76.9287264
0
ARC
8
DEFAULT_255_1_234
10
4.5653087
20
100.6835159
40
0.3948286
50
16.5424086
51
46.8933463
0
ARC
8
DEFAULT_255_1_234
10
4.4045244
20
100.6306861
40
0.564021
50
5.4072051
51
17.0365086
0
ARC
8
DEFAULT_255_1_234
10
4.2606261
20
100.6075679
40
0.5556559
50
7.8891745
51
15.9239216
0
ARC
8
DEFAULT_255_1_234
10
4.4593274
20
100.6652631
40
0.3487515
50
15.7653144
51
27.9410532
0
ARC
8
DEFAULT_255_1_234
10
4.5697492
20
100.724379
40
0.2235026
50
27.8166557
51
46.4008329
0
ARC
8
DEFAULT_255_1_234
10
4.5747135
20
100.7238082
40
0.2205286
50
47.4371857
51
75.0698205
0
ARC
8
DEFAULT_255_1_234
10
4.5438529
20
100.6163765
40
0.3322915
50
74.7008593
51
87.8124495
0
ARC
8
DEFAULT_255_1_234
10
4.5365217
20
100.5107844
40
0.4380987
50
87.3814673
51
90.0240855
0
ARC
8
DEFAULT_255_1_234
10
4.532676
20
100.6285291
40
0.3203749
50
89.3451631
51
108.5745436
0
ARC
8
DEFAULT_255_1_234
10
4.5189865
20
100.6798908
40
0.2673494
50
109.2998449
51
143.3037509
0
ARC
8
DEFAULT_255_1_234
10
4.5951938
20
100.6212881
40
0.3634757
50
143.0753173
51
163.1916937
0
ARC
8
DEFAULT_255_1_234
10
4.7903666
20
100.5596967
40
0.5681262
50
162.9373603
51
174.6208611
0
ARC
8
DEFAULT_255_1_234
10
5.0529708
20
100.530901
40
0.8322832
50
174.3419979
51
180.1430411
0
ARC
8
DEFAULT_255_1_234
10
4.9598864
20
100.4114698
40
0.7392076
50
179.6817502
51
189.150529
0
ARC
8
DEFAULT_255_1_234
10
4.7098112
20
100.369819
40
0.4856932
50
188.9910863
51
203.5773039
0
ARC
8
DEFAULT_255_1_234
10
4.6018445
20
100.3250211
40
0.3688271
50
203.9077269
51
215.1312379
0
ARC
8
DEFAULT_255_1_234
10
4.5095539
20
100.2534941
40
0.2522457
50
213.9071664
51
263.8849284
0
ARC
8
DEFAULT_255_1_234
10
4.5220868
20
100.3319518
40
0.3316174
50
263.1758525
51
270.1031083
0
ARC
8
DEFAULT_255_1_234
10
4.525296
20
100.4566365
40
0.4563091
50
269.6719807
51
279.0609165
0
ARC
8
DEFAULT_255_1_234
10
4.5519728
20
100.2953907
40
0.2928759
50
278.8750225
51
293.6346586
0
ARC
8
DEFAULT_255_1_234
10
4.5839936
20
100.22019
40
0.2111472
50
293.8553404
51
310.0518804
0
ARC
8
DEFAULT_255_1_234
10
4.584479
20
100.2139516
40
0.2060917
50
311.0646779
51
332.0108348
0
ARC
8
DEFAULT_255_1_234
10
4.4652517
20
100.2796978
40
0.3422352
50
331.6588543
51
343.2878891
0
ARC
8
DEFAULT_255_1_234
10
4.2590032
20
100.3430798
40
0.5580003
50
343.1446044
51
351.010618
0
ARC
8
DEFAULT_255_1_234
10
4.1048678
20
100.3711871
40
0.7146438
50
350.7157277
51
351.1602153
0
LINE
8
DEFAULT_255_1_234
10
5.8712125
20
100.5818327
11
5.8712125
21
100.3890709
0
LINE
8
DEFAULT_255_1_234
10
5.1330957
20
100.3689916
11
5.1330957
21
100.5673755
0
LINE
8
DEFAULT_255_1_234
10
5.7226253
20
100.3489123
11
5.7226253
21
100.5922739
0
LINE
8
DEFAULT_255_1_234
10
5.2816829
20
100.6035184
11
5.2816829
21
100.3657789
0
ARC
8
DEFAULT_255_1_234
10
4.6465014
20
100.3841805
40
1.2247208
50
353.8441951
51
0.2287902
0
ARC
8
DEFAULT_255_1_234
10
5.1104518
20
100.3323806
40
0.7578929
50
344.4934747
51
353.9765454
0
ARC
8
DEFAULT_255_1_234
10
5.4097108
20
100.2472981
40
0.4467846
50
329.2803592
51
344.7472793
0
ARC
8
DEFAULT_255_1_234
10
5.5089933
20
100.1928018
40
0.3336173
50
324.9352394
51
328.6160465
0
ARC
8
DEFAULT_255_1_234
10
5.5467042
20
100.1664427
40
0.2876076
50
280.580143
51
324.9173126
0
ARC
8
DEFAULT_255_1_234
10
5.5065834
20
100.3335099
40
0.4592847
50
269.5977311
51
281.6734359
0
ARC
8
DEFAULT_255_1_234
10
5.499374
20
100.3215173
40
0.4472986
50
256.6228859
51
270.51044
0
ARC
8
DEFAULT_255_1_234
10
5.4591718
20
100.1666877
40
0.2873874
50
215.8618325
51
257.2788573
0
ARC
8
DEFAULT_255_1_234
10
5.5612749
20
100.2351977
40
0.4102928
50
197.9693508
51
215.2623606
0
ARC
8
DEFAULT_255_1_234
10
5.8097865
20
100.3190709
40
0.6725652
50
187.8816417
51
198.2346507
0
ARC
8
DEFAULT_255_1_234
10
6.2056073
20
100.3762079
40
1.0724845
50
180.8976217
51
188.0055519
0
ARC
8
DEFAULT_255_1_234
10
6.4856261
20
100.3865777
40
1.3526448
50
180.7449369
51
181.1510016
0
ARC
8
DEFAULT_255_1_234
10
6.327899
20
100.5722042
40
1.1948131
50
173.7675579
51
180.231553
0
ARC
8
DEFAULT_255_1_234
10
5.8761137
20
100.6232666
40
0.7401564
50
164.3058563
51
173.9002247
0
ARC
8
DEFAULT_255_1_234
10
5.5849206
20
100.7071656
40
0.4371288
50
148.7922025
51
164.568378
0
ARC
8
DEFAULT_255_1_234
10
5.4897658
20
100.7602929
40
0.3282386
50
144.5883898
51
148.1176286
0
ARC
8
DEFAULT_255_1_234
10
5.4554556
20
100.7842315
40
0.2864044
50
101.6440918
51
144.514236
0
ARC
8
DEFAULT_255_1_234
10
5.4979623
20
100.6153069
40
0.4604934
50
89.5284041
51
102.5819763
0
ARC
8
DEFAULT_255_1_234
10
5.505871
20
100.6114018
40
0.464401
50
77.0437873
51
90.5081339
0
ARC
8
DEFAULT_255_1_234
10
5.5460712
20
100.7756615
40
0.2953195
50
48.2778575
51
77.4994676
0
ARC
8
DEFAULT_255_1_234
10
5.5533343
20
100.7885746
40
0.2808655
50
36.3142134
51
47.6305865
0
ARC
8
DEFAULT_255_1_234
10
5.466465
20
100.7300515
40
0.3855453
50
18.2931786
51
35.6769206
0
ARC
8
DEFAULT_255_1_234
10
5.2121409
20
100.6427593
40
0.654423
50
8.024666
51
18.5605216
0
ARC
8
DEFAULT_255_1_234
10
4.7958329
20
100.5812792
40
1.0752407
50
1.1274072
51
8.1718305
0
ARC
8
DEFAULT_255_1_234
10
4.472252
20
100.5685885
40
1.3990231
50
0.5424119
51
1.3863029
0
ARC
8
DEFAULT_255_1_234
10
4.6543898
20
100.5958342
40
1.0682415
50
359.8090433
51
4.9407866
0
ARC
8
DEFAULT_255_1_234
10
5.0753912
20
100.6334113
40
0.6455691
50
4.8362157
51
12.2904523
0
ARC
8
DEFAULT_255_1_234
10
5.3509026
20
100.6947965
40
0.3633074
50
12.0805627
51
23.8173984
0
ARC
8
DEFAULT_255_1_234
10
5.4682732
20
100.7444919
40
0.2358723
50
24.2871213
51
31.3935614
0
ARC
8
DEFAULT_255_1_234
10
5.5207429
20
100.7788233
40
0.1732111
50
30.7407893
51
82.4657128
0
ARC
8
DEFAULT_255_1_234
10
5.5027563
20
100.6904691
40
0.263235
50
81.1060089
51
90.2184952
0
ARC
8
DEFAULT_255_1_234
10
5.4991862
20
100.7162924
40
0.2374236
50
89.3806855
51
105.6762551
0
ARC
8
DEFAULT_255_1_234
10
5.4808493
20
100.7829567
40
0.1682847
50
105.7981136
51
149.7388061
0
ARC
8
DEFAULT_255_1_234
10
5.5872571
20
100.718995
40
0.2924306
50
149.4208916
51
163.6286378
0
ARC
8
DEFAULT_255_1_234
10
5.7963459
20
100.655225
40
0.5110213
50
163.3763315
51
172.1410975
0
ARC
8
DEFAULT_255_1_234
10
6.1264178
20
100.6079518
40
0.8444586
50
172.0259487
51
178.0703232
0
ARC
8
DEFAULT_255_1_234
10
6.4294268
20
100.5935906
40
1.1477868
50
177.8631668
51
179.5044149
0
ARC
8
DEFAULT_255_1_234
10
6.3221672
20
100.3621389
40
1.0404907
50
179.7995573
51
185.2460446
0
ARC
8
DEFAULT_255_1_234
10
5.9178711
20
100.3238513
40
0.6343885
50
185.1411642
51
193.0079639
0
ARC
8
DEFAULT_255_1_234
10
5.6535184
20
100.2613641
40
0.3627568
50
192.7897626
51
205.2507664
0
ARC
8
DEFAULT_255_1_234
10
5.5488731
20
100.2146415
40
0.2481908
50
205.8005384
51
211.2537509
0
ARC
8
DEFAULT_255_1_234
10
5.4965171
20
100.179558
40
0.1852521
50
210.3789793
51
238.4008143
0
ARC
8
DEFAULT_255_1_234
10
5.4945693
20
100.1842376
40
0.1882621
50
239.6520629
51
265.9793761
0
ARC
8
DEFAULT_255_1_234
10
5.5030893
20
100.2514427
40
0.2559272
50
265.1315437
51
270.060332
0
ARC
8
DEFAULT_255_1_234
10
5.5059672
20
100.2190534
40
0.2235528
50
269.3314664
51
287.2178029
0
ARC
8
DEFAULT_255_1_234
10
5.5197524
20
100.1687279
40
0.1714108
50
287.7958004
51
329.080874
0
ARC
8
DEFAULT_255_1_234
10
5.4239981
20
100.228493
40
0.2842745
50
328.6634704
51
343.3325132
0
ARC
8
DEFAULT_255_1_234
10
5.2067001
20
100.2961863
40
0.5118644
50
343.0499468
51
351.9393422
0
ARC
8
DEFAULT_255_1_234
10
4.8600301
20
100.3472949
40
0.8622784
50
351.8069023
51
357.7959224
0
ARC
8
DEFAULT_255_1_234
10
4.5364857
20
100.3640721
40
1.1862365
50
357.5871873
51
359.2677531
0
LINE
8
DEFAULT_255_1_234
10
4.811023
20
105.5530663
11
4.9660355
21
105.5530663
0
LINE
8
DEFAULT_255_1_234
10
4.0656777
20
105.7120947
11
4.0656777
21
105.8245391
0
LINE
8
DEFAULT_255_1_234
10
4.9660355
20
105.9755357
11
4.811023
21
105.9755357
0
LINE
8
DEFAULT_255_1_234
10
4.2206902
20
105.8205232
11
4.2206902
21
105.7072757
0
ARC
8
DEFAULT_255_1_234
10
4.4179742
20
105.6127846
40
0.5513052
50
340.1774281
51
353.7814284
0
ARC
8
DEFAULT_255_1_234
10
4.5751095
20
105.5542582
40
0.3836379
50
311.4558989
51
340.4421614
0
ARC
8
DEFAULT_255_1_234
10
4.5717763
20
105.5653528
40
0.3941894
50
282.4333181
51
310.7513653
0
ARC
8
DEFAULT_255_1_234
10
4.5278502
20
105.7468679
40
0.5809175
50
269.9358511
51
282.809604
0
ARC
8
DEFAULT_255_1_234
10
4.5226568
20
105.8926212
40
0.7266847
50
270.0021091
51
270.3581957
0
ARC
8
DEFAULT_255_1_234
10
4.5173985
20
105.6325585
40
0.4666519
50
250.7884749
51
270.6489167
0
ARC
8
DEFAULT_255_1_234
10
4.500582
20
105.5688319
40
0.4009729
50
219.3627325
51
250.0611886
0
ARC
8
DEFAULT_255_1_234
10
4.5835031
20
105.6393042
40
0.5097822
50
193.5479632
51
219.5756669
0
ARC
8
DEFAULT_255_1_234
10
4.8206652
20
105.7008919
40
0.7547848
50
181.1218675
51
193.87563
0
ARC
8
DEFAULT_255_1_234
10
5.0276833
20
105.711958
40
0.9620055
50
179.9918545
51
181.5394234
0
ARC
8
DEFAULT_255_1_234
10
4.8425935
20
105.8282788
40
0.7769248
50
169.5837241
51
180.2757934
0
ARC
8
DEFAULT_255_1_234
10
4.6588873
20
105.8622229
40
0.590109
50
155.0365899
51
169.6003176
0
ARC
8
DEFAULT_255_1_234
10
4.5453337
20
105.9169677
40
0.4640625
50
136.783148
51
155.2472683
0
ARC
8
DEFAULT_255_1_234
10
4.5063814
20
105.9500562
40
0.4130255
50
121.7633186
51
136.428115
0
ARC
8
DEFAULT_255_1_234
10
4.5198776
20
105.9251227
40
0.4413323
50
95.6459699
51
121.5490577
0
ARC
8
DEFAULT_255_1_234
10
4.5356058
20
105.8142949
40
0.55319
50
89.924208
51
96.1377933
0
ARC
8
DEFAULT_255_1_234
10
4.5406491
20
105.8261542
40
0.5413475
50
76.6779277
51
90.4563316
0
ARC
8
DEFAULT_255_1_234
10
4.5800114
20
105.9852114
40
0.3775041
50
47.485847
51
76.9287264
0
ARC
8
DEFAULT_255_1_234
10
4.5653087
20
105.9752159
40
0.3948286
50
16.5424086
51
46.8933463
0
ARC
8
DEFAULT_255_1_234
10
4.4045244
20
105.9223861
40
0.564021
50
5.4072051
51
17.0365086
0
ARC
8
DEFAULT_255_1_234
10
4.2606261
20
105.8992679
40
0.5556559
50
7.8891745
51
15.9239216
0
ARC
8
DEFAULT_255_1_234
10
4.4593274
20
105.9569631
40
0.3487515
50
15.7653144
51
27.9410532
0
ARC
8
DEFAULT_255_1_234
10
4.5697492
20
106.016079
40
0.2235026
50
27.8166557
51
46.4008329
0
ARC
8
DEFAULT_255_1_234
10
4.5747135
20
106.0155082
40
0.2205286
50
47.4371857
51
75.0698205
0
ARC
8
DEFAULT_255_1_234
10
4.5438529
20
105.9080765
40
0.3322915
50
74.7008593
51
87.8124495
0
ARC
8
DEFAULT_255_1_234
10
4.5365217
20
105.8024844
40
0.4380987
50
87.3814673
51
90.0240855
0
ARC
8
DEFAULT_255_1_234
10
4.532676
20
105.9202291
40
0.3203749
50
89.3451631
51
108.5745436
0
ARC
8
DEFAULT_255_1_234
10
4.5189865
20
105.9715908
40
0.2673494
50
109.2998449
51
143.3037509
0
ARC
8
DEFAULT_255_1_234
10
4.5951938
20
105.9129881
40
0.3634757
50
143.0753173
51
163.1916937
0
ARC
8
DEFAULT_255_1_234
10
4.7903666
20
105.8513967
40
0.5681262
50
162.9373603
51
174.6208611
0
ARC
8
DEFAULT_255_1_234
10
5.0529708
20
105.822601
40
0.8322832
50
174.3419979
51
180.1430411
0
ARC
8
DEFAULT_255_1_234
10
4.9598864
20
105.7031698
40
0.7392076
50
179.6817502
51
189.150529
0
ARC
8
DEFAULT_255_1_234
10
4.7098112
20
105.661519
40
0.4856932
50
188.9910863
51
203.5773039
0
ARC
8
DEFAULT_255_1_234
10
4.6018445
20
105.6167211
40
0.3688271
50
203.9077269
51
215.1312379
0
ARC
8
DEFAULT_255_1_234
10
4.5095539
20
105.5451941
40
0.2522457
50
213.9071664
51
263.8849284
0
ARC
8
DEFAULT_255_1_234
10
4.5220868
20
105.6236518
40
0.3316174
50
263.1758525
51
270.1031083
0
ARC
8
DEFAULT_255_1_234
10
4.525296
20
105.7483365
40
0.4563091
50
269.6719807
51
279.0609165
0
ARC
8
DEFAULT_255_1_234
10
4.5519728
20
105.5870907
40
0.2928759
50
278.8750225
51
293.6346586
0
ARC
8
DEFAULT_255_1_234
10
4.5839936
20
105.51189
40
0.2111472
50
293.8553404
51
310.0518804
0
ARC
8
DEFAULT_255_1_234
10
4.584479
20
105.5056516
40
0.2060917
50
311.0646779
51
332.0108348
0
ARC
8
DEFAULT_255_1_234
10
4.4652517
20
105.5713978
40
0.3422352
50
331.6588543
51
343.2878891
0
ARC
8
DEFAULT_255_1_234
10
4.2590032
20
105.6347798
40
0.5580003
50
343.1446044
51
351.010618
0
ARC
8
DEFAULT_255_1_234
10
4.1048678
20
105.6628871
40
0.7146438
50
350.7157277
51
351.1602153
0
LINE
8
DEFAULT_255_1_234
10
5.8712125
20
105.8735327
11
5.8712125
21
105.6807709
0
LINE
8
DEFAULT_255_1_234
10
5.1330957
20
105.6606916
11
5.1330957
21
105.8590755
0
LINE
8
DEFAULT_255_1_234
10
5.7226253
20
105.6406123
11
5.7226253
21
105.8839739
0
LINE
8
DEFAULT_255_1_234
10
5.2816829
20
105.8952184
11
5.2816829
21
105.6574789
0
ARC
8
DEFAULT_255_1_234
10
4.6465014
20
105.6758805
40
1.2247208
50
353.8441951
51
0.2287902
0
ARC
8
DEFAULT_255_1_234
10
5.1104518
20
105.6240806
40
0.7578929
50
344.4934747
51
353.9765454
0
ARC
8
DEFAULT_255_1_234
10
5.4097108
20
105.5389981
40
0.4467846
50
329.2803592
51
344.7472793
0
ARC
8
DEFAULT_255_1_234
10
5.5089933
20
105.4845018
40
0.3336173
50
324.9352394
51
328.6160465
0
ARC
8
DEFAULT_255_1_234
10
5.5467042
20
105.4581427
40
0.2876076
50
280.580143
51
324.9173126
0
ARC
8
DEFAULT_255_1_234
10
5.5065834
20
105.6252099
40
0.4592847
50
269.5977311
51
281.6734359
0
ARC
8
DEFAULT_255_1_234
10
5.499374
20
105.6132173
40
0.4472986
50
256.6228859
51
270.51044
0
ARC
8
DEFAULT_255_1_234
10
5.4591718
20
105.4583877
40
0.2873874
50
215.8618325
51
257.2788573
0
ARC
8
DEFAULT_255_1_234
10
5.5612749
20
105.5268977
40
0.4102928
50
197.9693508
51
215.2623606
0
ARC
8
DEFAULT_255_1_234
10
5.8097865
20
105.6107709
40
0.6725652
50
187.8816417
51
198.2346507
0
ARC
8
DEFAULT_255_1_234
10
6.2056073
20
105.6679079
40
1.0724845
50
180.8976217
51
188.0055519
0
ARC
8
DEFAULT_255_1_234
10
6.4856261
20
105.6782777
40
1.3526448
50
180.7449369
51
181.1510016
0
ARC
8
DEFAULT_255_1_234
10
6.327899
20
105.8639042
40
1.1948131
50
173.7675579
51
180.231553
0
ARC
8
DEFAULT_255_1_234
10
5.8761137
20
105.9149666
40
0.7401564
50
164.3058563
51
173.9002247
0
ARC
8
DEFAULT_255_1_234
10
5.5849206
20
105.9988656
40
0.4371288
50
148.7922025
51
164.568378
0
ARC
8
DEFAULT_255_1_234
10
5.4897658
20
106.0519929
40
0.3282386
50
144.5883898
51
148.1176286
0
ARC
8
DEFAULT_255_1_234
10
5.4554556
20
106.0759315
40
0.2864044
50
101.6440918
51
144.514236
0
ARC
8
DEFAULT_255_1_234
10
5.4979623
20
105.9070069
40
0.4604934
50
89.5284041
51
102.5819763
0
ARC
8
DEFAULT_255_1_234
10
5.505871
20
105.9031018
40
0.464401
50
77.0437873
51
90.5081339
0
ARC
8
DEFAULT_255_1_234
10
5.5460712
20
106.0673615
40
0.2953195
50
48.2778575
51
77.4994676
0
ARC
8
DEFAULT_255_1_234
10
5.5533343
20
106.0802746
40
0.2808655
50
36.3142134
51
47.6305865
0
ARC
8
DEFAULT_255_1_234
10
5.466465
20
106.0217515
40
0.3855453
50
18.2931786
51
35.6769206
0
ARC
8
DEFAULT_255_1_234
10
5.2121409
20
105.9344593
40
0.654423
50
8.024666
51
18.5605216
0
ARC
8
DEFAULT_255_1_234
10
4.7958329
20
105.8729792
40
1.0752407
50
1.1274072
51
8.1718305
0
ARC
8
DEFAULT_255_1_234
10
4.472252
20
105.8602885
40
1.3990231
50
0.5424119
51
1.3863029
0
ARC
8
DEFAULT_255_1_234
10
4.6543898
20
105.8875342
40
1.0682415
50
359.8090433
51
4.9407866
0
ARC
8
DEFAULT_255_1_234
10
5.0753912
20
105.9251113
40
0.6455691
50
4.8362157
51
12.2904523
0
ARC
8
DEFAULT_255_1_234
10
5.3509026
20
105.9864965
40
0.3633074
50
12.0805627
51
23.8173984
0
ARC
8
DEFAULT_255_1_234
10
5.4682732
20
106.0361919
40
0.2358723
50
24.2871213
51
31.3935614
0
ARC
8
DEFAULT_255_1_234
10
5.5207429
20
106.0705233
40
0.1732111
50
30.7407893
51
82.4657128
0
ARC
8
DEFAULT_255_1_234
10
5.5027563
20
105.9821691
40
0.263235
50
81.1060089
51
90.2184952
0
ARC
8
DEFAULT_255_1_234
10
5.4991862
20
106.0079924
40
0.2374236
50
89.3806855
51
105.6762551
0
ARC
8
DEFAULT_255_1_234
10
5.4808493
20
106.0746567
40
0.1682847
50
105.7981136
51
149.7388061
0
ARC
8
DEFAULT_255_1_234
10
5.5872571
20
106.010695
40
0.2924306
50
149.4208916
51
163.6286378
0
ARC
8
DEFAULT_255_1_234
10
5.7963459
20
105.946925
40
0.5110213
50
163.3763315
51
172.1410975
0
ARC
8
DEFAULT_255_1_234
10
6.1264178
20
105.8996518
40
0.8444586
50
172.0259487
51
178.0703232
0
ARC
8
DEFAULT_255_1_234
10
6.4294268
20
105.8852906
40
1.1477868
50
177.8631668
51
179.5044149
0
ARC
8
DEFAULT_255_1_234
10
6.3221672
20
105.6538389
40
1.0404907
50
179.7995573
51
185.2460446
0
ARC
8
DEFAULT_255_1_234
10
5.9178711
20
105.6155513
40
0.6343885
50
185.1411642
51
193.0079639
0
ARC
8
DEFAULT_255_1_234
10
5.6535184
20
105.5530641
40
0.3627568
50
192.7897626
51
205.2507664
0
ARC
8
DEFAULT_255_1_234
10
5.5488731
20
105.5063415
40
0.2481908
50
205.8005384
51
211.2537509
0
ARC
8
DEFAULT_255_1_234
10
5.4965171
20
105.471258
40
0.1852521
50
210.3789793
51
238.4008143
0
ARC
8
DEFAULT_255_1_234
10
5.4945693
20
105.4759376
40
0.1882621
50
239.6520629
51
265.9793761
0
ARC
8
DEFAULT_255_1_234
10
5.5030893
20
105.5431427
40
0.2559272
50
265.1315437
51
270.060332
0
ARC
8
DEFAULT_255_1_234
10
5.5059672
20
105.5107534
40
0.2235528
50
269.3314664
51
287.2178029
0
ARC
8
DEFAULT_255_1_234
10
5.5197524
20
105.4604279
40
0.1714108
50
287.7958004
51
329.080874
0
ARC
8
DEFAULT_255_1_234
10
5.4239981
20
105.520193
40
0.2842745
50
328.6634704
51
343.3325132
0
ARC
8
DEFAULT_255_1_234
10
5.2067001
20
105.5878863
40
0.5118644
50
343.0499468
51
351.9393422
0
ARC
8
DEFAULT_255_1_234
10
4.8600301
20
105.6389949
40
0.8622784
50
351.8069023
51
357.7959224
0
ARC
8
DEFAULT_255_1_234
10
4.5364857
20
105.6557721
40
1.1862365
50
357.5871873
51
359.2677531
0
LINE
8
DEFAULT_255_1_234
10
4.7542674
20
111.6431211
11
4.7542674
21
111.559591
0
LINE
8
DEFAULT_255_1_234
10
4.7542674
20
111.559591
11
4.2699536
21
110.4737
0
LINE
8
DEFAULT_255_1_234
10
4.2699536
20
110.4737
11
4.1141379
21
110.4737
0
LINE
8
DEFAULT_255_1_234
10
4.1141379
20
110.4737
11
4.5968454
21
111.5210387
0
LINE
8
DEFAULT_255_1_234
10
4.5968454
20
111.5210387
11
3.9639444
21
111.5210387
0
LINE
8
DEFAULT_255_1_234
10
3.9639444
20
111.5210387
11
3.9639444
21
111.6431211
0
LINE
8
DEFAULT_255_1_234
10
3.9639444
20
111.6431211
11
4.7542674
21
111.6431211
0
LINE
8
DEFAULT_255_1_234
10
4.5558835
20
116.9355243
11
4.5823882
21
116.9355243
0
LINE
8
DEFAULT_255_1_234
10
4.5823882
20
116.9355243
11
4.5823882
21
116.809426
0
LINE
8
DEFAULT_255_1_234
10
4.5823882
20
116.809426
11
4.5550803
21
116.809426
0
LINE
8
DEFAULT_255_1_234
10
4.0081189
20
116.2102583
11
4.0081189
21
116.2672836
0
LINE
8
DEFAULT_255_1_234
10
4.1575093
20
116.2480075
11
4.1575093
21
116.1933917
0
ARC
8
DEFAULT_255_1_234
10
4.5603151
20
116.3096455
40
0.4998079
50
90.6001036
51
104.514704
0
ARC
8
DEFAULT_255_1_234
10
4.5214667
20
116.4541131
40
0.3502176
50
104.2855254
51
133.862935
0
ARC
8
DEFAULT_255_1_234
10
4.5378424
20
116.443283
40
0.3693984
50
134.5302688
51
161.6210873
0
ARC
8
DEFAULT_255_1_234
10
4.7031613
20
116.3849895
40
0.5446739
50
161.2849839
51
174.2076652
0
ARC
8
DEFAULT_255_1_234
10
4.843855
20
116.3655787
40
0.6866274
50
173.7810589
51
174.9254635
0
ARC
8
DEFAULT_255_1_234
10
4.3888382
20
116.2272839
40
0.3033419
50
95.8330959
51
138.9954921
0
ARC
8
DEFAULT_255_1_234
10
4.4111738
20
116.0994375
40
0.4328947
50
89.8753725
51
97.0544009
0
ARC
8
DEFAULT_255_1_234
10
4.4159204
20
116.1829748
40
0.3493769
50
71.6407809
51
90.6240094
0
ARC
8
DEFAULT_255_1_234
10
4.4309777
20
116.2384082
40
0.2920396
50
39.6367836
51
71.019018
0
ARC
8
DEFAULT_255_1_234
10
4.367325
20
116.1833998
40
0.3761538
50
10.658731
51
39.9043955
0
ARC
8
DEFAULT_255_1_234
10
4.2125333
20
116.1497686
40
0.5345136
50
359.682601
51
11.132623
0
ARC
8
DEFAULT_255_1_234
10
4.2085464
20
116.142701
40
0.5385081
50
347.2486944
51
0.4369317
0
ARC
8
DEFAULT_255_1_234
10
4.3752941
20
116.1025807
40
0.3670249
50
318.1409698
51
347.6118597
0
ARC
8
DEFAULT_255_1_234
10
4.4077934
20
116.0758702
40
0.3250007
50
275.6342139
51
317.8248465
0
ARC
8
DEFAULT_255_1_234
10
4.3857045
20
116.2058219
40
0.4565864
50
269.8874292
51
276.7917694
0
ARC
8
DEFAULT_255_1_234
10
4.3802116
20
116.1032743
40
0.3540676
50
246.9140195
51
270.7437342
0
ARC
8
DEFAULT_255_1_234
10
4.3808506
20
116.0890384
40
0.3412781
50
218.1665114
51
245.878116
0
ARC
8
DEFAULT_255_1_234
10
4.4687967
20
116.1626279
40
0.455911
50
191.4115814
51
218.6077802
0
ARC
8
DEFAULT_255_1_234
10
4.6626056
20
116.2060833
40
0.6545001
50
179.6345085
51
191.7836486
0
ARC
8
DEFAULT_255_1_234
10
5.2208393
20
116.2739697
40
1.2127388
50
171.4525249
51
180.3158839
0
ARC
8
DEFAULT_255_1_234
10
4.7813269
20
116.3423608
40
0.7679464
50
157.9802646
51
171.6246686
0
ARC
8
DEFAULT_255_1_234
10
4.559929
20
116.4306421
40
0.5296008
50
141.4298019
51
157.854097
0
ARC
8
DEFAULT_255_1_234
10
4.495761
20
116.4760381
40
0.4511509
50
102.8715806
51
140.8564722
0
ARC
8
DEFAULT_255_1_234
10
4.5605226
20
116.2320552
40
0.7034845
50
90.3778349
51
103.5869322
0
ARC
8
DEFAULT_255_1_234
10
4.3867002
20
116.171573
40
0.2370698
50
89.8751008
51
126.2071704
0
ARC
8
DEFAULT_255_1_234
10
4.3912792
20
116.1561303
40
0.2522934
50
124.9745049
51
144.895901
0
ARC
8
DEFAULT_255_1_234
10
4.3736982
20
116.170456
40
0.2296779
50
145.2974905
51
160.2660252
0
ARC
8
DEFAULT_255_1_234
10
4.6809521
20
116.1902071
40
0.5234525
50
179.6514266
51
190.2855912
0
ARC
8
DEFAULT_255_1_234
10
4.5115658
20
116.1582786
40
0.3510893
50
190.0945431
51
207.5098196
0
ARC
8
DEFAULT_255_1_234
10
4.4549928
20
116.1313623
40
0.288489
50
207.9583163
51
216.3251085
0
ARC
8
DEFAULT_255_1_234
10
4.4210036
20
116.1034105
40
0.2445587
50
215.7661442
51
232.5456785
0
ARC
8
DEFAULT_255_1_234
10
4.3827019
20
116.0547482
40
0.1826382
50
232.8005391
51
270.6605633
0
ARC
8
DEFAULT_255_1_234
10
4.387272
20
116.0911612
40
0.2190529
50
269.35537
51
288.4744281
0
ARC
8
DEFAULT_255_1_234
10
4.3965617
20
116.0562118
40
0.1829749
50
289.1833337
51
322.9683818
0
ARC
8
DEFAULT_255_1_234
10
4.3354139
20
116.1044391
40
0.2608399
50
322.6007884
51
346.5182367
0
ARC
8
DEFAULT_255_1_234
10
4.2196735
20
116.1339616
40
0.3802777
50
346.2582162
51
358.7741648
0
ARC
8
DEFAULT_255_1_234
10
4.1178404
20
116.1394965
40
0.4822176
50
358.3755224
51
0.0098023
0
ARC
8
DEFAULT_255_1_234
10
4.1934591
20
116.1422657
40
0.4066078
50
359.6214041
51
11.2839074
0
ARC
8
DEFAULT_255_1_234
10
4.3211738
20
116.1689066
40
0.2761514
50
11.0482309
51
31.8146458
0
ARC
8
DEFAULT_255_1_234
10
4.3520781
20
116.1856584
40
0.2410679
50
32.3035391
51
38.082671
0
ARC
8
DEFAULT_255_1_234
10
4.3941441
20
116.2237662
40
0.1844966
50
36.825067
51
85.7415724
0
ARC
8
DEFAULT_255_1_234
10
4.3874274
20
116.1737301
40
0.2349122
50
85.0140713
51
90.0513278
0
LINE
8
DEFAULT_255_1_234
10
4.1864235
20
121.6127963
11
4.0675538
21
121.6433169
0
LINE
8
DEFAULT_255_1_234
10
4.0675538
20
121.6433169
11
4.1269887
21
122.2264211
0
LINE
8
DEFAULT_255_1_234
10
4.1269887
20
122.2264211
11
4.7261563
21
122.2264211
0
LINE
8
DEFAULT_255_1_234
10
4.7261563
20
122.2264211
11
4.7261563
21
122.0890784
0
LINE
8
DEFAULT_255_1_234
10
4.7261563
20
122.0890784
11
4.253087
21
122.0890784
0
LINE
8
DEFAULT_255_1_234
10
4.253087
20
122.0890784
11
4.2177473
21
121.7702184
0
LINE
8
DEFAULT_255_1_234
10
4.0257888
20
121.3646156
11
4.1663442
21
121.3646156
0
LINE
8
DEFAULT_255_1_234
10
4.2257791
20
121.6449232
11
4.1864235
21
121.6127963
0
ARC
8
DEFAULT_255_1_234
10
4.4032257
20
121.452223
40
0.3681349
50
93.7182161
51
120.2538958
0
ARC
8
DEFAULT_255_1_234
10
4.412652
20
121.3714394
40
0.449379
50
89.9660152
51
94.2496022
0
ARC
8
DEFAULT_255_1_234
10
4.4167254
20
121.4303549
40
0.390482
50
73.8043271
51
90.5585896
0
ARC
8
DEFAULT_255_1_234
10
4.4402151
20
121.5161602
40
0.3015334
50
41.3071453
51
73.5430202
0
ARC
8
DEFAULT_255_1_234
10
4.3985978
20
121.4803324
40
0.3564457
50
13.5075983
51
41.2174222
0
ARC
8
DEFAULT_255_1_234
10
4.2344182
20
121.4373486
40
0.5261351
50
1.1331335
51
13.8829381
0
ARC
8
DEFAULT_255_1_234
10
4.0932551
20
121.4297665
40
0.6674378
50
359.9919444
51
1.544251
0
ARC
8
DEFAULT_255_1_234
10
4.2209377
20
121.425628
40
0.5397702
50
347.8572367
51
0.4293338
0
ARC
8
DEFAULT_255_1_234
10
4.3959695
20
121.3859736
40
0.3603188
50
323.673004
51
348.1672506
0
ARC
8
DEFAULT_255_1_234
10
4.4254203
20
121.3680168
40
0.3259678
50
316.8171152
51
323.1492751
0
ARC
8
DEFAULT_255_1_234
10
4.4315392
20
121.364346
40
0.3189975
50
281.8396411
51
316.5457803
0
ARC
8
DEFAULT_255_1_234
10
4.3939656
20
121.5198762
40
0.4789527
50
269.5770101
51
282.4214771
0
ARC
8
DEFAULT_255_1_234
10
4.3868467
20
121.4985125
40
0.45759
50
256.2427136
51
270.4486331
0
ARC
8
DEFAULT_255_1_234
10
4.356937
20
121.3785229
40
0.3339303
50
228.9023911
51
256.3314342
0
ARC
8
DEFAULT_255_1_234
10
4.3495602
20
121.3668746
40
0.32031
50
193.753695
51
228.5271154
0
ARC
8
DEFAULT_255_1_234
10
4.4733556
20
121.40318
40
0.4492253
50
184.924711
51
194.497588
0
ARC
8
DEFAULT_255_1_234
10
4.4926123
20
121.4067591
40
0.3289787
50
187.3600538
51
198.6732863
0
ARC
8
DEFAULT_255_1_234
10
4.3876417
20
121.3703674
40
0.217884
50
198.4451669
51
217.794479
0
ARC
8
DEFAULT_255_1_234
10
4.3580592
20
121.3494085
40
0.1816698
50
218.2887171
51
228.5612368
0
ARC
8
DEFAULT_255_1_234
10
4.3678379
20
121.3625963
40
0.1980329
50
228.9654866
51
258.1234728
0
ARC
8
DEFAULT_255_1_234
10
4.3884089
20
121.4506833
40
0.2884748
50
257.7258293
51
270.401361
0
ARC
8
DEFAULT_255_1_234
10
4.3928975
20
121.4061821
40
0.2439788
50
269.4204404
51
286.4209037
0
ARC
8
DEFAULT_255_1_234
10
4.4077463
20
121.3522657
40
0.1880666
50
286.7251356
51
320.600362
0
ARC
8
DEFAULT_255_1_234
10
4.3694288
20
121.3833595
40
0.2374121
50
320.6712579
51
344.5441685
0
ARC
8
DEFAULT_255_1_234
10
4.2537614
20
121.4173045
40
0.3579479
50
344.2412205
51
356.7357071
0
ARC
8
DEFAULT_255_1_234
10
4.1288763
20
121.4276444
40
0.4832297
50
356.3548756
51
0.0500261
0
ARC
8
DEFAULT_255_1_234
10
4.2625272
20
121.430765
40
0.3495889
50
359.5576869
51
12.953486
0
ARC
8
DEFAULT_255_1_234
10
4.3680169
20
121.4563434
40
0.2410532
50
12.6490276
51
41.6081334
0
ARC
8
DEFAULT_255_1_234
10
4.391054
20
121.4759321
40
0.2108218
50
41.7850273
51
85.9892764
0
ARC
8
DEFAULT_255_1_234
10
4.3787277
20
121.3946462
40
0.2928454
50
84.6957577
51
90.0676183
0
ARC
8
DEFAULT_255_1_234
10
4.3763761
20
121.3277716
40
0.3597255
50
89.6804936
51
99.1614436
0
ARC
8
DEFAULT_255_1_234
10
4.3558392
20
121.4505131
40
0.235281
50
98.9830931
51
113.8908934
0
ARC
8
DEFAULT_255_1_234
10
4.3328802
20
121.5046587
40
0.176479
50
114.1950727
51
127.3641004
0
LINE
8
DEFAULT_255_1_234
10
4.8381628
20
127.5181211
11
4.8381628
21
126.741452
0
LINE
8
DEFAULT_255_1_234
10
4.8381628
20
126.741452
11
5.0004039
21
126.741452
0
LINE
8
DEFAULT_255_1_234
10
5.0004039
20
126.741452
11
5.0004039
21
126.6201728
0
LINE
8
DEFAULT_255_1_234
10
5.0004039
20
126.6201728
11
4.8381628
21
126.6201728
0
LINE
8
DEFAULT_255_1_234
10
4.8381628
20
126.6201728
11
4.8381628
21
126.3487
0
LINE
8
DEFAULT_255_1_234
10
4.8381628
20
126.3487
11
4.6887725
21
126.3487
0
LINE
8
DEFAULT_255_1_234
10
4.6887725
20
126.3487
11
4.6887725
21
126.6201728
0
LINE
8
DEFAULT_255_1_234
10
4.6887725
20
126.6201728
11
4.1562682
21
126.6201728
0
LINE
8
DEFAULT_255_1_234
10
4.1562682
20
126.6201728
11
4.1562682
21
126.7077187
0
LINE
8
DEFAULT_255_1_234
10
4.1562682
20
126.7077187
11
4.6799375
21
127.5181211
0
LINE
8
DEFAULT_255_1_234
10
4.6799375
20
127.5181211
11
4.8381628
21
127.5181211
0
LINE
8
DEFAULT_255_1_234
10
4.6711026
20
127.2827912
11
4.3249347
21
126.741452
0
LINE
8
DEFAULT_255_1_234
10
4.3249347
20
126.741452
11
4.6887725
21
126.741452
0
LINE
8
DEFAULT_255_1_234
10
4.6887725
20
126.741452
11
4.6887725
21
127.3149181
0
LINE
8
DEFAULT_255_1_234
10
4.6887725
20
127.3149181
11
4.6711026
21
127.2827912
0
LINE
8
DEFAULT_255_1_234
10
4.2153378
20
132.1760169
11
4.2153378
21
132.2972962
0
LINE
8
DEFAULT_255_1_234
10
4.2153378
20
132.2972962
11
4.326979
21
132.2972962
0
LINE
8
DEFAULT_255_1_234
10
4.1366268
20
132.5029087
11
3.9880396
21
132.5029087
0
LINE
8
DEFAULT_255_1_234
10
3.9775983
20
131.9487188
11
4.1269887
21
131.9487188
0
LINE
8
DEFAULT_255_1_234
10
4.326979
20
132.1760169
11
4.2153378
21
132.1760169
0
ARC
8
DEFAULT_255_1_234
10
4.3240656
20
132.6365713
40
0.3392876
50
270.4919872
51
281.8951556
0
ARC
8
DEFAULT_255_1_234
10
4.3481918
20
132.5263702
40
0.2264817
50
281.6691735
51
301.2943132
0
ARC
8
DEFAULT_255_1_234
10
4.3652128
20
132.4952304
40
0.1910381
50
301.7833094
51
311.7545298
0
ARC
8
DEFAULT_255_1_234
10
4.3743704
20
132.4850748
40
0.1773635
50
311.7323931
51
354.2802411
0
ARC
8
DEFAULT_255_1_234
10
4.3017329
20
132.4975722
40
0.2509385
50
353.0937916
51
0.1181479
0
ARC
8
DEFAULT_255_1_234
10
4.2556114
20
132.5023386
40
0.2970898
50
359.1805295
51
15.0453146
0
ARC
8
DEFAULT_255_1_234
10
4.3901951
20
132.5415992
40
0.1569564
50
13.9577229
51
77.6713066
0
ARC
8
DEFAULT_255_1_234
10
4.351548
20
132.4030949
40
0.3006298
50
76.1116566
51
90.7026153
0
ARC
8
DEFAULT_255_1_234
10
4.3456318
20
132.4304545
40
0.2732568
50
89.5324876
51
103.531937
0
ARC
8
DEFAULT_255_1_234
10
4.3255762
20
132.5103884
40
0.1908508
50
103.2931773
51
133.5619022
0
ARC
8
DEFAULT_255_1_234
10
4.3211251
20
132.5163375
40
0.1834746
50
133.8349307
51
173.5344437
0
ARC
8
DEFAULT_255_1_234
10
4.3934294
20
132.5035213
40
0.2568033
50
172.5096846
51
180.1366907
0
ARC
8
DEFAULT_255_1_234
10
4.2983188
20
132.5069622
40
0.3103056
50
155.3484492
51
180.7484736
0
ARC
8
DEFAULT_255_1_234
10
4.2934277
20
132.5040846
40
0.3070957
50
131.5744599
51
154.4798489
0
ARC
8
DEFAULT_255_1_234
10
4.3247424
20
132.472431
40
0.3515643
50
96.9875458
51
131.9690667
0
ARC
8
DEFAULT_255_1_234
10
4.3466904
20
132.3478636
40
0.4779224
50
89.8596053
51
97.7825159
0
ARC
8
DEFAULT_255_1_234
10
4.3514967
20
132.3216616
40
0.5041361
50
78.3655447
51
90.4131539
0
ARC
8
DEFAULT_255_1_234
10
4.3872885
20
132.4875887
40
0.3344039
50
56.6229102
51
78.638727
0
ARC
8
DEFAULT_255_1_234
10
4.4087829
20
132.5251805
40
0.2912001
50
47.0253525
51
56.0854072
0
ARC
8
DEFAULT_255_1_234
10
4.4107609
20
132.5291223
40
0.2869704
50
10.9208013
51
46.7778124
0
ARC
8
DEFAULT_255_1_234
10
4.2743675
20
132.4975857
40
0.426899
50
359.6364486
51
11.6087304
0
ARC
8
DEFAULT_255_1_234
10
4.4578519
20
132.4960752
40
0.243409
50
332.3549906
51
359.7179418
0
ARC
8
DEFAULT_255_1_234
10
4.3928121
20
132.5269142
40
0.3153459
50
325.2333722
51
332.8745602
0
ARC
8
DEFAULT_255_1_234
10
4.4080744
20
132.5162828
40
0.2967456
50
292.9802137
51
325.2392345
0
ARC
8
DEFAULT_255_1_234
10
4.3806118
20
132.5696863
40
0.3566604
50
292.5402179
51
293.6924929
0
ARC
8
DEFAULT_255_1_234
10
4.4198714
20
131.9242091
40
0.3307468
50
57.6435486
51
72.8625112
0
ARC
8
DEFAULT_255_1_234
10
4.4553214
20
131.9816549
40
0.2632492
50
36.7248896
51
57.4697979
0
ARC
8
DEFAULT_255_1_234
10
4.4541847
20
131.982922
40
0.2634081
50
8.0545065
51
36.356114
0
ARC
8
DEFAULT_255_1_234
10
4.3679032
20
131.9674174
40
0.3510261
50
359.8320645
51
8.5869982
0
ARC
8
DEFAULT_255_1_234
10
4.3303808
20
131.9626101
40
0.3885653
50
343.9829931
51
0.5571613
0
ARC
8
DEFAULT_255_1_234
10
4.4190005
20
131.9383438
40
0.2966924
50
311.6359546
51
343.7651759
0
ARC
8
DEFAULT_255_1_234
10
4.3811574
20
131.9810102
40
0.3537231
50
279.7829875
51
311.6255694
0
ARC
8
DEFAULT_255_1_234
10
4.3510351
20
132.124728
40
0.5004971
50
269.7286406
51
280.3856417
0
ARC
8
DEFAULT_255_1_234
10
4.3448423
20
132.1205996
40
0.4963778
50
256.6828919
51
270.4412052
0
ARC
8
DEFAULT_255_1_234
10
4.3109719
20
131.9821394
40
0.3538406
50
229.4223008
51
256.8556159
0
ARC
8
DEFAULT_255_1_234
10
4.2695112
20
131.9354736
40
0.2914296
50
181.818294
51
229.6455059
0
ARC
8
DEFAULT_255_1_234
10
4.3735068
20
131.9485496
40
0.3959084
50
179.9755256
51
183.2323064
0
ARC
8
DEFAULT_255_1_234
10
4.3562814
20
131.9465037
40
0.2293034
50
179.4465117
51
196.2869258
0
ARC
8
DEFAULT_255_1_234
10
4.3075222
20
131.9331651
40
0.1787621
50
196.5661473
51
227.705904
0
ARC
8
DEFAULT_255_1_234
10
4.3239317
20
131.9515155
40
0.2033784
50
227.7652068
51
257.8762805
0
ARC
8
DEFAULT_255_1_234
10
4.3464287
20
132.0458156
40
0.3003081
50
257.4584385
51
270.426602
0
ARC
8
DEFAULT_255_1_234
10
4.3509853
20
132.0747996
40
0.329292
50
269.5962073
51
280.8789248
0
ARC
8
DEFAULT_255_1_234
10
4.3739382
20
131.9601685
40
0.2123908
50
280.6346389
51
299.8595945
0
ARC
8
DEFAULT_255_1_234
10
4.3930289
20
131.9239212
40
0.171457
50
300.3576302
51
314.5517981
0
ARC
8
DEFAULT_255_1_234
10
4.3847349
20
131.9299919
40
0.1816095
50
315.0728369
51
345.0431014
0
ARC
8
DEFAULT_255_1_234
10
4.2924163
20
131.9568841
40
0.2777492
50
344.5986631
51
357.9269593
0
ARC
8
DEFAULT_255_1_234
10
4.2028489
20
131.9630276
40
0.3674917
50
357.4748886
51
0.0231117
0
ARC
8
DEFAULT_255_1_234
10
4.3051599
20
131.9654679
40
0.2651907
50
359.5047933
51
13.4239635
0
ARC
8
DEFAULT_255_1_234
10
4.3918242
20
131.9876478
40
0.1757509
50
12.9498199
51
48.7551375
0
ARC
8
DEFAULT_255_1_234
10
4.3735976
20
131.96274
40
0.2065134
50
49.5088623
51
72.1836453
0
ARC
8
DEFAULT_255_1_234
10
4.3378129
20
131.8565291
40
0.3185836
50
71.9010081
51
84.3554254
0
ARC
8
DEFAULT_255_1_234
10
4.3216761
20
131.7204326
40
0.4556151
50
84.0193428
51
89.333121
0
LINE
8
DEFAULT_255_1_234
10
4.7655119
20
137.0532792
11
4.7655119
21
136.932
0
LINE
8
DEFAULT_255_1_234
10
4.7655119
20
136.932
11
3.999284
21
136.932
0
LINE
8
DEFAULT_255_1_234
10
3.999284
20
136.932
11
3.999284
21
137.0388221
0
LINE
8
DEFAULT_255_1_234
10
3.999284
20
137.0388221
11
4.4040836
21
137.4885995
0
LINE
8
DEFAULT_255_1_234
10
4.1253823
20
137.7568595
11
3.9767952
21
137.7568595
0
LINE
8
DEFAULT_255_1_234
10
4.4916296
20
137.3930218
11
4.1783918
21
137.0532792
0
LINE
8
DEFAULT_255_1_234
10
4.1783918
20
137.0532792
11
4.7655119
21
137.0532792
0
ARC
8
DEFAULT_255_1_234
10
3.055067
20
138.6815527
40
1.8008286
50
318.5132453
51
320.7828378
0
ARC
8
DEFAULT_255_1_234
10
3.5837644
20
138.2512426
40
1.1191493
50
320.7372736
51
323.9737074
0
ARC
8
DEFAULT_255_1_234
10
3.9757501
20
137.9672361
40
0.6350923
50
323.8961724
51
328.6421089
0
ARC
8
DEFAULT_255_1_234
10
4.1804096
20
137.8410031
40
0.3946393
50
328.8299013
51
331.789948
0
ARC
8
DEFAULT_255_1_234
10
4.2801274
20
137.7895509
40
0.2824501
50
331.4255242
51
352.9364833
0
ARC
8
DEFAULT_255_1_234
10
4.2937775
20
137.7864976
40
0.2685315
50
353.2248685
51
0.0169286
0
ARC
8
DEFAULT_255_1_234
10
4.3147652
20
137.788795
40
0.2475536
50
359.4866256
51
15.9339782
0
ARC
8
DEFAULT_255_1_234
10
4.3654637
20
137.8024286
40
0.1950618
50
16.1714718
51
43.5284424
0
ARC
8
DEFAULT_255_1_234
10
4.3731946
20
137.8101573
40
0.184134
50
43.4415429
51
83.1661404
0
ARC
8
DEFAULT_255_1_234
10
4.3597864
20
137.7364771
40
0.258926
50
82.160215
51
90.1505798
0
ARC
8
DEFAULT_255_1_234
10
4.3566291
20
137.6827865
40
0.3126255
50
89.5460705
51
102.5418777
0
ARC
8
DEFAULT_255_1_234
10
4.3323377
20
137.7858665
40
0.2067346
50
102.1739365
51
129.2061916
0
ARC
8
DEFAULT_255_1_234
10
4.3244449
20
137.7983094
40
0.1921118
50
129.7279328
51
135.7542026
0
ARC
8
DEFAULT_255_1_234
10
4.3365977
20
137.7886045
40
0.2075944
50
136.175737
51
166.3674722
0
ARC
8
DEFAULT_255_1_234
10
4.4372896
20
137.7616182
40
0.3118201
50
165.9092917
51
178.8683903
0
ARC
8
DEFAULT_255_1_234
10
4.5237757
20
137.7569179
40
0.3983935
50
178.438168
51
180.0083905
0
ARC
8
DEFAULT_255_1_234
10
4.3836359
20
137.7608231
40
0.4068601
50
163.2878735
51
180.5581814
0
ARC
8
DEFAULT_255_1_234
10
4.3034621
20
137.782884
40
0.3237344
50
133.454115
51
162.9470031
0
ARC
8
DEFAULT_255_1_234
10
4.3213162
20
137.7639
40
0.349795
50
100.7869394
51
133.4384016
0
ARC
8
DEFAULT_255_1_234
10
4.3560934
20
137.6090319
40
0.5084616
50
89.6605301
51
101.3704185
0
ARC
8
DEFAULT_255_1_234
10
4.3627273
20
137.6151496
40
0.502348
50
78.2171172
51
90.4130393
0
ARC
8
DEFAULT_255_1_234
10
4.3982351
20
137.7775637
40
0.3361092
50
55.9268222
51
78.4888551
0
ARC
8
DEFAULT_255_1_234
10
4.4178791
20
137.8114324
40
0.2970617
50
47.9292255
51
55.4054003
0
ARC
8
DEFAULT_255_1_234
10
4.4280352
20
137.8217502
40
0.2825983
50
4.3347696
51
48.0560701
0
ARC
8
DEFAULT_255_1_234
10
4.3184745
20
137.8047601
40
0.393225
50
359.925209
51
5.5967654
0
ARC
8
DEFAULT_255_1_234
10
4.3613637
20
137.8103816
40
0.3503892
50
337.8914096
51
358.9967724
0
ARC
8
DEFAULT_255_1_234
10
4.0900049
20
137.9150706
40
0.6412172
50
326.9135351
51
338.3505194
0
ARC
8
DEFAULT_255_1_234
10
3.6914353
20
138.1705284
40
1.1146189
50
319.6472867
51
327.095818
0
ARC
8
DEFAULT_255_1_234
10
3.3081356
20
138.4867
40
1.6114559
50
317.2586784
51
319.9046139
0
LINE
8
DEFAULT_255_1_234
10
4.4793137
20
143.3987433
11
4.4793137
21
142.2237
0
LINE
8
DEFAULT_255_1_234
10
4.4793137
20
142.2237
11
4.3299234
21
142.2237
0
LINE
8
DEFAULT_255_1_234
10
4.3299234
20
142.2237
11
4.3299234
21
143.2140133
0
LINE
8
DEFAULT_255_1_234
10
4.3299234
20
143.2140133
11
4.0303396
21
143.1039785
0
LINE
8
DEFAULT_255_1_234
10
4.0303396
20
143.1039785
11
4.0303396
21
143.2389117
0
LINE
8
DEFAULT_255_1_234
10
4.0303396
20
143.2389117
11
4.4560217
21
143.3987433
0
LINE
8
DEFAULT_255_1_234
10
4.4560217
20
143.3987433
11
4.4793137
21
143.3987433
0
LINE
8
DEFAULT_255_1_234
10
4.7325817
20
148.2068327
11
4.7325817
21
148.0140709
0
LINE
8
DEFAULT_255_1_234
10
3.994465
20
147.9939916
11
3.994465
21
148.1923755
0
LINE
8
DEFAULT_255_1_234
10
4.5839946
20
147.9739123
11
4.5839946
21
148.2172739
0
LINE
8
DEFAULT_255_1_234
10
4.1430521
20
148.2285184
11
4.1430521
21
147.9907789
0
ARC
8
DEFAULT_255_1_234
10
3.5078707
20
148.0091805
40
1.2247208
50
353.8441951
51
0.2287902
0
ARC
8
DEFAULT_255_1_234
10
3.9718211
20
147.9573806
40
0.7578929
50
344.4934747
51
353.9765454
0
ARC
8
DEFAULT_255_1_234
10
4.2710801
20
147.8722981
40
0.4467846
50
329.2803592
51
344.7472793
0
ARC
8
DEFAULT_255_1_234
10
4.3703626
20
147.8178018
40
0.3336173
50
324.9352394
51
328.6160465
0
ARC
8
DEFAULT_255_1_234
10
4.4080734
20
147.7914427
40
0.2876076
50
280.580143
51
324.9173126
0
ARC
8
DEFAULT_255_1_234
10
4.3679527
20
147.9585099
40
0.4592847
50
269.5977311
51
281.6734359
0
ARC
8
DEFAULT_255_1_234
10
4.3607433
20
147.9465173
40
0.4472986
50
256.6228859
51
270.51044
0
ARC
8
DEFAULT_255_1_234
10
4.320541
20
147.7916877
40
0.2873874
50
215.8618325
51
257.2788573
0
ARC
8
DEFAULT_255_1_234
10
4.4226442
20
147.8601977
40
0.4102928
50
197.9693508
51
215.2623606
0
ARC
8
DEFAULT_255_1_234
10
4.6711558
20
147.9440709
40
0.6725652
50
187.8816417
51
198.2346507
0
ARC
8
DEFAULT_255_1_234
10
5.0669766
20
148.0012079
40
1.0724845
50
180.8976217
51
188.0055519
0
ARC
8
DEFAULT_255_1_234
10
5.3469954
20
148.0115777
40
1.3526448
50
180.7449369
51
181.1510016
0
ARC
8
DEFAULT_255_1_234
10
5.1892683
20
148.1972042
40
1.1948131
50
173.7675579
51
180.231553
0
ARC
8
DEFAULT_255_1_234
10
4.737483
20
148.2482666
40
0.7401564
50
164.3058563
51
173.9002247
0
ARC
8
DEFAULT_255_1_234
10
4.4462899
20
148.3321656
40
0.4371288
50
148.7922025
51
164.568378
0
ARC
8
DEFAULT_255_1_234
10
4.3511351
20
148.3852929
40
0.3282386
50
144.5883898
51
148.1176286
0
ARC
8
DEFAULT_255_1_234
10
4.3168249
20
148.4092315
40
0.2864044
50
101.6440918
51
144.514236
0
ARC
8
DEFAULT_255_1_234
10
4.3593315
20
148.2403069
40
0.4604934
50
89.5284041
51
102.5819763
0
ARC
8
DEFAULT_255_1_234
10
4.3672403
20
148.2364018
40
0.464401
50
77.0437873
51
90.5081339
0
ARC
8
DEFAULT_255_1_234
10
4.4074405
20
148.4006615
40
0.2953195
50
48.2778575
51
77.4994676
0
ARC
8
DEFAULT_255_1_234
10
4.4147036
20
148.4135746
40
0.2808655
50
36.3142134
51
47.6305865
0
ARC
8
DEFAULT_255_1_234
10
4.3278343
20
148.3550515
40
0.3855453
50
18.2931786
51
35.6769206
0
ARC
8
DEFAULT_255_1_234
10
4.0735102
20
148.2677593
40
0.654423
50
8.024666
51
18.5605216
0
ARC
8
DEFAULT_255_1_234
10
3.6572022
20
148.2062792
40
1.0752407
50
1.1274072
51
8.1718305
0
ARC
8
DEFAULT_255_1_234
10
3.3336213
20
148.1935885
40
1.3990231
50
0.5424119
51
1.3863029
0
ARC
8
DEFAULT_255_1_234
10
3.515759
20
148.2208342
40
1.0682415
50
359.8090433
51
4.9407866
0
ARC
8
DEFAULT_255_1_234
10
3.9367604
20
148.2584113
40
0.6455691
50
4.8362157
51
12.2904523
0
ARC
8
DEFAULT_255_1_234
10
4.2122719
20
148.3197965
40
0.3633074
50
12.0805627
51
23.8173984
0
ARC
8
DEFAULT_255_1_234
10
4.3296425
20
148.3694919
40
0.2358723
50
24.2871213
51
31.3935614
0
ARC
8
DEFAULT_255_1_234
10
4.3821122
20
148.4038233
40
0.1732111
50
30.7407893
51
82.4657128
0
ARC
8
DEFAULT_255_1_234
10
4.3641256
20
148.3154691
40
0.263235
50
81.1060089
51
90.2184952
0
ARC
8
DEFAULT_255_1_234
10
4.3605555
20
148.3412924
40
0.2374236
50
89.3806855
51
105.6762551
0
ARC
8
DEFAULT_255_1_234
10
4.3422186
20
148.4079567
40
0.1682847
50
105.7981136
51
149.7388061
0
ARC
8
DEFAULT_255_1_234
10
4.4486264
20
148.343995
40
0.2924306
50
149.4208916
51
163.6286378
0
ARC
8
DEFAULT_255_1_234
10
4.6577152
20
148.280225
40
0.5110213
50
163.3763315
51
172.1410975
0
ARC
8
DEFAULT_255_1_234
10
4.9877871
20
148.2329518
40
0.8444586
50
172.0259487
51
178.0703232
0
ARC
8
DEFAULT_255_1_234
10
5.290796
20
148.2185906
40
1.1477868
50
177.8631668
51
179.5044149
0
ARC
8
DEFAULT_255_1_234
10
5.1835365
20
147.9871389
40
1.0404907
50
179.7995573
51
185.2460446
0
ARC
8
DEFAULT_255_1_234
10
4.7792404
20
147.9488513
40
0.6343885
50
185.1411642
51
193.0079639
0
ARC
8
DEFAULT_255_1_234
10
4.5148877
20
147.8863641
40
0.3627568
50
192.7897626
51
205.2507664
0
ARC
8
DEFAULT_255_1_234
10
4.4102424
20
147.8396415
40
0.2481908
50
205.8005384
51
211.2537509
0
ARC
8
DEFAULT_255_1_234
10
4.3578864
20
147.804558
40
0.1852521
50
210.3789793
51
238.4008143
0
ARC
8
DEFAULT_255_1_234
10
4.3559386
20
147.8092376
40
0.1882621
50
239.6520629
51
265.9793761
0
ARC
8
DEFAULT_255_1_234
10
4.3644586
20
147.8764427
40
0.2559272
50
265.1315437
51
270.060332
0
ARC
8
DEFAULT_255_1_234
10
4.3673365
20
147.8440534
40
0.2235528
50
269.3314664
51
287.2178029
0
ARC
8
DEFAULT_255_1_234
10
4.3811217
20
147.7937279
40
0.1714108
50
287.7958004
51
329.080874
0
ARC
8
DEFAULT_255_1_234
10
4.2853674
20
147.853493
40
0.2842745
50
328.6634704
51
343.3325132
0
ARC
8
DEFAULT_255_1_234
10
4.0680694
20
147.9211863
40
0.5118644
50
343.0499468
51
351.9393422
0
ARC
8
DEFAULT_255_1_234
10
3.7213994
20
147.9722949
40
0.8622784
50
351.8069023
51
357.7959224
0
ARC
8
DEFAULT_255_1_234
10
3.397855
20
147.9890721
40
1.1862365
50
357.5871873
51
359.2677531
0
LINE
8
DEFAULT_255_1_234
10
4.9996293
20
152.807
11
4.8879881
21
153.1122061
0
LINE
8
DEFAULT_255_1_234
10
4.8879881
20
153.1122061
11
4.3980521
21
153.1122061
0
LINE
8
DEFAULT_255_1_234
10
4.3980521
20
153.1122061
11
4.2880173
21
152.807
0
LINE
8
DEFAULT_255_1_234
10
4.2880173
20
152.807
11
4.1289889
21
152.807
0
LINE
8
DEFAULT_255_1_234
10
4.1289889
20
152.807
11
4.5755535
21
153.9764211
0
LINE
8
DEFAULT_255_1_234
10
4.5755535
20
153.9764211
11
4.7104867
21
153.9764211
0
LINE
8
DEFAULT_255_1_234
10
4.7104867
20
153.9764211
11
5.1578545
21
152.807
0
LINE
8
DEFAULT_255_1_234
10
5.1578545
20
152.807
11
4.9996293
21
152.807
0
LINE
8
DEFAULT_255_1_234
10
4.6430201
20
153.7860689
11
4.4446362
21
153.2391075
0
LINE
8
DEFAULT_255_1_234
10
4.4446362
20
153.2391075
11
4.8422072
21
153.2391075
0
LINE
8
DEFAULT_255_1_234
10
4.8422072
20
153.2391075
11
4.6430201
21
153.7860689
0
LINE
8
DEFAULT_255_1_234
10
6.0116283
20
153.1780663
11
6.1666409
21
153.1780663
0
LINE
8
DEFAULT_255_1_234
10
5.266283
20
153.3370947
11
5.266283
21
153.4495391
0
LINE
8
DEFAULT_255_1_234
10
6.1666409
20
153.6005357
11
6.0116283
21
153.6005357
0
LINE
8
DEFAULT_255_1_234
10
5.4212956
20
153.4455232
11
5.4212956
21
153.3322757
0
ARC
8
DEFAULT_255_1_234
10
5.6185796
20
153.2377846
40
0.5513052
50
340.1774281
51
353.7814284
0
ARC
8
DEFAULT_255_1_234
10
5.7757148
20
153.1792582
40
0.3836379
50
311.4558989
51
340.4421614
0
ARC
8
DEFAULT_255_1_234
10
5.7723816
20
153.1903528
40
0.3941894
50
282.4333181
51
310.7513653
0
ARC
8
DEFAULT_255_1_234
10
5.7284555
20
153.3718679
40
0.5809175
50
269.9358511
51
282.809604
0
ARC
8
DEFAULT_255_1_234
10
5.7232622
20
153.5176212
40
0.7266847
50
270.0021091
51
270.3581957
0
ARC
8
DEFAULT_255_1_234
10
5.7180039
20
153.2575585
40
0.4666519
50
250.7884749
51
270.6489167
0
ARC
8
DEFAULT_255_1_234
10
5.7011873
20
153.1938319
40
0.4009729
50
219.3627325
51
250.0611886
0
ARC
8
DEFAULT_255_1_234
10
5.7841084
20
153.2643042
40
0.5097822
50
193.5479632
51
219.5756669
0
ARC
8
DEFAULT_255_1_234
10
6.0212705
20
153.3258919
40
0.7547848
50
181.1218675
51
193.87563
0
ARC
8
DEFAULT_255_1_234
10
6.2282886
20
153.336958
40
0.9620055
50
179.9918545
51
181.5394234
0
ARC
8
DEFAULT_255_1_234
10
6.0431988
20
153.4532788
40
0.7769248
50
169.5837241
51
180.2757934
0
ARC
8
DEFAULT_255_1_234
10
5.8594926
20
153.4872229
40
0.590109
50
155.0365899
51
169.6003176
0
ARC
8
DEFAULT_255_1_234
10
5.745939
20
153.5419677
40
0.4640625
50
136.783148
51
155.2472683
0
ARC
8
DEFAULT_255_1_234
10
5.7069867
20
153.5750562
40
0.4130255
50
121.7633186
51
136.428115
0
ARC
8
DEFAULT_255_1_234
10
5.7204829
20
153.5501227
40
0.4413323
50
95.6459699
51
121.5490577
0
ARC
8
DEFAULT_255_1_234
10
5.7362111
20
153.4392949
40
0.55319
50
89.924208
51
96.1377933
0
ARC
8
DEFAULT_255_1_234
10
5.7412544
20
153.4511542
40
0.5413475
50
76.6779277
51
90.4563316
0
ARC
8
DEFAULT_255_1_234
10
5.7806167
20
153.6102114
40
0.3775041
50
47.485847
51
76.9287264
0
ARC
8
DEFAULT_255_1_234
10
5.765914
20
153.6002159
40
0.3948286
50
16.5424086
51
46.8933463
0
ARC
8
DEFAULT_255_1_234
10
5.6051297
20
153.5473861
40
0.564021
50
5.4072051
51
17.0365086
0
ARC
8
DEFAULT_255_1_234
10
5.4612314
20
153.5242679
40
0.5556559
50
7.8891745
51
15.9239216
0
ARC
8
DEFAULT_255_1_234
10
5.6599328
20
153.5819631
40
0.3487515
50
15.7653144
51
27.9410532
0
ARC
8
DEFAULT_255_1_234
10
5.7703546
20
153.641079
40
0.2235026
50
27.8166557
51
46.4008329
0
ARC
8
DEFAULT_255_1_234
10
5.7753188
20
153.6405082
40
0.2205286
50
47.4371857
51
75.0698205
0
ARC
8
DEFAULT_255_1_234
10
5.7444583
20
153.5330765
40
0.3322915
50
74.7008593
51
87.8124495
0
ARC
8
DEFAULT_255_1_234
10
5.737127
20
153.4274844
40
0.4380987
50
87.3814673
51
90.0240855
0
ARC
8
DEFAULT_255_1_234
10
5.7332814
20
153.5452291
40
0.3203749
50
89.3451631
51
108.5745436
0
ARC
8
DEFAULT_255_1_234
10
5.7195919
20
153.5965908
40
0.2673494
50
109.2998449
51
143.3037509
0
ARC
8
DEFAULT_255_1_234
10
5.7957992
20
153.5379881
40
0.3634757
50
143.0753173
51
163.1916937
0
ARC
8
DEFAULT_255_1_234
10
5.9909719
20
153.4763967
40
0.5681262
50
162.9373603
51
174.6208611
0
ARC
8
DEFAULT_255_1_234
10
6.2535761
20
153.447601
40
0.8322832
50
174.3419979
51
180.1430411
0
ARC
8
DEFAULT_255_1_234
10
6.1604918
20
153.3281698
40
0.7392076
50
179.6817502
51
189.150529
0
ARC
8
DEFAULT_255_1_234
10
5.9104166
20
153.286519
40
0.4856932
50
188.9910863
51
203.5773039
0
ARC
8
DEFAULT_255_1_234
10
5.8024498
20
153.2417211
40
0.3688271
50
203.9077269
51
215.1312379
0
ARC
8
DEFAULT_255_1_234
10
5.7101592
20
153.1701941
40
0.2522457
50
213.9071664
51
263.8849284
0
ARC
8
DEFAULT_255_1_234
10
5.7226921
20
153.2486518
40
0.3316174
50
263.1758525
51
270.1031083
0
ARC
8
DEFAULT_255_1_234
10
5.7259013
20
153.3733365
40
0.4563091
50
269.6719807
51
279.0609165
0
ARC
8
DEFAULT_255_1_234
10
5.7525781
20
153.2120907
40
0.2928759
50
278.8750225
51
293.6346586
0
ARC
8
DEFAULT_255_1_234
10
5.7845989
20
153.13689
40
0.2111472
50
293.8553404
51
310.0518804
0
ARC
8
DEFAULT_255_1_234
10
5.7850843
20
153.1306516
40
0.2060917
50
311.0646779
51
332.0108348
0
ARC
8
DEFAULT_255_1_234
10
5.665857
20
153.1963978
40
0.3422352
50
331.6588543
51
343.2878891
0
ARC
8
DEFAULT_255_1_234
10
5.4596085
20
153.2597798
40
0.5580003
50
343.1446044
51
351.010618
0
ARC
8
DEFAULT_255_1_234
10
5.3054731
20
153.2878871
40
0.7146438
50
350.7157277
51
351.1602153
0
LINE
8
DEFAULT_255_1_234
10
23.1643817
20
158.7902327
11
23.1643817
21
158.5974709
0
LINE
8
DEFAULT_255_1_234
10
22.426265
20
158.5773916
11
22.426265
21
158.7757755
0
LINE
8
DEFAULT_255_1_234
10
23.0157946
20
158.5573123
11
23.0157946
21
158.8006739
0
LINE
8
DEFAULT_255_1_234
10
22.5748521
20
158.8119184
11
22.5748521
21
158.5741789
0
ARC
8
DEFAULT_255_1_234
10
21.9396707
20
158.5925805
40
1.2247208
50
353.8441951
51
0.2287902
0
ARC
8
DEFAULT_255_1_234
10
22.4036211
20
158.5407806
40
0.7578929
50
344.4934747
51
353.9765454
0
ARC
8
DEFAULT_255_1_234
10
22.7028801
20
158.4556981
40
0.4467846
50
329.2803592
51
344.7472793
0
ARC
8
DEFAULT_255_1_234
10
22.8021626
20
158.4012018
40
0.3336173
50
324.9352394
51
328.6160465
0
ARC
8
DEFAULT_255_1_234
10
22.8398734
20
158.3748427
40
0.2876076
50
280.580143
51
324.9173126
0
ARC
8
DEFAULT_255_1_234
10
22.7997527
20
158.5419099
40
0.4592847
50
269.5977311
51
281.6734359
0
ARC
8
DEFAULT_255_1_234
10
22.7925433
20
158.5299173
40
0.4472986
50
256.6228859
51
270.51044
0
ARC
8
DEFAULT_255_1_234
10
22.752341
20
158.3750877
40
0.2873874
50
215.8618325
51
257.2788573
0
ARC
8
DEFAULT_255_1_234
10
22.8544442
20
158.4435977
40
0.4102928
50
197.9693508
51
215.2623606
0
ARC
8
DEFAULT_255_1_234
10
23.1029558
20
158.5274709
40
0.6725652
50
187.8816417
51
198.2346507
0
ARC
8
DEFAULT_255_1_234
10
23.4987766
20
158.5846079
40
1.0724845
50
180.8976217
51
188.0055519
0
ARC
8
DEFAULT_255_1_234
10
23.7787954
20
158.5949777
40
1.3526448
50
180.7449369
51
181.1510016
0
ARC
8
DEFAULT_255_1_234
10
23.6210683
20
158.7806042
40
1.1948131
50
173.7675579
51
180.231553
0
ARC
8
DEFAULT_255_1_234
10
23.169283
20
158.8316666
40
0.7401564
50
164.3058563
51
173.9002247
0
ARC
8
DEFAULT_255_1_234
10
22.8780899
20
158.9155656
40
0.4371288
50
148.7922025
51
164.568378
0
ARC
8
DEFAULT_255_1_234
10
22.7829351
20
158.9686929
40
0.3282386
50
144.5883898
51
148.1176286
0
ARC
8
DEFAULT_255_1_234
10
22.7486249
20
158.9926315
40
0.2864044
50
101.6440918
51
144.514236
0
ARC
8
DEFAULT_255_1_234
10
22.7911315
20
158.8237069
40
0.4604934
50
89.5284041
51
102.5819763
0
ARC
8
DEFAULT_255_1_234
10
22.7990403
20
158.8198018
40
0.464401
50
77.0437873
51
90.5081339
0
ARC
8
DEFAULT_255_1_234
10
22.8392405
20
158.9840615
40
0.2953195
50
48.2778575
51
77.4994676
0
ARC
8
DEFAULT_255_1_234
10
22.8465036
20
158.9969746
40
0.2808655
50
36.3142134
51
47.6305865
0
ARC
8
DEFAULT_255_1_234
10
22.7596343
20
158.9384515
40
0.3855453
50
18.2931786
51
35.6769206
0
ARC
8
DEFAULT_255_1_234
10
22.5053102
20
158.8511593
40
0.654423
50
8.024666
51
18.5605216
0
ARC
8
DEFAULT_255_1_234
10
22.0890022
20
158.7896792
40
1.0752407
50
1.1274072
51
8.1718305
0
ARC
8
DEFAULT_255_1_234
10
21.7654213
20
158.7769885
40
1.3990231
50
0.5424119
51
1.3863029
0
ARC
8
DEFAULT_255_1_234
10
21.947559
20
158.8042342
40
1.0682415
50
359.8090433
51
4.9407866
0
ARC
8
DEFAULT_255_1_234
10
22.3685604
20
158.8418113
40
0.6455691
50
4.8362157
51
12.2904523
0
ARC
8
DEFAULT_255_1_234
10
22.6440719
20
158.9031965
40
0.3633074
50
12.0805627
51
23.8173984
0
ARC
8
DEFAULT_255_1_234
10
22.7614425
20
158.9528919
40
0.2358723
50
24.2871213
51
31.3935614
0
ARC
8
DEFAULT_255_1_234
10
22.8139122
20
158.9872233
40
0.1732111
50
30.7407893
51
82.4657128
0
ARC
8
DEFAULT_255_1_234
10
22.7959256
20
158.8988691
40
0.263235
50
81.1060089
51
90.2184952
0
ARC
8
DEFAULT_255_1_234
10
22.7923555
20
158.9246924
40
0.2374236
50
89.3806855
51
105.6762551
0
ARC
8
DEFAULT_255_1_234
10
22.7740186
20
158.9913567
40
0.1682847
50
105.7981136
51
149.7388061
0
ARC
8
DEFAULT_255_1_234
10
22.8804264
20
158.927395
40
0.2924306
50
149.4208916
51
163.6286378
0
ARC
8
DEFAULT_255_1_234
10
23.0895152
20
158.863625
40
0.5110213
50
163.3763315
51
172.1410975
0
ARC
8
DEFAULT_255_1_234
10
23.4195871
20
158.8163518
40
0.8444586
50
172.0259487
51
178.0703232
0
ARC
8
DEFAULT_255_1_234
10
23.722596
20
158.8019906
40
1.1477868
50
177.8631668
51
179.5044149
0
ARC
8
DEFAULT_255_1_234
10
23.6153365
20
158.5705389
40
1.0404907
50
179.7995573
51
185.2460446
0
ARC
8
DEFAULT_255_1_234
10
23.2110404
20
158.5322513
40
0.6343885
50
185.1411642
51
193.0079639
0
ARC
8
DEFAULT_255_1_234
10
22.9466877
20
158.4697641
40
0.3627568
50
192.7897626
51
205.2507664
0
ARC
8
DEFAULT_255_1_234
10
22.8420424
20
158.4230415
40
0.2481908
50
205.8005384
51
211.2537509
0
ARC
8
DEFAULT_255_1_234
10
22.7896864
20
158.387958
40
0.1852521
50
210.3789793
51
238.4008143
0
ARC
8
DEFAULT_255_1_234
10
22.7877386
20
158.3926376
40
0.1882621
50
239.6520629
51
265.9793761
0
ARC
8
DEFAULT_255_1_234
10
22.7962586
20
158.4598427
40
0.2559272
50
265.1315437
51
270.060332
0
ARC
8
DEFAULT_255_1_234
10
22.7991365
20
158.4274534
40
0.2235528
50
269.3314664
51
287.2178029
0
ARC
8
DEFAULT_255_1_234
10
22.8129217
20
158.3771279
40
0.1714108
50
287.7958004
51
329.080874
0
ARC
8
DEFAULT_255_1_234
10
22.7171674
20
158.436893
40
0.2842745
50
328.6634704
51
343.3325132
0
ARC
8
DEFAULT_255_1_234
10
22.4998694
20
158.5045863
40
0.5118644
50
343.0499468
51
351.9393422
0
ARC
8
DEFAULT_255_1_234
10
22.1531994
20
158.5556949
40
0.8622784
50
351.8069023
51
357.7959224
0
ARC
8
DEFAULT_255_1_234
10
21.829655
20
158.5724721
40
1.1862365
50
357.5871873
51
359.2677531
0
LINE
8
DEFAULT_255_1_234
10
23.4479021
20
159.2681211
11
23.7804161
21
158.3035093
0
LINE
8
DEFAULT_255_1_234
10
23.7804161
20
158.3035093
11
24.1145364
21
159.2681211
0
LINE
8
DEFAULT_255_1_234
10
24.1145364
20
159.2681211
11
24.2832029
21
159.2681211
0
LINE
8
DEFAULT_255_1_234
10
24.2832029
20
159.2681211
11
23.849489
21
158.0987
0
LINE
8
DEFAULT_255_1_234
10
23.849489
20
158.0987
11
23.7129495
21
158.0987
0
LINE
8
DEFAULT_255_1_234
10
23.7129495
20
158.0987
11
23.2800388
21
159.2681211
0
LINE
8
DEFAULT_255_1_234
10
23.2800388
20
159.2681211
11
23.4479021
21
159.2681211
0
LINE
8
DEFAULT_255_1_234
10
22.098023
20
31.4697663
11
22.2530355
21
31.4697663
0
LINE
8
DEFAULT_255_1_234
10
21.3526777
20
31.6287947
11
21.3526777
21
31.7412391
0
LINE
8
DEFAULT_255_1_234
10
22.2530355
20
31.8922357
11
22.098023
21
31.8922357
0
LINE
8
DEFAULT_255_1_234
10
21.5076902
20
31.7372232
11
21.5076902
21
31.6239757
0
ARC
8
DEFAULT_255_1_234
10
21.7049742
20
31.5294846
40
0.5513052
50
340.1774281
51
353.7814284
0
ARC
8
DEFAULT_255_1_234
10
21.8621095
20
31.4709582
40
0.3836379
50
311.4558989
51
340.4421614
0
ARC
8
DEFAULT_255_1_234
10
21.8587763
20
31.4820528
40
0.3941894
50
282.4333181
51
310.7513653
0
ARC
8
DEFAULT_255_1_234
10
21.8148502
20
31.6635679
40
0.5809175
50
269.9358511
51
282.809604
0
ARC
8
DEFAULT_255_1_234
10
21.8096568
20
31.8093212
40
0.7266847
50
270.0021091
51
270.3581957
0
ARC
8
DEFAULT_255_1_234
10
21.8043985
20
31.5492585
40
0.4666519
50
250.7884749
51
270.6489167
0
ARC
8
DEFAULT_255_1_234
10
21.787582
20
31.4855319
40
0.4009729
50
219.3627325
51
250.0611886
0
ARC
8
DEFAULT_255_1_234
10
21.8705031
20
31.5560042
40
0.5097822
50
193.5479632
51
219.5756669
0
ARC
8
DEFAULT_255_1_234
10
22.1076652
20
31.6175919
40
0.7547848
50
181.1218675
51
193.87563
0
ARC
8
DEFAULT_255_1_234
10
22.3146833
20
31.628658
40
0.9620055
50
179.9918545
51
181.5394234
0
ARC
8
DEFAULT_255_1_234
10
22.1295935
20
31.7449788
40
0.7769248
50
169.5837241
51
180.2757934
0
ARC
8
DEFAULT_255_1_234
10
21.9458873
20
31.7789229
40
0.590109
50
155.0365899
51
169.6003176
0
ARC
8
DEFAULT_255_1_234
10
21.8323337
20
31.8336677
40
0.4640625
50
136.783148
51
155.2472683
0
ARC
8
DEFAULT_255_1_234
10
21.7933814
20
31.8667562
40
0.4130255
50
121.7633186
51
136.428115
0
ARC
8
DEFAULT_255_1_234
10
21.8068776
20
31.8418227
40
0.4413323
50
95.6459699
51
121.5490577
0
ARC
8
DEFAULT_255_1_234
10
21.8226058
20
31.7309949
40
0.55319
50
89.924208
51
96.1377933
0
ARC
8
DEFAULT_255_1_234
10
21.8276491
20
31.7428542
40
0.5413475
50
76.6779277
51
90.4563316
0
ARC
8
DEFAULT_255_1_234
10
21.8670114
20
31.9019114
40
0.3775041
50
47.485847
51
76.9287264
0
ARC
8
DEFAULT_255_1_234
10
21.8523087
20
31.8919159
40
0.3948286
50
16.5424086
51
46.8933463
0
ARC
8
DEFAULT_255_1_234
10
21.6915244
20
31.8390861
40
0.564021
50
5.4072051
51
17.0365086
0
ARC
8
DEFAULT_255_1_234
10
21.5476261
20
31.8159679
40
0.5556559
50
7.8891745
51
15.9239216
0
ARC
8
DEFAULT_255_1_234
10
21.7463274
20
31.8736631
40
0.3487515
50
15.7653144
51
27.9410532
0
ARC
8
DEFAULT_255_1_234
10
21.8567492
20
31.932779
40
0.2235026
50
27.8166557
51
46.4008329
0
ARC
8
DEFAULT_255_1_234
10
21.8617135
20
31.9322082
40
0.2205286
50
47.4371857
51
75.0698205
0
ARC
8
DEFAULT_255_1_234
10
21.8308529
20
31.8247765
40
0.3322915
50
74.7008593
51
87.8124495
0
ARC
8
DEFAULT_255_1_234
10
21.8235217
20
31.7191844
40
0.4380987
50
87.3814673
51
90.0240855
0
ARC
8
DEFAULT_255_1_234
10
21.819676
20
31.8369291
40
0.3203749
50
89.3451631
51
108.5745436
0
ARC
8
DEFAULT_255_1_234
10
21.8059865
20
31.8882908
40
0.2673494
50
109.2998449
51
143.3037509
0
ARC
8
DEFAULT_255_1_234
10
21.8821938
20
31.8296881
40
0.3634757
50
143.0753173
51
163.1916937
0
ARC
8
DEFAULT_255_1_234
10
22.0773666
20
31.7680967
40
0.5681262
50
162.9373603
51
174.6208611
0
ARC
8
DEFAULT_255_1_234
10
22.3399708
20
31.739301
40
0.8322832
50
174.3419979
51
180.1430411
0
ARC
8
DEFAULT_255_1_234
10
22.2468864
20
31.6198698
40
0.7392076
50
179.6817502
51
189.150529
0
ARC
8
DEFAULT_255_1_234
10
21.9968112
20
31.578219
40
0.4856932
50
188.9910863
51
203.5773039
0
ARC
8
DEFAULT_255_1_234
10
21.8888445
20
31.5334211
40
0.3688271
50
203.9077269
51
215.1312379
0
ARC
8
DEFAULT_255_1_234
10
21.7965539
20
31.4618941
40
0.2522457
50
213.9071664
51
263.8849284
0
ARC
8
DEFAULT_255_1_234
10
21.8090868
20
31.5403518
40
0.3316174
50
263.1758525
51
270.1031083
0
ARC
8
DEFAULT_255_1_234
10
21.812296
20
31.6650365
40
0.4563091
50
269.6719807
51
279.0609165
0
ARC
8
DEFAULT_255_1_234
10
21.8389728
20
31.5037907
40
0.2928759
50
278.8750225
51
293.6346586
0
ARC
8
DEFAULT_255_1_234
10
21.8709936
20
31.42859
40
0.2111472
50
293.8553404
51
310.0518804
0
ARC
8
DEFAULT_255_1_234
10
21.871479
20
31.4223516
40
0.2060917
50
311.0646779
51
332.0108348
0
ARC
8
DEFAULT_255_1_234
10
21.7522517
20
31.4880978
40
0.3422352
50
331.6588543
51
343.2878891
0
ARC
8
DEFAULT_255_1_234
10
21.5460032
20
31.5514798
40
0.5580003
50
343.1446044
51
351.010618
0
ARC
8
DEFAULT_255_1_234
10
21.3918678
20
31.5795871
40
0.7146438
50
350.7157277
51
351.1602153
0
LINE
8
DEFAULT_255_1_234
10
22.9132444
20
32.2737433
11
22.9132444
21
31.0987
0
LINE
8
DEFAULT_255_1_234
10
22.9132444
20
31.0987
11
22.7638541
21
31.0987
0
LINE
8
DEFAULT_255_1_234
10
22.7638541
20
31.0987
11
22.7638541
21
32.0890133
0
LINE
8
DEFAULT_255_1_234
10
22.7638541
20
32.0890133
11
22.4642703
21
31.9789785
0
LINE
8
DEFAULT_255_1_234
10
22.4642703
20
31.9789785
11
22.4642703
21
32.1139117
0
LINE
8
DEFAULT_255_1_234
10
22.4642703
20
32.1139117
11
22.8899524
21
32.2737433
0
LINE
8
DEFAULT_255_1_234
10
22.8899524
20
32.2737433
11
22.9132444
21
32.2737433
0
LINE
8
DEFAULT_255_1_234
10
23.9758434
20
32.2681211
11
23.9758434
21
31.491452
0
LINE
8
DEFAULT_255_1_234
10
23.9758434
20
31.491452
11
24.1380845
21
31.491452
0
LINE
8
DEFAULT_255_1_234
10
24.1380845
20
31.491452
11
24.1380845
21
31.3701728
0
LINE
8
DEFAULT_255_1_234
10
24.1380845
20
31.3701728
11
23.9758434
21
31.3701728
0
LINE
8
DEFAULT_255_1_234
10
23.9758434
20
31.3701728
11
23.9758434
21
31.0987
0
LINE
8
DEFAULT_255_1_234
10
23.9758434
20
31.0987
11
23.8264531
21
31.0987
0
LINE
8
DEFAULT_255_1_234
10
23.8264531
20
31.0987
11
23.8264531
21
31.3701728
0
LINE
8
DEFAULT_255_1_234
10
23.8264531
20
31.3701728
11
23.2939488
21
31.3701728
0
LINE
8
DEFAULT_255_1_234
10
23.2939488
20
31.3701728
11
23.2939488
21
31.4577187
0
LINE
8
DEFAULT_255_1_234
10
23.2939488
20
31.4577187
11
23.8176182
21
32.2681211
0
LINE
8
DEFAULT_255_1_234
10
23.8176182
20
32.2681211
11
23.9758434
21
32.2681211
0
LINE
8
DEFAULT_255_1_234
10
23.8087833
20
32.0327912
11
23.4626153
21
31.491452
0
LINE
8
DEFAULT_255_1_234
10
23.4626153
20
31.491452
11
23.8264531
21
31.491452
0
LINE
8
DEFAULT_255_1_234
10
23.8264531
20
31.491452
11
23.8264531
21
32.0649181
0
LINE
8
DEFAULT_255_1_234
10
23.8264531
20
32.0649181
11
23.8087833
21
32.0327912
0
LINE
8
DEFAULT_255_1_234
10
22.098023
20
36.7613663
11
22.2530355
21
36.7613663
0
LINE
8
DEFAULT_255_1_234
10
21.3526777
20
36.9203947
11
21.3526777
21
37.0328391
0
LINE
8
DEFAULT_255_1_234
10
22.2530355
20
37.1838357
11
22.098023
21
37.1838357
0
LINE
8
DEFAULT_255_1_234
10
21.5076902
20
37.0288232
11
21.5076902
21
36.9155757
0
ARC
8
DEFAULT_255_1_234
10
21.7049742
20
36.8210846
40
0.5513052
50
340.1774281
51
353.7814284
0
ARC
8
DEFAULT_255_1_234
10
21.8621095
20
36.7625582
40
0.3836379
50
311.4558989
51
340.4421614
0
ARC
8
DEFAULT_255_1_234
10
21.8587763
20
36.7736528
40
0.3941894
50
282.4333181
51
310.7513653
0
ARC
8
DEFAULT_255_1_234
10
21.8148502
20
36.9551679
40
0.5809175
50
269.9358511
51
282.809604
0
ARC
8
DEFAULT_255_1_234
10
21.8096568
20
37.1009212
40
0.7266847
50
270.0021091
51
270.3581957
0
ARC
8
DEFAULT_255_1_234
10
21.8043985
20
36.8408585
40
0.4666519
50
250.7884749
51
270.6489167
0
ARC
8
DEFAULT_255_1_234
10
21.787582
20
36.7771319
40
0.4009729
50
219.3627325
51
250.0611886
0
ARC
8
DEFAULT_255_1_234
10
21.8705031
20
36.8476042
40
0.5097822
50
193.5479632
51
219.5756669
0
ARC
8
DEFAULT_255_1_234
10
22.1076652
20
36.9091919
40
0.7547848
50
181.1218675
51
193.87563
0
ARC
8
DEFAULT_255_1_234
10
22.3146833
20
36.920258
40
0.9620055
50
179.9918545
51
181.5394234
0
ARC
8
DEFAULT_255_1_234
10
22.1295935
20
37.0365788
40
0.7769248
50
169.5837241
51
180.2757934
0
ARC
8
DEFAULT_255_1_234
10
21.9458873
20
37.0705229
40
0.590109
50
155.0365899
51
169.6003176
0
ARC
8
DEFAULT_255_1_234
10
21.8323337
20
37.1252677
40
0.4640625
50
136.783148
51
155.2472683
0
ARC
8
DEFAULT_255_1_234
10
21.7933814
20
37.1583562
40
0.4130255
50
121.7633186
51
136.428115
0
ARC
8
DEFAULT_255_1_234
10
21.8068776
20
37.1334227
40
0.4413323
50
95.6459699
51
121.5490577
0
ARC
8
DEFAULT_255_1_234
10
21.8226058
20
37.0225949
40
0.55319
50
89.924208
51
96.1377933
0
ARC
8
DEFAULT_255_1_234
10
21.8276491
20
37.0344542
40
0.5413475
50
76.6779277
51
90.4563316
0
ARC
8
DEFAULT_255_1_234
10
21.8670114
20
37.1935114
40
0.3775041
50
47.485847
51
76.9287264
0
ARC
8
DEFAULT_255_1_234
10
21.8523087
20
37.1835159
40
0.3948286
50
16.5424086
51
46.8933463
0
ARC
8
DEFAULT_255_1_234
10
21.6915244
20
37.1306861
40
0.564021
50
5.4072051
51
17.0365086
0
ARC
8
DEFAULT_255_1_234
10
21.5476261
20
37.1075679
40
0.5556559
50
7.8891745
51
15.9239216
0
ARC
8
DEFAULT_255_1_234
10
21.7463274
20
37.1652631
40
0.3487515
50
15.7653144
51
27.9410532
0
ARC
8
DEFAULT_255_1_234
10
21.8567492
20
37.224379
40
0.2235026
50
27.8166557
51
46.4008329
0
ARC
8
DEFAULT_255_1_234
10
21.8617135
20
37.2238082
40
0.2205286
50
47.4371857
51
75.0698205
0
ARC
8
DEFAULT_255_1_234
10
21.8308529
20
37.1163765
40
0.3322915
50
74.7008593
51
87.8124495
0
ARC
8
DEFAULT_255_1_234
10
21.8235217
20
37.0107844
40
0.4380987
50
87.3814673
51
90.0240855
0
ARC
8
DEFAULT_255_1_234
10
21.819676
20
37.1285291
40
0.3203749
50
89.3451631
51
108.5745436
0
ARC
8
DEFAULT_255_1_234
10
21.8059865
20
37.1798908
40
0.2673494
50
109.2998449
51
143.3037509
0
ARC
8
DEFAULT_255_1_234
10
21.8821938
20
37.1212881
40
0.3634757
50
143.0753173
51
163.1916937
0
ARC
8
DEFAULT_255_1_234
10
22.0773666
20
37.0596967
40
0.5681262
50
162.9373603
51
174.6208611
0
ARC
8
DEFAULT_255_1_234
10
22.3399708
20
37.030901
40
0.8322832
50
174.3419979
51
180.1430411
0
ARC
8
DEFAULT_255_1_234
10
22.2468864
20
36.9114698
40
0.7392076
50
179.6817502
51
189.150529
0
ARC
8
DEFAULT_255_1_234
10
21.9968112
20
36.869819
40
0.4856932
50
188.9910863
51
203.5773039
0
ARC
8
DEFAULT_255_1_234
10
21.8888445
20
36.8250211
40
0.3688271
50
203.9077269
51
215.1312379
0
ARC
8
DEFAULT_255_1_234
10
21.7965539
20
36.7534941
40
0.2522457
50
213.9071664
51
263.8849284
0
ARC
8
DEFAULT_255_1_234
10
21.8090868
20
36.8319518
40
0.3316174
50
263.1758525
51
270.1031083
0
ARC
8
DEFAULT_255_1_234
10
21.812296
20
36.9566365
40
0.4563091
50
269.6719807
51
279.0609165
0
ARC
8
DEFAULT_255_1_234
10
21.8389728
20
36.7953907
40
0.2928759
50
278.8750225
51
293.6346586
0
ARC
8
DEFAULT_255_1_234
10
21.8709936
20
36.72019
40
0.2111472
50
293.8553404
51
310.0518804
0
ARC
8
DEFAULT_255_1_234
10
21.871479
20
36.7139516
40
0.2060917
50
311.0646779
51
332.0108348
0
ARC
8
DEFAULT_255_1_234
10
21.7522517
20
36.7796978
40
0.3422352
50
331.6588543
51
343.2878891
0
ARC
8
DEFAULT_255_1_234
10
21.5460032
20
36.8430798
40
0.5580003
50
343.1446044
51
351.010618
0
ARC
8
DEFAULT_255_1_234
10
21.3918678
20
36.8711871
40
0.7146438
50
350.7157277
51
351.1602153
0
LINE
8
DEFAULT_255_1_234
10
22.9132444
20
37.5653433
11
22.9132444
21
36.3903
0
LINE
8
DEFAULT_255_1_234
10
22.9132444
20
36.3903
11
22.7638541
21
36.3903
0
LINE
8
DEFAULT_255_1_234
10
22.7638541
20
36.3903
11
22.7638541
21
37.3806133
0
LINE
8
DEFAULT_255_1_234
10
22.7638541
20
37.3806133
11
22.4642703
21
37.2705785
0
LINE
8
DEFAULT_255_1_234
10
22.4642703
20
37.2705785
11
22.4642703
21
37.4055117
0
LINE
8
DEFAULT_255_1_234
10
22.4642703
20
37.4055117
11
22.8899524
21
37.5653433
0
LINE
8
DEFAULT_255_1_234
10
22.8899524
20
37.5653433
11
22.9132444
21
37.5653433
0
LINE
8
DEFAULT_255_1_234
10
23.9758434
20
37.5597211
11
23.9758434
21
36.783052
0
LINE
8
DEFAULT_255_1_234
10
23.9758434
20
36.783052
11
24.1380845
21
36.783052
0
LINE
8
DEFAULT_255_1_234
10
24.1380845
20
36.783052
11
24.1380845
21
36.6617728
0
LINE
8
DEFAULT_255_1_234
10
24.1380845
20
36.6617728
11
23.9758434
21
36.6617728
0
LINE
8
DEFAULT_255_1_234
10
23.9758434
20
36.6617728
11
23.9758434
21
36.3903
0
LINE
8
DEFAULT_255_1_234
10
23.9758434
20
36.3903
11
23.8264531
21
36.3903
0
LINE
8
DEFAULT_255_1_234
10
23.8264531
20
36.3903
11
23.8264531
21
36.6617728
0
LINE
8
DEFAULT_255_1_234
10
23.8264531
20
36.6617728
11
23.2939488
21
36.6617728
0
LINE
8
DEFAULT_255_1_234
10
23.2939488
20
36.6617728
11
23.2939488
21
36.7493187
0
LINE
8
DEFAULT_255_1_234
10
23.2939488
20
36.7493187
11
23.8176182
21
37.5597211
0
LINE
8
DEFAULT_255_1_234
10
23.8176182
20
37.5597211
11
23.9758434
21
37.5597211
0
LINE
8
DEFAULT_255_1_234
10
23.8087833
20
37.3243912
11
23.4626153
21
36.783052
0
LINE
8
DEFAULT_255_1_234
10
23.4626153
20
36.783052
11
23.8264531
21
36.783052
0
LINE
8
DEFAULT_255_1_234
10
23.8264531
20
36.783052
11
23.8264531
21
37.3565181
0
LINE
8
DEFAULT_255_1_234
10
23.8264531
20
37.3565181
11
23.8087833
21
37.3243912
0
LINE
8
DEFAULT_255_1_234
10
23.0886137
20
42.8570433
11
23.0886137
21
41.682
0
LINE
8
DEFAULT_255_1_234
10
23.0886137
20
41.682
11
22.9392234
21
41.682
0
LINE
8
DEFAULT_255_1_234
10
22.9392234
20
41.682
11
22.9392234
21
42.6723133
0
LINE
8
DEFAULT_255_1_234
10
22.9392234
20
42.6723133
11
22.6396396
21
42.5622785
0
LINE
8
DEFAULT_255_1_234
10
22.6396396
20
42.5622785
11
22.6396396
21
42.6972117
0
LINE
8
DEFAULT_255_1_234
10
22.6396396
20
42.6972117
11
23.0653217
21
42.8570433
0
LINE
8
DEFAULT_255_1_234
10
23.0653217
20
42.8570433
11
23.0886137
21
42.8570433
0
LINE
8
DEFAULT_255_1_234
10
23.7110734
20
42.2377963
11
23.5922037
21
42.2683169
0
LINE
8
DEFAULT_255_1_234
10
23.5922037
20
42.2683169
11
23.6516386
21
42.8514211
0
LINE
8
DEFAULT_255_1_234
10
23.6516386
20
42.8514211
11
24.2508063
21
42.8514211
0
LINE
8
DEFAULT_255_1_234
10
24.2508063
20
42.8514211
11
24.2508063
21
42.7140784
0
LINE
8
DEFAULT_255_1_234
10
24.2508063
20
42.7140784
11
23.7777369
21
42.7140784
0
LINE
8
DEFAULT_255_1_234
10
23.7777369
20
42.7140784
11
23.7423972
21
42.3952184
0
LINE
8
DEFAULT_255_1_234
10
23.5504387
20
41.9896156
11
23.6909941
21
41.9896156
0
LINE
8
DEFAULT_255_1_234
10
23.750429
20
42.2699232
11
23.7110734
21
42.2377963
0
ARC
8
DEFAULT_255_1_234
10
23.9278756
20
42.077223
40
0.3681349
50
93.7182161
51
120.2538958
0
ARC
8
DEFAULT_255_1_234
10
23.9373019
20
41.9964394
40
0.449379
50
89.9660152
51
94.2496022
0
ARC
8
DEFAULT_255_1_234
10
23.9413753
20
42.0553549
40
0.390482
50
73.8043271
51
90.5585896
0
ARC
8
DEFAULT_255_1_234
10
23.964865
20
42.1411602
40
0.3015334
50
41.3071453
51
73.5430202
0
ARC
8
DEFAULT_255_1_234
10
23.9232477
20
42.1053324
40
0.3564457
50
13.5075983
51
41.2174222
0
ARC
8
DEFAULT_255_1_234
10
23.7590681
20
42.0623486
40
0.5261351
50
1.1331335
51
13.8829381
0
ARC
8
DEFAULT_255_1_234
10
23.617905
20
42.0547665
40
0.6674378
50
359.9919444
51
1.544251
0
ARC
8
DEFAULT_255_1_234
10
23.7455876
20
42.050628
40
0.5397702
50
347.8572367
51
0.4293338
0
ARC
8
DEFAULT_255_1_234
10
23.9206194
20
42.0109736
40
0.3603188
50
323.673004
51
348.1672506
0
ARC
8
DEFAULT_255_1_234
10
23.9500702
20
41.9930168
40
0.3259678
50
316.8171152
51
323.1492751
0
ARC
8
DEFAULT_255_1_234
10
23.9561891
20
41.989346
40
0.3189975
50
281.8396411
51
316.5457803
0
ARC
8
DEFAULT_255_1_234
10
23.9186155
20
42.1448762
40
0.4789527
50
269.5770101
51
282.4214771
0
ARC
8
DEFAULT_255_1_234
10
23.9114966
20
42.1235125
40
0.45759
50
256.2427136
51
270.4486331
0
ARC
8
DEFAULT_255_1_234
10
23.8815869
20
42.0035229
40
0.3339303
50
228.9023911
51
256.3314342
0
ARC
8
DEFAULT_255_1_234
10
23.8742101
20
41.9918746
40
0.32031
50
193.753695
51
228.5271154
0
ARC
8
DEFAULT_255_1_234
10
23.9980055
20
42.02818
40
0.4492253
50
184.924711
51
194.497588
0
ARC
8
DEFAULT_255_1_234
10
24.0172622
20
42.0317591
40
0.3289787
50
187.3600538
51
198.6732863
0
ARC
8
DEFAULT_255_1_234
10
23.9122916
20
41.9953674
40
0.217884
50
198.4451669
51
217.794479
0
ARC
8
DEFAULT_255_1_234
10
23.8827091
20
41.9744085
40
0.1816698
50
218.2887171
51
228.5612368
0
ARC
8
DEFAULT_255_1_234
10
23.8924878
20
41.9875963
40
0.1980329
50
228.9654866
51
258.1234728
0
ARC
8
DEFAULT_255_1_234
10
23.9130588
20
42.0756833
40
0.2884748
50
257.7258293
51
270.401361
0
ARC
8
DEFAULT_255_1_234
10
23.9175474
20
42.0311821
40
0.2439788
50
269.4204404
51
286.4209037
0
ARC
8
DEFAULT_255_1_234
10
23.9323962
20
41.9772657
40
0.1880666
50
286.7251356
51
320.600362
0
ARC
8
DEFAULT_255_1_234
10
23.8940787
20
42.0083595
40
0.2374121
50
320.6712579
51
344.5441685
0
ARC
8
DEFAULT_255_1_234
10
23.7784113
20
42.0423045
40
0.3579479
50
344.2412205
51
356.7357071
0
ARC
8
DEFAULT_255_1_234
10
23.6535262
20
42.0526444
40
0.4832297
50
356.3548756
51
0.0500261
0
ARC
8
DEFAULT_255_1_234
10
23.7871771
20
42.055765
40
0.3495889
50
359.5576869
51
12.953486
0
ARC
8
DEFAULT_255_1_234
10
23.8926668
20
42.0813434
40
0.2410532
50
12.6490276
51
41.6081334
0
ARC
8
DEFAULT_255_1_234
10
23.9157039
20
42.1009321
40
0.2108218
50
41.7850273
51
85.9892764
0
ARC
8
DEFAULT_255_1_234
10
23.9033776
20
42.0196462
40
0.2928454
50
84.6957577
51
90.0676183
0
ARC
8
DEFAULT_255_1_234
10
23.901026
20
41.9527716
40
0.3597255
50
89.6804936
51
99.1614436
0
ARC
8
DEFAULT_255_1_234
10
23.8804891
20
42.0755131
40
0.235281
50
98.9830931
51
113.8908934
0
ARC
8
DEFAULT_255_1_234
10
23.8575301
20
42.1296587
40
0.176479
50
114.1950727
51
127.3641004
0
LINE
8
DEFAULT_255_1_234
10
22.9827137
20
48.1487433
11
22.9827137
21
46.9737
0
LINE
8
DEFAULT_255_1_234
10
22.9827137
20
46.9737
11
22.8333234
21
46.9737
0
LINE
8
DEFAULT_255_1_234
10
22.8333234
20
46.9737
11
22.8333234
21
47.9640133
0
LINE
8
DEFAULT_255_1_234
10
22.8333234
20
47.9640133
11
22.5337396
21
47.8539785
0
LINE
8
DEFAULT_255_1_234
10
22.5337396
20
47.8539785
11
22.5337396
21
47.9889117
0
LINE
8
DEFAULT_255_1_234
10
22.5337396
20
47.9889117
11
22.9594217
21
48.1487433
0
LINE
8
DEFAULT_255_1_234
10
22.9594217
20
48.1487433
11
22.9827137
21
48.1487433
0
LINE
8
DEFAULT_255_1_234
10
24.0453127
20
48.1431211
11
24.0453127
21
47.366452
0
LINE
8
DEFAULT_255_1_234
10
24.0453127
20
47.366452
11
24.2075538
21
47.366452
0
LINE
8
DEFAULT_255_1_234
10
24.2075538
20
47.366452
11
24.2075538
21
47.2451728
0
LINE
8
DEFAULT_255_1_234
10
24.2075538
20
47.2451728
11
24.0453127
21
47.2451728
0
LINE
8
DEFAULT_255_1_234
10
24.0453127
20
47.2451728
11
24.0453127
21
46.9737
0
LINE
8
DEFAULT_255_1_234
10
24.0453127
20
46.9737
11
23.8959224
21
46.9737
0
LINE
8
DEFAULT_255_1_234
10
23.8959224
20
46.9737
11
23.8959224
21
47.2451728
0
LINE
8
DEFAULT_255_1_234
10
23.8959224
20
47.2451728
11
23.3634181
21
47.2451728
0
LINE
8
DEFAULT_255_1_234
10
23.3634181
20
47.2451728
11
23.3634181
21
47.3327187
0
LINE
8
DEFAULT_255_1_234
10
23.3634181
20
47.3327187
11
23.8870875
21
48.1431211
0
LINE
8
DEFAULT_255_1_234
10
23.8870875
20
48.1431211
11
24.0453127
21
48.1431211
0
LINE
8
DEFAULT_255_1_234
10
23.8782525
20
47.9077912
11
23.5320846
21
47.366452
0
LINE
8
DEFAULT_255_1_234
10
23.5320846
20
47.366452
11
23.8959224
21
47.366452
0
LINE
8
DEFAULT_255_1_234
10
23.8959224
20
47.366452
11
23.8959224
21
47.9399181
0
LINE
8
DEFAULT_255_1_234
10
23.8959224
20
47.9399181
11
23.8782525
21
47.9077912
0
LINE
8
DEFAULT_255_1_234
10
22.203823
20
52.6363663
11
22.3588355
21
52.6363663
0
LINE
8
DEFAULT_255_1_234
10
21.4584777
20
52.7953947
11
21.4584777
21
52.9078391
0
LINE
8
DEFAULT_255_1_234
10
22.3588355
20
53.0588357
11
22.203823
21
53.0588357
0
LINE
8
DEFAULT_255_1_234
10
21.6134902
20
52.9038232
11
21.6134902
21
52.7905757
0
ARC
8
DEFAULT_255_1_234
10
21.8107742
20
52.6960846
40
0.5513052
50
340.1774281
51
353.7814284
0
ARC
8
DEFAULT_255_1_234
10
21.9679095
20
52.6375582
40
0.3836379
50
311.4558989
51
340.4421614
0
ARC
8
DEFAULT_255_1_234
10
21.9645763
20
52.6486528
40
0.3941894
50
282.4333181
51
310.7513653
0
ARC
8
DEFAULT_255_1_234
10
21.9206502
20
52.8301679
40
0.5809175
50
269.9358511
51
282.809604
0
ARC
8
DEFAULT_255_1_234
10
21.9154568
20
52.9759212
40
0.7266847
50
270.0021091
51
270.3581957
0
ARC
8
DEFAULT_255_1_234
10
21.9101985
20
52.7158585
40
0.4666519
50
250.7884749
51
270.6489167
0
ARC
8
DEFAULT_255_1_234
10
21.893382
20
52.6521319
40
0.4009729
50
219.3627325
51
250.0611886
0
ARC
8
DEFAULT_255_1_234
10
21.9763031
20
52.7226042
40
0.5097822
50
193.5479632
51
219.5756669
0
ARC
8
DEFAULT_255_1_234
10
22.2134652
20
52.7841919
40
0.7547848
50
181.1218675
51
193.87563
0
ARC
8
DEFAULT_255_1_234
10
22.4204833
20
52.795258
40
0.9620055
50
179.9918545
51
181.5394234
0
ARC
8
DEFAULT_255_1_234
10
22.2353935
20
52.9115788
40
0.7769248
50
169.5837241
51
180.2757934
0
ARC
8
DEFAULT_255_1_234
10
22.0516873
20
52.9455229
40
0.590109
50
155.0365899
51
169.6003176
0
ARC
8
DEFAULT_255_1_234
10
21.9381337
20
53.0002677
40
0.4640625
50
136.783148
51
155.2472683
0
ARC
8
DEFAULT_255_1_234
10
21.8991814
20
53.0333562
40
0.4130255
50
121.7633186
51
136.428115
0
ARC
8
DEFAULT_255_1_234
10
21.9126776
20
53.0084227
40
0.4413323
50
95.6459699
51
121.5490577
0
ARC
8
DEFAULT_255_1_234
10
21.9284058
20
52.8975949
40
0.55319
50
89.924208
51
96.1377933
0
ARC
8
DEFAULT_255_1_234
10
21.9334491
20
52.9094542
40
0.5413475
50
76.6779277
51
90.4563316
0
ARC
8
DEFAULT_255_1_234
10
21.9728114
20
53.0685114
40
0.3775041
50
47.485847
51
76.9287264
0
ARC
8
DEFAULT_255_1_234
10
21.9581087
20
53.0585159
40
0.3948286
50
16.5424086
51
46.8933463
0
ARC
8
DEFAULT_255_1_234
10
21.7973244
20
53.0056861
40
0.564021
50
5.4072051
51
17.0365086
0
ARC
8
DEFAULT_255_1_234
10
21.6534261
20
52.9825679
40
0.5556559
50
7.8891745
51
15.9239216
0
ARC
8
DEFAULT_255_1_234
10
21.8521274
20
53.0402631
40
0.3487515
50
15.7653144
51
27.9410532
0
ARC
8
DEFAULT_255_1_234
10
21.9625492
20
53.099379
40
0.2235026
50
27.8166557
51
46.4008329
0
ARC
8
DEFAULT_255_1_234
10
21.9675135
20
53.0988082
40
0.2205286
50
47.4371857
51
75.0698205
0
ARC
8
DEFAULT_255_1_234
10
21.9366529
20
52.9913765
40
0.3322915
50
74.7008593
51
87.8124495
0
ARC
8
DEFAULT_255_1_234
10
21.9293217
20
52.8857844
40
0.4380987
50
87.3814673
51
90.0240855
0
ARC
8
DEFAULT_255_1_234
10
21.925476
20
53.0035291
40
0.3203749
50
89.3451631
51
108.5745436
0
ARC
8
DEFAULT_255_1_234
10
21.9117865
20
53.0548908
40
0.2673494
50
109.2998449
51
143.3037509
0
ARC
8
DEFAULT_255_1_234
10
21.9879938
20
52.9962881
40
0.3634757
50
143.0753173
51
163.1916937
0
ARC
8
DEFAULT_255_1_234
10
22.1831666
20
52.9346967
40
0.5681262
50
162.9373603
51
174.6208611
0
ARC
8
DEFAULT_255_1_234
10
22.4457708
20
52.905901
40
0.8322832
50
174.3419979
51
180.1430411
0
ARC
8
DEFAULT_255_1_234
10
22.3526864
20
52.7864698
40
0.7392076
50
179.6817502
51
189.150529
0
ARC
8
DEFAULT_255_1_234
10
22.1026112
20
52.744819
40
0.4856932
50
188.9910863
51
203.5773039
0
ARC
8
DEFAULT_255_1_234
10
21.9946445
20
52.7000211
40
0.3688271
50
203.9077269
51
215.1312379
0
ARC
8
DEFAULT_255_1_234
10
21.9023539
20
52.6284941
40
0.2522457
50
213.9071664
51
263.8849284
0
ARC
8
DEFAULT_255_1_234
10
21.9148868
20
52.7069518
40
0.3316174
50
263.1758525
51
270.1031083
0
ARC
8
DEFAULT_255_1_234
10
21.918096
20
52.8316365
40
0.4563091
50
269.6719807
51
279.0609165
0
ARC
8
DEFAULT_255_1_234
10
21.9447728
20
52.6703907
40
0.2928759
50
278.8750225
51
293.6346586
0
ARC
8
DEFAULT_255_1_234
10
21.9767936
20
52.59519
40
0.2111472
50
293.8553404
51
310.0518804
0
ARC
8
DEFAULT_255_1_234
10
21.977279
20
52.5889516
40
0.2060917
50
311.0646779
51
332.0108348
0
ARC
8
DEFAULT_255_1_234
10
21.8580517
20
52.6546978
40
0.3422352
50
331.6588543
51
343.2878891
0
ARC
8
DEFAULT_255_1_234
10
21.6518032
20
52.7180798
40
0.5580003
50
343.1446044
51
351.010618
0
ARC
8
DEFAULT_255_1_234
10
21.4976678
20
52.7461871
40
0.7146438
50
350.7157277
51
351.1602153
0
LINE
8
DEFAULT_255_1_234
10
23.0190444
20
53.4403433
11
23.0190444
21
52.2653
0
LINE
8
DEFAULT_255_1_234
10
23.0190444
20
52.2653
11
22.8696541
21
52.2653
0
LINE
8
DEFAULT_255_1_234
10
22.8696541
20
52.2653
11
22.8696541
21
53.2556133
0
LINE
8
DEFAULT_255_1_234
10
22.8696541
20
53.2556133
11
22.5700703
21
53.1455785
0
LINE
8
DEFAULT_255_1_234
10
22.5700703
20
53.1455785
11
22.5700703
21
53.2805117
0
LINE
8
DEFAULT_255_1_234
10
22.5700703
20
53.2805117
11
22.9957524
21
53.4403433
0
LINE
8
DEFAULT_255_1_234
10
22.9957524
20
53.4403433
11
23.0190444
21
53.4403433
0
LINE
8
DEFAULT_255_1_234
10
23.6704184
20
52.8010169
11
23.6704184
21
52.9222962
0
LINE
8
DEFAULT_255_1_234
10
23.6704184
20
52.9222962
11
23.7820596
21
52.9222962
0
LINE
8
DEFAULT_255_1_234
10
23.5917074
20
53.1279087
11
23.4431202
21
53.1279087
0
LINE
8
DEFAULT_255_1_234
10
23.432679
20
52.5737188
11
23.5820693
21
52.5737188
0
LINE
8
DEFAULT_255_1_234
10
23.7820596
20
52.8010169
11
23.6704184
21
52.8010169
0
ARC
8
DEFAULT_255_1_234
10
23.7791462
20
53.2615713
40
0.3392876
50
270.4919872
51
281.8951556
0
ARC
8
DEFAULT_255_1_234
10
23.8032724
20
53.1513702
40
0.2264817
50
281.6691735
51
301.2943132
0
ARC
8
DEFAULT_255_1_234
10
23.8202934
20
53.1202304
40
0.1910381
50
301.7833094
51
311.7545298
0
ARC
8
DEFAULT_255_1_234
10
23.829451
20
53.1100748
40
0.1773635
50
311.7323931
51
354.2802411
0
ARC
8
DEFAULT_255_1_234
10
23.7568135
20
53.1225722
40
0.2509385
50
353.0937916
51
0.1181479
0
ARC
8
DEFAULT_255_1_234
10
23.710692
20
53.1273386
40
0.2970898
50
359.1805295
51
15.0453146
0
ARC
8
DEFAULT_255_1_234
10
23.8452757
20
53.1665992
40
0.1569564
50
13.9577229
51
77.6713066
0
ARC
8
DEFAULT_255_1_234
10
23.8066286
20
53.0280949
40
0.3006298
50
76.1116566
51
90.7026153
0
ARC
8
DEFAULT_255_1_234
10
23.8007124
20
53.0554545
40
0.2732568
50
89.5324876
51
103.531937
0
ARC
8
DEFAULT_255_1_234
10
23.7806569
20
53.1353884
40
0.1908508
50
103.2931773
51
133.5619022
0
ARC
8
DEFAULT_255_1_234
10
23.7762057
20
53.1413375
40
0.1834746
50
133.8349307
51
173.5344437
0
ARC
8
DEFAULT_255_1_234
10
23.84851
20
53.1285213
40
0.2568033
50
172.5096846
51
180.1366907
0
ARC
8
DEFAULT_255_1_234
10
23.7533994
20
53.1319622
40
0.3103056
50
155.3484492
51
180.7484736
0
ARC
8
DEFAULT_255_1_234
10
23.7485083
20
53.1290846
40
0.3070957
50
131.5744599
51
154.4798489
0
ARC
8
DEFAULT_255_1_234
10
23.779823
20
53.097431
40
0.3515643
50
96.9875458
51
131.9690667
0
ARC
8
DEFAULT_255_1_234
10
23.801771
20
52.9728636
40
0.4779224
50
89.8596053
51
97.7825159
0
ARC
8
DEFAULT_255_1_234
10
23.8065773
20
52.9466616
40
0.5041361
50
78.3655447
51
90.4131539
0
ARC
8
DEFAULT_255_1_234
10
23.8423691
20
53.1125887
40
0.3344039
50
56.6229102
51
78.638727
0
ARC
8
DEFAULT_255_1_234
10
23.8638635
20
53.1501805
40
0.2912001
50
47.0253525
51
56.0854072
0
ARC
8
DEFAULT_255_1_234
10
23.8658415
20
53.1541223
40
0.2869704
50
10.9208013
51
46.7778124
0
ARC
8
DEFAULT_255_1_234
10
23.7294482
20
53.1225857
40
0.426899
50
359.6364486
51
11.6087304
0
ARC
8
DEFAULT_255_1_234
10
23.9129326
20
53.1210752
40
0.243409
50
332.3549906
51
359.7179418
0
ARC
8
DEFAULT_255_1_234
10
23.8478927
20
53.1519142
40
0.3153459
50
325.2333722
51
332.8745602
0
ARC
8
DEFAULT_255_1_234
10
23.8631551
20
53.1412828
40
0.2967456
50
292.9802137
51
325.2392345
0
ARC
8
DEFAULT_255_1_234
10
23.8356925
20
53.1946863
40
0.3566604
50
292.5402179
51
293.6924929
0
ARC
8
DEFAULT_255_1_234
10
23.8749521
20
52.5492091
40
0.3307468
50
57.6435486
51
72.8625112
0
ARC
8
DEFAULT_255_1_234
10
23.910402
20
52.6066549
40
0.2632492
50
36.7248896
51
57.4697979
0
ARC
8
DEFAULT_255_1_234
10
23.9092653
20
52.607922
40
0.2634081
50
8.0545065
51
36.356114
0
ARC
8
DEFAULT_255_1_234
10
23.8229838
20
52.5924174
40
0.3510261
50
359.8320645
51
8.5869982
0
ARC
8
DEFAULT_255_1_234
10
23.7854614
20
52.5876101
40
0.3885653
50
343.9829931
51
0.5571613
0
ARC
8
DEFAULT_255_1_234
10
23.8740812
20
52.5633438
40
0.2966924
50
311.6359546
51
343.7651759
0
ARC
8
DEFAULT_255_1_234
10
23.8362381
20
52.6060102
40
0.3537231
50
279.7829875
51
311.6255694
0
ARC
8
DEFAULT_255_1_234
10
23.8061157
20
52.749728
40
0.5004971
50
269.7286406
51
280.3856417
0
ARC
8
DEFAULT_255_1_234
10
23.799923
20
52.7455996
40
0.4963778
50
256.6828919
51
270.4412052
0
ARC
8
DEFAULT_255_1_234
10
23.7660525
20
52.6071394
40
0.3538406
50
229.4223008
51
256.8556159
0
ARC
8
DEFAULT_255_1_234
10
23.7245918
20
52.5604736
40
0.2914296
50
181.818294
51
229.6455059
0
ARC
8
DEFAULT_255_1_234
10
23.8285874
20
52.5735496
40
0.3959084
50
179.9755256
51
183.2323064
0
ARC
8
DEFAULT_255_1_234
10
23.811362
20
52.5715037
40
0.2293034
50
179.4465117
51
196.2869258
0
ARC
8
DEFAULT_255_1_234
10
23.7626028
20
52.5581651
40
0.1787621
50
196.5661473
51
227.705904
0
ARC
8
DEFAULT_255_1_234
10
23.7790123
20
52.5765155
40
0.2033784
50
227.7652068
51
257.8762805
0
ARC
8
DEFAULT_255_1_234
10
23.8015093
20
52.6708156
40
0.3003081
50
257.4584385
51
270.426602
0
ARC
8
DEFAULT_255_1_234
10
23.8060659
20
52.6997996
40
0.329292
50
269.5962073
51
280.8789248
0
ARC
8
DEFAULT_255_1_234
10
23.8290188
20
52.5851685
40
0.2123908
50
280.6346389
51
299.8595945
0
ARC
8
DEFAULT_255_1_234
10
23.8481095
20
52.5489212
40
0.171457
50
300.3576302
51
314.5517981
0
ARC
8
DEFAULT_255_1_234
10
23.8398155
20
52.5549919
40
0.1816095
50
315.0728369
51
345.0431014
0
ARC
8
DEFAULT_255_1_234
10
23.7474969
20
52.5818841
40
0.2777492
50
344.5986631
51
357.9269593
0
ARC
8
DEFAULT_255_1_234
10
23.6579296
20
52.5880276
40
0.3674917
50
357.4748886
51
0.0231117
0
ARC
8
DEFAULT_255_1_234
10
23.7602405
20
52.5904679
40
0.2651907
50
359.5047933
51
13.4239635
0
ARC
8
DEFAULT_255_1_234
10
23.8469049
20
52.6126478
40
0.1757509
50
12.9498199
51
48.7551375
0
ARC
8
DEFAULT_255_1_234
10
23.8286783
20
52.58774
40
0.2065134
50
49.5088623
51
72.1836453
0
ARC
8
DEFAULT_255_1_234
10
23.7928935
20
52.4815291
40
0.3185836
50
71.9010081
51
84.3554254
0
ARC
8
DEFAULT_255_1_234
10
23.7767567
20
52.3454326
40
0.4556151
50
84.0193428
51
89.333121
0
LINE
8
DEFAULT_255_1_234
10
23.0886137
20
58.7320433
11
23.0886137
21
57.557
0
LINE
8
DEFAULT_255_1_234
10
23.0886137
20
57.557
11
22.9392234
21
57.557
0
LINE
8
DEFAULT_255_1_234
10
22.9392234
20
57.557
11
22.9392234
21
58.5473133
0
LINE
8
DEFAULT_255_1_234
10
22.9392234
20
58.5473133
11
22.6396396
21
58.4372785
0
LINE
8
DEFAULT_255_1_234
10
22.6396396
20
58.4372785
11
22.6396396
21
58.5722117
0
LINE
8
DEFAULT_255_1_234
10
22.6396396
20
58.5722117
11
23.0653217
21
58.7320433
0
LINE
8
DEFAULT_255_1_234
10
23.0653217
20
58.7320433
11
23.0886137
21
58.7320433
0
LINE
8
DEFAULT_255_1_234
10
23.7399877
20
58.0927169
11
23.7399877
21
58.2139962
0
LINE
8
DEFAULT_255_1_234
10
23.7399877
20
58.2139962
11
23.8516289
21
58.2139962
0
LINE
8
DEFAULT_255_1_234
10
23.6612767
20
58.4196087
11
23.5126895
21
58.4196087
0
LINE
8
DEFAULT_255_1_234
10
23.5022482
20
57.8654188
11
23.6516386
21
57.8654188
0
LINE
8
DEFAULT_255_1_234
10
23.8516289
20
58.0927169
11
23.7399877
21
58.0927169
0
ARC
8
DEFAULT_255_1_234
10
23.8487155
20
58.5532713
40
0.3392876
50
270.4919872
51
281.8951556
0
ARC
8
DEFAULT_255_1_234
10
23.8728417
20
58.4430702
40
0.2264817
50
281.6691735
51
301.2943132
0
ARC
8
DEFAULT_255_1_234
10
23.8898627
20
58.4119304
40
0.1910381
50
301.7833094
51
311.7545298
0
ARC
8
DEFAULT_255_1_234
10
23.8990203
20
58.4017748
40
0.1773635
50
311.7323931
51
354.2802411
0
ARC
8
DEFAULT_255_1_234
10
23.8263828
20
58.4142722
40
0.2509385
50
353.0937916
51
0.1181479
0
ARC
8
DEFAULT_255_1_234
10
23.7802613
20
58.4190386
40
0.2970898
50
359.1805295
51
15.0453146
0
ARC
8
DEFAULT_255_1_234
10
23.914845
20
58.4582992
40
0.1569564
50
13.9577229
51
77.6713066
0
ARC
8
DEFAULT_255_1_234
10
23.8761979
20
58.3197949
40
0.3006298
50
76.1116566
51
90.7026153
0
ARC
8
DEFAULT_255_1_234
10
23.8702817
20
58.3471545
40
0.2732568
50
89.5324876
51
103.531937
0
ARC
8
DEFAULT_255_1_234
10
23.8502261
20
58.4270884
40
0.1908508
50
103.2931773
51
133.5619022
0
ARC
8
DEFAULT_255_1_234
10
23.845775
20
58.4330375
40
0.1834746
50
133.8349307
51
173.5344437
0
ARC
8
DEFAULT_255_1_234
10
23.9180793
20
58.4202213
40
0.2568033
50
172.5096846
51
180.1366907
0
ARC
8
DEFAULT_255_1_234
10
23.8229687
20
58.4236622
40
0.3103056
50
155.3484492
51
180.7484736
0
ARC
8
DEFAULT_255_1_234
10
23.8180776
20
58.4207846
40
0.3070957
50
131.5744599
51
154.4798489
0
ARC
8
DEFAULT_255_1_234
10
23.8493923
20
58.389131
40
0.3515643
50
96.9875458
51
131.9690667
0
ARC
8
DEFAULT_255_1_234
10
23.8713403
20
58.2645636
40
0.4779224
50
89.8596053
51
97.7825159
0
ARC
8
DEFAULT_255_1_234
10
23.8761466
20
58.2383616
40
0.5041361
50
78.3655447
51
90.4131539
0
ARC
8
DEFAULT_255_1_234
10
23.9119384
20
58.4042887
40
0.3344039
50
56.6229102
51
78.638727
0
ARC
8
DEFAULT_255_1_234
10
23.9334328
20
58.4418805
40
0.2912001
50
47.0253525
51
56.0854072
0
ARC
8
DEFAULT_255_1_234
10
23.9354108
20
58.4458223
40
0.2869704
50
10.9208013
51
46.7778124
0
ARC
8
DEFAULT_255_1_234
10
23.7990174
20
58.4142857
40
0.426899
50
359.6364486
51
11.6087304
0
ARC
8
DEFAULT_255_1_234
10
23.9825018
20
58.4127752
40
0.243409
50
332.3549906
51
359.7179418
0
ARC
8
DEFAULT_255_1_234
10
23.917462
20
58.4436142
40
0.3153459
50
325.2333722
51
332.8745602
0
ARC
8
DEFAULT_255_1_234
10
23.9327244
20
58.4329828
40
0.2967456
50
292.9802137
51
325.2392345
0
ARC
8
DEFAULT_255_1_234
10
23.9052617
20
58.4863863
40
0.3566604
50
292.5402179
51
293.6924929
0
ARC
8
DEFAULT_255_1_234
10
23.9445213
20
57.8409091
40
0.3307468
50
57.6435486
51
72.8625112
0
ARC
8
DEFAULT_255_1_234
10
23.9799713
20
57.8983549
40
0.2632492
50
36.7248896
51
57.4697979
0
ARC
8
DEFAULT_255_1_234
10
23.9788346
20
57.899622
40
0.2634081
50
8.0545065
51
36.356114
0
ARC
8
DEFAULT_255_1_234
10
23.8925531
20
57.8841174
40
0.3510261
50
359.8320645
51
8.5869982
0
ARC
8
DEFAULT_255_1_234
10
23.8550307
20
57.8793101
40
0.3885653
50
343.9829931
51
0.5571613
0
ARC
8
DEFAULT_255_1_234
10
23.9436504
20
57.8550438
40
0.2966924
50
311.6359546
51
343.7651759
0
ARC
8
DEFAULT_255_1_234
10
23.9058074
20
57.8977102
40
0.3537231
50
279.7829875
51
311.6255694
0
ARC
8
DEFAULT_255_1_234
10
23.875685
20
58.041428
40
0.5004971
50
269.7286406
51
280.3856417
0
ARC
8
DEFAULT_255_1_234
10
23.8694922
20
58.0372996
40
0.4963778
50
256.6828919
51
270.4412052
0
ARC
8
DEFAULT_255_1_234
10
23.8356218
20
57.8988394
40
0.3538406
50
229.4223008
51
256.8556159
0
ARC
8
DEFAULT_255_1_234
10
23.7941611
20
57.8521736
40
0.2914296
50
181.818294
51
229.6455059
0
ARC
8
DEFAULT_255_1_234
10
23.8981567
20
57.8652496
40
0.3959084
50
179.9755256
51
183.2323064
0
ARC
8
DEFAULT_255_1_234
10
23.8809313
20
57.8632037
40
0.2293034
50
179.4465117
51
196.2869258
0
ARC
8
DEFAULT_255_1_234
10
23.8321721
20
57.8498651
40
0.1787621
50
196.5661473
51
227.705904
0
ARC
8
DEFAULT_255_1_234
10
23.8485816
20
57.8682155
40
0.2033784
50
227.7652068
51
257.8762805
0
ARC
8
DEFAULT_255_1_234
10
23.8710786
20
57.9625156
40
0.3003081
50
257.4584385
51
270.426602
0
ARC
8
DEFAULT_255_1_234
10
23.8756352
20
57.9914996
40
0.329292
50
269.5962073
51
280.8789248
0
ARC
8
DEFAULT_255_1_234
10
23.8985881
20
57.8768685
40
0.2123908
50
280.6346389
51
299.8595945
0
ARC
8
DEFAULT_255_1_234
10
23.9176788
20
57.8406212
40
0.171457
50
300.3576302
51
314.5517981
0
ARC
8
DEFAULT_255_1_234
10
23.9093848
20
57.8466919
40
0.1816095
50
315.0728369
51
345.0431014
0
ARC
8
DEFAULT_255_1_234
10
23.8170662
20
57.8735841
40
0.2777492
50
344.5986631
51
357.9269593
0
ARC
8
DEFAULT_255_1_234
10
23.7274989
20
57.8797276
40
0.3674917
50
357.4748886
51
0.0231117
0
ARC
8
DEFAULT_255_1_234
10
23.8298098
20
57.8821679
40
0.2651907
50
359.5047933
51
13.4239635
0
ARC
8
DEFAULT_255_1_234
10
23.9164741
20
57.9043478
40
0.1757509
50
12.9498199
51
48.7551375
0
ARC
8
DEFAULT_255_1_234
10
23.8982475
20
57.87944
40
0.2065134
50
49.5088623
51
72.1836453
0
ARC
8
DEFAULT_255_1_234
10
23.8624628
20
57.7732291
40
0.3185836
50
71.9010081
51
84.3554254
0
ARC
8
DEFAULT_255_1_234
10
23.846326
20
57.6371326
40
0.4556151
50
84.0193428
51
89.333121
0
LINE
8
DEFAULT_255_1_234
10
23.0886137
20
64.0237433
11
23.0886137
21
62.8487
0
LINE
8
DEFAULT_255_1_234
10
23.0886137
20
62.8487
11
22.9392234
21
62.8487
0
LINE
8
DEFAULT_255_1_234
10
22.9392234
20
62.8487
11
22.9392234
21
63.8390133
0
LINE
8
DEFAULT_255_1_234
10
22.9392234
20
63.8390133
11
22.6396396
21
63.7289785
0
LINE
8
DEFAULT_255_1_234
10
22.6396396
20
63.7289785
11
22.6396396
21
63.8639117
0
LINE
8
DEFAULT_255_1_234
10
22.6396396
20
63.8639117
11
23.0653217
21
64.0237433
0
LINE
8
DEFAULT_255_1_234
10
23.0653217
20
64.0237433
11
23.0886137
21
64.0237433
0
LINE
8
DEFAULT_255_1_234
10
24.2901618
20
62.9699792
11
24.2901618
21
62.8487
0
LINE
8
DEFAULT_255_1_234
10
24.2901618
20
62.8487
11
23.5239339
21
62.8487
0
LINE
8
DEFAULT_255_1_234
10
23.5239339
20
62.8487
11
23.5239339
21
62.9555221
0
LINE
8
DEFAULT_255_1_234
10
23.5239339
20
62.9555221
11
23.9287335
21
63.4052995
0
LINE
8
DEFAULT_255_1_234
10
23.6500322
20
63.6735595
11
23.5014451
21
63.6735595
0
LINE
8
DEFAULT_255_1_234
10
24.0162795
20
63.3097218
11
23.7030417
21
62.9699792
0
LINE
8
DEFAULT_255_1_234
10
23.7030417
20
62.9699792
11
24.2901618
21
62.9699792
0
ARC
8
DEFAULT_255_1_234
10
22.5797169
20
64.5982527
40
1.8008286
50
318.5132453
51
320.7828378
0
ARC
8
DEFAULT_255_1_234
10
23.1084143
20
64.1679426
40
1.1191493
50
320.7372736
51
323.9737074
0
ARC
8
DEFAULT_255_1_234
10
23.5004
20
63.8839361
40
0.6350923
50
323.8961724
51
328.6421089
0
ARC
8
DEFAULT_255_1_234
10
23.7050595
20
63.7577031
40
0.3946393
50
328.8299013
51
331.789948
0
ARC
8
DEFAULT_255_1_234
10
23.8047774
20
63.7062509
40
0.2824501
50
331.4255242
51
352.9364833
0
ARC
8
DEFAULT_255_1_234
10
23.8184274
20
63.7031976
40
0.2685315
50
353.2248685
51
0.0169286
0
ARC
8
DEFAULT_255_1_234
10
23.8394151
20
63.705495
40
0.2475536
50
359.4866256
51
15.9339782
0
ARC
8
DEFAULT_255_1_234
10
23.8901136
20
63.7191286
40
0.1950618
50
16.1714718
51
43.5284424
0
ARC
8
DEFAULT_255_1_234
10
23.8978445
20
63.7268573
40
0.184134
50
43.4415429
51
83.1661404
0
ARC
8
DEFAULT_255_1_234
10
23.8844363
20
63.6531771
40
0.258926
50
82.160215
51
90.1505798
0
ARC
8
DEFAULT_255_1_234
10
23.881279
20
63.5994865
40
0.3126255
50
89.5460705
51
102.5418777
0
ARC
8
DEFAULT_255_1_234
10
23.8569876
20
63.7025665
40
0.2067346
50
102.1739365
51
129.2061916
0
ARC
8
DEFAULT_255_1_234
10
23.8490948
20
63.7150094
40
0.1921118
50
129.7279328
51
135.7542026
0
ARC
8
DEFAULT_255_1_234
10
23.8612476
20
63.7053045
40
0.2075944
50
136.175737
51
166.3674722
0
ARC
8
DEFAULT_255_1_234
10
23.9619395
20
63.6783182
40
0.3118201
50
165.9092917
51
178.8683903
0
ARC
8
DEFAULT_255_1_234
10
24.0484256
20
63.6736179
40
0.3983935
50
178.438168
51
180.0083905
0
ARC
8
DEFAULT_255_1_234
10
23.9082859
20
63.6775231
40
0.4068601
50
163.2878735
51
180.5581814
0
ARC
8
DEFAULT_255_1_234
10
23.828112
20
63.699584
40
0.3237344
50
133.454115
51
162.9470031
0
ARC
8
DEFAULT_255_1_234
10
23.8459661
20
63.6806
40
0.349795
50
100.7869394
51
133.4384016
0
ARC
8
DEFAULT_255_1_234
10
23.8807433
20
63.5257319
40
0.5084616
50
89.6605301
51
101.3704185
0
ARC
8
DEFAULT_255_1_234
10
23.8873772
20
63.5318496
40
0.502348
50
78.2171172
51
90.4130393
0
ARC
8
DEFAULT_255_1_234
10
23.922885
20
63.6942637
40
0.3361092
50
55.9268222
51
78.4888551
0
ARC
8
DEFAULT_255_1_234
10
23.942529
20
63.7281324
40
0.2970617
50
47.9292255
51
55.4054003
0
ARC
8
DEFAULT_255_1_234
10
23.9526851
20
63.7384502
40
0.2825983
50
4.3347696
51
48.0560701
0
ARC
8
DEFAULT_255_1_234
10
23.8431244
20
63.7214601
40
0.393225
50
359.925209
51
5.5967654
0
ARC
8
DEFAULT_255_1_234
10
23.8860136
20
63.7270816
40
0.3503892
50
337.8914096
51
358.9967724
0
ARC
8
DEFAULT_255_1_234
10
23.6146548
20
63.8317706
40
0.6412172
50
326.9135351
51
338.3505194
0
ARC
8
DEFAULT_255_1_234
10
23.2160852
20
64.0872284
40
1.1146189
50
319.6472867
51
327.095818
0
ARC
8
DEFAULT_255_1_234
10
22.8327855
20
64.4034
40
1.6114559
50
317.2586784
51
319.9046139
0
LINE
8
DEFAULT_255_1_234
10
22.203823
20
68.5113663
11
22.3588355
21
68.5113663
0
LINE
8
DEFAULT_255_1_234
10
21.4584777
20
68.6703947
11
21.4584777
21
68.7828391
0
LINE
8
DEFAULT_255_1_234
10
22.3588355
20
68.9338357
11
22.203823
21
68.9338357
0
LINE
8
DEFAULT_255_1_234
10
21.6134902
20
68.7788232
11
21.6134902
21
68.6655757
0
ARC
8
DEFAULT_255_1_234
10
21.8107742
20
68.5710846
40
0.5513052
50
340.1774281
51
353.7814284
0
ARC
8
DEFAULT_255_1_234
10
21.9679095
20
68.5125582
40
0.3836379
50
311.4558989
51
340.4421614
0
ARC
8
DEFAULT_255_1_234
10
21.9645763
20
68.5236528
40
0.3941894
50
282.4333181
51
310.7513653
0
ARC
8
DEFAULT_255_1_234
10
21.9206502
20
68.7051679
40
0.5809175
50
269.9358511
51
282.809604
0
ARC
8
DEFAULT_255_1_234
10
21.9154568
20
68.8509212
40
0.7266847
50
270.0021091
51
270.3581957
0
ARC
8
DEFAULT_255_1_234
10
21.9101985
20
68.5908585
40
0.4666519
50
250.7884749
51
270.6489167
0
ARC
8
DEFAULT_255_1_234
10
21.893382
20
68.5271319
40
0.4009729
50
219.3627325
51
250.0611886
0
ARC
8
DEFAULT_255_1_234
10
21.9763031
20
68.5976042
40
0.5097822
50
193.5479632
51
219.5756669
0
ARC
8
DEFAULT_255_1_234
10
22.2134652
20
68.6591919
40
0.7547848
50
181.1218675
51
193.87563
0
ARC
8
DEFAULT_255_1_234
10
22.4204833
20
68.670258
40
0.9620055
50
179.9918545
51
181.5394234
0
ARC
8
DEFAULT_255_1_234
10
22.2353935
20
68.7865788
40
0.7769248
50
169.5837241
51
180.2757934
0
ARC
8
DEFAULT_255_1_234
10
22.0516873
20
68.8205229
40
0.590109
50
155.0365899
51
169.6003176
0
ARC
8
DEFAULT_255_1_234
10
21.9381337
20
68.8752677
40
0.4640625
50
136.783148
51
155.2472683
0
ARC
8
DEFAULT_255_1_234
10
21.8991814
20
68.9083562
40
0.4130255
50
121.7633186
51
136.428115
0
ARC
8
DEFAULT_255_1_234
10
21.9126776
20
68.8834227
40
0.4413323
50
95.6459699
51
121.5490577
0
ARC
8
DEFAULT_255_1_234
10
21.9284058
20
68.7725949
40
0.55319
50
89.924208
51
96.1377933
0
ARC
8
DEFAULT_255_1_234
10
21.9334491
20
68.7844542
40
0.5413475
50
76.6779277
51
90.4563316
0
ARC
8
DEFAULT_255_1_234
10
21.9728114
20
68.9435114
40
0.3775041
50
47.485847
51
76.9287264
0
ARC
8
DEFAULT_255_1_234
10
21.9581087
20
68.9335159
40
0.3948286
50
16.5424086
51
46.8933463
0
ARC
8
DEFAULT_255_1_234
10
21.7973244
20
68.8806861
40
0.564021
50
5.4072051
51
17.0365086
0
ARC
8
DEFAULT_255_1_234
10
21.6534261
20
68.8575679
40
0.5556559
50
7.8891745
51
15.9239216
0
ARC
8
DEFAULT_255_1_234
10
21.8521274
20
68.9152631
40
0.3487515
50
15.7653144
51
27.9410532
0
ARC
8
DEFAULT_255_1_234
10
21.9625492
20
68.974379
40
0.2235026
50
27.8166557
51
46.4008329
0
ARC
8
DEFAULT_255_1_234
10
21.9675135
20
68.9738082
40
0.2205286
50
47.4371857
51
75.0698205
0
ARC
8
DEFAULT_255_1_234
10
21.9366529
20
68.8663765
40
0.3322915
50
74.7008593
51
87.8124495
0
ARC
8
DEFAULT_255_1_234
10
21.9293217
20
68.7607844
40
0.4380987
50
87.3814673
51
90.0240855
0
ARC
8
DEFAULT_255_1_234
10
21.925476
20
68.8785291
40
0.3203749
50
89.3451631
51
108.5745436
0
ARC
8
DEFAULT_255_1_234
10
21.9117865
20
68.9298908
40
0.2673494
50
109.2998449
51
143.3037509
0
ARC
8
DEFAULT_255_1_234
10
21.9879938
20
68.8712881
40
0.3634757
50
143.0753173
51
163.1916937
0
ARC
8
DEFAULT_255_1_234
10
22.1831666
20
68.8096967
40
0.5681262
50
162.9373603
51
174.6208611
0
ARC
8
DEFAULT_255_1_234
10
22.4457708
20
68.780901
40
0.8322832
50
174.3419979
51
180.1430411
0
ARC
8
DEFAULT_255_1_234
10
22.3526864
20
68.6614698
40
0.7392076
50
179.6817502
51
189.150529
0
ARC
8
DEFAULT_255_1_234
10
22.1026112
20
68.619819
40
0.4856932
50
188.9910863
51
203.5773039
0
ARC
8
DEFAULT_255_1_234
10
21.9946445
20
68.5750211
40
0.3688271
50
203.9077269
51
215.1312379
0
ARC
8
DEFAULT_255_1_234
10
21.9023539
20
68.5034941
40
0.2522457
50
213.9071664
51
263.8849284
0
ARC
8
DEFAULT_255_1_234
10
21.9148868
20
68.5819518
40
0.3316174
50
263.1758525
51
270.1031083
0
ARC
8
DEFAULT_255_1_234
10
21.918096
20
68.7066365
40
0.4563091
50
269.6719807
51
279.0609165
0
ARC
8
DEFAULT_255_1_234
10
21.9447728
20
68.5453907
40
0.2928759
50
278.8750225
51
293.6346586
0
ARC
8
DEFAULT_255_1_234
10
21.9767936
20
68.47019
40
0.2111472
50
293.8553404
51
310.0518804
0
ARC
8
DEFAULT_255_1_234
10
21.977279
20
68.4639516
40
0.2060917
50
311.0646779
51
332.0108348
0
ARC
8
DEFAULT_255_1_234
10
21.8580517
20
68.5296978
40
0.3422352
50
331.6588543
51
343.2878891
0
ARC
8
DEFAULT_255_1_234
10
21.6518032
20
68.5930798
40
0.5580003
50
343.1446044
51
351.010618
0
ARC
8
DEFAULT_255_1_234
10
21.4976678
20
68.6211871
40
0.7146438
50
350.7157277
51
351.1602153
0
LINE
8
DEFAULT_255_1_234
10
23.0190444
20
69.3153433
11
23.0190444
21
68.1403
0
LINE
8
DEFAULT_255_1_234
10
23.0190444
20
68.1403
11
22.8696541
21
68.1403
0
LINE
8
DEFAULT_255_1_234
10
22.8696541
20
68.1403
11
22.8696541
21
69.1306133
0
LINE
8
DEFAULT_255_1_234
10
22.8696541
20
69.1306133
11
22.5700703
21
69.0205785
0
LINE
8
DEFAULT_255_1_234
10
22.5700703
20
69.0205785
11
22.5700703
21
69.1555117
0
LINE
8
DEFAULT_255_1_234
10
22.5700703
20
69.1555117
11
22.9957524
21
69.3153433
0
LINE
8
DEFAULT_255_1_234
10
22.9957524
20
69.3153433
11
23.0190444
21
69.3153433
0
LINE
8
DEFAULT_255_1_234
10
24.2205925
20
68.2615792
11
24.2205925
21
68.1403
0
LINE
8
DEFAULT_255_1_234
10
24.2205925
20
68.1403
11
23.4543646
21
68.1403
0
LINE
8
DEFAULT_255_1_234
10
23.4543646
20
68.1403
11
23.4543646
21
68.2471221
0
LINE
8
DEFAULT_255_1_234
10
23.4543646
20
68.2471221
11
23.8591643
21
68.6968995
0
LINE
8
DEFAULT_255_1_234
10
23.5804629
20
68.9651595
11
23.4318758
21
68.9651595
0
LINE
8
DEFAULT_255_1_234
10
23.9467102
20
68.6013218
11
23.6334724
21
68.2615792
0
LINE
8
DEFAULT_255_1_234
10
23.6334724
20
68.2615792
11
24.2205925
21
68.2615792
0
ARC
8
DEFAULT_255_1_234
10
22.5101476
20
69.8898527
40
1.8008286
50
318.5132453
51
320.7828378
0
ARC
8
DEFAULT_255_1_234
10
23.038845
20
69.4595426
40
1.1191493
50
320.7372736
51
323.9737074
0
ARC
8
DEFAULT_255_1_234
10
23.4308307
20
69.1755361
40
0.6350923
50
323.8961724
51
328.6421089
0
ARC
8
DEFAULT_255_1_234
10
23.6354902
20
69.0493031
40
0.3946393
50
328.8299013
51
331.789948
0
ARC
8
DEFAULT_255_1_234
10
23.7352081
20
68.9978509
40
0.2824501
50
331.4255242
51
352.9364833
0
ARC
8
DEFAULT_255_1_234
10
23.7488581
20
68.9947976
40
0.2685315
50
353.2248685
51
0.0169286
0
ARC
8
DEFAULT_255_1_234
10
23.7698458
20
68.997095
40
0.2475536
50
359.4866256
51
15.9339782
0
ARC
8
DEFAULT_255_1_234
10
23.8205443
20
69.0107286
40
0.1950618
50
16.1714718
51
43.5284424
0
ARC
8
DEFAULT_255_1_234
10
23.8282752
20
69.0184573
40
0.184134
50
43.4415429
51
83.1661404
0
ARC
8
DEFAULT_255_1_234
10
23.814867
20
68.9447771
40
0.258926
50
82.160215
51
90.1505798
0
ARC
8
DEFAULT_255_1_234
10
23.8117098
20
68.8910865
40
0.3126255
50
89.5460705
51
102.5418777
0
ARC
8
DEFAULT_255_1_234
10
23.7874184
20
68.9941665
40
0.2067346
50
102.1739365
51
129.2061916
0
ARC
8
DEFAULT_255_1_234
10
23.7795255
20
69.0066094
40
0.1921118
50
129.7279328
51
135.7542026
0
ARC
8
DEFAULT_255_1_234
10
23.7916783
20
68.9969045
40
0.2075944
50
136.175737
51
166.3674722
0
ARC
8
DEFAULT_255_1_234
10
23.8923702
20
68.9699182
40
0.3118201
50
165.9092917
51
178.8683903
0
ARC
8
DEFAULT_255_1_234
10
23.9788564
20
68.9652179
40
0.3983935
50
178.438168
51
180.0083905
0
ARC
8
DEFAULT_255_1_234
10
23.8387166
20
68.9691231
40
0.4068601
50
163.2878735
51
180.5581814
0
ARC
8
DEFAULT_255_1_234
10
23.7585427
20
68.991184
40
0.3237344
50
133.454115
51
162.9470031
0
ARC
8
DEFAULT_255_1_234
10
23.7763969
20
68.9722
40
0.349795
50
100.7869394
51
133.4384016
0
ARC
8
DEFAULT_255_1_234
10
23.811174
20
68.8173319
40
0.5084616
50
89.6605301
51
101.3704185
0
ARC
8
DEFAULT_255_1_234
10
23.8178079
20
68.8234496
40
0.502348
50
78.2171172
51
90.4130393
0
ARC
8
DEFAULT_255_1_234
10
23.8533157
20
68.9858637
40
0.3361092
50
55.9268222
51
78.4888551
0
ARC
8
DEFAULT_255_1_234
10
23.8729597
20
69.0197324
40
0.2970617
50
47.9292255
51
55.4054003
0
ARC
8
DEFAULT_255_1_234
10
23.8831158
20
69.0300502
40
0.2825983
50
4.3347696
51
48.0560701
0
ARC
8
DEFAULT_255_1_234
10
23.7735551
20
69.0130601
40
0.393225
50
359.925209
51
5.5967654
0
ARC
8
DEFAULT_255_1_234
10
23.8164443
20
69.0186816
40
0.3503892
50
337.8914096
51
358.9967724
0
ARC
8
DEFAULT_255_1_234
10
23.5450855
20
69.1233706
40
0.6412172
50
326.9135351
51
338.3505194
0
ARC
8
DEFAULT_255_1_234
10
23.1465159
20
69.3788284
40
1.1146189
50
319.6472867
51
327.095818
0
ARC
8
DEFAULT_255_1_234
10
22.7632162
20
69.695
40
1.6114559
50
317.2586784
51
319.9046139
0
LINE
8
DEFAULT_255_1_234
10
23.0976137
20
74.6070433
11
23.0976137
21
73.432
0
LINE
8
DEFAULT_255_1_234
10
23.0976137
20
73.432
11
22.9482234
21
73.432
0
LINE
8
DEFAULT_255_1_234
10
22.9482234
20
73.432
11
22.9482234
21
74.4223133
0
LINE
8
DEFAULT_255_1_234
10
22.9482234
20
74.4223133
11
22.6486396
21
74.3122785
0
LINE
8
DEFAULT_255_1_234
10
22.6486396
20
74.3122785
11
22.6486396
21
74.4472117
0
LINE
8
DEFAULT_255_1_234
10
22.6486396
20
74.4472117
11
23.0743217
21
74.6070433
0
LINE
8
DEFAULT_255_1_234
10
23.0743217
20
74.6070433
11
23.0976137
21
74.6070433
0
LINE
8
DEFAULT_255_1_234
10
24.0212636
20
74.6070433
11
24.0212636
21
73.432
0
LINE
8
DEFAULT_255_1_234
10
24.0212636
20
73.432
11
23.8718733
21
73.432
0
LINE
8
DEFAULT_255_1_234
10
23.8718733
20
73.432
11
23.8718733
21
74.4223133
0
LINE
8
DEFAULT_255_1_234
10
23.8718733
20
74.4223133
11
23.5722895
21
74.3122785
0
LINE
8
DEFAULT_255_1_234
10
23.5722895
20
74.3122785
11
23.5722895
21
74.4472117
0
LINE
8
DEFAULT_255_1_234
10
23.5722895
20
74.4472117
11
23.9979716
21
74.6070433
0
LINE
8
DEFAULT_255_1_234
10
23.9979716
20
74.6070433
11
24.0212636
21
74.6070433
0
LINE
8
DEFAULT_255_1_234
10
23.0886137
20
79.8987433
11
23.0886137
21
78.7237
0
LINE
8
DEFAULT_255_1_234
10
23.0886137
20
78.7237
11
22.9392234
21
78.7237
0
LINE
8
DEFAULT_255_1_234
10
22.9392234
20
78.7237
11
22.9392234
21
79.7140133
0
LINE
8
DEFAULT_255_1_234
10
22.9392234
20
79.7140133
11
22.6396396
21
79.6039785
0
LINE
8
DEFAULT_255_1_234
10
22.6396396
20
79.6039785
11
22.6396396
21
79.7389117
0
LINE
8
DEFAULT_255_1_234
10
22.6396396
20
79.7389117
11
23.0653217
21
79.8987433
0
LINE
8
DEFAULT_255_1_234
10
23.0653217
20
79.8987433
11
23.0886137
21
79.8987433
0
LINE
8
DEFAULT_255_1_234
10
24.2572316
20
79.4152327
11
24.2572316
21
79.2224709
0
LINE
8
DEFAULT_255_1_234
10
23.5191149
20
79.2023916
11
23.5191149
21
79.4007755
0
LINE
8
DEFAULT_255_1_234
10
24.1086445
20
79.1823123
11
24.1086445
21
79.4256739
0
LINE
8
DEFAULT_255_1_234
10
23.6677021
20
79.4369184
11
23.6677021
21
79.1991789
0
ARC
8
DEFAULT_255_1_234
10
23.0325206
20
79.2175805
40
1.2247208
50
353.8441951
51
0.2287902
0
ARC
8
DEFAULT_255_1_234
10
23.496471
20
79.1657806
40
0.7578929
50
344.4934747
51
353.9765454
0
ARC
8
DEFAULT_255_1_234
10
23.79573
20
79.0806981
40
0.4467846
50
329.2803592
51
344.7472793
0
ARC
8
DEFAULT_255_1_234
10
23.8950125
20
79.0262018
40
0.3336173
50
324.9352394
51
328.6160465
0
ARC
8
DEFAULT_255_1_234
10
23.9327233
20
78.9998427
40
0.2876076
50
280.580143
51
324.9173126
0
ARC
8
DEFAULT_255_1_234
10
23.8926026
20
79.1669099
40
0.4592847
50
269.5977311
51
281.6734359
0
ARC
8
DEFAULT_255_1_234
10
23.8853932
20
79.1549173
40
0.4472986
50
256.6228859
51
270.51044
0
ARC
8
DEFAULT_255_1_234
10
23.8451909
20
79.0000877
40
0.2873874
50
215.8618325
51
257.2788573
0
ARC
8
DEFAULT_255_1_234
10
23.9472941
20
79.0685977
40
0.4102928
50
197.9693508
51
215.2623606
0
ARC
8
DEFAULT_255_1_234
10
24.1958057
20
79.1524709
40
0.6725652
50
187.8816417
51
198.2346507
0
ARC
8
DEFAULT_255_1_234
10
24.5916265
20
79.2096079
40
1.0724845
50
180.8976217
51
188.0055519
0
ARC
8
DEFAULT_255_1_234
10
24.8716453
20
79.2199777
40
1.3526448
50
180.7449369
51
181.1510016
0
ARC
8
DEFAULT_255_1_234
10
24.7139182
20
79.4056042
40
1.1948131
50
173.7675579
51
180.231553
0
ARC
8
DEFAULT_255_1_234
10
24.2621329
20
79.4566666
40
0.7401564
50
164.3058563
51
173.9002247
0
ARC
8
DEFAULT_255_1_234
10
23.9709398
20
79.5405656
40
0.4371288
50
148.7922025
51
164.568378
0
ARC
8
DEFAULT_255_1_234
10
23.875785
20
79.5936929
40
0.3282386
50
144.5883898
51
148.1176286
0
ARC
8
DEFAULT_255_1_234
10
23.8414748
20
79.6176315
40
0.2864044
50
101.6440918
51
144.514236
0
ARC
8
DEFAULT_255_1_234
10
23.8839814
20
79.4487069
40
0.4604934
50
89.5284041
51
102.5819763
0
ARC
8
DEFAULT_255_1_234
10
23.8918902
20
79.4448018
40
0.464401
50
77.0437873
51
90.5081339
0
ARC
8
DEFAULT_255_1_234
10
23.9320904
20
79.6090615
40
0.2953195
50
48.2778575
51
77.4994676
0
ARC
8
DEFAULT_255_1_234
10
23.9393535
20
79.6219746
40
0.2808655
50
36.3142134
51
47.6305865
0
ARC
8
DEFAULT_255_1_234
10
23.8524842
20
79.5634515
40
0.3855453
50
18.2931786
51
35.6769206
0
ARC
8
DEFAULT_255_1_234
10
23.5981601
20
79.4761593
40
0.654423
50
8.024666
51
18.5605216
0
ARC
8
DEFAULT_255_1_234
10
23.1818521
20
79.4146792
40
1.0752407
50
1.1274072
51
8.1718305
0
ARC
8
DEFAULT_255_1_234
10
22.8582712
20
79.4019885
40
1.3990231
50
0.5424119
51
1.3863029
0
ARC
8
DEFAULT_255_1_234
10
23.0404089
20
79.4292342
40
1.0682415
50
359.8090433
51
4.9407866
0
ARC
8
DEFAULT_255_1_234
10
23.4614103
20
79.4668113
40
0.6455691
50
4.8362157
51
12.2904523
0
ARC
8
DEFAULT_255_1_234
10
23.7369218
20
79.5281965
40
0.3633074
50
12.0805627
51
23.8173984
0
ARC
8
DEFAULT_255_1_234
10
23.8542924
20
79.5778919
40
0.2358723
50
24.2871213
51
31.3935614
0
ARC
8
DEFAULT_255_1_234
10
23.9067621
20
79.6122233
40
0.1732111
50
30.7407893
51
82.4657128
0
ARC
8
DEFAULT_255_1_234
10
23.8887755
20
79.5238691
40
0.263235
50
81.1060089
51
90.2184952
0
ARC
8
DEFAULT_255_1_234
10
23.8852054
20
79.5496924
40
0.2374236
50
89.3806855
51
105.6762551
0
ARC
8
DEFAULT_255_1_234
10
23.8668685
20
79.6163567
40
0.1682847
50
105.7981136
51
149.7388061
0
ARC
8
DEFAULT_255_1_234
10
23.9732763
20
79.552395
40
0.2924306
50
149.4208916
51
163.6286378
0
ARC
8
DEFAULT_255_1_234
10
24.1823651
20
79.488625
40
0.5110213
50
163.3763315
51
172.1410975
0
ARC
8
DEFAULT_255_1_234
10
24.512437
20
79.4413518
40
0.8444586
50
172.0259487
51
178.0703232
0
ARC
8
DEFAULT_255_1_234
10
24.815446
20
79.4269906
40
1.1477868
50
177.8631668
51
179.5044149
0
ARC
8
DEFAULT_255_1_234
10
24.7081864
20
79.1955389
40
1.0404907
50
179.7995573
51
185.2460446
0
ARC
8
DEFAULT_255_1_234
10
24.3038903
20
79.1572513
40
0.6343885
50
185.1411642
51
193.0079639
0
ARC
8
DEFAULT_255_1_234
10
24.0395376
20
79.0947641
40
0.3627568
50
192.7897626
51
205.2507664
0
ARC
8
DEFAULT_255_1_234
10
23.9348923
20
79.0480415
40
0.2481908
50
205.8005384
51
211.2537509
0
ARC
8
DEFAULT_255_1_234
10
23.8825363
20
79.012958
40
0.1852521
50
210.3789793
51
238.4008143
0
ARC
8
DEFAULT_255_1_234
10
23.8805885
20
79.0176376
40
0.1882621
50
239.6520629
51
265.9793761
0
ARC
8
DEFAULT_255_1_234
10
23.8891085
20
79.0848427
40
0.2559272
50
265.1315437
51
270.060332
0
ARC
8
DEFAULT_255_1_234
10
23.8919864
20
79.0524534
40
0.2235528
50
269.3314664
51
287.2178029
0
ARC
8
DEFAULT_255_1_234
10
23.9057716
20
79.0021279
40
0.1714108
50
287.7958004
51
329.080874
0
ARC
8
DEFAULT_255_1_234
10
23.8100173
20
79.061893
40
0.2842745
50
328.6634704
51
343.3325132
0
ARC
8
DEFAULT_255_1_234
10
23.5927193
20
79.1295863
40
0.5118644
50
343.0499468
51
351.9393422
0
ARC
8
DEFAULT_255_1_234
10
23.2460493
20
79.1806949
40
0.8622784
50
351.8069023
51
357.7959224
0
ARC
8
DEFAULT_255_1_234
10
22.9225049
20
79.1974721
40
1.1862365
50
357.5871873
51
359.2677531
0
LINE
8
DEFAULT_255_1_234
10
24.2994246
20
84.7172739
11
24.2994246
21
84.6739025
0
LINE
8
DEFAULT_255_1_234
10
23.7572823
20
84.0144968
11
23.728368
21
84.0144968
0
LINE
8
DEFAULT_255_1_234
10
23.728368
20
84.0144968
11
23.728368
21
84.1397919
0
LINE
8
DEFAULT_255_1_234
10
23.728368
20
84.1397919
11
23.7596918
21
84.1397919
0
LINE
8
DEFAULT_255_1_234
10
24.1508375
20
84.6883597
11
24.1508375
21
84.7477945
0
ARC
8
DEFAULT_255_1_234
10
23.8714644
20
84.7629403
40
0.3635579
50
297.4037347
51
320.016758
0
ARC
8
DEFAULT_255_1_234
10
23.9004593
20
84.707224
40
0.3007486
50
270.2633101
51
297.3851877
0
ARC
8
DEFAULT_255_1_234
10
23.8970549
20
84.7535904
40
0.3471448
50
269.9966443
51
270.7900392
0
ARC
8
DEFAULT_255_1_234
10
23.894503
20
84.7534143
40
0.3469779
50
254.5999133
51
270.4180344
0
ARC
8
DEFAULT_255_1_234
10
23.8802389
20
84.6969647
40
0.2887697
50
236.4717942
51
254.3541279
0
ARC
8
DEFAULT_255_1_234
10
23.8958607
20
84.7179711
40
0.3149125
50
208.4727207
51
236.2134933
0
ARC
8
DEFAULT_255_1_234
10
23.9597382
20
84.7570455
40
0.3897115
50
204.3447514
51
209.0453999
0
ARC
8
DEFAULT_255_1_234
10
24.0276958
20
84.7858656
40
0.4635101
50
183.9375985
51
204.1276318
0
ARC
8
DEFAULT_255_1_234
10
24.1185209
20
84.7956482
40
0.5548037
50
179.9652252
51
184.3013875
0
ARC
8
DEFAULT_255_1_234
10
24.0945255
20
84.7989507
40
0.5308164
50
166.7585989
51
180.3201225
0
ARC
8
DEFAULT_255_1_234
10
24.0098869
20
84.8173488
40
0.4442163
50
154.6955053
51
166.5679793
0
ARC
8
DEFAULT_255_1_234
10
23.9245739
20
84.860321
40
0.3487299
50
136.3324195
51
155.0871442
0
ARC
8
DEFAULT_255_1_234
10
23.8964812
20
84.8843954
40
0.3117924
50
121.236733
51
135.9680508
0
ARC
8
DEFAULT_255_1_234
10
23.910531
20
84.8583743
40
0.3413302
50
96.845628
51
120.9881519
0
ARC
8
DEFAULT_255_1_234
10
23.9250892
20
84.7648515
40
0.4359341
50
89.8870174
51
97.2802754
0
ARC
8
DEFAULT_255_1_234
10
23.930333
20
84.8286095
40
0.3722009
50
70.6505584
51
90.6749113
0
ARC
8
DEFAULT_255_1_234
10
23.9434609
20
84.8799361
40
0.3194571
50
36.7492984
51
69.8219918
0
ARC
8
DEFAULT_255_1_234
10
23.8435774
20
84.8020993
40
0.4460685
50
15.39587
51
37.0840084
0
ARC
8
DEFAULT_255_1_234
10
23.6306207
20
84.7400242
40
0.6678714
50
3.9488873
51
15.6798563
0
ARC
8
DEFAULT_255_1_234
10
23.3904835
20
84.7183964
40
0.9089418
50
359.929245
51
4.2665314
0
ARC
8
DEFAULT_255_1_234
10
22.9299272
20
84.6672513
40
1.3695135
50
352.8366322
51
0.2782669
0
ARC
8
DEFAULT_255_1_234
10
23.4586951
20
84.5985629
40
0.8363105
50
341.8359505
51
352.9884176
0
ARC
8
DEFAULT_255_1_234
10
23.780567
20
84.49007
40
0.4966642
50
322.8578092
51
342.1527901
0
ARC
8
DEFAULT_255_1_234
10
23.8669626
20
84.4311384
40
0.3922466
50
319.334325
51
322.0998941
0
ARC
8
DEFAULT_255_1_234
10
23.8359963
20
84.4622209
40
0.4360033
50
285.9541367
51
318.8878087
0
ARC
8
DEFAULT_255_1_234
10
23.7633224
20
84.69326
40
0.678149
50
272.9281676
51
286.4922826
0
ARC
8
DEFAULT_255_1_234
10
23.7443342
20
84.9183587
40
0.9039547
50
270.8207226
51
273.4012994
0
ARC
8
DEFAULT_255_1_234
10
23.7532193
20
84.7364666
40
0.5967098
50
270.6214993
51
281.4062806
0
ARC
8
DEFAULT_255_1_234
10
23.7962174
20
84.5308833
40
0.3866861
50
281.1852553
51
299.0621114
0
ARC
8
DEFAULT_255_1_234
10
23.8335745
20
84.4587798
40
0.3055236
50
299.5067782
51
313.1200873
0
ARC
8
DEFAULT_255_1_234
10
23.8357712
20
84.4508554
40
0.2982623
50
313.8526205
51
338.5989322
0
ARC
8
DEFAULT_255_1_234
10
23.6733786
20
84.5175781
40
0.4738131
50
338.2523585
51
351.2430902
0
ARC
8
DEFAULT_255_1_234
10
23.4323082
20
84.5585447
40
0.7183203
50
350.9409515
51
357.6691871
0
ARC
8
DEFAULT_255_1_234
10
23.9213512
20
84.7587764
40
0.2294452
50
269.9447023
51
306.8248917
0
ARC
8
DEFAULT_255_1_234
10
23.8976427
20
84.8010898
40
0.2775994
50
305.5072438
51
327.0773448
0
ARC
8
DEFAULT_255_1_234
10
23.9094868
20
84.7916025
40
0.2625056
50
327.4104943
51
336.840169
0
ARC
8
DEFAULT_255_1_234
10
23.6000933
20
84.7510302
40
0.5507537
50
359.6633817
51
10.117533
0
ARC
8
DEFAULT_255_1_234
10
23.7754731
20
84.7834777
40
0.372403
50
9.9430141
51
26.7700076
0
ARC
8
DEFAULT_255_1_234
10
23.8351943
20
84.8110187
40
0.3066865
50
27.2015464
51
34.6829435
0
ARC
8
DEFAULT_255_1_234
10
23.8841423
20
84.8477977
40
0.245519
50
34.1250343
51
50.3070065
0
ARC
8
DEFAULT_255_1_234
10
23.9288103
20
84.9012385
40
0.1758693
50
50.3851167
51
90.6705993
0
ARC
8
DEFAULT_255_1_234
10
23.9241336
20
84.8707799
40
0.2063326
50
89.272901
51
111.9140407
0
ARC
8
DEFAULT_255_1_234
10
23.9221864
20
84.884844
40
0.1925887
50
112.9382311
51
142.5320782
0
ARC
8
DEFAULT_255_1_234
10
23.9768044
20
84.8404969
40
0.2629232
50
142.1021256
51
166.3835592
0
ARC
8
DEFAULT_255_1_234
10
24.0949349
20
84.8099915
40
0.3849193
50
166.1100289
51
178.665427
0
ARC
8
DEFAULT_255_1_234
10
24.1996938
20
84.8041117
40
0.4897989
50
178.2632126
51
180.0111093
0
ARC
8
DEFAULT_255_1_234
10
24.1195059
20
84.8012728
40
0.40962
50
179.6161962
51
191.8787166
0
ARC
8
DEFAULT_255_1_234
10
23.9974898
20
84.7742896
40
0.2846655
50
191.6191692
51
215.2972286
0
ARC
8
DEFAULT_255_1_234
10
23.9778089
20
84.7627918
40
0.2619665
50
215.7320102
51
216.5355409
0
ARC
8
DEFAULT_255_1_234
10
23.9239175
20
84.7195647
40
0.1929497
50
215.7486685
51
239.9727502
0
ARC
8
DEFAULT_255_1_234
10
23.9169091
20
84.7144894
40
0.1850822
50
241.0650169
51
269.2810483
0
ARC
8
DEFAULT_255_1_234
10
23.9211006
20
84.7635371
40
0.2342059
50
268.4062526
51
270.0071348
0
ARC
8
DEFAULT_255_1_234
10
24.0075624
20
90.1686703
40
0.2822356
50
338.8763615
51
0.5166041
0
ARC
8
DEFAULT_255_1_234
10
24.0244278
20
90.1641208
40
0.2648703
50
325.8412414
51
338.4795939
0
ARC
8
DEFAULT_255_1_234
10
23.9853646
20
90.1912042
40
0.3124019
50
296.7586019
51
325.753654
0
ARC
8
DEFAULT_255_1_234
10
23.9565754
20
90.2396789
40
0.368668
50
296.0902311
51
297.3618122
0
ARC
8
DEFAULT_255_1_234
10
23.9823212
20
89.5842041
40
0.3518806
50
47.9009248
51
67.1946869
0
ARC
8
DEFAULT_255_1_234
10
24.0019454
20
89.6088395
40
0.320451
50
35.236241
51
47.551371
0
ARC
8
DEFAULT_255_1_234
10
24.0281072
20
89.6262993
40
0.2890103
50
359.2759738
51
35.4014081
0
ARC
8
DEFAULT_255_1_234
10
23.9536103
20
89.6189826
40
0.3635026
50
343.1294516
51
0.5776525
0
ARC
8
DEFAULT_255_1_234
10
24.0260648
20
89.599033
40
0.2883832
50
310.8497458
51
342.744803
0
ARC
8
DEFAULT_255_1_234
10
23.9842761
20
89.6467294
40
0.3517954
50
281.5473923
51
310.9169905
0
ARC
8
DEFAULT_255_1_234
10
23.948621
20
89.8020084
40
0.5110832
50
269.6192722
51
281.9789957
0
ARC
8
DEFAULT_255_1_234
10
23.9414
20
89.8020828
40
0.5111606
50
257.4584469
51
270.4287458
0
ARC
8
DEFAULT_255_1_234
10
23.9033143
20
89.6417344
40
0.3463762
50
228.7553743
51
257.8484423
0
ARC
8
DEFAULT_255_1_234
10
23.8723341
20
89.6044442
40
0.297916
50
184.0104442
51
228.5071787
0
ARC
8
DEFAULT_255_1_234
10
23.9886285
20
89.6221512
40
0.4152734
50
179.9315461
51
185.3254504
0
ARC
8
DEFAULT_255_1_234
10
23.8709931
20
89.6258992
40
0.2976554
50
145.6795913
51
180.6259649
0
ARC
8
DEFAULT_255_1_234
10
23.887328
20
89.6144929
40
0.3175776
50
115.5537925
51
145.6416199
0
ARC
8
DEFAULT_255_1_234
10
23.921421
20
89.5534028
40
0.3874232
50
113.2437915
51
116.2054627
0
ARC
8
DEFAULT_255_1_234
10
23.9061423
20
90.193258
40
0.3154751
50
222.9548379
51
244.1372485
0
ARC
8
DEFAULT_255_1_234
10
23.8939498
20
90.1795834
40
0.2972382
50
213.3439227
51
222.6271327
0
ARC
8
DEFAULT_255_1_234
10
23.8747433
20
90.1665308
40
0.274019
50
180.4316517
51
213.2713999
0
ARC
8
DEFAULT_255_1_234
10
23.9322434
20
90.171211
40
0.33158
50
179.9992944
51
181.1655061
0
ARC
8
DEFAULT_255_1_234
10
23.9731851
20
90.1746561
40
0.3725376
50
164.6186108
51
180.5292368
0
ARC
8
DEFAULT_255_1_234
10
23.8833714
20
90.1988101
40
0.2795349
50
132.2454369
51
164.5092287
0
ARC
8
DEFAULT_255_1_234
10
23.9120818
20
90.1663028
40
0.3229019
50
100.7052766
51
132.1387266
0
ARC
8
DEFAULT_255_1_234
10
23.942579
20
90.0285086
40
0.4639835
50
89.6732617
51
101.2449487
0
ARC
8
DEFAULT_255_1_234
10
23.9487988
20
90.045999
40
0.4464999
50
76.2876631
51
90.4586123
0
ARC
8
DEFAULT_255_1_234
10
23.979422
20
90.168222
40
0.3205023
50
47.8240157
51
76.4266918
0
ARC
8
DEFAULT_255_1_234
10
24.001677
20
90.194259
40
0.2862661
50
6.9168658
51
47.6261438
0
ARC
8
DEFAULT_255_1_234
10
23.8830173
20
90.172337
40
0.4067708
50
359.8419705
51
7.9694496
0
ARC
8
DEFAULT_255_1_234
10
23.917207
20
89.6282925
40
0.2513121
50
359.4454068
51
16.9256425
0
ARC
8
DEFAULT_255_1_234
10
23.9640881
20
89.6412033
40
0.2027071
50
17.292259
51
45.462717
0
ARC
8
DEFAULT_255_1_234
10
23.9586817
20
89.6365434
40
0.2098212
50
45.3028762
51
83.1921472
0
ARC
8
DEFAULT_255_1_234
10
23.9443501
20
89.5563895
40
0.2911472
50
82.2614531
51
90.143954
0
ARC
8
DEFAULT_255_1_234
10
23.9412621
20
89.579695
40
0.2678513
50
89.4959189
51
104.8579811
0
ARC
8
DEFAULT_255_1_234
10
23.923588
20
89.646689
40
0.1985654
50
104.8855873
51
135.2448349
0
ARC
8
DEFAULT_255_1_234
10
23.9285653
20
89.6422336
40
0.2052373
50
135.3398955
51
172.104394
0
ARC
8
DEFAULT_255_1_234
10
24.0092711
20
89.6267925
40
0.2873299
50
171.2651929
51
180.1859362
0
ARC
8
DEFAULT_255_1_234
10
23.9923412
20
89.6235733
40
0.2704083
50
179.515471
51
193.6466734
0
ARC
8
DEFAULT_255_1_234
10
23.9107181
20
89.6027777
40
0.1861855
50
193.3540587
51
225.8256931
0
ARC
8
DEFAULT_255_1_234
10
23.9147938
20
89.6098524
40
0.1941102
50
226.418029
51
255.8553723
0
ARC
8
DEFAULT_255_1_234
10
23.9404371
20
89.7034998
40
0.2911917
50
255.4655572
51
268.7985967
0
ARC
8
DEFAULT_255_1_234
10
23.9451563
20
89.7873491
40
0.3751331
50
268.3464808
51
270.0104874
0
ARC
8
DEFAULT_255_1_234
10
23.9474951
20
89.7189138
40
0.3067064
50
269.575914
51
282.0823146
0
ARC
8
DEFAULT_255_1_234
10
23.969986
20
89.6194803
40
0.2047712
50
281.7522535
51
306.6056425
0
ARC
8
DEFAULT_255_1_234
10
23.9798286
20
89.6033487
40
0.1859604
50
307.1350025
51
314.0277951
0
ARC
8
DEFAULT_255_1_234
10
23.976237
20
89.6059766
40
0.1903475
50
314.2553419
51
350.169324
0
ARC
8
DEFAULT_255_1_234
10
23.8910839
20
89.6244409
40
0.2774269
50
349.4145679
51
0.2930737
0
ARC
8
DEFAULT_255_1_234
10
23.9431272
20
90.1403353
40
0.2300764
50
89.477591
51
105.729794
0
ARC
8
DEFAULT_255_1_234
10
23.9295185
20
90.1908637
40
0.1777519
50
105.922966
51
135.1662921
0
ARC
8
DEFAULT_255_1_234
10
23.9315688
20
90.1894419
40
0.1802087
50
135.3053131
51
168.9882338
0
ARC
8
DEFAULT_255_1_234
10
24.014326
20
90.1704721
40
0.2650806
50
168.3802067
51
180.3602358
0
ARC
8
DEFAULT_255_1_234
10
23.991484
20
90.1667041
40
0.2422425
50
179.5029707
51
194.9126783
0
ARC
8
DEFAULT_255_1_234
10
23.9329501
20
90.151311
40
0.1817188
50
194.9722181
51
224.1943972
0
ARC
8
DEFAULT_255_1_234
10
23.9301368
20
90.1490169
40
0.1781027
50
224.2961434
51
262.0157375
0
ARC
8
DEFAULT_255_1_234
10
23.9443611
20
90.2221661
40
0.2525492
50
261.1250369
51
270.1959853
0
ARC
8
DEFAULT_255_1_234
10
23.9473366
20
90.2034339
40
0.233825
50
269.4825617
51
285.0988277
0
ARC
8
DEFAULT_255_1_234
10
23.9627525
20
90.145599
40
0.1739712
50
285.1585659
51
315.9484648
0
ARC
8
DEFAULT_255_1_234
10
23.9538537
20
90.1537886
40
0.1860616
50
316.0412958
51
351.9162715
0
ARC
8
DEFAULT_255_1_234
10
23.8805492
20
90.1679245
40
0.2606517
50
351.1056823
51
0.1936567
0
ARC
8
DEFAULT_255_1_234
10
23.9068321
20
90.1709369
40
0.234377
50
359.4789506
51
16.0679113
0
ARC
8
DEFAULT_255_1_234
10
23.954428
20
90.183781
40
0.1850875
50
16.3251951
51
44.791304
0
ARC
8
DEFAULT_255_1_234
10
23.9526561
20
90.1838339
40
0.186312
50
44.3958661
51
88.2498933
0
ARC
8
DEFAULT_255_1_234
10
23.9453115
20
90.1227154
40
0.2476868
50
86.9833827
51
90.0200148
0
LINE
8
DEFAULT_255_1_234
10
22.212023
20
94.9697663
11
22.3670355
21
94.9697663
0
LINE
8
DEFAULT_255_1_234
10
21.4666777
20
95.1287947
11
21.4666777
21
95.2412391
0
LINE
8
DEFAULT_255_1_234
10
22.3670355
20
95.3922357
11
22.212023
21
95.3922357
0
LINE
8
DEFAULT_255_1_234
10
21.6216902
20
95.2372232
11
21.6216902
21
95.1239757
0
ARC
8
DEFAULT_255_1_234
10
21.8189742
20
95.0294846
40
0.5513052
50
340.1774281
51
353.7814284
0
ARC
8
DEFAULT_255_1_234
10
21.9761095
20
94.9709582
40
0.3836379
50
311.4558989
51
340.4421614
0
ARC
8
DEFAULT_255_1_234
10
21.9727763
20
94.9820528
40
0.3941894
50
282.4333181
51
310.7513653
0
ARC
8
DEFAULT_255_1_234
10
21.9288502
20
95.1635679
40
0.5809175
50
269.9358511
51
282.809604
0
ARC
8
DEFAULT_255_1_234
10
21.9236568
20
95.3093212
40
0.7266847
50
270.0021091
51
270.3581957
0
ARC
8
DEFAULT_255_1_234
10
21.9183985
20
95.0492585
40
0.4666519
50
250.7884749
51
270.6489167
0
ARC
8
DEFAULT_255_1_234
10
21.901582
20
94.9855319
40
0.4009729
50
219.3627325
51
250.0611886
0
ARC
8
DEFAULT_255_1_234
10
21.9845031
20
95.0560042
40
0.5097822
50
193.5479632
51
219.5756669
0
ARC
8
DEFAULT_255_1_234
10
22.2216652
20
95.1175919
40
0.7547848
50
181.1218675
51
193.87563
0
ARC
8
DEFAULT_255_1_234
10
22.4286833
20
95.128658
40
0.9620055
50
179.9918545
51
181.5394234
0
ARC
8
DEFAULT_255_1_234
10
22.2435935
20
95.2449788
40
0.7769248
50
169.5837241
51
180.2757934
0
ARC
8
DEFAULT_255_1_234
10
22.0598873
20
95.2789229
40
0.590109
50
155.0365899
51
169.6003176
0
ARC
8
DEFAULT_255_1_234
10
21.9463337
20
95.3336677
40
0.4640625
50
136.783148
51
155.2472683
0
ARC
8
DEFAULT_255_1_234
10
21.9073814
20
95.3667562
40
0.4130255
50
121.7633186
51
136.428115
0
ARC
8
DEFAULT_255_1_234
10
21.9208776
20
95.3418227
40
0.4413323
50
95.6459699
51
121.5490577
0
ARC
8
DEFAULT_255_1_234
10
21.9366058
20
95.2309949
40
0.55319
50
89.924208
51
96.1377933
0
ARC
8
DEFAULT_255_1_234
10
21.9416491
20
95.2428542
40
0.5413475
50
76.6779277
51
90.4563316
0
ARC
8
DEFAULT_255_1_234
10
21.9810114
20
95.4019114
40
0.3775041
50
47.485847
51
76.9287264
0
ARC
8
DEFAULT_255_1_234
10
21.9663087
20
95.3919159
40
0.3948286
50
16.5424086
51
46.8933463
0
ARC
8
DEFAULT_255_1_234
10
21.8055244
20
95.3390861
40
0.564021
50
5.4072051
51
17.0365086
0
ARC
8
DEFAULT_255_1_234
10
21.6616261
20
95.3159679
40
0.5556559
50
7.8891745
51
15.9239216
0
ARC
8
DEFAULT_255_1_234
10
21.8603274
20
95.3736631
40
0.3487515
50
15.7653144
51
27.9410532
0
ARC
8
DEFAULT_255_1_234
10
21.9707492
20
95.432779
40
0.2235026
50
27.8166557
51
46.4008329
0
ARC
8
DEFAULT_255_1_234
10
21.9757135
20
95.4322082
40
0.2205286
50
47.4371857
51
75.0698205
0
ARC
8
DEFAULT_255_1_234
10
21.9448529
20
95.3247765
40
0.3322915
50
74.7008593
51
87.8124495
0
ARC
8
DEFAULT_255_1_234
10
21.9375217
20
95.2191844
40
0.4380987
50
87.3814673
51
90.0240855
0
ARC
8
DEFAULT_255_1_234
10
21.933676
20
95.3369291
40
0.3203749
50
89.3451631
51
108.5745436
0
ARC
8
DEFAULT_255_1_234
10
21.9199865
20
95.3882908
40
0.2673494
50
109.2998449
51
143.3037509
0
ARC
8
DEFAULT_255_1_234
10
21.9961938
20
95.3296881
40
0.3634757
50
143.0753173
51
163.1916937
0
ARC
8
DEFAULT_255_1_234
10
22.1913666
20
95.2680967
40
0.5681262
50
162.9373603
51
174.6208611
0
ARC
8
DEFAULT_255_1_234
10
22.4539708
20
95.239301
40
0.8322832
50
174.3419979
51
180.1430411
0
ARC
8
DEFAULT_255_1_234
10
22.3608864
20
95.1198698
40
0.7392076
50
179.6817502
51
189.150529
0
ARC
8
DEFAULT_255_1_234
10
22.1108112
20
95.078219
40
0.4856932
50
188.9910863
51
203.5773039
0
ARC
8
DEFAULT_255_1_234
10
22.0028445
20
95.0334211
40
0.3688271
50
203.9077269
51
215.1312379
0
ARC
8
DEFAULT_255_1_234
10
21.9105539
20
94.9618941
40
0.2522457
50
213.9071664
51
263.8849284
0
ARC
8
DEFAULT_255_1_234
10
21.9230868
20
95.0403518
40
0.3316174
50
263.1758525
51
270.1031083
0
ARC
8
DEFAULT_255_1_234
10
21.926296
20
95.1650365
40
0.4563091
50
269.6719807
51
279.0609165
0
ARC
8
DEFAULT_255_1_234
10
21.9529728
20
95.0037907
40
0.2928759
50
278.8750225
51
293.6346586
0
ARC
8
DEFAULT_255_1_234
10
21.9849936
20
94.92859
40
0.2111472
50
293.8553404
51
310.0518804
0
ARC
8
DEFAULT_255_1_234
10
21.985479
20
94.9223516
40
0.2060917
50
311.0646779
51
332.0108348
0
ARC
8
DEFAULT_255_1_234
10
21.8662517
20
94.9880978
40
0.3422352
50
331.6588543
51
343.2878891
0
ARC
8
DEFAULT_255_1_234
10
21.6600032
20
95.0514798
40
0.5580003
50
343.1446044
51
351.010618
0
ARC
8
DEFAULT_255_1_234
10
21.5058678
20
95.0795871
40
0.7146438
50
350.7157277
51
351.1602153
0
LINE
8
DEFAULT_255_1_234
10
23.0272444
20
95.7737433
11
23.0272444
21
94.5987
0
LINE
8
DEFAULT_255_1_234
10
23.0272444
20
94.5987
11
22.8778541
21
94.5987
0
LINE
8
DEFAULT_255_1_234
10
22.8778541
20
94.5987
11
22.8778541
21
95.5890133
0
LINE
8
DEFAULT_255_1_234
10
22.8778541
20
95.5890133
11
22.5782703
21
95.4789785
0
LINE
8
DEFAULT_255_1_234
10
22.5782703
20
95.4789785
11
22.5782703
21
95.6139117
0
LINE
8
DEFAULT_255_1_234
10
22.5782703
20
95.6139117
11
23.0039524
21
95.7737433
0
LINE
8
DEFAULT_255_1_234
10
23.0039524
20
95.7737433
11
23.0272444
21
95.7737433
0
LINE
8
DEFAULT_255_1_234
10
23.9508943
20
95.7737433
11
23.9508943
21
94.5987
0
LINE
8
DEFAULT_255_1_234
10
23.9508943
20
94.5987
11
23.801504
21
94.5987
0
LINE
8
DEFAULT_255_1_234
10
23.801504
20
94.5987
11
23.801504
21
95.5890133
0
LINE
8
DEFAULT_255_1_234
10
23.801504
20
95.5890133
11
23.5019202
21
95.4789785
0
LINE
8
DEFAULT_255_1_234
10
23.5019202
20
95.4789785
11
23.5019202
21
95.6139117
0
LINE
8
DEFAULT_255_1_234
10
23.5019202
20
95.6139117
11
23.9276023
21
95.7737433
0
LINE
8
DEFAULT_255_1_234
10
23.9276023
20
95.7737433
11
23.9508943
21
95.7737433
0
LINE
8
DEFAULT_255_1_234
10
24.3355674
20
101.0597211
11
24.3355674
21
100.976191
0
LINE
8
DEFAULT_255_1_234
10
24.3355674
20
100.976191
11
23.8512536
21
99.8903
0
LINE
8
DEFAULT_255_1_234
10
23.8512536
20
99.8903
11
23.6954379
21
99.8903
0
LINE
8
DEFAULT_255_1_234
10
23.6954379
20
99.8903
11
24.1781454
21
100.9376387
0
LINE
8
DEFAULT_255_1_234
10
24.1781454
20
100.9376387
11
23.5452444
21
100.9376387
0
LINE
8
DEFAULT_255_1_234
10
23.5452444
20
100.9376387
11
23.5452444
21
101.0597211
0
LINE
8
DEFAULT_255_1_234
10
23.5452444
20
101.0597211
11
24.3355674
21
101.0597211
0
LINE
8
DEFAULT_255_1_234
10
24.1371835
20
106.3522243
11
24.1636882
21
106.3522243
0
LINE
8
DEFAULT_255_1_234
10
24.1636882
20
106.3522243
11
24.1636882
21
106.226126
0
LINE
8
DEFAULT_255_1_234
10
24.1636882
20
106.226126
11
24.1363803
21
106.226126
0
LINE
8
DEFAULT_255_1_234
10
23.5894189
20
105.6269583
11
23.5894189
21
105.6839836
0
LINE
8
DEFAULT_255_1_234
10
23.7388093
20
105.6647075
11
23.7388093
21
105.6100917
0
ARC
8
DEFAULT_255_1_234
10
24.1416151
20
105.7263455
40
0.4998079
50
90.6001036
51
104.514704
0
ARC
8
DEFAULT_255_1_234
10
24.1027667
20
105.8708131
40
0.3502176
50
104.2855254
51
133.862935
0
ARC
8
DEFAULT_255_1_234
10
24.1191424
20
105.859983
40
0.3693984
50
134.5302688
51
161.6210873
0
ARC
8
DEFAULT_255_1_234
10
24.2844613
20
105.8016895
40
0.5446739
50
161.2849839
51
174.2076652
0
ARC
8
DEFAULT_255_1_234
10
24.425155
20
105.7822787
40
0.6866274
50
173.7810589
51
174.9254635
0
ARC
8
DEFAULT_255_1_234
10
23.9701382
20
105.6439839
40
0.3033419
50
95.8330959
51
138.9954921
0
ARC
8
DEFAULT_255_1_234
10
23.9924738
20
105.5161375
40
0.4328947
50
89.8753725
51
97.0544009
0
ARC
8
DEFAULT_255_1_234
10
23.9972204
20
105.5996748
40
0.3493769
50
71.6407809
51
90.6240094
0
ARC
8
DEFAULT_255_1_234
10
24.0122777
20
105.6551082
40
0.2920396
50
39.6367836
51
71.019018
0
ARC
8
DEFAULT_255_1_234
10
23.948625
20
105.6000998
40
0.3761538
50
10.658731
51
39.9043955
0
ARC
8
DEFAULT_255_1_234
10
23.7938333
20
105.5664686
40
0.5345136
50
359.682601
51
11.132623
0
ARC
8
DEFAULT_255_1_234
10
23.7898464
20
105.559401
40
0.5385081
50
347.2486944
51
0.4369317
0
ARC
8
DEFAULT_255_1_234
10
23.9565941
20
105.5192807
40
0.3670249
50
318.1409698
51
347.6118597
0
ARC
8
DEFAULT_255_1_234
10
23.9890934
20
105.4925702
40
0.3250007
50
275.6342139
51
317.8248465
0
ARC
8
DEFAULT_255_1_234
10
23.9670045
20
105.6225219
40
0.4565864
50
269.8874292
51
276.7917694
0
ARC
8
DEFAULT_255_1_234
10
23.9615116
20
105.5199743
40
0.3540676
50
246.9140195
51
270.7437342
0
ARC
8
DEFAULT_255_1_234
10
23.9621506
20
105.5057384
40
0.3412781
50
218.1665114
51
245.878116
0
ARC
8
DEFAULT_255_1_234
10
24.0500967
20
105.5793279
40
0.455911
50
191.4115814
51
218.6077802
0
ARC
8
DEFAULT_255_1_234
10
24.2439056
20
105.6227833
40
0.6545001
50
179.6345085
51
191.7836486
0
ARC
8
DEFAULT_255_1_234
10
24.8021393
20
105.6906697
40
1.2127388
50
171.4525249
51
180.3158839
0
ARC
8
DEFAULT_255_1_234
10
24.3626269
20
105.7590608
40
0.7679464
50
157.9802646
51
171.6246686
0
ARC
8
DEFAULT_255_1_234
10
24.141229
20
105.8473421
40
0.5296008
50
141.4298019
51
157.854097
0
ARC
8
DEFAULT_255_1_234
10
24.077061
20
105.8927381
40
0.4511509
50
102.8715806
51
140.8564722
0
ARC
8
DEFAULT_255_1_234
10
24.1418226
20
105.6487552
40
0.7034845
50
90.3778349
51
103.5869322
0
ARC
8
DEFAULT_255_1_234
10
23.9680002
20
105.588273
40
0.2370698
50
89.8751008
51
126.2071704
0
ARC
8
DEFAULT_255_1_234
10
23.9725792
20
105.5728303
40
0.2522934
50
124.9745049
51
144.895901
0
ARC
8
DEFAULT_255_1_234
10
23.9549982
20
105.587156
40
0.2296779
50
145.2974905
51
160.2660252
0
ARC
8
DEFAULT_255_1_234
10
24.2622521
20
105.6069071
40
0.5234525
50
179.6514266
51
190.2855912
0
ARC
8
DEFAULT_255_1_234
10
24.0928658
20
105.5749786
40
0.3510893
50
190.0945431
51
207.5098196
0
ARC
8
DEFAULT_255_1_234
10
24.0362928
20
105.5480623
40
0.288489
50
207.9583163
51
216.3251085
0
ARC
8
DEFAULT_255_1_234
10
24.0023036
20
105.5201105
40
0.2445587
50
215.7661442
51
232.5456785
0
ARC
8
DEFAULT_255_1_234
10
23.9640019
20
105.4714482
40
0.1826382
50
232.8005391
51
270.6605633
0
ARC
8
DEFAULT_255_1_234
10
23.968572
20
105.5078612
40
0.2190529
50
269.35537
51
288.4744281
0
ARC
8
DEFAULT_255_1_234
10
23.9778617
20
105.4729118
40
0.1829749
50
289.1833337
51
322.9683818
0
ARC
8
DEFAULT_255_1_234
10
23.9167139
20
105.5211391
40
0.2608399
50
322.6007884
51
346.5182367
0
ARC
8
DEFAULT_255_1_234
10
23.8009735
20
105.5506616
40
0.3802777
50
346.2582162
51
358.7741648
0
ARC
8
DEFAULT_255_1_234
10
23.6991404
20
105.5561965
40
0.4822176
50
358.3755224
51
0.0098023
0
ARC
8
DEFAULT_255_1_234
10
23.7747591
20
105.5589657
40
0.4066078
50
359.6214041
51
11.2839074
0
ARC
8
DEFAULT_255_1_234
10
23.9024738
20
105.5856066
40
0.2761514
50
11.0482309
51
31.8146458
0
ARC
8
DEFAULT_255_1_234
10
23.9333781
20
105.6023584
40
0.2410679
50
32.3035391
51
38.082671
0
ARC
8
DEFAULT_255_1_234
10
23.9754441
20
105.6404662
40
0.1844966
50
36.825067
51
85.7415724
0
ARC
8
DEFAULT_255_1_234
10
23.9687274
20
105.5904301
40
0.2349122
50
85.0140713
51
90.0513278
0
LINE
8
DEFAULT_255_1_234
10
22.203823
20
110.8447663
11
22.3588355
21
110.8447663
0
LINE
8
DEFAULT_255_1_234
10
21.4584777
20
111.0037947
11
21.4584777
21
111.1162391
0
LINE
8
DEFAULT_255_1_234
10
22.3588355
20
111.2672357
11
22.203823
21
111.2672357
0
LINE
8
DEFAULT_255_1_234
10
21.6134902
20
111.1122232
11
21.6134902
21
110.9989757
0
ARC
8
DEFAULT_255_1_234
10
21.8107742
20
110.9044846
40
0.5513052
50
340.1774281
51
353.7814284
0
ARC
8
DEFAULT_255_1_234
10
21.9679095
20
110.8459582
40
0.3836379
50
311.4558989
51
340.4421614
0
ARC
8
DEFAULT_255_1_234
10
21.9645763
20
110.8570528
40
0.3941894
50
282.4333181
51
310.7513653
0
ARC
8
DEFAULT_255_1_234
10
21.9206502
20
111.0385679
40
0.5809175
50
269.9358511
51
282.809604
0
ARC
8
DEFAULT_255_1_234
10
21.9154568
20
111.1843212
40
0.7266847
50
270.0021091
51
270.3581957
0
ARC
8
DEFAULT_255_1_234
10
21.9101985
20
110.9242585
40
0.4666519
50
250.7884749
51
270.6489167
0
ARC
8
DEFAULT_255_1_234
10
21.893382
20
110.8605319
40
0.4009729
50
219.3627325
51
250.0611886
0
ARC
8
DEFAULT_255_1_234
10
21.9763031
20
110.9310042
40
0.5097822
50
193.5479632
51
219.5756669
0
ARC
8
DEFAULT_255_1_234
10
22.2134652
20
110.9925919
40
0.7547848
50
181.1218675
51
193.87563
0
ARC
8
DEFAULT_255_1_234
10
22.4204833
20
111.003658
40
0.9620055
50
179.9918545
51
181.5394234
0
ARC
8
DEFAULT_255_1_234
10
22.2353935
20
111.1199788
40
0.7769248
50
169.5837241
51
180.2757934
0
ARC
8
DEFAULT_255_1_234
10
22.0516873
20
111.1539229
40
0.590109
50
155.0365899
51
169.6003176
0
ARC
8
DEFAULT_255_1_234
10
21.9381337
20
111.2086677
40
0.4640625
50
136.783148
51
155.2472683
0
ARC
8
DEFAULT_255_1_234
10
21.8991814
20
111.2417562
40
0.4130255
50
121.7633186
51
136.428115
0
ARC
8
DEFAULT_255_1_234
10
21.9126776
20
111.2168227
40
0.4413323
50
95.6459699
51
121.5490577
0
ARC
8
DEFAULT_255_1_234
10
21.9284058
20
111.1059949
40
0.55319
50
89.924208
51
96.1377933
0
ARC
8
DEFAULT_255_1_234
10
21.9334491
20
111.1178542
40
0.5413475
50
76.6779277
51
90.4563316
0
ARC
8
DEFAULT_255_1_234
10
21.9728114
20
111.2769114
40
0.3775041
50
47.485847
51
76.9287264
0
ARC
8
DEFAULT_255_1_234
10
21.9581087
20
111.2669159
40
0.3948286
50
16.5424086
51
46.8933463
0
ARC
8
DEFAULT_255_1_234
10
21.7973244
20
111.2140861
40
0.564021
50
5.4072051
51
17.0365086
0
ARC
8
DEFAULT_255_1_234
10
21.6534261
20
111.1909679
40
0.5556559
50
7.8891745
51
15.9239216
0
ARC
8
DEFAULT_255_1_234
10
21.8521274
20
111.2486631
40
0.3487515
50
15.7653144
51
27.9410532
0
ARC
8
DEFAULT_255_1_234
10
21.9625492
20
111.307779
40
0.2235026
50
27.8166557
51
46.4008329
0
ARC
8
DEFAULT_255_1_234
10
21.9675135
20
111.3072082
40
0.2205286
50
47.4371857
51
75.0698205
0
ARC
8
DEFAULT_255_1_234
10
21.9366529
20
111.1997765
40
0.3322915
50
74.7008593
51
87.8124495
0
ARC
8
DEFAULT_255_1_234
10
21.9293217
20
111.0941844
40
0.4380987
50
87.3814673
51
90.0240855
0
ARC
8
DEFAULT_255_1_234
10
21.925476
20
111.2119291
40
0.3203749
50
89.3451631
51
108.5745436
0
ARC
8
DEFAULT_255_1_234
10
21.9117865
20
111.2632908
40
0.2673494
50
109.2998449
51
143.3037509
0
ARC
8
DEFAULT_255_1_234
10
21.9879938
20
111.2046881
40
0.3634757
50
143.0753173
51
163.1916937
0
ARC
8
DEFAULT_255_1_234
10
22.1831666
20
111.1430967
40
0.5681262
50
162.9373603
51
174.6208611
0
ARC
8
DEFAULT_255_1_234
10
22.4457708
20
111.114301
40
0.8322832
50
174.3419979
51
180.1430411
0
ARC
8
DEFAULT_255_1_234
10
22.3526864
20
110.9948698
40
0.7392076
50
179.6817502
51
189.150529
0
ARC
8
DEFAULT_255_1_234
10
22.1026112
20
110.953219
40
0.4856932
50
188.9910863
51
203.5773039
0
ARC
8
DEFAULT_255_1_234
10
21.9946445
20
110.9084211
40
0.3688271
50
203.9077269
51
215.1312379
0
ARC
8
DEFAULT_255_1_234
10
21.9023539
20
110.8368941
40
0.2522457
50
213.9071664
51
263.8849284
0
ARC
8
DEFAULT_255_1_234
10
21.9148868
20
110.9153518
40
0.3316174
50
263.1758525
51
270.1031083
0
ARC
8
DEFAULT_255_1_234
10
21.918096
20
111.0400365
40
0.4563091
50
269.6719807
51
279.0609165
0
ARC
8
DEFAULT_255_1_234
10
21.9447728
20
110.8787907
40
0.2928759
50
278.8750225
51
293.6346586
0
ARC
8
DEFAULT_255_1_234
10
21.9767936
20
110.80359
40
0.2111472
50
293.8553404
51
310.0518804
0
ARC
8
DEFAULT_255_1_234
10
21.977279
20
110.7973516
40
0.2060917
50
311.0646779
51
332.0108348
0
ARC
8
DEFAULT_255_1_234
10
21.8580517
20
110.8630978
40
0.3422352
50
331.6588543
51
343.2878891
0
ARC
8
DEFAULT_255_1_234
10
21.6518032
20
110.9264798
40
0.5580003
50
343.1446044
51
351.010618
0
ARC
8
DEFAULT_255_1_234
10
21.4976678
20
110.9545871
40
0.7146438
50
350.7157277
51
351.1602153
0
LINE
8
DEFAULT_255_1_234
10
23.0190444
20
111.6487433
11
23.0190444
21
110.4737
0
LINE
8
DEFAULT_255_1_234
10
23.0190444
20
110.4737
11
22.8696541
21
110.4737
0
LINE
8
DEFAULT_255_1_234
10
22.8696541
20
110.4737
11
22.8696541
21
111.4640133
0
LINE
8
DEFAULT_255_1_234
10
22.8696541
20
111.4640133
11
22.5700703
21
111.3539785
0
LINE
8
DEFAULT_255_1_234
10
22.5700703
20
111.3539785
11
22.5700703
21
111.4889117
0
LINE
8
DEFAULT_255_1_234
10
22.5700703
20
111.4889117
11
22.9957524
21
111.6487433
0
LINE
8
DEFAULT_255_1_234
10
22.9957524
20
111.6487433
11
23.0190444
21
111.6487433
0
LINE
8
DEFAULT_255_1_234
10
24.1876624
20
111.1652327
11
24.1876624
21
110.9724709
0
LINE
8
DEFAULT_255_1_234
10
23.4495456
20
110.9523916
11
23.4495456
21
111.1507755
0
LINE
8
DEFAULT_255_1_234
10
24.0390752
20
110.9323123
11
24.0390752
21
111.1756739
0
LINE
8
DEFAULT_255_1_234
10
23.5981328
20
111.1869184
11
23.5981328
21
110.9491789
0
ARC
8
DEFAULT_255_1_234
10
22.9629513
20
110.9675805
40
1.2247208
50
353.8441951
51
0.2287902
0
ARC
8
DEFAULT_255_1_234
10
23.4269017
20
110.9157806
40
0.7578929
50
344.4934747
51
353.9765454
0
ARC
8
DEFAULT_255_1_234
10
23.7261607
20
110.8306981
40
0.4467846
50
329.2803592
51
344.7472793
0
ARC
8
DEFAULT_255_1_234
10
23.8254432
20
110.7762018
40
0.3336173
50
324.9352394
51
328.6160465
0
ARC
8
DEFAULT_255_1_234
10
23.8631541
20
110.7498427
40
0.2876076
50
280.580143
51
324.9173126
0
ARC
8
DEFAULT_255_1_234
10
23.8230333
20
110.9169099
40
0.4592847
50
269.5977311
51
281.6734359
0
ARC
8
DEFAULT_255_1_234
10
23.8158239
20
110.9049173
40
0.4472986
50
256.6228859
51
270.51044
0
ARC
8
DEFAULT_255_1_234
10
23.7756217
20
110.7500877
40
0.2873874
50
215.8618325
51
257.2788573
0
ARC
8
DEFAULT_255_1_234
10
23.8777248
20
110.8185977
40
0.4102928
50
197.9693508
51
215.2623606
0
ARC
8
DEFAULT_255_1_234
10
24.1262364
20
110.9024709
40
0.6725652
50
187.8816417
51
198.2346507
0
ARC
8
DEFAULT_255_1_234
10
24.5220572
20
110.9596079
40
1.0724845
50
180.8976217
51
188.0055519
0
ARC
8
DEFAULT_255_1_234
10
24.802076
20
110.9699777
40
1.3526448
50
180.7449369
51
181.1510016
0
ARC
8
DEFAULT_255_1_234
10
24.6443489
20
111.1556042
40
1.1948131
50
173.7675579
51
180.231553
0
ARC
8
DEFAULT_255_1_234
10
24.1925636
20
111.2066666
40
0.7401564
50
164.3058563
51
173.9002247
0
ARC
8
DEFAULT_255_1_234
10
23.9013705
20
111.2905656
40
0.4371288
50
148.7922025
51
164.568378
0
ARC
8
DEFAULT_255_1_234
10
23.8062157
20
111.3436929
40
0.3282386
50
144.5883898
51
148.1176286
0
ARC
8
DEFAULT_255_1_234
10
23.7719055
20
111.3676315
40
0.2864044
50
101.6440918
51
144.514236
0
ARC
8
DEFAULT_255_1_234
10
23.8144122
20
111.1987069
40
0.4604934
50
89.5284041
51
102.5819763
0
ARC
8
DEFAULT_255_1_234
10
23.8223209
20
111.1948018
40
0.464401
50
77.0437873
51
90.5081339
0
ARC
8
DEFAULT_255_1_234
10
23.8625211
20
111.3590615
40
0.2953195
50
48.2778575
51
77.4994676
0
ARC
8
DEFAULT_255_1_234
10
23.8697842
20
111.3719746
40
0.2808655
50
36.3142134
51
47.6305865
0
ARC
8
DEFAULT_255_1_234
10
23.7829149
20
111.3134515
40
0.3855453
50
18.2931786
51
35.6769206
0
ARC
8
DEFAULT_255_1_234
10
23.5285908
20
111.2261593
40
0.654423
50
8.024666
51
18.5605216
0
ARC
8
DEFAULT_255_1_234
10
23.1122828
20
111.1646792
40
1.0752407
50
1.1274072
51
8.1718305
0
ARC
8
DEFAULT_255_1_234
10
22.7887019
20
111.1519885
40
1.3990231
50
0.5424119
51
1.3863029
0
ARC
8
DEFAULT_255_1_234
10
22.9708397
20
111.1792342
40
1.0682415
50
359.8090433
51
4.9407866
0
ARC
8
DEFAULT_255_1_234
10
23.3918411
20
111.2168113
40
0.6455691
50
4.8362157
51
12.2904523
0
ARC
8
DEFAULT_255_1_234
10
23.6673525
20
111.2781965
40
0.3633074
50
12.0805627
51
23.8173984
0
ARC
8
DEFAULT_255_1_234
10
23.7847231
20
111.3278919
40
0.2358723
50
24.2871213
51
31.3935614
0
ARC
8
DEFAULT_255_1_234
10
23.8371928
20
111.3622233
40
0.1732111
50
30.7407893
51
82.4657128
0
ARC
8
DEFAULT_255_1_234
10
23.8192062
20
111.2738691
40
0.263235
50
81.1060089
51
90.2184952
0
ARC
8
DEFAULT_255_1_234
10
23.8156361
20
111.2996924
40
0.2374236
50
89.3806855
51
105.6762551
0
ARC
8
DEFAULT_255_1_234
10
23.7972992
20
111.3663567
40
0.1682847
50
105.7981136
51
149.7388061
0
ARC
8
DEFAULT_255_1_234
10
23.903707
20
111.302395
40
0.2924306
50
149.4208916
51
163.6286378
0
ARC
8
DEFAULT_255_1_234
10
24.1127958
20
111.238625
40
0.5110213
50
163.3763315
51
172.1410975
0
ARC
8
DEFAULT_255_1_234
10
24.4428677
20
111.1913518
40
0.8444586
50
172.0259487
51
178.0703232
0
ARC
8
DEFAULT_255_1_234
10
24.7458767
20
111.1769906
40
1.1477868
50
177.8631668
51
179.5044149
0
ARC
8
DEFAULT_255_1_234
10
24.6386171
20
110.9455389
40
1.0404907
50
179.7995573
51
185.2460446
0
ARC
8
DEFAULT_255_1_234
10
24.234321
20
110.9072513
40
0.6343885
50
185.1411642
51
193.0079639
0
ARC
8
DEFAULT_255_1_234
10
23.9699683
20
110.8447641
40
0.3627568
50
192.7897626
51
205.2507664
0
ARC
8
DEFAULT_255_1_234
10
23.865323
20
110.7980415
40
0.2481908
50
205.8005384
51
211.2537509
0
ARC
8
DEFAULT_255_1_234
10
23.812967
20
110.762958
40
0.1852521
50
210.3789793
51
238.4008143
0
ARC
8
DEFAULT_255_1_234
10
23.8110192
20
110.7676376
40
0.1882621
50
239.6520629
51
265.9793761
0
ARC
8
DEFAULT_255_1_234
10
23.8195393
20
110.8348427
40
0.2559272
50
265.1315437
51
270.060332
0
ARC
8
DEFAULT_255_1_234
10
23.8224171
20
110.8024534
40
0.2235528
50
269.3314664
51
287.2178029
0
ARC
8
DEFAULT_255_1_234
10
23.8362023
20
110.7521279
40
0.1714108
50
287.7958004
51
329.080874
0
ARC
8
DEFAULT_255_1_234
10
23.740448
20
110.811893
40
0.2842745
50
328.6634704
51
343.3325132
0
ARC
8
DEFAULT_255_1_234
10
23.52315
20
110.8795863
40
0.5118644
50
343.0499468
51
351.9393422
0
ARC
8
DEFAULT_255_1_234
10
23.17648
20
110.9306949
40
0.8622784
50
351.8069023
51
357.7959224
0
ARC
8
DEFAULT_255_1_234
10
22.8529356
20
110.9474721
40
1.1862365
50
357.5871873
51
359.2677531
0
LINE
8
DEFAULT_255_1_234
10
23.7677235
20
116.3210963
11
23.6488538
21
116.3516169
0
LINE
8
DEFAULT_255_1_234
10
23.6488538
20
116.3516169
11
23.7082887
21
116.9347211
0
LINE
8
DEFAULT_255_1_234
10
23.7082887
20
116.9347211
11
24.3074563
21
116.9347211
0
LINE
8
DEFAULT_255_1_234
10
24.3074563
20
116.9347211
11
24.3074563
21
116.7973784
0
LINE
8
DEFAULT_255_1_234
10
24.3074563
20
116.7973784
11
23.834387
21
116.7973784
0
LINE
8
DEFAULT_255_1_234
10
23.834387
20
116.7973784
11
23.7990473
21
116.4785184
0
LINE
8
DEFAULT_255_1_234
10
23.6070888
20
116.0729156
11
23.7476442
21
116.0729156
0
LINE
8
DEFAULT_255_1_234
10
23.8070791
20
116.3532232
11
23.7677235
21
116.3210963
0
ARC
8
DEFAULT_255_1_234
10
23.9845257
20
116.160523
40
0.3681349
50
93.7182161
51
120.2538958
0
ARC
8
DEFAULT_255_1_234
10
23.993952
20
116.0797394
40
0.449379
50
89.9660152
51
94.2496022
0
ARC
8
DEFAULT_255_1_234
10
23.9980254
20
116.1386549
40
0.390482
50
73.8043271
51
90.5585896
0
ARC
8
DEFAULT_255_1_234
10
24.0215151
20
116.2244602
40
0.3015334
50
41.3071453
51
73.5430202
0
ARC
8
DEFAULT_255_1_234
10
23.9798978
20
116.1886324
40
0.3564457
50
13.5075983
51
41.2174222
0
ARC
8
DEFAULT_255_1_234
10
23.8157182
20
116.1456486
40
0.5261351
50
1.1331335
51
13.8829381
0
ARC
8
DEFAULT_255_1_234
10
23.6745551
20
116.1380665
40
0.6674378
50
359.9919444
51
1.544251
0
ARC
8
DEFAULT_255_1_234
10
23.8022377
20
116.133928
40
0.5397702
50
347.8572367
51
0.4293338
0
ARC
8
DEFAULT_255_1_234
10
23.9772695
20
116.0942736
40
0.3603188
50
323.673004
51
348.1672506
0
ARC
8
DEFAULT_255_1_234
10
24.0067203
20
116.0763168
40
0.3259678
50
316.8171152
51
323.1492751
0
ARC
8
DEFAULT_255_1_234
10
24.0128392
20
116.072646
40
0.3189975
50
281.8396411
51
316.5457803
0
ARC
8
DEFAULT_255_1_234
10
23.9752656
20
116.2281762
40
0.4789527
50
269.5770101
51
282.4214771
0
ARC
8
DEFAULT_255_1_234
10
23.9681467
20
116.2068125
40
0.45759
50
256.2427136
51
270.4486331
0
ARC
8
DEFAULT_255_1_234
10
23.938237
20
116.0868229
40
0.3339303
50
228.9023911
51
256.3314342
0
ARC
8
DEFAULT_255_1_234
10
23.9308602
20
116.0751746
40
0.32031
50
193.753695
51
228.5271154
0
ARC
8
DEFAULT_255_1_234
10
24.0546556
20
116.11148
40
0.4492253
50
184.924711
51
194.497588
0
ARC
8
DEFAULT_255_1_234
10
24.0739123
20
116.1150591
40
0.3289787
50
187.3600538
51
198.6732863
0
ARC
8
DEFAULT_255_1_234
10
23.9689417
20
116.0786674
40
0.217884
50
198.4451669
51
217.794479
0
ARC
8
DEFAULT_255_1_234
10
23.9393592
20
116.0577085
40
0.1816698
50
218.2887171
51
228.5612368
0
ARC
8
DEFAULT_255_1_234
10
23.9491379
20
116.0708963
40
0.1980329
50
228.9654866
51
258.1234728
0
ARC
8
DEFAULT_255_1_234
10
23.9697089
20
116.1589833
40
0.2884748
50
257.7258293
51
270.401361
0
ARC
8
DEFAULT_255_1_234
10
23.9741975
20
116.1144821
40
0.2439788
50
269.4204404
51
286.4209037
0
ARC
8
DEFAULT_255_1_234
10
23.9890463
20
116.0605657
40
0.1880666
50
286.7251356
51
320.600362
0
ARC
8
DEFAULT_255_1_234
10
23.9507288
20
116.0916595
40
0.2374121
50
320.6712579
51
344.5441685
0
ARC
8
DEFAULT_255_1_234
10
23.8350614
20
116.1256045
40
0.3579479
50
344.2412205
51
356.7357071
0
ARC
8
DEFAULT_255_1_234
10
23.7101763
20
116.1359444
40
0.4832297
50
356.3548756
51
0.0500261
0
ARC
8
DEFAULT_255_1_234
10
23.8438272
20
116.139065
40
0.3495889
50
359.5576869
51
12.953486
0
ARC
8
DEFAULT_255_1_234
10
23.9493169
20
116.1646434
40
0.2410532
50
12.6490276
51
41.6081334
0
ARC
8
DEFAULT_255_1_234
10
23.972354
20
116.1842321
40
0.2108218
50
41.7850273
51
85.9892764
0
ARC
8
DEFAULT_255_1_234
10
23.9600277
20
116.1029462
40
0.2928454
50
84.6957577
51
90.0676183
0
ARC
8
DEFAULT_255_1_234
10
23.9576761
20
116.0360716
40
0.3597255
50
89.6804936
51
99.1614436
0
ARC
8
DEFAULT_255_1_234
10
23.9371392
20
116.1588131
40
0.235281
50
98.9830931
51
113.8908934
0
ARC
8
DEFAULT_255_1_234
10
23.9141802
20
116.2129587
40
0.176479
50
114.1950727
51
127.3641004
0
LINE
8
DEFAULT_255_1_234
10
23.9961628
20
122.2264211
11
23.9961628
21
121.449752
0
LINE
8
DEFAULT_255_1_234
10
23.9961628
20
121.449752
11
24.1584039
21
121.449752
0
LINE
8
DEFAULT_255_1_234
10
24.1584039
20
121.449752
11
24.1584039
21
121.3284728
0
LINE
8
DEFAULT_255_1_234
10
24.1584039
20
121.3284728
11
23.9961628
21
121.3284728
0
LINE
8
DEFAULT_255_1_234
10
23.9961628
20
121.3284728
11
23.9961628
21
121.057
0
LINE
8
DEFAULT_255_1_234
10
23.9961628
20
121.057
11
23.8467725
21
121.057
0
LINE
8
DEFAULT_255_1_234
10
23.8467725
20
121.057
11
23.8467725
21
121.3284728
0
LINE
8
DEFAULT_255_1_234
10
23.8467725
20
121.3284728
11
23.3142682
21
121.3284728
0
LINE
8
DEFAULT_255_1_234
10
23.3142682
20
121.3284728
11
23.3142682
21
121.4160187
0
LINE
8
DEFAULT_255_1_234
10
23.3142682
20
121.4160187
11
23.8379375
21
122.2264211
0
LINE
8
DEFAULT_255_1_234
10
23.8379375
20
122.2264211
11
23.9961628
21
122.2264211
0
LINE
8
DEFAULT_255_1_234
10
23.8291026
20
121.9910912
11
23.4829347
21
121.449752
0
LINE
8
DEFAULT_255_1_234
10
23.4829347
20
121.449752
11
23.8467725
21
121.449752
0
LINE
8
DEFAULT_255_1_234
10
23.8467725
20
121.449752
11
23.8467725
21
122.0232181
0
LINE
8
DEFAULT_255_1_234
10
23.8467725
20
122.0232181
11
23.8291026
21
121.9910912
0
LINE
8
DEFAULT_255_1_234
10
23.7966378
20
126.8844169
11
23.7966378
21
127.0056962
0
LINE
8
DEFAULT_255_1_234
10
23.7966378
20
127.0056962
11
23.908279
21
127.0056962
0
LINE
8
DEFAULT_255_1_234
10
23.7179268
20
127.2113087
11
23.5693396
21
127.2113087
0
LINE
8
DEFAULT_255_1_234
10
23.5588983
20
126.6571188
11
23.7082887
21
126.6571188
0
LINE
8
DEFAULT_255_1_234
10
23.908279
20
126.8844169
11
23.7966378
21
126.8844169
0
ARC
8
DEFAULT_255_1_234
10
23.9053656
20
127.3449713
40
0.3392876
50
270.4919872
51
281.8951556
0
ARC
8
DEFAULT_255_1_234
10
23.9294918
20
127.2347702
40
0.2264817
50
281.6691735
51
301.2943132
0
ARC
8
DEFAULT_255_1_234
10
23.9465128
20
127.2036304
40
0.1910381
50
301.7833094
51
311.7545298
0
ARC
8
DEFAULT_255_1_234
10
23.9556704
20
127.1934748
40
0.1773635
50
311.7323931
51
354.2802411
0
ARC
8
DEFAULT_255_1_234
10
23.8830329
20
127.2059722
40
0.2509385
50
353.0937916
51
0.1181479
0
ARC
8
DEFAULT_255_1_234
10
23.8369114
20
127.2107386
40
0.2970898
50
359.1805295
51
15.0453146
0
ARC
8
DEFAULT_255_1_234
10
23.9714951
20
127.2499992
40
0.1569564
50
13.9577229
51
77.6713066
0
ARC
8
DEFAULT_255_1_234
10
23.932848
20
127.1114949
40
0.3006298
50
76.1116566
51
90.7026153
0
ARC
8
DEFAULT_255_1_234
10
23.9269318
20
127.1388545
40
0.2732568
50
89.5324876
51
103.531937
0
ARC
8
DEFAULT_255_1_234
10
23.9068762
20
127.2187884
40
0.1908508
50
103.2931773
51
133.5619022
0
ARC
8
DEFAULT_255_1_234
10
23.9024251
20
127.2247375
40
0.1834746
50
133.8349307
51
173.5344437
0
ARC
8
DEFAULT_255_1_234
10
23.9747294
20
127.2119213
40
0.2568033
50
172.5096846
51
180.1366907
0
ARC
8
DEFAULT_255_1_234
10
23.8796188
20
127.2153622
40
0.3103056
50
155.3484492
51
180.7484736
0
ARC
8
DEFAULT_255_1_234
10
23.8747277
20
127.2124846
40
0.3070957
50
131.5744599
51
154.4798489
0
ARC
8
DEFAULT_255_1_234
10
23.9060424
20
127.180831
40
0.3515643
50
96.9875458
51
131.9690667
0
ARC
8
DEFAULT_255_1_234
10
23.9279904
20
127.0562636
40
0.4779224
50
89.8596053
51
97.7825159
0
ARC
8
DEFAULT_255_1_234
10
23.9327967
20
127.0300616
40
0.5041361
50
78.3655447
51
90.4131539
0
ARC
8
DEFAULT_255_1_234
10
23.9685885
20
127.1959887
40
0.3344039
50
56.6229102
51
78.638727
0
ARC
8
DEFAULT_255_1_234
10
23.9900829
20
127.2335805
40
0.2912001
50
47.0253525
51
56.0854072
0
ARC
8
DEFAULT_255_1_234
10
23.9920609
20
127.2375223
40
0.2869704
50
10.9208013
51
46.7778124
0
ARC
8
DEFAULT_255_1_234
10
23.8556675
20
127.2059857
40
0.426899
50
359.6364486
51
11.6087304
0
ARC
8
DEFAULT_255_1_234
10
24.0391519
20
127.2044752
40
0.243409
50
332.3549906
51
359.7179418
0
ARC
8
DEFAULT_255_1_234
10
23.9741121
20
127.2353142
40
0.3153459
50
325.2333722
51
332.8745602
0
ARC
8
DEFAULT_255_1_234
10
23.9893744
20
127.2246828
40
0.2967456
50
292.9802137
51
325.2392345
0
ARC
8
DEFAULT_255_1_234
10
23.9619118
20
127.2780863
40
0.3566604
50
292.5402179
51
293.6924929
0
ARC
8
DEFAULT_255_1_234
10
24.0011714
20
126.6326091
40
0.3307468
50
57.6435486
51
72.8625112
0
ARC
8
DEFAULT_255_1_234
10
24.0366214
20
126.6900549
40
0.2632492
50
36.7248896
51
57.4697979
0
ARC
8
DEFAULT_255_1_234
10
24.0354847
20
126.691322
40
0.2634081
50
8.0545065
51
36.356114
0
ARC
8
DEFAULT_255_1_234
10
23.9492032
20
126.6758174
40
0.3510261
50
359.8320645
51
8.5869982
0
ARC
8
DEFAULT_255_1_234
10
23.9116808
20
126.6710101
40
0.3885653
50
343.9829931
51
0.5571613
0
ARC
8
DEFAULT_255_1_234
10
24.0003005
20
126.6467438
40
0.2966924
50
311.6359546
51
343.7651759
0
ARC
8
DEFAULT_255_1_234
10
23.9624574
20
126.6894102
40
0.3537231
50
279.7829875
51
311.6255694
0
ARC
8
DEFAULT_255_1_234
10
23.9323351
20
126.833128
40
0.5004971
50
269.7286406
51
280.3856417
0
ARC
8
DEFAULT_255_1_234
10
23.9261423
20
126.8289996
40
0.4963778
50
256.6828919
51
270.4412052
0
ARC
8
DEFAULT_255_1_234
10
23.8922719
20
126.6905394
40
0.3538406
50
229.4223008
51
256.8556159
0
ARC
8
DEFAULT_255_1_234
10
23.8508112
20
126.6438736
40
0.2914296
50
181.818294
51
229.6455059
0
ARC
8
DEFAULT_255_1_234
10
23.9548068
20
126.6569496
40
0.3959084
50
179.9755256
51
183.2323064
0
ARC
8
DEFAULT_255_1_234
10
23.9375814
20
126.6549037
40
0.2293034
50
179.4465117
51
196.2869258
0
ARC
8
DEFAULT_255_1_234
10
23.8888222
20
126.6415651
40
0.1787621
50
196.5661473
51
227.705904
0
ARC
8
DEFAULT_255_1_234
10
23.9052317
20
126.6599155
40
0.2033784
50
227.7652068
51
257.8762805
0
ARC
8
DEFAULT_255_1_234
10
23.9277287
20
126.7542156
40
0.3003081
50
257.4584385
51
270.426602
0
ARC
8
DEFAULT_255_1_234
10
23.9322853
20
126.7831996
40
0.329292
50
269.5962073
51
280.8789248
0
ARC
8
DEFAULT_255_1_234
10
23.9552382
20
126.6685685
40
0.2123908
50
280.6346389
51
299.8595945
0
ARC
8
DEFAULT_255_1_234
10
23.9743289
20
126.6323212
40
0.171457
50
300.3576302
51
314.5517981
0
ARC
8
DEFAULT_255_1_234
10
23.9660349
20
126.6383919
40
0.1816095
50
315.0728369
51
345.0431014
0
ARC
8
DEFAULT_255_1_234
10
23.8737163
20
126.6652841
40
0.2777492
50
344.5986631
51
357.9269593
0
ARC
8
DEFAULT_255_1_234
10
23.7841489
20
126.6714276
40
0.3674917
50
357.4748886
51
0.0231117
0
ARC
8
DEFAULT_255_1_234
10
23.8864599
20
126.6738679
40
0.2651907
50
359.5047933
51
13.4239635
0
ARC
8
DEFAULT_255_1_234
10
23.9731242
20
126.6960478
40
0.1757509
50
12.9498199
51
48.7551375
0
ARC
8
DEFAULT_255_1_234
10
23.9548976
20
126.67114
40
0.2065134
50
49.5088623
51
72.1836453
0
ARC
8
DEFAULT_255_1_234
10
23.9191129
20
126.5649291
40
0.3185836
50
71.9010081
51
84.3554254
0
ARC
8
DEFAULT_255_1_234
10
23.9029761
20
126.4288326
40
0.4556151
50
84.0193428
51
89.333121
0
LINE
8
DEFAULT_255_1_234
10
24.3468119
20
131.7615792
11
24.3468119
21
131.6403
0
LINE
8
DEFAULT_255_1_234
10
24.3468119
20
131.6403
11
23.580584
21
131.6403
0
LINE
8
DEFAULT_255_1_234
10
23.580584
20
131.6403
11
23.580584
21
131.7471221
0
LINE
8
DEFAULT_255_1_234
10
23.580584
20
131.7471221
11
23.9853836
21
132.1968995
0
LINE
8
DEFAULT_255_1_234
10
23.7066823
20
132.4651595
11
23.5580952
21
132.4651595
0
LINE
8
DEFAULT_255_1_234
10
24.0729296
20
132.1013218
11
23.7596918
21
131.7615792
0
LINE
8
DEFAULT_255_1_234
10
23.7596918
20
131.7615792
11
24.3468119
21
131.7615792
0
ARC
8
DEFAULT_255_1_234
10
22.636367
20
133.3898527
40
1.8008286
50
318.5132453
51
320.7828378
0
ARC
8
DEFAULT_255_1_234
10
23.1650644
20
132.9595426
40
1.1191493
50
320.7372736
51
323.9737074
0
ARC
8
DEFAULT_255_1_234
10
23.5570501
20
132.6755361
40
0.6350923
50
323.8961724
51
328.6421089
0
ARC
8
DEFAULT_255_1_234
10
23.7617096
20
132.5493031
40
0.3946393
50
328.8299013
51
331.789948
0
ARC
8
DEFAULT_255_1_234
10
23.8614274
20
132.4978509
40
0.2824501
50
331.4255242
51
352.9364833
0
ARC
8
DEFAULT_255_1_234
10
23.8750775
20
132.4947976
40
0.2685315
50
353.2248685
51
0.0169286
0
ARC
8
DEFAULT_255_1_234
10
23.8960652
20
132.497095
40
0.2475536
50
359.4866256
51
15.9339782
0
ARC
8
DEFAULT_255_1_234
10
23.9467637
20
132.5107286
40
0.1950618
50
16.1714718
51
43.5284424
0
ARC
8
DEFAULT_255_1_234
10
23.9544946
20
132.5184573
40
0.184134
50
43.4415429
51
83.1661404
0
ARC
8
DEFAULT_255_1_234
10
23.9410864
20
132.4447771
40
0.258926
50
82.160215
51
90.1505798
0
ARC
8
DEFAULT_255_1_234
10
23.9379291
20
132.3910865
40
0.3126255
50
89.5460705
51
102.5418777
0
ARC
8
DEFAULT_255_1_234
10
23.9136377
20
132.4941665
40
0.2067346
50
102.1739365
51
129.2061916
0
ARC
8
DEFAULT_255_1_234
10
23.9057449
20
132.5066094
40
0.1921118
50
129.7279328
51
135.7542026
0
ARC
8
DEFAULT_255_1_234
10
23.9178977
20
132.4969045
40
0.2075944
50
136.175737
51
166.3674722
0
ARC
8
DEFAULT_255_1_234
10
24.0185896
20
132.4699182
40
0.3118201
50
165.9092917
51
178.8683903
0
ARC
8
DEFAULT_255_1_234
10
24.1050757
20
132.4652179
40
0.3983935
50
178.438168
51
180.0083905
0
ARC
8
DEFAULT_255_1_234
10
23.9649359
20
132.4691231
40
0.4068601
50
163.2878735
51
180.5581814
0
ARC
8
DEFAULT_255_1_234
10
23.8847621
20
132.491184
40
0.3237344
50
133.454115
51
162.9470031
0
ARC
8
DEFAULT_255_1_234
10
23.9026162
20
132.4722
40
0.349795
50
100.7869394
51
133.4384016
0
ARC
8
DEFAULT_255_1_234
10
23.9373934
20
132.3173319
40
0.5084616
50
89.6605301
51
101.3704185
0
ARC
8
DEFAULT_255_1_234
10
23.9440273
20
132.3234496
40
0.502348
50
78.2171172
51
90.4130393
0
ARC
8
DEFAULT_255_1_234
10
23.9795351
20
132.4858637
40
0.3361092
50
55.9268222
51
78.4888551
0
ARC
8
DEFAULT_255_1_234
10
23.9991791
20
132.5197324
40
0.2970617
50
47.9292255
51
55.4054003
0
ARC
8
DEFAULT_255_1_234
10
24.0093352
20
132.5300502
40
0.2825983
50
4.3347696
51
48.0560701
0
ARC
8
DEFAULT_255_1_234
10
23.8997745
20
132.5130601
40
0.393225
50
359.925209
51
5.5967654
0
ARC
8
DEFAULT_255_1_234
10
23.9426637
20
132.5186816
40
0.3503892
50
337.8914096
51
358.9967724
0
ARC
8
DEFAULT_255_1_234
10
23.6713049
20
132.6233706
40
0.6412172
50
326.9135351
51
338.3505194
0
ARC
8
DEFAULT_255_1_234
10
23.2727353
20
132.8788284
40
1.1146189
50
319.6472867
51
327.095818
0
ARC
8
DEFAULT_255_1_234
10
22.8894356
20
133.195
40
1.6114559
50
317.2586784
51
319.9046139
0
LINE
8
DEFAULT_255_1_234
10
24.0771137
20
138.1070433
11
24.0771137
21
136.932
0
LINE
8
DEFAULT_255_1_234
10
24.0771137
20
136.932
11
23.9277234
21
136.932
0
LINE
8
DEFAULT_255_1_234
10
23.9277234
20
136.932
11
23.9277234
21
137.9223133
0
LINE
8
DEFAULT_255_1_234
10
23.9277234
20
137.9223133
11
23.6281396
21
137.8122785
0
LINE
8
DEFAULT_255_1_234
10
23.6281396
20
137.8122785
11
23.6281396
21
137.9472117
0
LINE
8
DEFAULT_255_1_234
10
23.6281396
20
137.9472117
11
24.0538217
21
138.1070433
0
LINE
8
DEFAULT_255_1_234
10
24.0538217
20
138.1070433
11
24.0771137
21
138.1070433
0
LINE
8
DEFAULT_255_1_234
10
24.3138817
20
142.9152327
11
24.3138817
21
142.7224709
0
LINE
8
DEFAULT_255_1_234
10
23.575765
20
142.7023916
11
23.575765
21
142.9007755
0
LINE
8
DEFAULT_255_1_234
10
24.1652946
20
142.6823123
11
24.1652946
21
142.9256739
0
LINE
8
DEFAULT_255_1_234
10
23.7243521
20
142.9369184
11
23.7243521
21
142.6991789
0
ARC
8
DEFAULT_255_1_234
10
23.0891707
20
142.7175805
40
1.2247208
50
353.8441951
51
0.2287902
0
ARC
8
DEFAULT_255_1_234
10
23.5531211
20
142.6657806
40
0.7578929
50
344.4934747
51
353.9765454
0
ARC
8
DEFAULT_255_1_234
10
23.8523801
20
142.5806981
40
0.4467846
50
329.2803592
51
344.7472793
0
ARC
8
DEFAULT_255_1_234
10
23.9516626
20
142.5262018
40
0.3336173
50
324.9352394
51
328.6160465
0
ARC
8
DEFAULT_255_1_234
10
23.9893734
20
142.4998427
40
0.2876076
50
280.580143
51
324.9173126
0
ARC
8
DEFAULT_255_1_234
10
23.9492527
20
142.6669099
40
0.4592847
50
269.5977311
51
281.6734359
0
ARC
8
DEFAULT_255_1_234
10
23.9420433
20
142.6549173
40
0.4472986
50
256.6228859
51
270.51044
0
ARC
8
DEFAULT_255_1_234
10
23.901841
20
142.5000877
40
0.2873874
50
215.8618325
51
257.2788573
0
ARC
8
DEFAULT_255_1_234
10
24.0039442
20
142.5685977
40
0.4102928
50
197.9693508
51
215.2623606
0
ARC
8
DEFAULT_255_1_234
10
24.2524558
20
142.6524709
40
0.6725652
50
187.8816417
51
198.2346507
0
ARC
8
DEFAULT_255_1_234
10
24.6482766
20
142.7096079
40
1.0724845
50
180.8976217
51
188.0055519
0
ARC
8
DEFAULT_255_1_234
10
24.9282954
20
142.7199777
40
1.3526448
50
180.7449369
51
181.1510016
0
ARC
8
DEFAULT_255_1_234
10
24.7705683
20
142.9056042
40
1.1948131
50
173.7675579
51
180.231553
0
ARC
8
DEFAULT_255_1_234
10
24.318783
20
142.9566666
40
0.7401564
50
164.3058563
51
173.9002247
0
ARC
8
DEFAULT_255_1_234
10
24.0275899
20
143.0405656
40
0.4371288
50
148.7922025
51
164.568378
0
ARC
8
DEFAULT_255_1_234
10
23.9324351
20
143.0936929
40
0.3282386
50
144.5883898
51
148.1176286
0
ARC
8
DEFAULT_255_1_234
10
23.8981249
20
143.1176315
40
0.2864044
50
101.6440918
51
144.514236
0
ARC
8
DEFAULT_255_1_234
10
23.9406315
20
142.9487069
40
0.4604934
50
89.5284041
51
102.5819763
0
ARC
8
DEFAULT_255_1_234
10
23.9485403
20
142.9448018
40
0.464401
50
77.0437873
51
90.5081339
0
ARC
8
DEFAULT_255_1_234
10
23.9887405
20
143.1090615
40
0.2953195
50
48.2778575
51
77.4994676
0
ARC
8
DEFAULT_255_1_234
10
23.9960036
20
143.1219746
40
0.2808655
50
36.3142134
51
47.6305865
0
ARC
8
DEFAULT_255_1_234
10
23.9091343
20
143.0634515
40
0.3855453
50
18.2931786
51
35.6769206
0
ARC
8
DEFAULT_255_1_234
10
23.6548102
20
142.9761593
40
0.654423
50
8.024666
51
18.5605216
0
ARC
8
DEFAULT_255_1_234
10
23.2385022
20
142.9146792
40
1.0752407
50
1.1274072
51
8.1718305
0
ARC
8
DEFAULT_255_1_234
10
22.9149213
20
142.9019885
40
1.3990231
50
0.5424119
51
1.3863029
0
ARC
8
DEFAULT_255_1_234
10
23.097059
20
142.9292342
40
1.0682415
50
359.8090433
51
4.9407866
0
ARC
8
DEFAULT_255_1_234
10
23.5180604
20
142.9668113
40
0.6455691
50
4.8362157
51
12.2904523
0
ARC
8
DEFAULT_255_1_234
10
23.7935719
20
143.0281965
40
0.3633074
50
12.0805627
51
23.8173984
0
ARC
8
DEFAULT_255_1_234
10
23.9109425
20
143.0778919
40
0.2358723
50
24.2871213
51
31.3935614
0
ARC
8
DEFAULT_255_1_234
10
23.9634122
20
143.1122233
40
0.1732111
50
30.7407893
51
82.4657128
0
ARC
8
DEFAULT_255_1_234
10
23.9454256
20
143.0238691
40
0.263235
50
81.1060089
51
90.2184952
0
ARC
8
DEFAULT_255_1_234
10
23.9418555
20
143.0496924
40
0.2374236
50
89.3806855
51
105.6762551
0
ARC
8
DEFAULT_255_1_234
10
23.9235186
20
143.1163567
40
0.1682847
50
105.7981136
51
149.7388061
0
ARC
8
DEFAULT_255_1_234
10
24.0299264
20
143.052395
40
0.2924306
50
149.4208916
51
163.6286378
0
ARC
8
DEFAULT_255_1_234
10
24.2390152
20
142.988625
40
0.5110213
50
163.3763315
51
172.1410975
0
ARC
8
DEFAULT_255_1_234
10
24.5690871
20
142.9413518
40
0.8444586
50
172.0259487
51
178.0703232
0
ARC
8
DEFAULT_255_1_234
10
24.872096
20
142.9269906
40
1.1477868
50
177.8631668
51
179.5044149
0
ARC
8
DEFAULT_255_1_234
10
24.7648365
20
142.6955389
40
1.0404907
50
179.7995573
51
185.2460446
0
ARC
8
DEFAULT_255_1_234
10
24.3605404
20
142.6572513
40
0.6343885
50
185.1411642
51
193.0079639
0
ARC
8
DEFAULT_255_1_234
10
24.0961877
20
142.5947641
40
0.3627568
50
192.7897626
51
205.2507664
0
ARC
8
DEFAULT_255_1_234
10
23.9915424
20
142.5480415
40
0.2481908
50
205.8005384
51
211.2537509
0
ARC
8
DEFAULT_255_1_234
10
23.9391864
20
142.512958
40
0.1852521
50
210.3789793
51
238.4008143
0
ARC
8
DEFAULT_255_1_234
10
23.9372386
20
142.5176376
40
0.1882621
50
239.6520629
51
265.9793761
0
ARC
8
DEFAULT_255_1_234
10
23.9457586
20
142.5848427
40
0.2559272
50
265.1315437
51
270.060332
0
ARC
8
DEFAULT_255_1_234
10
23.9486365
20
142.5524534
40
0.2235528
50
269.3314664
51
287.2178029
0
ARC
8
DEFAULT_255_1_234
10
23.9624217
20
142.5021279
40
0.1714108
50
287.7958004
51
329.080874
0
ARC
8
DEFAULT_255_1_234
10
23.8666674
20
142.561893
40
0.2842745
50
328.6634704
51
343.3325132
0
ARC
8
DEFAULT_255_1_234
10
23.6493694
20
142.6295863
40
0.5118644
50
343.0499468
51
351.9393422
0
ARC
8
DEFAULT_255_1_234
10
23.3026994
20
142.6806949
40
0.8622784
50
351.8069023
51
357.7959224
0
ARC
8
DEFAULT_255_1_234
10
22.979155
20
142.6974721
40
1.1862365
50
357.5871873
51
359.2677531
0
LINE
8
DEFAULT_255_1_234
10
23.186085
20
148.1578391
11
23.186085
21
148.0317408
0
LINE
8
DEFAULT_255_1_234
10
23.186085
20
148.0317408
11
22.6953458
21
148.0317408
0
LINE
8
DEFAULT_255_1_234
10
22.6953458
20
148.0317408
11
22.6953458
21
147.5153
0
LINE
8
DEFAULT_255_1_234
10
22.6953458
20
147.5153
11
22.5411364
21
147.5153
0
LINE
8
DEFAULT_255_1_234
10
22.5411364
20
147.5153
11
22.5411364
21
148.6847211
0
LINE
8
DEFAULT_255_1_234
10
22.5411364
20
148.6847211
11
23.2655992
21
148.6847211
0
LINE
8
DEFAULT_255_1_234
10
23.2655992
20
148.6847211
11
23.2655992
21
148.5578196
0
LINE
8
DEFAULT_255_1_234
10
23.2655992
20
148.5578196
11
22.6953458
21
148.5578196
0
LINE
8
DEFAULT_255_1_234
10
22.6953458
20
148.5578196
11
22.6953458
21
148.1578391
0
LINE
8
DEFAULT_255_1_234
10
22.6953458
20
148.1578391
11
23.186085
21
148.1578391
0
LINE
8
DEFAULT_255_1_234
10
24.1113412
20
148.1819343
11
24.1113412
21
148.055836
0
LINE
8
DEFAULT_255_1_234
10
24.1113412
20
148.055836
11
23.6045385
21
148.055836
0
LINE
8
DEFAULT_255_1_234
10
23.6045385
20
148.055836
11
23.6045385
21
147.6413983
0
LINE
8
DEFAULT_255_1_234
10
23.6045385
20
147.6413983
11
24.1932649
21
147.6413983
0
LINE
8
DEFAULT_255_1_234
10
24.1932649
20
147.6413983
11
24.1932649
21
147.5153
0
LINE
8
DEFAULT_255_1_234
10
24.1932649
20
147.5153
11
23.4503292
21
147.5153
0
LINE
8
DEFAULT_255_1_234
10
23.4503292
20
147.5153
11
23.4503292
21
148.6847211
0
LINE
8
DEFAULT_255_1_234
10
23.4503292
20
148.6847211
11
24.1852332
21
148.6847211
0
LINE
8
DEFAULT_255_1_234
10
24.1852332
20
148.6847211
11
24.1852332
21
148.5578196
0
LINE
8
DEFAULT_255_1_234
10
24.1852332
20
148.5578196
11
23.6045385
21
148.5578196
0
LINE
8
DEFAULT_255_1_234
10
23.6045385
20
148.5578196
11
23.6045385
21
148.1819343
0
LINE
8
DEFAULT_255_1_234
10
23.6045385
20
148.1819343
11
24.1113412
21
148.1819343
0
LINE
8
DEFAULT_255_1_234
10
22.9593293
20
152.807
11
22.8476881
21
153.1122061
0
LINE
8
DEFAULT_255_1_234
10
22.8476881
20
153.1122061
11
22.3577521
21
153.1122061
0
LINE
8
DEFAULT_255_1_234
10
22.3577521
20
153.1122061
11
22.2477173
21
152.807
0
LINE
8
DEFAULT_255_1_234
10
22.2477173
20
152.807
11
22.0886889
21
152.807
0
LINE
8
DEFAULT_255_1_234
10
22.0886889
20
152.807
11
22.5352535
21
153.9764211
0
LINE
8
DEFAULT_255_1_234
10
22.5352535
20
153.9764211
11
22.6701867
21
153.9764211
0
LINE
8
DEFAULT_255_1_234
10
22.6701867
20
153.9764211
11
23.1175545
21
152.807
0
LINE
8
DEFAULT_255_1_234
10
23.1175545
20
152.807
11
22.9593293
21
152.807
0
LINE
8
DEFAULT_255_1_234
10
22.6027201
20
153.7860689
11
22.4043362
21
153.2391075
0
LINE
8
DEFAULT_255_1_234
10
22.4043362
20
153.2391075
11
22.8019072
21
153.2391075
0
LINE
8
DEFAULT_255_1_234
10
22.8019072
20
153.2391075
11
22.6027201
21
153.7860689
0
LINE
8
DEFAULT_255_1_234
10
23.9713283
20
153.1780663
11
24.1263409
21
153.1780663
0
LINE
8
DEFAULT_255_1_234
10
23.225983
20
153.3370947
11
23.225983
21
153.4495391
0
LINE
8
DEFAULT_255_1_234
10
24.1263409
20
153.6005357
11
23.9713283
21
153.6005357
0
LINE
8
DEFAULT_255_1_234
10
23.3809956
20
153.4455232
11
23.3809956
21
153.3322757
0
ARC
8
DEFAULT_255_1_234
10
23.5782796
20
153.2377846
40
0.5513052
50
340.1774281
51
353.7814284
0
ARC
8
DEFAULT_255_1_234
10
23.7354148
20
153.1792582
40
0.3836379
50
311.4558989
51
340.4421614
0
ARC
8
DEFAULT_255_1_234
10
23.7320816
20
153.1903528
40
0.3941894
50
282.4333181
51
310.7513653
0
ARC
8
DEFAULT_255_1_234
10
23.6881555
20
153.3718679
40
0.5809175
50
269.9358511
51
282.809604
0
ARC
8
DEFAULT_255_1_234
10
23.6829622
20
153.5176212
40
0.7266847
50
270.0021091
51
270.3581957
0
ARC
8
DEFAULT_255_1_234
10
23.6777039
20
153.2575585
40
0.4666519
50
250.7884749
51
270.6489167
0
ARC
8
DEFAULT_255_1_234
10
23.6608873
20
153.1938319
40
0.4009729
50
219.3627325
51
250.0611886
0
ARC
8
DEFAULT_255_1_234
10
23.7438084
20
153.2643042
40
0.5097822
50
193.5479632
51
219.5756669
0
ARC
8
DEFAULT_255_1_234
10
23.9809705
20
153.3258919
40
0.7547848
50
181.1218675
51
193.87563
0
ARC
8
DEFAULT_255_1_234
10
24.1879886
20
153.336958
40
0.9620055
50
179.9918545
51
181.5394234
0
ARC
8
DEFAULT_255_1_234
10
24.0028988
20
153.4532788
40
0.7769248
50
169.5837241
51
180.2757934
0
ARC
8
DEFAULT_255_1_234
10
23.8191926
20
153.4872229
40
0.590109
50
155.0365899
51
169.6003176
0
ARC
8
DEFAULT_255_1_234
10
23.705639
20
153.5419677
40
0.4640625
50
136.783148
51
155.2472683
0
ARC
8
DEFAULT_255_1_234
10
23.6666867
20
153.5750562
40
0.4130255
50
121.7633186
51
136.428115
0
ARC
8
DEFAULT_255_1_234
10
23.6801829
20
153.5501227
40
0.4413323
50
95.6459699
51
121.5490577
0
ARC
8
DEFAULT_255_1_234
10
23.6959111
20
153.4392949
40
0.55319
50
89.924208
51
96.1377933
0
ARC
8
DEFAULT_255_1_234
10
23.7009544
20
153.4511542
40
0.5413475
50
76.6779277
51
90.4563316
0
ARC
8
DEFAULT_255_1_234
10
23.7403167
20
153.6102114
40
0.3775041
50
47.485847
51
76.9287264
0
ARC
8
DEFAULT_255_1_234
10
23.725614
20
153.6002159
40
0.3948286
50
16.5424086
51
46.8933463
0
ARC
8
DEFAULT_255_1_234
10
23.5648297
20
153.5473861
40
0.564021
50
5.4072051
51
17.0365086
0
ARC
8
DEFAULT_255_1_234
10
23.4209314
20
153.5242679
40
0.5556559
50
7.8891745
51
15.9239216
0
ARC
8
DEFAULT_255_1_234
10
23.6196328
20
153.5819631
40
0.3487515
50
15.7653144
51
27.9410532
0
ARC
8
DEFAULT_255_1_234
10
23.7300546
20
153.641079
40
0.2235026
50
27.8166557
51
46.4008329
0
ARC
8
DEFAULT_255_1_234
10
23.7350188
20
153.6405082
40
0.2205286
50
47.4371857
51
75.0698205
0
ARC
8
DEFAULT_255_1_234
10
23.7041583
20
153.5330765
40
0.3322915
50
74.7008593
51
87.8124495
0
ARC
8
DEFAULT_255_1_234
10
23.696827
20
153.4274844
40
0.4380987
50
87.3814673
51
90.0240855
0
ARC
8
DEFAULT_255_1_234
10
23.6929814
20
153.5452291
40
0.3203749
50
89.3451631
51
108.5745436
0
ARC
8
DEFAULT_255_1_234
10
23.6792919
20
153.5965908
40
0.2673494
50
109.2998449
51
143.3037509
0
ARC
8
DEFAULT_255_1_234
10
23.7554992
20
153.5379881
40
0.3634757
50
143.0753173
51
163.1916937
0
ARC
8
DEFAULT_255_1_234
10
23.9506719
20
153.4763967
40
0.5681262
50
162.9373603
51
174.6208611
0
ARC
8
DEFAULT_255_1_234
10
24.2132761
20
153.447601
40
0.8322832
50
174.3419979
51
180.1430411
0
ARC
8
DEFAULT_255_1_234
10
24.1201918
20
153.3281698
40
0.7392076
50
179.6817502
51
189.150529
0
ARC
8
DEFAULT_255_1_234
10
23.8701166
20
153.286519
40
0.4856932
50
188.9910863
51
203.5773039
0
ARC
8
DEFAULT_255_1_234
10
23.7621498
20
153.2417211
40
0.3688271
50
203.9077269
51
215.1312379
0
ARC
8
DEFAULT_255_1_234
10
23.6698592
20
153.1701941
40
0.2522457
50
213.9071664
51
263.8849284
0
ARC
8
DEFAULT_255_1_234
10
23.6823921
20
153.2486518
40
0.3316174
50
263.1758525
51
270.1031083
0
ARC
8
DEFAULT_255_1_234
10
23.6856013
20
153.3733365
40
0.4563091
50
269.6719807
51
279.0609165
0
ARC
8
DEFAULT_255_1_234
10
23.7122781
20
153.2120907
40
0.2928759
50
278.8750225
51
293.6346586
0
ARC
8
DEFAULT_255_1_234
10
23.7442989
20
153.13689
40
0.2111472
50
293.8553404
51
310.0518804
0
ARC
8
DEFAULT_255_1_234
10
23.7447843
20
153.1306516
40
0.2060917
50
311.0646779
51
332.0108348
0
ARC
8
DEFAULT_255_1_234
10
23.625557
20
153.1963978
40
0.3422352
50
331.6588543
51
343.2878891
0
ARC
8
DEFAULT_255_1_234
10
23.4193085
20
153.2597798
40
0.5580003
50
343.1446044
51
351.010618
0
ARC
8
DEFAULT_255_1_234
10
23.2651731
20
153.2878871
40
0.7146438
50
350.7157277
51
351.1602153
0
ENDSEC
0
EOF