0
SECTION
2
HEADER
9
$MEASUREMENT
70
1
0
ENDSEC
0
SECTION
2
TABLES
0
TABLE
2
LTYPE
0
LTYPE
72
65
70
64
2
CONTINUOUS
3
______
73
0
40
0
0
ENDTAB
0
TABLE
2
LAYER
0
LAYER
2
DEFAULT_255_2_778
70
0
62
255
6
CONTINUOUS
0
LAYER
2
DEFAULT_255_1_388
70
0
62
255
6
CONTINUOUS
0
LAYER
2
DEFAULT_255_2_778_1
70
0
62
255
6
CONTINUOUS
0
ENDTAB
0
ENDSEC
0
SECTION
2
ENTITIES
0
ARC
8
DEFAULT_255_2_778
10
3.5700693
20
107.5552026
40
0.7914215
50
129.1312896
51
180.1450914
0
ARC
8
DEFAULT_255_2_778
10
3.5703345
20
107.5556897
40
0.7912112
50
89.854026
51
129.1684493
0
ARC
8
DEFAULT_255_2_778
10
25.7993937
20
107.5553762
40
0.7915249
50
39.4792447
51
90.147911
0
ARC
8
DEFAULT_255_2_778
10
25.7999935
20
107.5552229
40
0.7911595
50
359.8533901
51
39.5154338
0
ARC
8
DEFAULT_255_2_778
10
25.7996693
20
-1.9863497
40
0.7914836
50
309.4761667
51
0.1482649
0
ARC
8
DEFAULT_255_2_778
10
25.799398
20
-1.9867808
40
0.7913235
50
269.8517415
51
309.511178
0
ARC
8
DEFAULT_255_2_778
10
3.570342
20
-1.9867226
40
0.7913815
50
219.1282118
51
270.1454017
0
ARC
8
DEFAULT_255_2_778
10
3.5700247
20
-1.9863401
40
0.7913769
50
179.8524075
51
219.1641908
0
LINE
8
DEFAULT_255_2_778
10
3.5723503
20
108.3468985
11
25.7973503
21
108.3468985
0
LINE
8
DEFAULT_255_2_778
10
26.5911503
20
107.5531985
11
26.5911503
21
-1.9843015
0
LINE
8
DEFAULT_255_2_778
10
25.7973503
20
-2.7781015
11
3.5723503
21
-2.7781015
0
LINE
8
DEFAULT_255_2_778
10
2.7786503
20
-1.9843015
11
2.7786503
21
107.5531985
0
LINE
8
DEFAULT_255_1_388
10
10.7009359
20
0.1101585
11
10.7009359
21
-0.0317011
0
LINE
8
DEFAULT_255_1_388
10
10.7009359
20
-0.0317011
11
10.1307868
21
-0.0317011
0
LINE
8
DEFAULT_255_1_388
10
10.1307868
20
-0.0317011
11
10.1307868
21
-0.4979404
0
LINE
8
DEFAULT_255_1_388
10
10.1307868
20
-0.4979404
11
10.7930995
21
-0.4979404
0
LINE
8
DEFAULT_255_1_388
10
10.7930995
20
-0.4979404
11
10.7930995
21
-0.6398
0
LINE
8
DEFAULT_255_1_388
10
10.7930995
20
-0.6398
11
9.9573024
21
-0.6398
0
LINE
8
DEFAULT_255_1_388
10
9.9573024
20
-0.6398
11
9.9573024
21
0.6757898
0
LINE
8
DEFAULT_255_1_388
10
9.9573024
20
0.6757898
11
10.7840639
21
0.6757898
0
LINE
8
DEFAULT_255_1_388
10
10.7840639
20
0.6757898
11
10.7840639
21
0.5330267
0
LINE
8
DEFAULT_255_1_388
10
10.7840639
20
0.5330267
11
10.1307868
21
0.5330267
0
LINE
8
DEFAULT_255_1_388
10
10.1307868
20
0.5330267
11
10.1307868
21
0.1101585
0
LINE
8
DEFAULT_255_1_388
10
10.1307868
20
0.1101585
11
10.7009359
21
0.1101585
0
LINE
8
DEFAULT_255_1_388
10
12.02014
20
0.6757898
11
12.02014
21
-0.6398
0
LINE
8
DEFAULT_255_1_388
10
12.02014
20
-0.6398
11
11.8457521
21
-0.6398
0
LINE
8
DEFAULT_255_1_388
10
11.8457521
20
-0.6398
11
11.8457521
21
-0.0317011
0
LINE
8
DEFAULT_255_1_388
10
11.8457521
20
-0.0317011
11
11.1825358
21
-0.0317011
0
LINE
8
DEFAULT_255_1_388
10
11.1825358
20
-0.0317011
11
11.1825358
21
-0.6398
0
LINE
8
DEFAULT_255_1_388
10
11.1825358
20
-0.6398
11
11.0090514
21
-0.6398
0
LINE
8
DEFAULT_255_1_388
10
11.0090514
20
-0.6398
11
11.0090514
21
0.6757898
0
LINE
8
DEFAULT_255_1_388
10
11.0090514
20
0.6757898
11
11.1825358
21
0.6757898
0
LINE
8
DEFAULT_255_1_388
10
11.1825358
20
0.6757898
11
11.1825358
21
0.1101585
0
LINE
8
DEFAULT_255_1_388
10
11.1825358
20
0.1101585
11
11.8457521
21
0.1101585
0
LINE
8
DEFAULT_255_1_388
10
11.8457521
20
0.1101585
11
11.8457521
21
0.6757898
0
LINE
8
DEFAULT_255_1_388
10
11.8457521
20
0.6757898
11
12.02014
21
0.6757898
0
LINE
8
DEFAULT_255_1_388
10
12.6499245
20
-0.0127263
11
12.6499245
21
-0.1491645
0
LINE
8
DEFAULT_255_1_388
10
12.6499245
20
-0.1491645
11
12.208985
21
-0.1491645
0
LINE
8
DEFAULT_255_1_388
10
12.208985
20
-0.1491645
11
12.208985
21
-0.0127263
0
LINE
8
DEFAULT_255_1_388
10
12.208985
20
-0.0127263
11
12.6499245
21
-0.0127263
0
LINE
8
DEFAULT_255_1_388
10
13.6908307
20
-0.6398
11
13.5652353
21
-0.2964455
0
LINE
8
DEFAULT_255_1_388
10
13.5652353
20
-0.2964455
11
13.0140609
21
-0.2964455
0
LINE
8
DEFAULT_255_1_388
10
13.0140609
20
-0.2964455
11
12.8902726
21
-0.6398
0
LINE
8
DEFAULT_255_1_388
10
12.8902726
20
-0.6398
11
12.7113668
21
-0.6398
0
LINE
8
DEFAULT_255_1_388
10
12.7113668
20
-0.6398
11
13.2137487
21
0.6757898
0
LINE
8
DEFAULT_255_1_388
10
13.2137487
20
0.6757898
11
13.3655475
21
0.6757898
0
LINE
8
DEFAULT_255_1_388
10
13.3655475
20
0.6757898
11
13.8688329
21
-0.6398
0
LINE
8
DEFAULT_255_1_388
10
13.8688329
20
-0.6398
11
13.6908307
21
-0.6398
0
LINE
8
DEFAULT_255_1_388
10
13.2896481
20
0.4616451
11
13.0664677
21
-0.1536823
0
LINE
8
DEFAULT_255_1_388
10
13.0664677
20
-0.1536823
11
13.5137321
21
-0.1536823
0
LINE
8
DEFAULT_255_1_388
10
13.5137321
20
-0.1536823
11
13.2896481
21
0.4616451
0
LINE
8
DEFAULT_255_1_388
10
14.6287306
20
0.6766934
11
14.6585482
21
0.6766934
0
LINE
8
DEFAULT_255_1_388
10
14.6585482
20
0.6766934
11
14.6585482
21
0.5348338
0
LINE
8
DEFAULT_255_1_388
10
14.6585482
20
0.5348338
11
14.6278271
21
0.5348338
0
LINE
8
DEFAULT_255_1_388
10
14.0124997
20
-0.1392253
11
14.0124997
21
-0.0750722
0
LINE
8
DEFAULT_255_1_388
10
14.1805626
20
-0.0967578
11
14.1805626
21
-0.1582001
0
ARC
8
DEFAULT_255_1_388
10
14.6337162
20
-0.0274174
40
0.562282
50
90.6001079
51
104.5146616
0
ARC
8
DEFAULT_255_1_388
10
14.5900122
20
0.13511
40
0.3939917
50
104.2855758
51
133.8630124
0
ARC
8
DEFAULT_255_1_388
10
14.6084374
20
0.1229243
40
0.4155734
50
134.5304124
51
161.6210222
0
ARC
8
DEFAULT_255_1_388
10
14.7944306
20
0.0573421
40
0.6127682
50
161.2850533
51
174.2074364
0
ARC
8
DEFAULT_255_1_388
10
14.9533873
20
0.0354437
40
0.7731446
50
173.7817938
51
174.9251711
0
ARC
8
DEFAULT_255_1_388
10
14.4408067
20
-0.120073
40
0.3412588
50
95.8332067
51
138.995412
0
ARC
8
DEFAULT_255_1_388
10
14.4659347
20
-0.2639305
40
0.4870358
50
89.8755506
51
97.0540979
0
ARC
8
DEFAULT_255_1_388
10
14.4712736
20
-0.1699159
40
0.3930432
50
71.6407016
51
90.6240821
0
ARC
8
DEFAULT_255_1_388
10
14.488213
20
-0.1075567
40
0.3285421
50
39.6368051
51
71.0190743
0
ARC
8
DEFAULT_255_1_388
10
14.4166037
20
-0.1694414
40
0.4231706
50
10.6588054
51
39.9044509
0
ARC
8
DEFAULT_255_1_388
10
14.2424583
20
-0.2072777
40
0.60133
50
359.6827842
51
11.1326896
0
ARC
8
DEFAULT_255_1_388
10
14.2379919
20
-0.2152285
40
0.6058047
50
347.2485908
51
0.4371098
0
ARC
8
DEFAULT_255_1_388
10
14.4255704
20
-0.2603621
40
0.4128987
50
318.1408565
51
347.6118497
0
ARC
8
DEFAULT_255_1_388
10
14.4621301
20
-0.2904097
40
0.3656244
50
275.6342406
51
317.824739
0
ARC
8
DEFAULT_255_1_388
10
14.4372822
20
-0.1442173
40
0.513655
50
269.8872513
51
276.7916069
0
ARC
8
DEFAULT_255_1_388
10
14.4311014
20
-0.2595819
40
0.398323
50
246.9139443
51
270.7436787
0
ARC
8
DEFAULT_255_1_388
10
14.431821
20
-0.2755956
40
0.3839368
50
218.1665534
51
245.8780431
0
ARC
8
DEFAULT_255_1_388
10
14.5307582
20
-0.1928097
40
0.5128958
50
191.4115343
51
218.6077624
0
ARC
8
DEFAULT_255_1_388
10
14.7487899
20
-0.1439223
40
0.7363054
50
179.6344971
51
191.7836758
0
ARC
8
DEFAULT_255_1_388
10
15.3767773
20
-0.0675505
40
1.3642984
50
171.4523743
51
180.3158856
0
ARC
8
DEFAULT_255_1_388
10
14.88235
20
0.0093895
40
0.8639311
50
157.9802296
51
171.6246761
0
ARC
8
DEFAULT_255_1_388
10
14.6332851
20
0.1087038
40
0.5958004
50
141.4299236
51
157.8541251
0
ARC
8
DEFAULT_255_1_388
10
14.5610934
20
0.1597746
40
0.5075416
50
102.871586
51
140.8564533
0
ARC
8
DEFAULT_255_1_388
10
14.6339487
20
-0.1147057
40
0.7914163
50
90.377773
51
103.5868422
0
ARC
8
DEFAULT_255_1_388
10
14.4384008
20
-0.1827457
40
0.2667015
50
89.8751238
51
126.2072139
0
ARC
8
DEFAULT_255_1_388
10
14.4435479
20
-0.2001153
40
0.2838229
50
124.9742447
51
144.8960197
0
ARC
8
DEFAULT_255_1_388
10
14.4237724
20
-0.1840019
40
0.2583845
50
145.2974778
51
160.2660922
0
ARC
8
DEFAULT_255_1_388
10
14.7694212
20
-0.1617849
40
0.5888695
50
179.6512124
51
190.285571
0
ARC
8
DEFAULT_255_1_388
10
14.5788692
20
-0.1977032
40
0.3949683
50
190.0944895
51
207.5099647
0
ARC
8
DEFAULT_255_1_388
10
14.5152274
20
-0.2279823
40
0.3245464
50
207.9585471
51
216.325377
0
ARC
8
DEFAULT_255_1_388
10
14.4769911
20
-0.2594288
40
0.2751259
50
215.7661336
51
232.5457193
0
ARC
8
DEFAULT_255_1_388
10
14.4339027
20
-0.3141727
40
0.2054668
50
232.8005815
51
270.6605497
0
ARC
8
DEFAULT_255_1_388
10
14.4390451
20
-0.2732147
40
0.2464268
50
269.3550767
51
288.474612
0
ARC
8
DEFAULT_255_1_388
10
14.4494958
20
-0.3125279
40
0.2058436
50
289.1831976
51
322.9685307
0
ARC
8
DEFAULT_255_1_388
10
14.380706
20
-0.2582721
40
0.2934408
50
322.6007085
51
346.5183319
0
ARC
8
DEFAULT_255_1_388
10
14.2504816
20
-0.2250566
40
0.4278249
50
346.2584622
51
358.7739592
0
ARC
8
DEFAULT_255_1_388
10
14.1353391
20
-0.2188171
40
0.5430876
50
358.3757628
51
0.0082477
0
ARC
8
DEFAULT_255_1_388
10
14.221021
20
-0.2157144
40
0.4574157
50
359.6211417
51
11.28403
0
ARC
8
DEFAULT_255_1_388
10
14.3646816
20
-0.1857465
40
0.3106708
50
11.0483152
51
31.8145585
0
ARC
8
DEFAULT_255_1_388
10
14.3994521
20
-0.1668955
40
0.2711963
50
32.3028554
51
38.0820598
0
ARC
8
DEFAULT_255_1_388
10
14.4467754
20
-0.1240283
40
0.2075566
50
36.8249851
51
85.741667
0
ARC
8
DEFAULT_255_1_388
10
14.4392167
20
-0.1803935
40
0.2643487
50
85.0150021
51
90.050843
0
LINE
8
DEFAULT_255_1_388
10
15.8286642
20
0.1101585
11
15.8286642
21
-0.0317011
0
LINE
8
DEFAULT_255_1_388
10
15.8286642
20
-0.0317011
11
15.258515
21
-0.0317011
0
LINE
8
DEFAULT_255_1_388
10
15.258515
20
-0.0317011
11
15.258515
21
-0.4979404
0
LINE
8
DEFAULT_255_1_388
10
15.258515
20
-0.4979404
11
15.9208278
21
-0.4979404
0
LINE
8
DEFAULT_255_1_388
10
15.9208278
20
-0.4979404
11
15.9208278
21
-0.6398
0
LINE
8
DEFAULT_255_1_388
10
15.9208278
20
-0.6398
11
15.0850307
21
-0.6398
0
LINE
8
DEFAULT_255_1_388
10
15.0850307
20
-0.6398
11
15.0850307
21
0.6757898
0
LINE
8
DEFAULT_255_1_388
10
15.0850307
20
0.6757898
11
15.9117921
21
0.6757898
0
LINE
8
DEFAULT_255_1_388
10
15.9117921
20
0.6757898
11
15.9117921
21
0.5330267
0
LINE
8
DEFAULT_255_1_388
10
15.9117921
20
0.5330267
11
15.258515
21
0.5330267
0
LINE
8
DEFAULT_255_1_388
10
15.258515
20
0.5330267
11
15.258515
21
0.1101585
0
LINE
8
DEFAULT_255_1_388
10
15.258515
20
0.1101585
11
15.8286642
21
0.1101585
0
LINE
8
DEFAULT_255_1_388
10
16.988841
20
-0.6398
11
16.8632455
21
-0.2964455
0
LINE
8
DEFAULT_255_1_388
10
16.8632455
20
-0.2964455
11
16.3120712
21
-0.2964455
0
LINE
8
DEFAULT_255_1_388
10
16.3120712
20
-0.2964455
11
16.1882829
21
-0.6398
0
LINE
8
DEFAULT_255_1_388
10
16.1882829
20
-0.6398
11
16.0093771
21
-0.6398
0
LINE
8
DEFAULT_255_1_388
10
16.0093771
20
-0.6398
11
16.5117589
21
0.6757898
0
LINE
8
DEFAULT_255_1_388
10
16.5117589
20
0.6757898
11
16.6635578
21
0.6757898
0
LINE
8
DEFAULT_255_1_388
10
16.6635578
20
0.6757898
11
17.1668432
21
-0.6398
0
LINE
8
DEFAULT_255_1_388
10
17.1668432
20
-0.6398
11
16.988841
21
-0.6398
0
LINE
8
DEFAULT_255_1_388
10
16.5876583
20
0.4616451
11
16.3644779
21
-0.1536823
0
LINE
8
DEFAULT_255_1_388
10
16.3644779
20
-0.1536823
11
16.8117423
21
-0.1536823
0
LINE
8
DEFAULT_255_1_388
10
16.8117423
20
-0.1536823
11
16.5876583
21
0.4616451
0
LINE
8
DEFAULT_255_1_388
10
18.3550304
20
0.6757898
11
18.3550304
21
-0.6398
0
LINE
8
DEFAULT_255_1_388
10
18.3550304
20
-0.6398
11
18.1806425
21
-0.6398
0
LINE
8
DEFAULT_255_1_388
10
18.1806425
20
-0.6398
11
17.5183297
21
0.3739993
0
LINE
8
DEFAULT_255_1_388
10
17.5183297
20
0.3739993
11
17.5183297
21
-0.6398
0
LINE
8
DEFAULT_255_1_388
10
17.5183297
20
-0.6398
11
17.3439418
21
-0.6398
0
LINE
8
DEFAULT_255_1_388
10
17.3439418
20
-0.6398
11
17.3439418
21
0.6757898
0
LINE
8
DEFAULT_255_1_388
10
17.3439418
20
0.6757898
11
17.5183297
21
0.6757898
0
LINE
8
DEFAULT_255_1_388
10
17.5183297
20
0.6757898
11
18.1824496
21
-0.3425273
0
LINE
8
DEFAULT_255_1_388
10
18.1824496
20
-0.3425273
11
18.1824496
21
0.6757898
0
LINE
8
DEFAULT_255_1_388
10
18.1824496
20
0.6757898
11
18.3550304
21
0.6757898
0
LINE
8
DEFAULT_255_2_778
10
20.8171981
20
105.6291229
11
21.4600981
21
105.6291229
0
LINE
8
DEFAULT_255_2_778
10
19.5074981
20
105.6291229
11
19.5074981
21
104.6247229
0
LINE
8
DEFAULT_255_2_778
10
19.5074981
20
104.6247229
11
20.8171981
21
104.6247229
0
LINE
8
DEFAULT_255_2_778
10
20.8171981
20
104.6247229
11
20.8171981
21
105.6291229
0
LINE
8
DEFAULT_255_2_778
10
21.4600981
20
105.6291229
11
21.4600981
21
103.1119229
0
LINE
8
DEFAULT_255_2_778
10
21.4600981
20
103.1119229
11
20.8171981
21
103.1119229
0
LINE
8
DEFAULT_255_2_778
10
20.8171981
20
103.1119229
11
20.8171981
21
104.2218229
0
LINE
8
DEFAULT_255_2_778
10
20.8171981
20
104.2218229
11
19.5074981
21
104.2218229
0
LINE
8
DEFAULT_255_2_778
10
19.5074981
20
104.2218229
11
19.5074981
21
103.1142229
0
LINE
8
DEFAULT_255_2_778
10
19.5074981
20
103.1142229
11
18.8642981
21
103.1142229
0
LINE
8
DEFAULT_255_2_778
10
18.8642981
20
103.1142229
11
18.8642981
21
105.6291229
0
LINE
8
DEFAULT_255_2_778
10
18.8642981
20
105.6291229
11
19.5074981
21
105.6291229
0
LINE
8
DEFAULT_255_2_778
10
13.3725981
20
105.6291229
11
13.3725981
21
105.2010229
0
LINE
8
DEFAULT_255_2_778
10
13.3725981
20
105.2010229
11
12.3798981
21
105.2010229
0
LINE
8
DEFAULT_255_2_778
10
12.3798981
20
105.2010229
11
12.3798981
21
103.1119229
0
LINE
8
DEFAULT_255_2_778
10
12.3798981
20
103.1119229
11
11.7286981
21
103.1119229
0
LINE
8
DEFAULT_255_2_778
10
11.7286981
20
103.1119229
11
11.7286981
21
105.2010229
0
LINE
8
DEFAULT_255_2_778
10
11.7286981
20
105.2010229
11
10.7441981
21
105.2010229
0
LINE
8
DEFAULT_255_2_778
10
10.7441981
20
105.2010229
11
10.7441981
21
105.6291229
0
LINE
8
DEFAULT_255_2_778
10
10.7441981
20
105.6291229
11
13.3722981
21
105.6291229
0
LINE
8
DEFAULT_255_2_778
10
15.8865981
20
103.1119229
11
15.1624981
21
103.1119229
0
LINE
8
DEFAULT_255_2_778
10
15.1624981
20
103.1119229
11
14.9507981
21
103.6574229
0
LINE
8
DEFAULT_255_2_778
10
14.9507981
20
103.6574229
11
13.7381981
21
103.6574229
0
LINE
8
DEFAULT_255_2_778
10
13.7381981
20
103.6574229
11
13.5265981
21
103.1119229
0
LINE
8
DEFAULT_255_2_778
10
13.5265981
20
103.1119229
11
12.8108981
21
103.1119229
0
LINE
8
DEFAULT_255_2_778
10
12.8108981
20
103.1119229
11
13.9501981
21
105.6291229
0
LINE
8
DEFAULT_255_2_778
10
13.9501981
20
105.6291229
11
14.7393981
21
105.6291229
0
LINE
8
DEFAULT_255_2_778
10
14.7393981
20
105.6291229
11
15.8865981
21
103.1119229
0
LINE
8
DEFAULT_255_2_778
10
14.3488981
20
105.2010229
11
13.8932981
21
104.0599229
0
LINE
8
DEFAULT_255_2_778
10
13.8932981
20
104.0599229
11
14.7965981
21
104.0599229
0
LINE
8
DEFAULT_255_2_778
10
14.7965981
20
104.0599229
11
14.3488981
21
105.2010229
0
LINE
8
DEFAULT_255_2_778
10
21.9714981
20
103.1119229
11
21.9714981
21
105.6291229
0
LINE
8
DEFAULT_255_2_778
10
21.9714981
20
105.6291229
11
22.6223981
21
105.6291229
0
LINE
8
DEFAULT_255_2_778
10
22.6223981
20
105.6291229
11
22.6223981
21
103.1119229
0
LINE
8
DEFAULT_255_2_778
10
22.6223981
20
103.1119229
11
21.9714981
21
103.1119229
0
ARC
8
DEFAULT_255_2_778
10
17.4929112
20
104.358283
40
1.7200065
50
180.3430647
51
198.5573573
0
ARC
8
DEFAULT_255_2_778
10
17.3528564
20
104.3802123
40
1.5802495
50
158.0480377
51
181.1685822
0
ARC
8
DEFAULT_255_2_778
10
16.9845026
20
104.5039649
40
1.1925603
50
150.766015
51
156.9467391
0
ARC
8
DEFAULT_255_2_778
10
16.8983285
20
104.5459253
40
1.0968831
50
111.442964
51
150.4803174
0
ARC
8
DEFAULT_255_2_778
10
17.2206552
20
103.687878
40
2.013419
50
90.2026035
51
111.0541085
0
ARC
8
DEFAULT_255_2_778
10
17.2088425
20
103.713122
40
1.9881679
50
65.6957776
51
89.8647516
0
ARC
8
DEFAULT_255_2_778
10
17.6787798
20
104.7744961
40
0.8274868
50
11.2255456
51
65.1035005
0
ARC
8
DEFAULT_255_2_778
10
-0.0804874
20
102.6650608
40
18.0460455
50
6.7184719
51
6.747037
0
ARC
8
DEFAULT_255_2_778
10
17.16267
20
104.735762
40
0.6797124
50
4.1726408
51
20.1118961
0
ARC
8
DEFAULT_255_2_778
10
17.3614739
20
104.8203792
40
0.4640677
50
18.7415785
51
72.5888136
0
ARC
8
DEFAULT_255_2_778
10
17.2015453
20
104.2237425
40
1.0815337
50
73.9625622
51
89.253524
0
ARC
8
DEFAULT_255_2_778
10
17.1980887
20
104.5158184
40
0.7895609
50
88.7265804
51
112.3274117
0
ARC
8
DEFAULT_255_2_778
10
17.0835373
20
104.7078969
40
0.5693217
50
109.0051809
51
162.7120671
0
ARC
8
DEFAULT_255_2_778
10
18.046708
20
104.3503904
40
1.5961735
50
160.732872
51
180.0046553
0
ARC
8
DEFAULT_255_2_778
10
17.7653641
20
104.3501127
40
1.3148295
50
179.9935495
51
180.0709587
0
ARC
8
DEFAULT_255_2_778
10
17.9717968
20
104.3524638
40
1.5212664
50
180.149879
51
196.82302
0
ARC
8
DEFAULT_255_2_778
10
17.090652
20
104.0579257
40
0.5931984
50
194.2224572
51
247.6766622
0
ARC
8
DEFAULT_255_2_778
10
17.3541161
20
104.8458151
40
1.4231964
50
249.9134907
51
250.2805191
0
ARC
8
DEFAULT_255_2_778
10
17.2253754
20
104.4415891
40
0.9993524
50
249.4089587
51
269.441581
0
ARC
8
DEFAULT_255_2_778
10
17.2182943
20
104.3259276
40
0.8836472
50
269.8276065
51
269.999989
0
ARC
8
DEFAULT_255_2_778
10
17.2183874
20
104.3458176
40
0.9035372
50
269.9940843
51
289.2473404
0
ARC
8
DEFAULT_255_2_778
10
17.3561112
20
103.9541489
40
0.4883617
50
289.1401982
51
335.6231545
0
ARC
8
DEFAULT_255_2_778
10
17.107081
20
104.0171017
40
0.7425656
50
339.1317124
51
0.0024512
0
ARC
8
DEFAULT_255_2_778
10
17.0898337
20
104.0170957
40
0.759813
50
0.0028462
51
0.3083152
0
ARC
8
DEFAULT_255_2_778
10
17.7377394
20
103.9468303
40
0.777284
50
293.103113
51
348.0346975
0
ARC
8
DEFAULT_255_2_778
10
17.2275301
20
105.0290239
40
1.9733906
50
269.5878688
51
294.3996505
0
ARC
8
DEFAULT_255_2_778
10
17.2069386
20
105.226428
40
2.1707531
50
252.4876849
51
270.1688447
0
ARC
8
DEFAULT_255_2_778
10
16.8654348
20
104.1785691
40
1.0687481
50
200.1399144
51
253.0433009
0
LINE
8
DEFAULT_255_2_778
10
7.4004356
20
105.6290843
11
7.4004356
21
104.6246843
0
LINE
8
DEFAULT_255_2_778
10
7.4004356
20
104.6246843
11
8.7021356
21
104.6246843
0
LINE
8
DEFAULT_255_2_778
10
8.7021356
20
104.6246843
11
8.7021356
21
105.6290843
0
LINE
8
DEFAULT_255_2_778
10
8.7021356
20
105.6290843
11
9.3509356
21
105.6290843
0
LINE
8
DEFAULT_255_2_778
10
9.3509356
20
105.6290843
11
9.3509356
21
103.1117843
0
LINE
8
DEFAULT_255_2_778
10
9.3509356
20
103.1117843
11
8.7000356
21
103.1117843
0
LINE
8
DEFAULT_255_2_778
10
8.7000356
20
103.1117843
11
8.7000356
21
104.2219843
0
LINE
8
DEFAULT_255_2_778
10
8.7000356
20
104.2219843
11
7.3983356
21
104.2219843
0
LINE
8
DEFAULT_255_2_778
10
7.3983356
20
104.2219843
11
7.3983356
21
103.1144843
0
LINE
8
DEFAULT_255_2_778
10
7.3983356
20
103.1144843
11
6.7474356
21
103.1144843
0
LINE
8
DEFAULT_255_2_778
10
6.7474356
20
103.1144843
11
6.7474356
21
105.6292843
0
LINE
8
DEFAULT_255_2_778
10
6.7474356
20
105.6292843
11
7.3983356
21
105.6292843
0
LINE
8
DEFAULT_255_2_778
10
9.8655356
20
103.1120843
11
9.8655356
21
105.6292843
0
LINE
8
DEFAULT_255_2_778
10
9.8655356
20
105.6292843
11
10.5085356
21
105.6292843
0
LINE
8
DEFAULT_255_2_778
10
10.5085356
20
105.6292843
11
10.5085356
21
103.1120843
0
LINE
8
DEFAULT_255_2_778
10
10.5085356
20
103.1120843
11
9.8655356
21
103.1120843
0
LINE
8
DEFAULT_255_2_778
10
18.4904356
20
104.9355843
11
18.5153356
21
104.7762843
0
LINE
8
DEFAULT_255_2_778
10
18.5153356
20
104.7762843
11
17.8416356
21
104.7762843
0
LINE
8
DEFAULT_255_2_778
10
17.8496356
20
104.0211843
11
18.5335356
21
104.0211843
0
LINE
8
DEFAULT_255_2_778
10
18.5335356
20
104.0211843
11
18.4981356
21
103.7856843
0
LINE
8
DEFAULT_255_1_388
10
9.4353024
20
101.8789898
11
9.6593864
21
101.8789898
0
LINE
8
DEFAULT_255_1_388
10
9.6593864
20
101.8789898
11
10.0894831
21
100.8055553
0
LINE
8
DEFAULT_255_1_388
10
10.0894831
20
100.8055553
11
10.5195797
21
101.8789898
0
LINE
8
DEFAULT_255_1_388
10
10.5195797
20
101.8789898
11
10.7445673
21
101.8789898
0
LINE
8
DEFAULT_255_1_388
10
10.7445673
20
101.8789898
11
10.7445673
21
100.5634
0
LINE
8
DEFAULT_255_1_388
10
10.7445673
20
100.5634
11
10.5710829
21
100.5634
0
LINE
8
DEFAULT_255_1_388
10
10.5710829
20
100.5634
11
10.5710829
21
101.075721
0
LINE
8
DEFAULT_255_1_388
10
10.5710829
20
101.075721
11
10.5873471
21
101.6287025
0
LINE
8
DEFAULT_255_1_388
10
10.5873471
20
101.6287025
11
10.1554433
21
100.5634
0
LINE
8
DEFAULT_255_1_388
10
10.1554433
20
100.5634
11
10.0226193
21
100.5634
0
LINE
8
DEFAULT_255_1_388
10
10.0226193
20
100.5634
11
9.591619
21
101.6259918
0
LINE
8
DEFAULT_255_1_388
10
9.591619
20
101.6259918
11
9.6087868
21
101.075721
0
LINE
8
DEFAULT_255_1_388
10
9.6087868
20
101.075721
11
9.6087868
21
100.5634
0
LINE
8
DEFAULT_255_1_388
10
9.6087868
20
100.5634
11
9.4353024
21
100.5634
0
LINE
8
DEFAULT_255_1_388
10
9.4353024
20
100.5634
11
9.4353024
21
101.8789898
0
LINE
8
DEFAULT_255_1_388
10
11.2062887
20
101.5410567
11
11.2062887
21
100.5634
0
LINE
8
DEFAULT_255_1_388
10
11.2062887
20
100.5634
11
11.0391293
21
100.5634
0
LINE
8
DEFAULT_255_1_388
10
11.0391293
20
100.5634
11
11.0391293
21
101.5410567
0
LINE
8
DEFAULT_255_1_388
10
11.0391293
20
101.5410567
11
11.2062887
21
101.5410567
0
ARC
8
DEFAULT_255_1_388
10
11.1356655
20
101.8014428
40
0.1100948
50
161.4148232
51
180.5532607
0
ARC
8
DEFAULT_255_1_388
10
11.1216965
20
101.8052875
40
0.0956324
50
138.1830164
51
160.9307633
0
ARC
8
DEFAULT_255_1_388
10
11.1093152
20
101.8160313
40
0.0792417
50
104.6371663
51
138.0036136
0
ARC
8
DEFAULT_255_1_388
10
11.1213691
20
101.7747963
40
0.1221906
50
92.0601206
51
105.2198859
0
ARC
8
DEFAULT_255_1_388
10
11.1240055
20
101.7359583
40
0.161103
50
89.9790681
51
92.5006086
0
ARC
8
DEFAULT_255_1_388
10
11.1251231
20
101.7615998
40
0.1354654
50
78.0234649
51
90.4478111
0
ARC
8
DEFAULT_255_1_388
10
11.1354815
20
101.8081203
40
0.0878096
50
55.0521508
51
78.336297
0
ARC
8
DEFAULT_255_1_388
10
11.141135
20
101.8176168
40
0.0767913
50
42.0506198
51
54.4508489
0
ARC
8
DEFAULT_255_1_388
10
11.1259383
20
101.8036821
40
0.0974091
50
1.7493657
51
42.1498724
0
ARC
8
DEFAULT_255_1_388
10
11.0973288
20
101.8004166
40
0.1261276
50
359.9832635
51
2.8353994
0
ARC
8
DEFAULT_255_1_388
10
11.1159698
20
101.7993412
40
0.1074916
50
342.1062453
51
0.5535864
0
ARC
8
DEFAULT_255_1_388
10
11.1320122
20
101.7949197
40
0.0908695
50
316.7110111
51
341.6513114
0
ARC
8
DEFAULT_255_1_388
10
11.1395554
20
101.7881607
40
0.0807447
50
285.4398289
51
316.5320129
0
ARC
8
DEFAULT_255_1_388
10
11.1271725
20
101.8293023
40
0.1237022
50
272.3543902
51
285.8951677
0
ARC
8
DEFAULT_255_1_388
10
11.1241435
20
101.8708742
40
0.1653687
50
269.9725761
51
272.8112722
0
ARC
8
DEFAULT_255_1_388
10
11.1230487
20
101.8457727
40
0.1402709
50
258.8433431
51
270.4148607
0
ARC
8
DEFAULT_255_1_388
10
11.1129267
20
101.7967739
40
0.0902407
50
238.54281
51
259.1289544
0
ARC
8
DEFAULT_255_1_388
10
11.1052588
20
101.7828694
40
0.0743817
50
222.5056676
51
237.9918132
0
ARC
8
DEFAULT_255_1_388
10
11.1196182
20
101.7959295
40
0.0937918
50
184.1070774
51
222.4604165
0
ARC
8
DEFAULT_255_1_388
10
11.1498596
20
101.8002538
40
0.1242838
50
179.9419581
51
185.0970785
0
LINE
8
DEFAULT_255_1_388
10
12.0962997
20
100.8715155
11
12.2544235
21
100.8715155
0
LINE
8
DEFAULT_255_1_388
10
11.4303727
20
101.0431927
11
11.4303727
21
101.0712032
0
LINE
8
DEFAULT_255_1_388
10
12.2544235
20
101.2049308
11
12.0962997
21
101.2049308
0
LINE
8
DEFAULT_255_1_388
10
11.5975321
20
101.0648783
11
11.5975321
21
101.0332535
0
ARC
8
DEFAULT_255_1_388
10
11.8699554
20
100.9225109
40
0.2407783
50
269.0327343
51
309.2224588
0
ARC
8
DEFAULT_255_1_388
10
11.8935558
20
100.898319
40
0.207135
50
308.3965377
51
329.6987678
0
ARC
8
DEFAULT_255_1_388
10
11.9090616
20
100.8865899
40
0.1878439
50
330.4013397
51
355.3970937
0
ARC
8
DEFAULT_255_1_388
10
11.96046
20
100.8885312
40
0.2944555
50
329.2357424
51
356.6872018
0
ARC
8
DEFAULT_255_1_388
10
11.8986495
20
100.9212153
40
0.3643032
50
324.8702872
51
329.7911998
0
ARC
8
DEFAULT_255_1_388
10
11.8897777
20
100.9288113
40
0.3759315
50
298.8769973
51
324.7015261
0
ARC
8
DEFAULT_255_1_388
10
11.8524321
20
100.988329
40
0.4461015
50
296.902888
51
299.3854973
0
ARC
8
DEFAULT_255_1_388
10
11.8670318
20
100.9559595
40
0.4106323
50
269.8407861
51
297.1298875
0
ARC
8
DEFAULT_255_1_388
10
11.8610314
20
101.0277354
40
0.4824312
50
253.3156606
51
270.5771301
0
ARC
8
DEFAULT_255_1_388
10
11.8332492
20
100.9271943
40
0.3781531
50
221.1002518
51
252.9743523
0
ARC
8
DEFAULT_255_1_388
10
11.8849962
20
100.9716131
40
0.4463481
50
194.5394284
51
221.0302764
0
ARC
8
DEFAULT_255_1_388
10
12.0929783
20
101.0295897
40
0.6622359
50
182.0498004
51
194.8774376
0
ARC
8
DEFAULT_255_1_388
10
12.2922873
20
101.0428778
40
0.8619146
50
179.9790673
51
182.4586753
0
ARC
8
DEFAULT_255_1_388
10
12.0966187
20
101.0745412
40
0.6662543
50
168.615001
51
180.2870547
0
ARC
8
DEFAULT_255_1_388
10
11.9614095
20
101.1010636
40
0.5284705
50
154.9162417
51
168.5402053
0
ARC
8
DEFAULT_255_1_388
10
11.8577371
20
101.1522942
40
0.4128641
50
133.5745308
51
155.2559538
0
ARC
8
DEFAULT_255_1_388
10
11.8394214
20
101.1679116
40
0.3889328
50
122.0165845
51
133.2056002
0
ARC
8
DEFAULT_255_1_388
10
11.8434538
20
101.1579977
40
0.3994808
50
97.8732516
51
121.753124
0
ARC
8
DEFAULT_255_1_388
10
11.8635996
20
101.039059
40
0.5200708
50
89.8471322
51
98.2768545
0
ARC
8
DEFAULT_255_1_388
10
11.8690844
20
101.1076809
40
0.4514657
50
73.3760755
51
90.5199878
0
ARC
8
DEFAULT_255_1_388
10
11.8911761
20
101.188955
40
0.3672743
50
47.7085939
51
73.0510707
0
ARC
8
DEFAULT_255_1_388
10
11.9057863
20
101.2016231
40
0.3480795
50
3.7442743
51
48.0844373
0
ARC
8
DEFAULT_255_1_388
10
11.7945857
20
101.1838946
40
0.4603187
50
2.6192831
51
5.0424684
0
ARC
8
DEFAULT_255_1_388
10
11.8461328
20
101.1883986
40
0.2507126
50
3.78087
51
23.9354314
0
ARC
8
DEFAULT_255_1_388
10
11.8718588
20
101.1974644
40
0.2235311
50
24.4867863
51
46.9439952
0
ARC
8
DEFAULT_255_1_388
10
11.8719533
20
101.2000874
40
0.2215567
50
46.4987715
51
89.3298168
0
ARC
8
DEFAULT_255_1_388
10
11.8650192
20
101.1334742
40
0.2883121
50
88.1066411
51
90.0063536
0
ARC
8
DEFAULT_255_1_388
10
11.8619168
20
101.1392548
40
0.2825481
50
89.3773571
51
107.2070287
0
ARC
8
DEFAULT_255_1_388
10
11.8458436
20
101.1974667
40
0.2221946
50
107.688418
51
143.3582986
0
ARC
8
DEFAULT_255_1_388
10
11.909673
20
101.1495064
40
0.3020337
50
143.2845866
51
162.9352432
0
ARC
8
DEFAULT_255_1_388
10
12.0790746
20
101.0951401
40
0.4799362
50
162.6652705
51
174.0802646
0
ARC
8
DEFAULT_255_1_388
10
12.3201227
20
101.0671287
40
0.7225942
50
173.8422673
51
180.1784414
0
ARC
8
DEFAULT_255_1_388
10
12.2584898
20
101.0298276
40
0.6609665
50
179.7030218
51
188.2277356
0
ARC
8
DEFAULT_255_1_388
10
12.0220505
20
100.9944143
40
0.4218948
50
188.0630838
51
201.115837
0
ARC
8
DEFAULT_255_1_388
10
11.898539
20
100.947273
40
0.2896941
50
201.2186162
51
216.9761863
0
ARC
8
DEFAULT_255_1_388
10
11.8477548
20
100.9092225
40
0.2262366
50
217.0136373
51
265.2055518
0
ARC
8
DEFAULT_255_1_388
10
11.8652885
20
101.0129503
40
0.3311837
50
263.6824874
51
270.1042034
0
LINE
8
DEFAULT_255_1_388
10
12.9149291
20
101.5464781
11
12.9149291
21
101.391065
0
LINE
8
DEFAULT_255_1_388
10
12.6095243
20
101.2573375
11
12.6095243
21
100.5634
0
LINE
8
DEFAULT_255_1_388
10
12.6095243
20
100.5634
11
12.4423649
21
100.5634
0
LINE
8
DEFAULT_255_1_388
10
12.4423649
20
100.5634
11
12.4423649
21
101.5410567
0
LINE
8
DEFAULT_255_1_388
10
12.4423649
20
101.5410567
11
12.6050065
21
101.5410567
0
LINE
8
DEFAULT_255_1_388
10
12.6050065
20
101.5410567
11
12.6077172
21
101.4281112
0
ARC
8
DEFAULT_255_1_388
10
12.8399451
20
100.9344068
40
0.4627735
50
80.6751522
51
86.893806
0
ARC
8
DEFAULT_255_1_388
10
12.8331281
20
100.8252103
40
0.5721798
50
86.8046851
51
90.0423898
0
ARC
8
DEFAULT_255_1_388
10
12.82897
20
101.1019197
40
0.2954939
50
89.2758283
51
106.6212906
0
ARC
8
DEFAULT_255_1_388
10
12.8059725
20
101.1855009
40
0.2088351
50
107.1347109
51
157.6456887
0
ARC
8
DEFAULT_255_1_388
10
12.8827787
20
101.1427908
40
0.296292
50
155.6557383
51
157.256838
0
ARC
8
DEFAULT_255_1_388
10
12.8607401
20
101.2738472
40
0.296341
50
127.8167201
51
148.6300223
0
ARC
8
DEFAULT_255_1_388
10
12.8322149
20
101.3031066
40
0.2557782
50
91.3329934
51
126.7875218
0
ARC
8
DEFAULT_255_1_388
10
12.8407536
20
101.2227718
40
0.3363561
50
89.9858247
51
92.4688453
0
ARC
8
DEFAULT_255_1_388
10
12.8417029
20
101.2536114
40
0.3055179
50
85.3587643
51
90.1624243
0
ARC
8
DEFAULT_255_1_388
10
12.8512094
20
101.3665458
40
0.1921848
50
78.4019195
51
85.4592653
0
ARC
8
DEFAULT_255_1_388
10
12.8675155
20
101.4443142
40
0.1127267
50
67.7849217
51
78.573798
0
ARC
8
DEFAULT_255_1_388
10
12.8796789
20
101.4758374
40
0.0789473
50
63.4805074
51
67.3074739
0
LINE
8
DEFAULT_255_1_388
10
13.0061891
20
101.0495177
11
13.0061891
21
101.061264
0
LINE
8
DEFAULT_255_1_388
10
13.8962001
20
101.0531319
11
13.8962001
21
101.0413856
0
ARC
8
DEFAULT_255_1_388
10
13.6346336
20
101.064904
40
0.628455
50
166.3005265
51
180.3318609
0
ARC
8
DEFAULT_255_1_388
10
13.5375685
20
101.0866267
40
0.52901
50
153.8608648
51
166.0965672
0
ARC
8
DEFAULT_255_1_388
10
13.4626851
20
101.1267652
40
0.4441126
50
135.1317053
51
154.2534962
0
ARC
8
DEFAULT_255_1_388
10
13.4313502
20
101.1544431
40
0.4023863
50
121.7042632
51
134.7771455
0
ARC
8
DEFAULT_255_1_388
10
13.4388934
20
101.1399469
40
0.4186852
50
93.4001111
51
121.5399523
0
ARC
8
DEFAULT_255_1_388
10
13.4495768
20
101.0469759
40
0.5121521
50
89.9706387
51
93.9763381
0
ARC
8
DEFAULT_255_1_388
10
13.4548753
20
101.0909563
40
0.4681988
50
71.3321659
51
90.6162917
0
ARC
8
DEFAULT_255_1_388
10
13.4731786
20
101.1587003
40
0.3981841
50
41.1813875
51
70.7072086
0
ARC
8
DEFAULT_255_1_388
10
13.4194503
20
101.109913
40
0.4707474
50
12.1971434
51
41.3446641
0
ARC
8
DEFAULT_255_1_388
10
13.2027766
20
101.0583328
40
0.6934429
50
359.5702713
51
12.5803533
0
ARC
8
DEFAULT_255_1_388
10
13.2560082
20
101.0378207
40
0.6402018
50
347.0196754
51
0.3190452
0
ARC
8
DEFAULT_255_1_388
10
13.3638136
20
101.0146189
40
0.5299421
50
334.350439
51
346.8460534
0
ARC
8
DEFAULT_255_1_388
10
13.4589382
20
100.9652244
40
0.4228234
50
310.4228125
51
334.8045131
0
ARC
8
DEFAULT_255_1_388
10
13.468136
20
100.9580301
40
0.4113892
50
301.8488154
51
310.0972985
0
ARC
8
DEFAULT_255_1_388
10
13.46451
20
100.9665573
40
0.4205483
50
274.3078723
51
301.6554173
0
ARC
8
DEFAULT_255_1_388
10
13.4520556
20
101.0652943
40
0.5199658
50
269.954904
51
274.859116
0
ARC
8
DEFAULT_255_1_388
10
13.446538
20
101.0089239
40
0.4636233
50
250.8887647
51
270.6313164
0
ARC
8
DEFAULT_255_1_388
10
13.4296541
20
100.9460405
40
0.398705
50
221.1701369
51
250.2227012
0
ARC
8
DEFAULT_255_1_388
10
13.4841206
20
100.9956716
40
0.4723796
50
191.6263861
51
221.3526879
0
ARC
8
DEFAULT_255_1_388
10
13.6965052
20
101.0448203
40
0.6903321
50
179.6101251
51
192.0694841
0
ARC
8
DEFAULT_255_1_388
10
13.7441399
20
101.0377681
40
0.5698993
50
179.636304
51
190.6161344
0
ARC
8
DEFAULT_255_1_388
10
13.5593731
20
101.0017635
40
0.3816643
50
190.4136062
51
208.7168709
0
ARC
8
DEFAULT_255_1_388
10
13.5019765
20
100.9732905
40
0.3176572
50
209.187109
51
217.4221816
0
ARC
8
DEFAULT_255_1_388
10
13.4424235
20
100.9208729
40
0.2385702
50
216.1156863
51
265.2575395
0
ARC
8
DEFAULT_255_1_388
10
13.4513272
20
100.9853608
40
0.3035941
50
264.5891546
51
270.0602378
0
ARC
8
DEFAULT_255_1_388
10
13.4550469
20
100.9426539
40
0.2609091
50
269.2532353
51
291.8793864
0
ARC
8
DEFAULT_255_1_388
10
13.4583348
20
100.9226359
40
0.241148
50
292.9269367
51
323.1777736
0
ARC
8
DEFAULT_255_1_388
10
13.4112633
20
100.9639762
40
0.3036446
50
322.25666
51
323.087958
0
ARC
8
DEFAULT_255_1_388
10
13.3809891
20
100.9822332
40
0.3388345
50
323.6941379
51
343.8493587
0
ARC
8
DEFAULT_255_1_388
10
13.2034327
20
101.0362698
40
0.5244204
50
343.5746655
51
355.008149
0
ARC
8
DEFAULT_255_1_388
10
12.9776018
20
101.0596797
40
0.7514406
50
354.728272
51
0.1208026
0
ARC
8
DEFAULT_255_1_388
10
13.1765044
20
101.0648947
40
0.5525482
50
359.6235211
51
11.2016685
0
ARC
8
DEFAULT_255_1_388
10
13.3490871
20
101.1004284
40
0.3763527
50
10.9991302
51
30.8317616
0
ARC
8
DEFAULT_255_1_388
10
13.3936175
20
101.1238988
40
0.3260975
50
31.3007463
51
37.395541
0
ARC
8
DEFAULT_255_1_388
10
13.4494894
20
101.1710773
40
0.253082
50
36.5918894
51
62.2439906
0
ARC
8
DEFAULT_255_1_388
10
13.4547186
20
101.1707378
40
0.2509927
50
63.3364883
51
89.7193846
0
ARC
8
DEFAULT_255_1_388
10
13.4498639
20
101.1059375
40
0.3158485
50
88.8962924
51
90.004475
0
ARC
8
DEFAULT_255_1_388
10
13.4463067
20
101.1712071
40
0.250604
50
89.1923115
51
114.7099029
0
ARC
8
DEFAULT_255_1_388
10
13.4495408
20
101.1754675
40
0.2481307
50
115.7996284
51
142.2901353
0
ARC
8
DEFAULT_255_1_388
10
13.4963679
20
101.1335752
40
0.310833
50
141.4607507
51
142.383894
0
ARC
8
DEFAULT_255_1_388
10
13.5111531
20
101.1267449
40
0.3267335
50
143.0176473
51
163.2340089
0
ARC
8
DEFAULT_255_1_388
10
13.6886819
20
101.0705553
40
0.5129308
50
162.9446504
51
174.3733893
0
ARC
8
DEFAULT_255_1_388
10
13.9300792
20
101.0434483
40
0.75583
50
174.1225809
51
180.1563667
0
LINE
8
DEFAULT_255_1_388
10
15.3337711
20
101.3133585
11
15.3337711
21
101.1714989
0
LINE
8
DEFAULT_255_1_388
10
15.3337711
20
101.1714989
11
14.763622
21
101.1714989
0
LINE
8
DEFAULT_255_1_388
10
14.763622
20
101.1714989
11
14.763622
21
100.7052596
0
LINE
8
DEFAULT_255_1_388
10
14.763622
20
100.7052596
11
15.4259347
21
100.7052596
0
LINE
8
DEFAULT_255_1_388
10
15.4259347
20
100.7052596
11
15.4259347
21
100.5634
0
LINE
8
DEFAULT_255_1_388
10
15.4259347
20
100.5634
11
14.5901376
21
100.5634
0
LINE
8
DEFAULT_255_1_388
10
14.5901376
20
100.5634
11
14.5901376
21
101.8789898
0
LINE
8
DEFAULT_255_1_388
10
14.5901376
20
101.8789898
11
15.4168991
21
101.8789898
0
LINE
8
DEFAULT_255_1_388
10
15.4168991
20
101.8789898
11
15.4168991
21
101.7362267
0
LINE
8
DEFAULT_255_1_388
10
15.4168991
20
101.7362267
11
14.763622
21
101.7362267
0
LINE
8
DEFAULT_255_1_388
10
14.763622
20
101.7362267
11
14.763622
21
101.3133585
0
LINE
8
DEFAULT_255_1_388
10
14.763622
20
101.3133585
11
15.3337711
21
101.3133585
0
LINE
8
DEFAULT_255_1_388
10
16.6529752
20
101.8789898
11
16.6529752
21
100.5634
0
LINE
8
DEFAULT_255_1_388
10
16.6529752
20
100.5634
11
16.4785873
21
100.5634
0
LINE
8
DEFAULT_255_1_388
10
16.4785873
20
100.5634
11
16.4785873
21
101.1714989
0
LINE
8
DEFAULT_255_1_388
10
16.4785873
20
101.1714989
11
15.815371
21
101.1714989
0
LINE
8
DEFAULT_255_1_388
10
15.815371
20
101.1714989
11
15.815371
21
100.5634
0
LINE
8
DEFAULT_255_1_388
10
15.815371
20
100.5634
11
15.6418866
21
100.5634
0
LINE
8
DEFAULT_255_1_388
10
15.6418866
20
100.5634
11
15.6418866
21
101.8789898
0
LINE
8
DEFAULT_255_1_388
10
15.6418866
20
101.8789898
11
15.815371
21
101.8789898
0
LINE
8
DEFAULT_255_1_388
10
15.815371
20
101.8789898
11
15.815371
21
101.3133585
0
LINE
8
DEFAULT_255_1_388
10
15.815371
20
101.3133585
11
16.4785873
21
101.3133585
0
LINE
8
DEFAULT_255_1_388
10
16.4785873
20
101.3133585
11
16.4785873
21
101.8789898
0
LINE
8
DEFAULT_255_1_388
10
16.4785873
20
101.8789898
11
16.6529752
21
101.8789898
0
LINE
8
DEFAULT_255_1_388
10
17.0225331
20
101.8789898
11
17.3966088
21
100.7938089
0
LINE
8
DEFAULT_255_1_388
10
17.3966088
20
100.7938089
11
17.7724916
21
101.8789898
0
LINE
8
DEFAULT_255_1_388
10
17.7724916
20
101.8789898
11
17.9622401
21
101.8789898
0
LINE
8
DEFAULT_255_1_388
10
17.9622401
20
101.8789898
11
17.4743153
21
100.5634
0
LINE
8
DEFAULT_255_1_388
10
17.4743153
20
100.5634
11
17.3207094
21
100.5634
0
LINE
8
DEFAULT_255_1_388
10
17.3207094
20
100.5634
11
16.8336881
21
101.8789898
0
LINE
8
DEFAULT_255_1_388
10
16.8336881
20
101.8789898
11
17.0225331
21
101.8789898
0
LINE
8
DEFAULT_255_1_388
10
18.591121
20
101.6530987
11
18.591121
21
101.2690838
0
LINE
8
DEFAULT_255_1_388
10
18.591121
20
101.2690838
11
18.9579682
21
101.2690838
0
LINE
8
DEFAULT_255_1_388
10
18.9579682
20
101.2690838
11
18.9579682
21
101.1109601
0
LINE
8
DEFAULT_255_1_388
10
18.9579682
20
101.1109601
11
18.591121
21
101.1109601
0
LINE
8
DEFAULT_255_1_388
10
18.591121
20
101.1109601
11
18.591121
21
100.6953204
0
LINE
8
DEFAULT_255_1_388
10
18.591121
20
100.6953204
11
18.423058
21
100.6953204
0
LINE
8
DEFAULT_255_1_388
10
18.423058
20
100.6953204
11
18.423058
21
101.1109601
0
LINE
8
DEFAULT_255_1_388
10
18.423058
20
101.1109601
11
18.0562108
21
101.1109601
0
LINE
8
DEFAULT_255_1_388
10
18.0562108
20
101.1109601
11
18.0562108
21
101.2690838
0
LINE
8
DEFAULT_255_1_388
10
18.0562108
20
101.2690838
11
18.423058
21
101.2690838
0
LINE
8
DEFAULT_255_1_388
10
18.423058
20
101.2690838
11
18.423058
21
101.6530987
0
LINE
8
DEFAULT_255_1_388
10
18.423058
20
101.6530987
11
18.591121
21
101.6530987
0
LINE
8
DEFAULT_255_2_778
10
9.3932417
20
91.1490078
11
10.7161417
21
91.1490078
0
LINE
8
DEFAULT_255_2_778
10
10.7161417
20
91.1490078
11
10.7161417
21
50.1386078
0
LINE
8
DEFAULT_255_2_778
10
9.3932834
20
50.1385333
11
12.0390834
21
50.1385333
0
LINE
8
DEFAULT_255_2_778
10
12.0390834
20
50.1385333
11
12.0390834
21
44.8468333
0
LINE
8
DEFAULT_255_2_778
10
12.0390834
20
44.8468333
11
9.3932834
21
44.8468333
0
LINE
8
DEFAULT_255_2_778
10
9.3932834
20
44.8468333
11
9.3932834
21
50.1385333
0
ARC
8
DEFAULT_255_2_778_1
10
13.1928591
20
44.949277
40
4.816461
50
120.9442904
51
122.351755
0
ARC
8
DEFAULT_255_2_778_1
10
12.7462523
20
45.6529039
40
3.9830657
50
122.3407904
51
124.1946752
0
ARC
8
DEFAULT_255_2_778_1
10
12.3063464
20
46.2994306
40
3.2010724
50
124.1855758
51
126.4338849
0
ARC
8
DEFAULT_255_2_778_1
10
11.9204129
20
46.8221611
40
2.5513094
50
126.4326926
51
128.8877368
0
ARC
8
DEFAULT_255_2_778_1
10
11.5855968
20
47.2365658
40
2.0185498
50
128.8749205
51
131.8726567
0
ARC
8
DEFAULT_255_2_778_1
10
11.2884677
20
47.5675854
40
1.5737356
50
131.8616166
51
135.4168838
0
ARC
8
DEFAULT_255_2_778_1
10
11.025668
20
47.8257765
40
1.2053256
50
135.3893975
51
139.9687014
0
ARC
8
DEFAULT_255_2_778_1
10
10.7927889
20
48.0206102
40
0.9016937
50
139.9301659
51
145.9260426
0
ARC
8
DEFAULT_255_2_778_1
10
10.596654
20
48.1526104
40
0.6652776
50
145.8787362
51
153.8146208
0
ARC
8
DEFAULT_255_2_778_1
10
10.4445553
20
48.2269797
40
0.4959714
50
153.770634
51
164.3484794
0
ARC
8
DEFAULT_255_2_778_1
10
10.3432387
20
48.2551786
40
0.3908039
50
164.3220276
51
179.8083066
0
ARC
8
DEFAULT_255_2_778_1
10
10.3642789
20
48.263315
40
0.4118985
50
180.9499449
51
213.8111542
0
ARC
8
DEFAULT_255_2_778_1
10
10.6401828
20
48.4328896
40
0.73561
50
212.8271214
51
224.258472
0
ARC
8
DEFAULT_255_2_778_1
10
11.0230335
20
48.8022236
40
1.267567
50
224.1376218
51
231.4508261
0
ARC
8
DEFAULT_255_2_778_1
10
11.6657195
20
49.6052168
40
2.2960809
50
231.3955893
51
236.1256478
0
ARC
8
DEFAULT_255_2_778_1
10
13.4980223
20
52.3517293
40
5.5976905
50
236.2233172
51
239.1314682
0
ARC
8
DEFAULT_255_2_778_1
10
25.447927
20
72.0794568
40
28.6623793
50
238.8606853
51
239.0711101
0
ARC
8
DEFAULT_255_2_778_1
10
6.2757281
20
39.9823653
40
8.7248518
50
57.2420924
51
59.4062964
0
ARC
8
DEFAULT_255_2_778_1
10
9.5034241
20
45.0133102
40
2.747542
50
52.8289294
51
57.079028
0
ARC
8
DEFAULT_255_2_778_1
10
10.2780783
20
46.0336488
40
1.466457
50
46.3041868
51
52.8596521
0
ARC
8
DEFAULT_255_2_778_1
10
10.7103073
20
46.4837842
40
0.8424061
50
36.2174211
51
46.4090895
0
ARC
8
DEFAULT_255_2_778_1
10
10.9948088
20
46.6886128
40
0.4918609
50
17.400375
51
36.5489745
0
ARC
8
DEFAULT_255_2_778_1
10
11.1088994
20
46.7284754
40
0.3710912
50
0.0676858
51
16.7951297
0
ARC
8
DEFAULT_255_2_778_1
10
11.0878613
20
46.7303428
40
0.3921317
50
343.8035191
51
359.7912046
0
ARC
8
DEFAULT_255_2_778_1
10
10.9815912
20
46.7608167
40
0.5026844
50
333.2506233
51
343.8465691
0
ARC
8
DEFAULT_255_2_778_1
10
10.8277757
20
46.8375313
40
0.6745679
50
325.6600948
51
333.3122657
0
ARC
8
DEFAULT_255_2_778_1
10
10.6323344
20
46.9703296
40
0.9108568
50
319.7560915
51
325.6976089
0
ARC
8
DEFAULT_255_2_778_1
10
10.404199
20
47.1621002
40
1.2088854
50
315.4577584
51
319.8037947
0
ARC
8
DEFAULT_255_2_778_1
10
10.1408127
20
47.4209507
40
1.5781764
50
311.7298824
51
315.4670864
0
ARC
8
DEFAULT_255_2_778_1
10
9.8317879
20
47.7665074
40
2.0417554
50
308.723055
51
311.7470879
0
ARC
8
DEFAULT_255_2_778_1
10
9.477589
20
48.2077492
40
2.6075745
50
306.1165163
51
308.7300151
0
ARC
8
DEFAULT_255_2_778_1
10
9.0746091
20
48.7590523
40
3.2904564
50
303.9559446
51
306.1266333
0
ARC
8
DEFAULT_255_2_778_1
10
8.6630432
20
49.368315
40
4.0257023
50
302.3733397
51
303.9712246
0
ARC
8
DEFAULT_255_2_778_1
10
8.2434347
20
50.0298058
40
4.8090549
50
300.9434827
51
302.3758078
0
LINE
8
DEFAULT_255_2_778
10
10.7161335
20
44.8468572
11
10.7161335
21
3.8364572
0
LINE
8
DEFAULT_255_2_778
10
10.7161335
20
3.8364572
11
9.3932335
21
3.8364572
0
LINE
8
DEFAULT_255_2_778
10
19.9765335
20
84.5343572
11
18.6536335
21
84.5343572
0
LINE
8
DEFAULT_255_2_778
10
18.6536335
20
84.5343572
11
18.6536335
21
67.3364572
0
LINE
8
DEFAULT_255_2_778
10
17.3307834
20
67.3364333
11
19.9765834
21
67.3364333
0
LINE
8
DEFAULT_255_2_778
10
19.9765834
20
67.3364333
11
19.9765834
21
62.0447333
0
LINE
8
DEFAULT_255_2_778
10
19.9765834
20
62.0447333
11
17.3307834
21
62.0447333
0
LINE
8
DEFAULT_255_2_778
10
17.3307834
20
62.0447333
11
17.3307834
21
67.3364333
0
ARC
8
DEFAULT_255_2_778_1
10
21.1303591
20
62.147177
40
4.816461
50
120.9442904
51
122.351755
0
ARC
8
DEFAULT_255_2_778_1
10
20.6837523
20
62.8508039
40
3.9830657
50
122.3407904
51
124.1946752
0
ARC
8
DEFAULT_255_2_778_1
10
20.2438464
20
63.4973306
40
3.2010724
50
124.1855758
51
126.4338849
0
ARC
8
DEFAULT_255_2_778_1
10
19.8579129
20
64.0200611
40
2.5513094
50
126.4326926
51
128.8877368
0
ARC
8
DEFAULT_255_2_778_1
10
19.5230968
20
64.4344658
40
2.0185498
50
128.8749205
51
131.8726567
0
ARC
8
DEFAULT_255_2_778_1
10
19.2259677
20
64.7654854
40
1.5737356
50
131.8616166
51
135.4168838
0
ARC
8
DEFAULT_255_2_778_1
10
18.963168
20
65.0236765
40
1.2053256
50
135.3893975
51
139.9687014
0
ARC
8
DEFAULT_255_2_778_1
10
18.7302889
20
65.2185102
40
0.9016937
50
139.9301659
51
145.9260426
0
ARC
8
DEFAULT_255_2_778_1
10
18.534154
20
65.3505104
40
0.6652776
50
145.8787362
51
153.8146208
0
ARC
8
DEFAULT_255_2_778_1
10
18.3820553
20
65.4248797
40
0.4959714
50
153.770634
51
164.3484794
0
ARC
8
DEFAULT_255_2_778_1
10
18.2807387
20
65.4530786
40
0.3908039
50
164.3220276
51
179.8083066
0
ARC
8
DEFAULT_255_2_778_1
10
18.3017789
20
65.461215
40
0.4118985
50
180.9499449
51
213.8111542
0
ARC
8
DEFAULT_255_2_778_1
10
18.5776828
20
65.6307896
40
0.73561
50
212.8271214
51
224.258472
0
ARC
8
DEFAULT_255_2_778_1
10
18.9605335
20
66.0001236
40
1.267567
50
224.1376218
51
231.4508261
0
ARC
8
DEFAULT_255_2_778_1
10
19.6032195
20
66.8031168
40
2.2960809
50
231.3955893
51
236.1256478
0
ARC
8
DEFAULT_255_2_778_1
10
21.4355223
20
69.5496293
40
5.5976905
50
236.2233172
51
239.1314682
0
ARC
8
DEFAULT_255_2_778_1
10
33.385427
20
89.2773568
40
28.6623793
50
238.8606853
51
239.0711101
0
ARC
8
DEFAULT_255_2_778_1
10
14.2132281
20
57.1802653
40
8.7248518
50
57.2420924
51
59.4062964
0
ARC
8
DEFAULT_255_2_778_1
10
17.4409241
20
62.2112102
40
2.747542
50
52.8289294
51
57.079028
0
ARC
8
DEFAULT_255_2_778_1
10
18.2155783
20
63.2315488
40
1.466457
50
46.3041868
51
52.8596521
0
ARC
8
DEFAULT_255_2_778_1
10
18.6478073
20
63.6816842
40
0.8424061
50
36.2174211
51
46.4090895
0
ARC
8
DEFAULT_255_2_778_1
10
18.9323088
20
63.8865128
40
0.4918609
50
17.400375
51
36.5489745
0
ARC
8
DEFAULT_255_2_778_1
10
19.0463994
20
63.9263754
40
0.3710912
50
0.0676858
51
16.7951297
0
ARC
8
DEFAULT_255_2_778_1
10
19.0253613
20
63.9282428
40
0.3921317
50
343.8035191
51
359.7912046
0
ARC
8
DEFAULT_255_2_778_1
10
18.9190912
20
63.9587167
40
0.5026844
50
333.2506233
51
343.8465691
0
ARC
8
DEFAULT_255_2_778_1
10
18.7652757
20
64.0354313
40
0.6745679
50
325.6600948
51
333.3122657
0
ARC
8
DEFAULT_255_2_778_1
10
18.5698344
20
64.1682296
40
0.9108568
50
319.7560915
51
325.6976089
0
ARC
8
DEFAULT_255_2_778_1
10
18.341699
20
64.3600002
40
1.2088854
50
315.4577584
51
319.8037947
0
ARC
8
DEFAULT_255_2_778_1
10
18.0783127
20
64.6188507
40
1.5781764
50
311.7298824
51
315.4670864
0
ARC
8
DEFAULT_255_2_778_1
10
17.7692879
20
64.9644074
40
2.0417554
50
308.723055
51
311.7470879
0
ARC
8
DEFAULT_255_2_778_1
10
17.415089
20
65.4056492
40
2.6075745
50
306.1165163
51
308.7300151
0
ARC
8
DEFAULT_255_2_778_1
10
17.0121091
20
65.9569523
40
3.2904564
50
303.9559446
51
306.1266333
0
ARC
8
DEFAULT_255_2_778_1
10
16.6005432
20
66.566215
40
4.0257023
50
302.3733397
51
303.9712246
0
ARC
8
DEFAULT_255_2_778_1
10
16.1809347
20
67.2277058
40
4.8090549
50
300.9434827
51
302.3758078
0
LINE
8
DEFAULT_255_2_778
10
18.6536417
20
62.0447581
11
18.6536417
21
44.8468581
0
LINE
8
DEFAULT_255_2_778
10
18.6536417
20
44.8468581
11
19.9765417
21
44.8468581
0
LINE
8
DEFAULT_255_1_388
10
5.0320637
20
99.9019
11
4.9064682
21
100.2452545
0
LINE
8
DEFAULT_255_1_388
10
4.9064682
20
100.2452545
11
4.3552939
21
100.2452545
0
LINE
8
DEFAULT_255_1_388
10
4.3552939
20
100.2452545
11
4.2315056
21
99.9019
0
LINE
8
DEFAULT_255_1_388
10
4.2315056
20
99.9019
11
4.0525998
21
99.9019
0
LINE
8
DEFAULT_255_1_388
10
4.0525998
20
99.9019
11
4.5549816
21
101.2174898
0
LINE
8
DEFAULT_255_1_388
10
4.5549816
20
101.2174898
11
4.7067805
21
101.2174898
0
LINE
8
DEFAULT_255_1_388
10
4.7067805
20
101.2174898
11
5.2100659
21
99.9019
0
LINE
8
DEFAULT_255_1_388
10
5.2100659
20
99.9019
11
5.0320637
21
99.9019
0
LINE
8
DEFAULT_255_1_388
10
4.6308811
20
101.0033451
11
4.4077006
21
100.3880177
0
LINE
8
DEFAULT_255_1_388
10
4.4077006
20
100.3880177
11
4.854965
21
100.3880177
0
LINE
8
DEFAULT_255_1_388
10
4.854965
20
100.3880177
11
4.6308811
21
101.0033451
0
LINE
8
DEFAULT_255_1_388
10
6.1705549
20
100.3193468
11
6.3449428
21
100.3193468
0
LINE
8
DEFAULT_255_1_388
10
5.3320471
20
100.4982525
11
5.3320471
21
100.6247516
0
LINE
8
DEFAULT_255_1_388
10
6.3449428
20
100.7946217
11
6.1705549
21
100.7946217
0
LINE
8
DEFAULT_255_1_388
10
5.506435
20
100.6202337
11
5.506435
21
100.4928312
0
ARC
8
DEFAULT_255_1_388
10
5.7283662
20
100.3865329
40
0.6202263
50
340.1774904
51
353.7812217
0
ARC
8
DEFAULT_255_1_388
10
5.9051515
20
100.3206893
40
0.4315926
50
311.4560052
51
340.4420756
0
ARC
8
DEFAULT_255_1_388
10
5.9014055
20
100.3331665
40
0.4434573
50
282.4332229
51
310.7514507
0
ARC
8
DEFAULT_255_1_388
10
5.8519873
20
100.5373703
40
0.6535262
50
269.9358869
51
282.8096729
0
ARC
8
DEFAULT_255_1_388
10
5.8461812
20
100.6886329
40
0.8048043
50
269.9995752
51
270.3612856
0
ARC
8
DEFAULT_255_1_388
10
5.8402302
20
100.4087781
40
0.5249831
50
250.7885263
51
270.6488451
0
ARC
8
DEFAULT_255_1_388
10
5.8213127
20
100.3370853
40
0.4510942
50
219.3628377
51
250.0611024
0
ARC
8
DEFAULT_255_1_388
10
5.9146001
20
100.4163653
40
0.5735046
50
193.5480293
51
219.5755675
0
ARC
8
DEFAULT_255_1_388
10
6.181421
20
100.485652
40
0.849146
50
181.1220183
51
193.8754971
0
ARC
8
DEFAULT_255_1_388
10
6.4137443
20
100.4980914
40
1.0816971
50
179.9914644
51
181.5398227
0
ARC
8
DEFAULT_255_1_388
10
6.2060754
20
100.6289586
40
0.8740384
50
169.5837606
51
180.275782
0
ARC
8
DEFAULT_255_1_388
10
5.9994102
20
100.6671439
40
0.6638751
50
155.0367033
51
169.6002779
0
ARC
8
DEFAULT_255_1_388
10
5.871656
20
100.7287336
40
0.5220662
50
136.7831557
51
155.2472983
0
ARC
8
DEFAULT_255_1_388
10
5.8278351
20
100.7659577
40
0.4646502
50
121.7633063
51
136.4281161
0
ARC
8
DEFAULT_255_1_388
10
5.8430191
20
100.7379049
40
0.4964979
50
95.6460018
51
121.5489589
0
ARC
8
DEFAULT_255_1_388
10
5.8607165
20
100.6131704
40
0.6223912
50
89.9245727
51
96.1375919
0
ARC
8
DEFAULT_255_1_388
10
5.866387
20
100.6265721
40
0.6090084
50
76.6779212
51
90.456405
0
ARC
8
DEFAULT_255_1_388
10
5.9106683
20
100.805506
40
0.42469
50
47.4858803
51
76.9287069
0
ARC
8
DEFAULT_255_1_388
10
5.8941297
20
100.7942623
40
0.4441778
50
16.5424081
51
46.8934505
0
ARC
8
DEFAULT_255_1_388
10
5.7132347
20
100.7348265
40
0.6345318
50
5.4072971
51
17.0363711
0
ARC
8
DEFAULT_255_1_388
10
5.5514072
20
100.7088304
40
0.6250632
50
7.8888693
51
15.9242022
0
ARC
8
DEFAULT_255_1_388
10
5.7749057
20
100.7737309
40
0.3923364
50
15.7650676
51
27.9410069
0
ARC
8
DEFAULT_255_1_388
10
5.8991226
20
100.8402317
40
0.2514401
50
27.8167196
51
46.4007942
0
ARC
8
DEFAULT_255_1_388
10
5.9047068
20
100.8395882
40
0.2480958
50
47.4372362
51
75.0695672
0
ARC
8
DEFAULT_255_1_388
10
5.8699904
20
100.7187277
40
0.3738281
50
74.7009379
51
87.8124314
0
ARC
8
DEFAULT_255_1_388
10
5.8617521
20
100.6003659
40
0.4924321
50
87.3802571
51
90.0251599
0
ARC
8
DEFAULT_255_1_388
10
5.8574168
20
100.7323997
40
0.3604218
50
89.3451886
51
108.5744412
0
ARC
8
DEFAULT_255_1_388
10
5.842016
20
100.7901836
40
0.3007661
50
109.2998307
51
143.3037387
0
ARC
8
DEFAULT_255_1_388
10
5.927745
20
100.7242584
40
0.4089031
50
143.075267
51
163.1918576
0
ARC
8
DEFAULT_255_1_388
10
6.1473284
20
100.6549652
40
0.6391492
50
162.9375929
51
174.6208776
0
ARC
8
DEFAULT_255_1_388
10
6.4427666
20
100.6225711
40
0.9363344
50
174.342123
51
180.1430283
0
ARC
8
DEFAULT_255_1_388
10
6.3380207
20
100.4882117
40
0.8315986
50
179.6817261
51
189.150555
0
ARC
8
DEFAULT_255_1_388
10
6.0566956
20
100.4413559
40
0.5464044
50
188.9911061
51
203.5772363
0
ARC
8
DEFAULT_255_1_388
10
5.9352248
20
100.3909539
40
0.4149206
50
203.9075402
51
215.1312435
0
ARC
8
DEFAULT_255_1_388
10
5.8314046
20
100.3104907
40
0.2837747
50
213.9071511
51
263.8848919
0
ARC
8
DEFAULT_255_1_388
10
5.8455039
20
100.3987519
40
0.3730641
50
263.1757928
51
270.1031044
0
ARC
8
DEFAULT_255_1_388
10
5.8491119
20
100.5390511
40
0.5133712
50
269.6722503
51
279.0606936
0
ARC
8
DEFAULT_255_1_388
10
5.8791274
20
100.357615
40
0.3294739
50
278.8749101
51
293.6349581
0
ARC
8
DEFAULT_255_1_388
10
5.9151478
20
100.2730251
40
0.2375405
50
293.8553806
51
310.0518171
0
ARC
8
DEFAULT_255_1_388
10
5.9156987
20
100.2660021
40
0.2318463
50
311.0644687
51
332.0111037
0
ARC
8
DEFAULT_255_1_388
10
5.781566
20
100.3399702
40
0.3850112
50
331.6586806
51
343.2877423
0
ARC
8
DEFAULT_255_1_388
10
5.5495125
20
100.4112806
40
0.6277712
50
343.1446576
51
351.0103568
0
ARC
8
DEFAULT_255_1_388
10
5.3862449
20
100.4412873
40
0.7937327
50
350.71248
51
351.1626997
0
LINE
8
DEFAULT_255_1_388
10
4.2548367
20
5.9674898
11
4.2548367
21
4.6519
0
LINE
8
DEFAULT_255_1_388
10
4.2548367
20
4.6519
11
4.0813523
21
4.6519
0
LINE
8
DEFAULT_255_1_388
10
4.0813523
20
4.6519
11
4.0813523
21
5.9674898
0
LINE
8
DEFAULT_255_1_388
10
4.0813523
20
5.9674898
11
4.2548367
21
5.9674898
0
LINE
8
DEFAULT_255_1_388
10
5.5830764
20
5.9674898
11
5.5830764
21
4.6519
0
LINE
8
DEFAULT_255_1_388
10
5.5830764
20
4.6519
11
5.4086885
21
4.6519
0
LINE
8
DEFAULT_255_1_388
10
5.4086885
20
4.6519
11
4.7463757
21
5.6656993
0
LINE
8
DEFAULT_255_1_388
10
4.7463757
20
5.6656993
11
4.7463757
21
4.6519
0
LINE
8
DEFAULT_255_1_388
10
4.7463757
20
4.6519
11
4.5719878
21
4.6519
0
LINE
8
DEFAULT_255_1_388
10
4.5719878
20
4.6519
11
4.5719878
21
5.9674898
0
LINE
8
DEFAULT_255_1_388
10
4.5719878
20
5.9674898
11
4.7463757
21
5.9674898
0
LINE
8
DEFAULT_255_1_388
10
4.7463757
20
5.9674898
11
5.4104956
21
4.9491727
0
LINE
8
DEFAULT_255_1_388
10
5.4104956
20
4.9491727
11
5.4104956
21
5.9674898
0
LINE
8
DEFAULT_255_1_388
10
5.4104956
20
5.9674898
11
5.5830764
21
5.9674898
0
LINE
8
DEFAULT_255_1_388
10
6.5535046
20
5.9674898
11
6.5535046
21
5.093743
0
LINE
8
DEFAULT_255_1_388
10
6.5535046
20
5.093743
11
6.7360247
21
5.093743
0
LINE
8
DEFAULT_255_1_388
10
6.7360247
20
5.093743
11
6.7360247
21
4.9573048
0
LINE
8
DEFAULT_255_1_388
10
6.7360247
20
4.9573048
11
6.5535046
21
4.9573048
0
LINE
8
DEFAULT_255_1_388
10
6.5535046
20
4.9573048
11
6.5535046
21
4.6519
0
LINE
8
DEFAULT_255_1_388
10
6.5535046
20
4.6519
11
6.3854417
21
4.6519
0
LINE
8
DEFAULT_255_1_388
10
6.3854417
20
4.6519
11
6.3854417
21
4.9573048
0
LINE
8
DEFAULT_255_1_388
10
6.3854417
20
4.9573048
11
5.7863784
21
4.9573048
0
LINE
8
DEFAULT_255_1_388
10
5.7863784
20
4.9573048
11
5.7863784
21
5.0557933
0
LINE
8
DEFAULT_255_1_388
10
5.7863784
20
5.0557933
11
6.3755024
21
5.9674898
0
LINE
8
DEFAULT_255_1_388
10
6.3755024
20
5.9674898
11
6.5535046
21
5.9674898
0
LINE
8
DEFAULT_255_1_388
10
6.3655632
20
5.7027455
11
5.976127
21
5.093743
0
LINE
8
DEFAULT_255_1_388
10
5.976127
20
5.093743
11
6.3854417
21
5.093743
0
LINE
8
DEFAULT_255_1_388
10
6.3854417
20
5.093743
11
6.3854417
21
5.738888
0
LINE
8
DEFAULT_255_1_388
10
6.3854417
20
5.738888
11
6.3655632
21
5.7027455
0
LINE
8
DEFAULT_255_1_388
10
7.4814653
20
5.0332042
11
7.4814653
21
5.9674898
0
LINE
8
DEFAULT_255_1_388
10
7.4814653
20
5.9674898
11
7.6558533
21
5.9674898
0
LINE
8
DEFAULT_255_1_388
10
7.6558533
20
5.9674898
11
7.6558533
21
5.0359149
0
LINE
8
DEFAULT_255_1_388
10
6.8254775
20
5.0151329
11
6.9989619
21
5.0151329
0
ARC
8
DEFAULT_255_1_388
10
7.1506255
20
5.0315958
40
0.5052462
50
346.3132364
51
0.4897996
0
ARC
8
DEFAULT_255_1_388
10
7.3045788
20
4.9921792
40
0.3463431
50
313.3793278
51
346.6225662
0
ARC
8
DEFAULT_255_1_388
10
7.2819872
20
5.0206186
40
0.3825426
50
281.1587645
51
312.9130978
0
ARC
8
DEFAULT_255_1_388
10
7.2436777
20
5.1887607
40
0.5549427
50
269.6423454
51
281.6796473
0
ARC
8
DEFAULT_255_1_388
10
7.2359556
20
5.2505499
40
0.6167359
50
258.9989698
51
270.3955842
0
ARC
8
DEFAULT_255_1_388
10
7.1938014
20
5.0425792
40
0.4045461
50
239.625581
51
259.2387746
0
ARC
8
DEFAULT_255_1_388
10
7.1613008
20
4.9812638
40
0.3352261
50
227.4961805
51
239.1189042
0
ARC
8
DEFAULT_255_1_388
10
7.1570891
20
4.9744009
40
0.3273245
50
191.3396895
51
227.2280349
0
ARC
8
DEFAULT_255_1_388
10
7.3151213
20
5.0117896
40
0.4896551
50
179.6087821
51
191.9932937
0
ARC
8
DEFAULT_255_1_388
10
7.3301958
20
5.0126216
40
0.3312434
50
179.565607
51
192.0702314
0
ARC
8
DEFAULT_255_1_388
10
7.220891
20
4.988056
40
0.2192212
50
191.7655537
51
215.6462731
0
ARC
8
DEFAULT_255_1_388
10
7.2008151
20
4.9759629
40
0.1958682
50
216.1940686
51
224.3931249
0
ARC
8
DEFAULT_255_1_388
10
7.2015847
20
4.9789862
40
0.1985399
50
224.861176
51
254.3628599
0
ARC
8
DEFAULT_255_1_388
10
7.232039
20
5.0796135
40
0.3036595
50
253.9470645
51
267.395327
0
ARC
8
DEFAULT_255_1_388
10
7.239969
20
5.1835346
40
0.4078462
50
266.9458957
51
270.0343693
0
ARC
8
DEFAULT_255_1_388
10
7.242827
20
5.0528844
40
0.2772084
50
269.4598277
51
286.1819188
0
ARC
8
DEFAULT_255_1_388
10
7.2587243
20
4.9945765
40
0.2167824
50
286.4415261
51
315.8045035
0
ARC
8
DEFAULT_255_1_388
10
7.2526276
20
4.9993201
40
0.2244619
50
316.0212602
51
345.479585
0
ARC
8
DEFAULT_255_1_388
10
7.1434434
20
5.0300753
40
0.3378781
50
345.0729937
51
358.3249855
0
ARC
8
DEFAULT_255_1_388
10
7.045888
20
5.0363509
40
0.4355887
50
357.8749464
51
359.5860856
0
LINE
8
DEFAULT_255_1_388
10
8.4347258
20
5.1669317
11
8.1248032
21
5.1669317
0
LINE
8
DEFAULT_255_1_388
10
8.1248032
20
5.1669317
11
8.1248032
21
4.6519
0
LINE
8
DEFAULT_255_1_388
10
8.1248032
20
4.6519
11
7.9513188
21
4.6519
0
LINE
8
DEFAULT_255_1_388
10
7.9513188
20
4.6519
11
7.9513188
21
5.9674898
0
LINE
8
DEFAULT_255_1_388
10
7.9513188
20
5.9674898
11
8.436533
21
5.9674898
0
LINE
8
DEFAULT_255_1_388
10
8.1248032
20
5.8247267
11
8.1248032
21
5.3087914
0
LINE
8
DEFAULT_255_1_388
10
8.1248032
20
5.3087914
11
8.436533
21
5.3087914
0
LINE
8
DEFAULT_255_1_388
10
8.4464722
20
5.8247267
11
8.1248032
21
5.8247267
0
ARC
8
DEFAULT_255_1_388
10
8.4412703
20
5.2858334
40
0.6816729
50
78.8380084
51
90.398184
0
ARC
8
DEFAULT_255_1_388
10
8.4880733
20
5.5131796
40
0.449571
50
58.9633273
51
79.0810717
0
ARC
8
DEFAULT_255_1_388
10
8.5220118
20
5.5761823
40
0.3781049
50
48.0194715
51
58.4475592
0
ARC
8
DEFAULT_255_1_388
10
8.5319938
20
5.5857818
40
0.3642936
50
3.3374546
51
48.1766642
0
ARC
8
DEFAULT_255_1_388
10
8.3934745
20
5.5658581
40
0.5038766
50
359.9483251
51
4.6822857
0
ARC
8
DEFAULT_255_1_388
10
8.4074668
20
5.5610779
40
0.4899031
50
346.1879032
51
0.5059221
0
ARC
8
DEFAULT_255_1_388
10
8.5603459
20
5.5213763
40
0.3319729
50
310.8832219
51
346.5426612
0
ARC
8
DEFAULT_255_1_388
10
8.5256308
20
5.5682853
40
0.3901853
50
286.6925305
51
310.228778
0
ARC
8
DEFAULT_255_1_388
10
8.4616037
20
5.7696585
40
0.6014737
50
274.6848219
51
287.0247342
0
ARC
8
DEFAULT_255_1_388
10
8.4362586
20
6.0181088
40
0.8511785
50
269.8968222
51
275.0192639
0
ARC
8
DEFAULT_255_1_388
10
8.439358
20
5.7843144
40
0.4755314
50
269.6596206
51
279.4150542
0
ARC
8
DEFAULT_255_1_388
10
8.4683038
20
5.6165945
40
0.3053379
50
279.2050006
51
294.9901776
0
ARC
8
DEFAULT_255_1_388
10
8.5009672
20
5.5437353
40
0.2255036
50
295.2886769
51
311.2912669
0
ARC
8
DEFAULT_255_1_388
10
8.5089413
20
5.5318938
40
0.2113522
50
311.7853512
51
347.2860549
0
ARC
8
DEFAULT_255_1_388
10
8.3982575
20
5.560343
40
0.3256011
50
346.6891629
51
0.1057086
0
ARC
8
DEFAULT_255_1_388
10
8.3060035
20
5.5636247
40
0.417863
50
359.63239
51
359.9961329
0
ARC
8
DEFAULT_255_1_388
10
8.422464
20
5.5663987
40
0.3014155
50
359.4673371
51
15.5931159
0
ARC
8
DEFAULT_255_1_388
10
8.4927702
20
5.5853937
40
0.2285918
50
15.7441779
51
46.620186
0
ARC
8
DEFAULT_255_1_388
10
8.4761462
20
5.5662361
40
0.2539359
50
46.8628482
51
75.6676625
0
ARC
8
DEFAULT_255_1_388
10
8.4430519
20
5.4471243
40
0.3775415
50
75.2763152
51
88.2916439
0
ARC
8
DEFAULT_255_1_388
10
8.4364518
20
5.3469097
40
0.4779221
50
87.8589087
51
88.7986197
0
LINE
8
DEFAULT_255_1_388
10
4.3190367
20
13.9049898
11
4.3190367
21
12.5894
0
LINE
8
DEFAULT_255_1_388
10
4.3190367
20
12.5894
11
4.1455523
21
12.5894
0
LINE
8
DEFAULT_255_1_388
10
4.1455523
20
12.5894
11
4.1455523
21
13.9049898
0
LINE
8
DEFAULT_255_1_388
10
4.1455523
20
13.9049898
11
4.3190367
21
13.9049898
0
LINE
8
DEFAULT_255_1_388
10
5.6472764
20
13.9049898
11
5.6472764
21
12.5894
0
LINE
8
DEFAULT_255_1_388
10
5.6472764
20
12.5894
11
5.4728885
21
12.5894
0
LINE
8
DEFAULT_255_1_388
10
5.4728885
20
12.5894
11
4.8105757
21
13.6031993
0
LINE
8
DEFAULT_255_1_388
10
4.8105757
20
13.6031993
11
4.8105757
21
12.5894
0
LINE
8
DEFAULT_255_1_388
10
4.8105757
20
12.5894
11
4.6361878
21
12.5894
0
LINE
8
DEFAULT_255_1_388
10
4.6361878
20
12.5894
11
4.6361878
21
13.9049898
0
LINE
8
DEFAULT_255_1_388
10
4.6361878
20
13.9049898
11
4.8105757
21
13.9049898
0
LINE
8
DEFAULT_255_1_388
10
4.8105757
20
13.9049898
11
5.4746956
21
12.8866727
0
LINE
8
DEFAULT_255_1_388
10
5.4746956
20
12.8866727
11
5.4746956
21
13.9049898
0
LINE
8
DEFAULT_255_1_388
10
5.4746956
20
13.9049898
11
5.6472764
21
13.9049898
0
LINE
8
DEFAULT_255_1_388
10
6.6177046
20
13.9049898
11
6.6177046
21
13.031243
0
LINE
8
DEFAULT_255_1_388
10
6.6177046
20
13.031243
11
6.8002247
21
13.031243
0
LINE
8
DEFAULT_255_1_388
10
6.8002247
20
13.031243
11
6.8002247
21
12.8948048
0
LINE
8
DEFAULT_255_1_388
10
6.8002247
20
12.8948048
11
6.6177046
21
12.8948048
0
LINE
8
DEFAULT_255_1_388
10
6.6177046
20
12.8948048
11
6.6177046
21
12.5894
0
LINE
8
DEFAULT_255_1_388
10
6.6177046
20
12.5894
11
6.4496417
21
12.5894
0
LINE
8
DEFAULT_255_1_388
10
6.4496417
20
12.5894
11
6.4496417
21
12.8948048
0
LINE
8
DEFAULT_255_1_388
10
6.4496417
20
12.8948048
11
5.8505784
21
12.8948048
0
LINE
8
DEFAULT_255_1_388
10
5.8505784
20
12.8948048
11
5.8505784
21
12.9932933
0
LINE
8
DEFAULT_255_1_388
10
5.8505784
20
12.9932933
11
6.4397024
21
13.9049898
0
LINE
8
DEFAULT_255_1_388
10
6.4397024
20
13.9049898
11
6.6177046
21
13.9049898
0
LINE
8
DEFAULT_255_1_388
10
6.4297632
20
13.6402455
11
6.040327
21
13.031243
0
LINE
8
DEFAULT_255_1_388
10
6.040327
20
13.031243
11
6.4496417
21
13.031243
0
LINE
8
DEFAULT_255_1_388
10
6.4496417
20
13.031243
11
6.4496417
21
13.676388
0
LINE
8
DEFAULT_255_1_388
10
6.4496417
20
13.676388
11
6.4297632
21
13.6402455
0
LINE
8
DEFAULT_255_1_388
10
7.31616
20
13.2164737
11
7.31616
21
13.0800355
0
LINE
8
DEFAULT_255_1_388
10
7.31616
20
13.0800355
11
6.8752205
21
13.0800355
0
LINE
8
DEFAULT_255_1_388
10
6.8752205
20
13.0800355
11
6.8752205
21
13.2164737
0
LINE
8
DEFAULT_255_1_388
10
6.8752205
20
13.2164737
11
7.31616
21
13.2164737
0
LINE
8
DEFAULT_255_1_388
10
4.1800367
20
21.8424898
11
4.1800367
21
20.5269
0
LINE
8
DEFAULT_255_1_388
10
4.1800367
20
20.5269
11
4.0065523
21
20.5269
0
LINE
8
DEFAULT_255_1_388
10
4.0065523
20
20.5269
11
4.0065523
21
21.8424898
0
LINE
8
DEFAULT_255_1_388
10
4.0065523
20
21.8424898
11
4.1800367
21
21.8424898
0
LINE
8
DEFAULT_255_1_388
10
5.5082764
20
21.8424898
11
5.5082764
21
20.5269
0
LINE
8
DEFAULT_255_1_388
10
5.5082764
20
20.5269
11
5.3338885
21
20.5269
0
LINE
8
DEFAULT_255_1_388
10
5.3338885
20
20.5269
11
4.6715757
21
21.5406993
0
LINE
8
DEFAULT_255_1_388
10
4.6715757
20
21.5406993
11
4.6715757
21
20.5269
0
LINE
8
DEFAULT_255_1_388
10
4.6715757
20
20.5269
11
4.4971878
21
20.5269
0
LINE
8
DEFAULT_255_1_388
10
4.4971878
20
20.5269
11
4.4971878
21
21.8424898
0
LINE
8
DEFAULT_255_1_388
10
4.4971878
20
21.8424898
11
4.6715757
21
21.8424898
0
LINE
8
DEFAULT_255_1_388
10
4.6715757
20
21.8424898
11
5.3356956
21
20.8241727
0
LINE
8
DEFAULT_255_1_388
10
5.3356956
20
20.8241727
11
5.3356956
21
21.8424898
0
LINE
8
DEFAULT_255_1_388
10
5.3356956
20
21.8424898
11
5.5082764
21
21.8424898
0
LINE
8
DEFAULT_255_1_388
10
6.4787046
20
21.8424898
11
6.4787046
21
20.968743
0
LINE
8
DEFAULT_255_1_388
10
6.4787046
20
20.968743
11
6.6612247
21
20.968743
0
LINE
8
DEFAULT_255_1_388
10
6.6612247
20
20.968743
11
6.6612247
21
20.8323048
0
LINE
8
DEFAULT_255_1_388
10
6.6612247
20
20.8323048
11
6.4787046
21
20.8323048
0
LINE
8
DEFAULT_255_1_388
10
6.4787046
20
20.8323048
11
6.4787046
21
20.5269
0
LINE
8
DEFAULT_255_1_388
10
6.4787046
20
20.5269
11
6.3106417
21
20.5269
0
LINE
8
DEFAULT_255_1_388
10
6.3106417
20
20.5269
11
6.3106417
21
20.8323048
0
LINE
8
DEFAULT_255_1_388
10
6.3106417
20
20.8323048
11
5.7115784
21
20.8323048
0
LINE
8
DEFAULT_255_1_388
10
5.7115784
20
20.8323048
11
5.7115784
21
20.9307933
0
LINE
8
DEFAULT_255_1_388
10
5.7115784
20
20.9307933
11
6.3007024
21
21.8424898
0
LINE
8
DEFAULT_255_1_388
10
6.3007024
20
21.8424898
11
6.4787046
21
21.8424898
0
LINE
8
DEFAULT_255_1_388
10
6.2907632
20
21.5777455
11
5.901327
21
20.968743
0
LINE
8
DEFAULT_255_1_388
10
5.901327
20
20.968743
11
6.3106417
21
20.968743
0
LINE
8
DEFAULT_255_1_388
10
6.3106417
20
20.968743
11
6.3106417
21
21.613888
0
LINE
8
DEFAULT_255_1_388
10
6.3106417
20
21.613888
11
6.2907632
21
21.5777455
0
LINE
8
DEFAULT_255_1_388
10
7.3081768
20
21.6165987
11
7.3081768
21
21.2325838
0
LINE
8
DEFAULT_255_1_388
10
7.3081768
20
21.2325838
11
7.675024
21
21.2325838
0
LINE
8
DEFAULT_255_1_388
10
7.675024
20
21.2325838
11
7.675024
21
21.0744601
0
LINE
8
DEFAULT_255_1_388
10
7.675024
20
21.0744601
11
7.3081768
21
21.0744601
0
LINE
8
DEFAULT_255_1_388
10
7.3081768
20
21.0744601
11
7.3081768
21
20.6588204
0
LINE
8
DEFAULT_255_1_388
10
7.3081768
20
20.6588204
11
7.1401138
21
20.6588204
0
LINE
8
DEFAULT_255_1_388
10
7.1401138
20
20.6588204
11
7.1401138
21
21.0744601
0
LINE
8
DEFAULT_255_1_388
10
7.1401138
20
21.0744601
11
6.7732667
21
21.0744601
0
LINE
8
DEFAULT_255_1_388
10
6.7732667
20
21.0744601
11
6.7732667
21
21.2325838
0
LINE
8
DEFAULT_255_1_388
10
6.7732667
20
21.2325838
11
7.1401138
21
21.2325838
0
LINE
8
DEFAULT_255_1_388
10
7.1401138
20
21.2325838
11
7.1401138
21
21.6165987
0
LINE
8
DEFAULT_255_1_388
10
7.1401138
20
21.6165987
11
7.3081768
21
21.6165987
0
LINE
8
DEFAULT_255_1_388
10
4.2548367
20
29.7799898
11
4.2548367
21
28.4644
0
LINE
8
DEFAULT_255_1_388
10
4.2548367
20
28.4644
11
4.0813523
21
28.4644
0
LINE
8
DEFAULT_255_1_388
10
4.0813523
20
28.4644
11
4.0813523
21
29.7799898
0
LINE
8
DEFAULT_255_1_388
10
4.0813523
20
29.7799898
11
4.2548367
21
29.7799898
0
LINE
8
DEFAULT_255_1_388
10
5.5830764
20
29.7799898
11
5.5830764
21
28.4644
0
LINE
8
DEFAULT_255_1_388
10
5.5830764
20
28.4644
11
5.4086885
21
28.4644
0
LINE
8
DEFAULT_255_1_388
10
5.4086885
20
28.4644
11
4.7463757
21
29.4781993
0
LINE
8
DEFAULT_255_1_388
10
4.7463757
20
29.4781993
11
4.7463757
21
28.4644
0
LINE
8
DEFAULT_255_1_388
10
4.7463757
20
28.4644
11
4.5719878
21
28.4644
0
LINE
8
DEFAULT_255_1_388
10
4.5719878
20
28.4644
11
4.5719878
21
29.7799898
0
LINE
8
DEFAULT_255_1_388
10
4.5719878
20
29.7799898
11
4.7463757
21
29.7799898
0
LINE
8
DEFAULT_255_1_388
10
4.7463757
20
29.7799898
11
5.4104956
21
28.7616727
0
LINE
8
DEFAULT_255_1_388
10
5.4104956
20
28.7616727
11
5.4104956
21
29.7799898
0
LINE
8
DEFAULT_255_1_388
10
5.4104956
20
29.7799898
11
5.5830764
21
29.7799898
0
LINE
8
DEFAULT_255_1_388
10
6.0908796
20
29.0670775
11
6.0908796
21
29.2035157
0
LINE
8
DEFAULT_255_1_388
10
6.0908796
20
29.2035157
11
6.2164751
21
29.2035157
0
LINE
8
DEFAULT_255_1_388
10
6.0023303
20
29.4348282
11
5.8351709
21
29.4348282
0
LINE
8
DEFAULT_255_1_388
10
5.8234246
20
28.8113687
11
5.9914875
21
28.8113687
0
LINE
8
DEFAULT_255_1_388
10
6.2164751
20
29.0670775
11
6.0908796
21
29.0670775
0
ARC
8
DEFAULT_255_1_388
10
6.2131977
20
29.5851922
40
0.3816905
50
270.491971
51
281.8953028
0
ARC
8
DEFAULT_255_1_388
10
6.2403404
20
29.4612199
40
0.2547877
50
281.6690378
51
301.2943765
0
ARC
8
DEFAULT_255_1_388
10
6.2594856
20
29.4261926
40
0.2149197
50
301.7834992
51
311.754567
0
ARC
8
DEFAULT_255_1_388
10
6.2697897
20
29.414765
40
0.1995326
50
311.7325027
51
354.2803031
0
ARC
8
DEFAULT_255_1_388
10
6.1880313
20
29.428828
40
0.2823461
50
353.0941646
51
0.1174696
0
ARC
8
DEFAULT_255_1_388
10
6.1361871
20
29.4341874
40
0.3342238
50
359.1804452
51
15.0452323
0
ARC
8
DEFAULT_255_1_388
10
6.2875929
20
29.4783546
40
0.1765747
50
13.957816
51
77.6713812
0
ARC
8
DEFAULT_255_1_388
10
6.2441165
20
29.3225464
40
0.3381982
50
76.111571
51
90.7028736
0
ARC
8
DEFAULT_255_1_388
10
6.2374577
20
29.353325
40
0.3074046
50
89.5321574
51
103.5319393
0
ARC
8
DEFAULT_255_1_388
10
6.2148961
20
29.4432443
40
0.2147041
50
103.2930114
51
133.5619756
0
ARC
8
DEFAULT_255_1_388
10
6.2098902
20
29.4499351
40
0.2064084
50
133.8349761
51
173.5343225
0
ARC
8
DEFAULT_255_1_388
10
6.291256
20
29.4355144
40
0.2889266
50
172.5097183
51
180.1360699
0
ARC
8
DEFAULT_255_1_388
10
6.1842324
20
29.439388
40
0.3490913
50
155.3483706
51
180.7484035
0
ARC
8
DEFAULT_255_1_388
10
6.1787299
20
29.4361519
40
0.3454798
50
131.5745177
51
154.4799474
0
ARC
8
DEFAULT_255_1_388
10
6.2139582
20
29.4005422
40
0.3955058
50
96.9874487
51
131.9690874
0
ARC
8
DEFAULT_255_1_388
10
6.2386475
20
29.2604407
40
0.537622
50
89.8592909
51
97.7827481
0
ARC
8
DEFAULT_255_1_388
10
6.2440584
20
29.230936
40
0.5671399
50
78.3654493
51
90.4132586
0
ARC
8
DEFAULT_255_1_388
10
6.2843225
20
29.4175918
40
0.3762034
50
56.6229818
51
78.6387103
0
ARC
8
DEFAULT_255_1_388
10
6.3085054
20
29.4598846
40
0.3275964
50
47.0254604
51
56.085558
0
ARC
8
DEFAULT_255_1_388
10
6.3107305
20
29.4643189
40
0.3228382
50
10.9207523
51
46.777927
0
ARC
8
DEFAULT_255_1_388
10
6.1572899
20
29.4288401
40
0.4802559
50
359.6364235
51
11.6087615
0
ARC
8
DEFAULT_255_1_388
10
6.3637065
20
29.4271404
40
0.273833
50
332.3549969
51
359.7179765
0
ARC
8
DEFAULT_255_1_388
10
6.2905465
20
29.4618285
40
0.3547505
50
325.2332381
51
332.8746682
0
ARC
8
DEFAULT_255_1_388
10
6.3077048
20
29.4498763
40
0.3338396
50
292.9803892
51
325.2391113
0
ARC
8
DEFAULT_255_1_388
10
6.2766244
20
29.5103679
40
0.4016959
50
292.542178
51
293.6931461
0
ARC
8
DEFAULT_255_1_388
10
6.3209816
20
28.7838036
40
0.372079
50
57.643292
51
72.8626085
0
ARC
8
DEFAULT_255_1_388
10
6.360865
20
28.8484273
40
0.2961455
50
36.7246661
51
57.4701329
0
ARC
8
DEFAULT_255_1_388
10
6.3595807
20
28.849847
40
0.2963321
50
8.054535
51
36.3561529
0
ARC
8
DEFAULT_255_1_388
10
6.262548
20
28.8324073
40
0.3948682
50
359.8316595
51
8.5873361
0
ARC
8
DEFAULT_255_1_388
10
6.2202954
20
28.826997
40
0.4371398
50
343.9831631
51
0.557075
0
ARC
8
DEFAULT_255_1_388
10
6.3200004
20
28.7996963
40
0.3337749
50
311.6358204
51
343.7652116
0
ARC
8
DEFAULT_255_1_388
10
6.2774257
20
28.8476955
40
0.3979351
50
279.7829743
51
311.625622
0
ARC
8
DEFAULT_255_1_388
10
6.2435392
20
29.0093642
40
0.5630417
50
269.7285092
51
280.3857694
0
ARC
8
DEFAULT_255_1_388
10
6.2365705
20
29.0047241
40
0.5584119
50
256.6827433
51
270.4412869
0
ARC
8
DEFAULT_255_1_388
10
6.1984692
20
28.8489698
40
0.3980715
50
229.4223821
51
256.8554507
0
ARC
8
DEFAULT_255_1_388
10
6.1518245
20
28.7964683
40
0.3278564
50
181.8183354
51
229.6455015
0
ARC
8
DEFAULT_255_1_388
10
6.2687855
20
28.8111825
40
0.4453611
50
179.9760419
51
183.2330638
0
ARC
8
DEFAULT_255_1_388
10
6.2494407
20
28.8088781
40
0.2579652
50
179.4467996
51
196.2871626
0
ARC
8
DEFAULT_255_1_388
10
6.1945861
20
28.7938709
40
0.2011057
50
196.5661293
51
227.7059371
0
ARC
8
DEFAULT_255_1_388
10
6.2130468
20
28.8145155
40
0.2287994
50
227.7653015
51
257.8763321
0
ARC
8
DEFAULT_255_1_388
10
6.2383551
20
28.9205961
40
0.3378385
50
257.4583525
51
270.4267406
0
ARC
8
DEFAULT_255_1_388
10
6.2434801
20
28.953223
40
0.3704652
50
269.5965319
51
280.8788143
0
ARC
8
DEFAULT_255_1_388
10
6.2693029
20
28.8242529
40
0.2389415
50
280.6347277
51
299.8594068
0
ARC
8
DEFAULT_255_1_388
10
6.2907798
20
28.7834736
40
0.19289
50
300.3575552
51
314.5515667
0
ARC
8
DEFAULT_255_1_388
10
6.2814474
20
28.7903025
40
0.204312
50
315.0730962
51
345.0429362
0
ARC
8
DEFAULT_255_1_388
10
6.1775982
20
28.8205539
40
0.31246
50
344.598526
51
357.9270698
0
ARC
8
DEFAULT_255_1_388
10
6.0766286
20
28.8274705
40
0.4136265
50
357.4755098
51
0.0224936
0
ARC
8
DEFAULT_255_1_388
10
6.1919164
20
28.8302099
40
0.2983498
50
359.5051035
51
13.4236939
0
ARC
8
DEFAULT_255_1_388
10
6.2894254
20
28.8551637
40
0.1977186
50
12.9497905
51
48.7550905
0
ARC
8
DEFAULT_255_1_388
10
6.2689176
20
28.8271373
40
0.2323321
50
49.509109
51
72.1832965
0
ARC
8
DEFAULT_255_1_388
10
6.2286644
20
28.7076632
40
0.358397
50
71.9008458
51
84.3555134
0
ARC
8
DEFAULT_255_1_388
10
6.2105039
20
28.5544712
40
0.512641
50
84.019632
51
89.3326067
0
LINE
8
DEFAULT_255_1_388
10
7.4814653
20
28.8457042
11
7.4814653
21
29.7799898
0
LINE
8
DEFAULT_255_1_388
10
7.4814653
20
29.7799898
11
7.6558533
21
29.7799898
0
LINE
8
DEFAULT_255_1_388
10
7.6558533
20
29.7799898
11
7.6558533
21
28.8484149
0
LINE
8
DEFAULT_255_1_388
10
6.8254775
20
28.8276329
11
6.9989619
21
28.8276329
0
ARC
8
DEFAULT_255_1_388
10
7.1506255
20
28.8440958
40
0.5052462
50
346.3132364
51
0.4897996
0
ARC
8
DEFAULT_255_1_388
10
7.3045788
20
28.8046792
40
0.3463431
50
313.3793278
51
346.6225662
0
ARC
8
DEFAULT_255_1_388
10
7.2819872
20
28.8331186
40
0.3825426
50
281.1587645
51
312.9130978
0
ARC
8
DEFAULT_255_1_388
10
7.2436777
20
29.0012607
40
0.5549427
50
269.6423454
51
281.6796473
0
ARC
8
DEFAULT_255_1_388
10
7.2359556
20
29.0630499
40
0.6167359
50
258.9989698
51
270.3955842
0
ARC
8
DEFAULT_255_1_388
10
7.1938014
20
28.8550792
40
0.4045461
50
239.625581
51
259.2387746
0
ARC
8
DEFAULT_255_1_388
10
7.1613008
20
28.7937638
40
0.3352261
50
227.4961805
51
239.1189042
0
ARC
8
DEFAULT_255_1_388
10
7.1570891
20
28.7869009
40
0.3273245
50
191.3396895
51
227.2280349
0
ARC
8
DEFAULT_255_1_388
10
7.3151213
20
28.8242896
40
0.4896551
50
179.6087821
51
191.9932937
0
ARC
8
DEFAULT_255_1_388
10
7.3301958
20
28.8251216
40
0.3312434
50
179.565607
51
192.0702314
0
ARC
8
DEFAULT_255_1_388
10
7.220891
20
28.800556
40
0.2192212
50
191.7655537
51
215.6462731
0
ARC
8
DEFAULT_255_1_388
10
7.2008151
20
28.7884629
40
0.1958682
50
216.1940686
51
224.3931249
0
ARC
8
DEFAULT_255_1_388
10
7.2015847
20
28.7914862
40
0.1985399
50
224.861176
51
254.3628599
0
ARC
8
DEFAULT_255_1_388
10
7.232039
20
28.8921135
40
0.3036595
50
253.9470645
51
267.395327
0
ARC
8
DEFAULT_255_1_388
10
7.239969
20
28.9960346
40
0.4078462
50
266.9458957
51
270.0343693
0
ARC
8
DEFAULT_255_1_388
10
7.242827
20
28.8653844
40
0.2772084
50
269.4598277
51
286.1819188
0
ARC
8
DEFAULT_255_1_388
10
7.2587243
20
28.8070765
40
0.2167824
50
286.4415261
51
315.8045035
0
ARC
8
DEFAULT_255_1_388
10
7.2526276
20
28.8118201
40
0.2244619
50
316.0212602
51
345.479585
0
ARC
8
DEFAULT_255_1_388
10
7.1434434
20
28.8425753
40
0.3378781
50
345.0729937
51
358.3249855
0
ARC
8
DEFAULT_255_1_388
10
7.045888
20
28.8488509
40
0.4355887
50
357.8749464
51
359.5860856
0
LINE
8
DEFAULT_255_1_388
10
8.4347258
20
28.9794317
11
8.1248032
21
28.9794317
0
LINE
8
DEFAULT_255_1_388
10
8.1248032
20
28.9794317
11
8.1248032
21
28.4644
0
LINE
8
DEFAULT_255_1_388
10
8.1248032
20
28.4644
11
7.9513188
21
28.4644
0
LINE
8
DEFAULT_255_1_388
10
7.9513188
20
28.4644
11
7.9513188
21
29.7799898
0
LINE
8
DEFAULT_255_1_388
10
7.9513188
20
29.7799898
11
8.436533
21
29.7799898
0
LINE
8
DEFAULT_255_1_388
10
8.1248032
20
29.6372267
11
8.1248032
21
29.1212914
0
LINE
8
DEFAULT_255_1_388
10
8.1248032
20
29.1212914
11
8.436533
21
29.1212914
0
LINE
8
DEFAULT_255_1_388
10
8.4464722
20
29.6372267
11
8.1248032
21
29.6372267
0
ARC
8
DEFAULT_255_1_388
10
8.4412703
20
29.0983334
40
0.6816729
50
78.8380084
51
90.398184
0
ARC
8
DEFAULT_255_1_388
10
8.4880733
20
29.3256796
40
0.449571
50
58.9633273
51
79.0810717
0
ARC
8
DEFAULT_255_1_388
10
8.5220118
20
29.3886823
40
0.3781049
50
48.0194715
51
58.4475592
0
ARC
8
DEFAULT_255_1_388
10
8.5319938
20
29.3982818
40
0.3642936
50
3.3374546
51
48.1766642
0
ARC
8
DEFAULT_255_1_388
10
8.3934745
20
29.3783581
40
0.5038766
50
359.9483251
51
4.6822857
0
ARC
8
DEFAULT_255_1_388
10
8.4074668
20
29.3735779
40
0.4899031
50
346.1879032
51
0.5059221
0
ARC
8
DEFAULT_255_1_388
10
8.5603459
20
29.3338763
40
0.3319729
50
310.8832219
51
346.5426612
0
ARC
8
DEFAULT_255_1_388
10
8.5256308
20
29.3807853
40
0.3901853
50
286.6925305
51
310.228778
0
ARC
8
DEFAULT_255_1_388
10
8.4616037
20
29.5821585
40
0.6014737
50
274.6848219
51
287.0247342
0
ARC
8
DEFAULT_255_1_388
10
8.4362586
20
29.8306088
40
0.8511785
50
269.8968222
51
275.0192639
0
ARC
8
DEFAULT_255_1_388
10
8.439358
20
29.5968144
40
0.4755314
50
269.6596206
51
279.4150542
0
ARC
8
DEFAULT_255_1_388
10
8.4683038
20
29.4290945
40
0.3053379
50
279.2050006
51
294.9901776
0
ARC
8
DEFAULT_255_1_388
10
8.5009672
20
29.3562353
40
0.2255036
50
295.2886769
51
311.2912669
0
ARC
8
DEFAULT_255_1_388
10
8.5089413
20
29.3443938
40
0.2113522
50
311.7853512
51
347.2860549
0
ARC
8
DEFAULT_255_1_388
10
8.3982575
20
29.372843
40
0.3256011
50
346.6891629
51
0.1057086
0
ARC
8
DEFAULT_255_1_388
10
8.3060035
20
29.3761247
40
0.417863
50
359.63239
51
359.9961329
0
ARC
8
DEFAULT_255_1_388
10
8.422464
20
29.3788987
40
0.3014155
50
359.4673371
51
15.5931159
0
ARC
8
DEFAULT_255_1_388
10
8.4927702
20
29.3978937
40
0.2285918
50
15.7441779
51
46.620186
0
ARC
8
DEFAULT_255_1_388
10
8.4761462
20
29.3787361
40
0.2539359
50
46.8628482
51
75.6676625
0
ARC
8
DEFAULT_255_1_388
10
8.4430519
20
29.2596243
40
0.3775415
50
75.2763152
51
88.2916439
0
ARC
8
DEFAULT_255_1_388
10
8.4364518
20
29.1594097
40
0.4779221
50
87.8589087
51
88.7986197
0
LINE
8
DEFAULT_255_1_388
10
4.3190367
20
37.7174898
11
4.3190367
21
36.4019
0
LINE
8
DEFAULT_255_1_388
10
4.3190367
20
36.4019
11
4.1455523
21
36.4019
0
LINE
8
DEFAULT_255_1_388
10
4.1455523
20
36.4019
11
4.1455523
21
37.7174898
0
LINE
8
DEFAULT_255_1_388
10
4.1455523
20
37.7174898
11
4.3190367
21
37.7174898
0
LINE
8
DEFAULT_255_1_388
10
5.6472764
20
37.7174898
11
5.6472764
21
36.4019
0
LINE
8
DEFAULT_255_1_388
10
5.6472764
20
36.4019
11
5.4728885
21
36.4019
0
LINE
8
DEFAULT_255_1_388
10
5.4728885
20
36.4019
11
4.8105757
21
37.4156993
0
LINE
8
DEFAULT_255_1_388
10
4.8105757
20
37.4156993
11
4.8105757
21
36.4019
0
LINE
8
DEFAULT_255_1_388
10
4.8105757
20
36.4019
11
4.6361878
21
36.4019
0
LINE
8
DEFAULT_255_1_388
10
4.6361878
20
36.4019
11
4.6361878
21
37.7174898
0
LINE
8
DEFAULT_255_1_388
10
4.6361878
20
37.7174898
11
4.8105757
21
37.7174898
0
LINE
8
DEFAULT_255_1_388
10
4.8105757
20
37.7174898
11
5.4746956
21
36.6991727
0
LINE
8
DEFAULT_255_1_388
10
5.4746956
20
36.6991727
11
5.4746956
21
37.7174898
0
LINE
8
DEFAULT_255_1_388
10
5.4746956
20
37.7174898
11
5.6472764
21
37.7174898
0
LINE
8
DEFAULT_255_1_388
10
6.1550796
20
37.0045775
11
6.1550796
21
37.1410157
0
LINE
8
DEFAULT_255_1_388
10
6.1550796
20
37.1410157
11
6.2806751
21
37.1410157
0
LINE
8
DEFAULT_255_1_388
10
6.0665303
20
37.3723282
11
5.8993709
21
37.3723282
0
LINE
8
DEFAULT_255_1_388
10
5.8876246
20
36.7488688
11
6.0556875
21
36.7488688
0
LINE
8
DEFAULT_255_1_388
10
6.2806751
20
37.0045775
11
6.1550796
21
37.0045775
0
ARC
8
DEFAULT_255_1_388
10
6.2773977
20
37.5226922
40
0.3816905
50
270.491971
51
281.8953028
0
ARC
8
DEFAULT_255_1_388
10
6.3045404
20
37.3987199
40
0.2547877
50
281.6690378
51
301.2943765
0
ARC
8
DEFAULT_255_1_388
10
6.3236856
20
37.3636926
40
0.2149197
50
301.7834992
51
311.754567
0
ARC
8
DEFAULT_255_1_388
10
6.3339897
20
37.352265
40
0.1995326
50
311.7325027
51
354.2803031
0
ARC
8
DEFAULT_255_1_388
10
6.2522313
20
37.366328
40
0.2823461
50
353.0941646
51
0.1174696
0
ARC
8
DEFAULT_255_1_388
10
6.2003871
20
37.3716874
40
0.3342238
50
359.1804452
51
15.0452323
0
ARC
8
DEFAULT_255_1_388
10
6.3517929
20
37.4158546
40
0.1765747
50
13.957816
51
77.6713812
0
ARC
8
DEFAULT_255_1_388
10
6.3083165
20
37.2600464
40
0.3381982
50
76.111571
51
90.7028736
0
ARC
8
DEFAULT_255_1_388
10
6.3016577
20
37.290825
40
0.3074046
50
89.5321574
51
103.5319393
0
ARC
8
DEFAULT_255_1_388
10
6.2790961
20
37.3807443
40
0.2147041
50
103.2930114
51
133.5619756
0
ARC
8
DEFAULT_255_1_388
10
6.2740902
20
37.3874351
40
0.2064084
50
133.8349761
51
173.5343225
0
ARC
8
DEFAULT_255_1_388
10
6.355456
20
37.3730144
40
0.2889266
50
172.5097183
51
180.1360699
0
ARC
8
DEFAULT_255_1_388
10
6.2484324
20
37.376888
40
0.3490913
50
155.3483706
51
180.7484035
0
ARC
8
DEFAULT_255_1_388
10
6.2429299
20
37.3736519
40
0.3454798
50
131.5745177
51
154.4799474
0
ARC
8
DEFAULT_255_1_388
10
6.2781582
20
37.3380422
40
0.3955058
50
96.9874487
51
131.9690874
0
ARC
8
DEFAULT_255_1_388
10
6.3028475
20
37.1979407
40
0.537622
50
89.8592909
51
97.7827481
0
ARC
8
DEFAULT_255_1_388
10
6.3082584
20
37.168436
40
0.5671399
50
78.3654493
51
90.4132586
0
ARC
8
DEFAULT_255_1_388
10
6.3485225
20
37.3550918
40
0.3762034
50
56.6229818
51
78.6387103
0
ARC
8
DEFAULT_255_1_388
10
6.3727054
20
37.3973846
40
0.3275964
50
47.0254604
51
56.085558
0
ARC
8
DEFAULT_255_1_388
10
6.3749305
20
37.4018189
40
0.3228382
50
10.9207523
51
46.777927
0
ARC
8
DEFAULT_255_1_388
10
6.2214899
20
37.3663401
40
0.4802559
50
359.6364235
51
11.6087615
0
ARC
8
DEFAULT_255_1_388
10
6.4279065
20
37.3646404
40
0.273833
50
332.3549969
51
359.7179765
0
ARC
8
DEFAULT_255_1_388
10
6.3547465
20
37.3993285
40
0.3547505
50
325.2332381
51
332.8746682
0
ARC
8
DEFAULT_255_1_388
10
6.3719048
20
37.3873763
40
0.3338396
50
292.9803892
51
325.2391113
0
ARC
8
DEFAULT_255_1_388
10
6.3408244
20
37.4478679
40
0.4016959
50
292.542178
51
293.6931461
0
ARC
8
DEFAULT_255_1_388
10
6.3851816
20
36.7213036
40
0.372079
50
57.643292
51
72.8626085
0
ARC
8
DEFAULT_255_1_388
10
6.425065
20
36.7859273
40
0.2961455
50
36.7246661
51
57.4701329
0
ARC
8
DEFAULT_255_1_388
10
6.4237807
20
36.787347
40
0.2963321
50
8.054535
51
36.3561529
0
ARC
8
DEFAULT_255_1_388
10
6.326748
20
36.7699073
40
0.3948682
50
359.8316595
51
8.5873361
0
ARC
8
DEFAULT_255_1_388
10
6.2844954
20
36.764497
40
0.4371398
50
343.9831631
51
0.557075
0
ARC
8
DEFAULT_255_1_388
10
6.3842004
20
36.7371963
40
0.3337749
50
311.6358204
51
343.7652116
0
ARC
8
DEFAULT_255_1_388
10
6.3416257
20
36.7851955
40
0.3979351
50
279.7829743
51
311.625622
0
ARC
8
DEFAULT_255_1_388
10
6.3077392
20
36.9468642
40
0.5630417
50
269.7285092
51
280.3857694
0
ARC
8
DEFAULT_255_1_388
10
6.3007705
20
36.9422241
40
0.5584119
50
256.6827433
51
270.4412869
0
ARC
8
DEFAULT_255_1_388
10
6.2626692
20
36.7864698
40
0.3980715
50
229.4223821
51
256.8554507
0
ARC
8
DEFAULT_255_1_388
10
6.2160245
20
36.7339683
40
0.3278564
50
181.8183354
51
229.6455015
0
ARC
8
DEFAULT_255_1_388
10
6.3329855
20
36.7486825
40
0.4453611
50
179.9760419
51
183.2330638
0
ARC
8
DEFAULT_255_1_388
10
6.3136407
20
36.7463781
40
0.2579652
50
179.4467996
51
196.2871626
0
ARC
8
DEFAULT_255_1_388
10
6.2587861
20
36.7313709
40
0.2011057
50
196.5661293
51
227.7059371
0
ARC
8
DEFAULT_255_1_388
10
6.2772468
20
36.7520155
40
0.2287994
50
227.7653015
51
257.8763321
0
ARC
8
DEFAULT_255_1_388
10
6.3025551
20
36.8580961
40
0.3378385
50
257.4583525
51
270.4267406
0
ARC
8
DEFAULT_255_1_388
10
6.3076801
20
36.890723
40
0.3704652
50
269.5965319
51
280.8788143
0
ARC
8
DEFAULT_255_1_388
10
6.3335029
20
36.7617529
40
0.2389415
50
280.6347277
51
299.8594068
0
ARC
8
DEFAULT_255_1_388
10
6.3549798
20
36.7209736
40
0.19289
50
300.3575552
51
314.5515667
0
ARC
8
DEFAULT_255_1_388
10
6.3456474
20
36.7278025
40
0.204312
50
315.0730962
51
345.0429362
0
ARC
8
DEFAULT_255_1_388
10
6.2417982
20
36.7580539
40
0.31246
50
344.598526
51
357.9270698
0
ARC
8
DEFAULT_255_1_388
10
6.1408286
20
36.7649705
40
0.4136265
50
357.4755098
51
0.0224936
0
ARC
8
DEFAULT_255_1_388
10
6.2561164
20
36.7677099
40
0.2983498
50
359.5051035
51
13.4236939
0
ARC
8
DEFAULT_255_1_388
10
6.3536254
20
36.7926637
40
0.1977186
50
12.9497905
51
48.7550905
0
ARC
8
DEFAULT_255_1_388
10
6.3331176
20
36.7646373
40
0.2323321
50
49.509109
51
72.1832965
0
ARC
8
DEFAULT_255_1_388
10
6.2928644
20
36.6451632
40
0.358397
50
71.9008458
51
84.3555134
0
ARC
8
DEFAULT_255_1_388
10
6.2747039
20
36.4919712
40
0.512641
50
84.019632
51
89.3326067
0
LINE
8
DEFAULT_255_1_388
10
7.31616
20
37.0289737
11
7.31616
21
36.8925355
0
LINE
8
DEFAULT_255_1_388
10
7.31616
20
36.8925355
11
6.8752205
21
36.8925355
0
LINE
8
DEFAULT_255_1_388
10
6.8752205
20
36.8925355
11
6.8752205
21
37.0289737
0
LINE
8
DEFAULT_255_1_388
10
6.8752205
20
37.0289737
11
7.31616
21
37.0289737
0
LINE
8
DEFAULT_255_1_388
10
4.1800367
20
45.6549898
11
4.1800367
21
44.3394
0
LINE
8
DEFAULT_255_1_388
10
4.1800367
20
44.3394
11
4.0065523
21
44.3394
0
LINE
8
DEFAULT_255_1_388
10
4.0065523
20
44.3394
11
4.0065523
21
45.6549898
0
LINE
8
DEFAULT_255_1_388
10
4.0065523
20
45.6549898
11
4.1800367
21
45.6549898
0
LINE
8
DEFAULT_255_1_388
10
5.5082764
20
45.6549898
11
5.5082764
21
44.3394
0
LINE
8
DEFAULT_255_1_388
10
5.5082764
20
44.3394
11
5.3338885
21
44.3394
0
LINE
8
DEFAULT_255_1_388
10
5.3338885
20
44.3394
11
4.6715757
21
45.3531993
0
LINE
8
DEFAULT_255_1_388
10
4.6715757
20
45.3531993
11
4.6715757
21
44.3394
0
LINE
8
DEFAULT_255_1_388
10
4.6715757
20
44.3394
11
4.4971878
21
44.3394
0
LINE
8
DEFAULT_255_1_388
10
4.4971878
20
44.3394
11
4.4971878
21
45.6549898
0
LINE
8
DEFAULT_255_1_388
10
4.4971878
20
45.6549898
11
4.6715757
21
45.6549898
0
LINE
8
DEFAULT_255_1_388
10
4.6715757
20
45.6549898
11
5.3356956
21
44.6366727
0
LINE
8
DEFAULT_255_1_388
10
5.3356956
20
44.6366727
11
5.3356956
21
45.6549898
0
LINE
8
DEFAULT_255_1_388
10
5.3356956
20
45.6549898
11
5.5082764
21
45.6549898
0
LINE
8
DEFAULT_255_1_388
10
6.0160796
20
44.9420775
11
6.0160796
21
45.0785157
0
LINE
8
DEFAULT_255_1_388
10
6.0160796
20
45.0785157
11
6.1416751
21
45.0785157
0
LINE
8
DEFAULT_255_1_388
10
5.9275303
20
45.3098282
11
5.7603709
21
45.3098282
0
LINE
8
DEFAULT_255_1_388
10
5.7486246
20
44.6863688
11
5.9166875
21
44.6863688
0
LINE
8
DEFAULT_255_1_388
10
6.1416751
20
44.9420775
11
6.0160796
21
44.9420775
0
ARC
8
DEFAULT_255_1_388
10
6.1383977
20
45.4601922
40
0.3816905
50
270.491971
51
281.8953028
0
ARC
8
DEFAULT_255_1_388
10
6.1655404
20
45.3362199
40
0.2547877
50
281.6690378
51
301.2943765
0
ARC
8
DEFAULT_255_1_388
10
6.1846856
20
45.3011926
40
0.2149197
50
301.7834992
51
311.754567
0
ARC
8
DEFAULT_255_1_388
10
6.1949897
20
45.289765
40
0.1995326
50
311.7325027
51
354.2803031
0
ARC
8
DEFAULT_255_1_388
10
6.1132313
20
45.303828
40
0.2823461
50
353.0941646
51
0.1174696
0
ARC
8
DEFAULT_255_1_388
10
6.0613871
20
45.3091874
40
0.3342238
50
359.1804452
51
15.0452323
0
ARC
8
DEFAULT_255_1_388
10
6.2127929
20
45.3533546
40
0.1765747
50
13.957816
51
77.6713812
0
ARC
8
DEFAULT_255_1_388
10
6.1693165
20
45.1975464
40
0.3381982
50
76.111571
51
90.7028736
0
ARC
8
DEFAULT_255_1_388
10
6.1626577
20
45.228325
40
0.3074046
50
89.5321574
51
103.5319393
0
ARC
8
DEFAULT_255_1_388
10
6.1400961
20
45.3182443
40
0.2147041
50
103.2930114
51
133.5619756
0
ARC
8
DEFAULT_255_1_388
10
6.1350902
20
45.3249351
40
0.2064084
50
133.8349761
51
173.5343225
0
ARC
8
DEFAULT_255_1_388
10
6.216456
20
45.3105144
40
0.2889266
50
172.5097183
51
180.1360699
0
ARC
8
DEFAULT_255_1_388
10
6.1094324
20
45.314388
40
0.3490913
50
155.3483706
51
180.7484035
0
ARC
8
DEFAULT_255_1_388
10
6.1039299
20
45.3111519
40
0.3454798
50
131.5745177
51
154.4799474
0
ARC
8
DEFAULT_255_1_388
10
6.1391582
20
45.2755422
40
0.3955058
50
96.9874487
51
131.9690874
0
ARC
8
DEFAULT_255_1_388
10
6.1638475
20
45.1354407
40
0.537622
50
89.8592909
51
97.7827481
0
ARC
8
DEFAULT_255_1_388
10
6.1692584
20
45.105936
40
0.5671399
50
78.3654493
51
90.4132586
0
ARC
8
DEFAULT_255_1_388
10
6.2095225
20
45.2925918
40
0.3762034
50
56.6229818
51
78.6387103
0
ARC
8
DEFAULT_255_1_388
10
6.2337054
20
45.3348846
40
0.3275964
50
47.0254604
51
56.085558
0
ARC
8
DEFAULT_255_1_388
10
6.2359305
20
45.3393189
40
0.3228382
50
10.9207523
51
46.777927
0
ARC
8
DEFAULT_255_1_388
10
6.0824899
20
45.3038401
40
0.4802559
50
359.6364235
51
11.6087615
0
ARC
8
DEFAULT_255_1_388
10
6.2889065
20
45.3021404
40
0.273833
50
332.3549969
51
359.7179765
0
ARC
8
DEFAULT_255_1_388
10
6.2157465
20
45.3368285
40
0.3547505
50
325.2332381
51
332.8746682
0
ARC
8
DEFAULT_255_1_388
10
6.2329048
20
45.3248763
40
0.3338396
50
292.9803892
51
325.2391113
0
ARC
8
DEFAULT_255_1_388
10
6.2018244
20
45.3853679
40
0.4016959
50
292.542178
51
293.6931461
0
ARC
8
DEFAULT_255_1_388
10
6.2461816
20
44.6588036
40
0.372079
50
57.643292
51
72.8626085
0
ARC
8
DEFAULT_255_1_388
10
6.286065
20
44.7234273
40
0.2961455
50
36.7246661
51
57.4701329
0
ARC
8
DEFAULT_255_1_388
10
6.2847807
20
44.724847
40
0.2963321
50
8.054535
51
36.3561529
0
ARC
8
DEFAULT_255_1_388
10
6.187748
20
44.7074073
40
0.3948682
50
359.8316595
51
8.5873361
0
ARC
8
DEFAULT_255_1_388
10
6.1454954
20
44.701997
40
0.4371398
50
343.9831631
51
0.557075
0
ARC
8
DEFAULT_255_1_388
10
6.2452004
20
44.6746963
40
0.3337749
50
311.6358204
51
343.7652116
0
ARC
8
DEFAULT_255_1_388
10
6.2026257
20
44.7226955
40
0.3979351
50
279.7829743
51
311.625622
0
ARC
8
DEFAULT_255_1_388
10
6.1687392
20
44.8843642
40
0.5630417
50
269.7285092
51
280.3857694
0
ARC
8
DEFAULT_255_1_388
10
6.1617705
20
44.8797241
40
0.5584119
50
256.6827433
51
270.4412869
0
ARC
8
DEFAULT_255_1_388
10
6.1236692
20
44.7239698
40
0.3980715
50
229.4223821
51
256.8554507
0
ARC
8
DEFAULT_255_1_388
10
6.0770245
20
44.6714683
40
0.3278564
50
181.8183354
51
229.6455015
0
ARC
8
DEFAULT_255_1_388
10
6.1939855
20
44.6861825
40
0.4453611
50
179.9760419
51
183.2330638
0
ARC
8
DEFAULT_255_1_388
10
6.1746407
20
44.6838781
40
0.2579652
50
179.4467996
51
196.2871626
0
ARC
8
DEFAULT_255_1_388
10
6.1197861
20
44.6688709
40
0.2011057
50
196.5661293
51
227.7059371
0
ARC
8
DEFAULT_255_1_388
10
6.1382468
20
44.6895155
40
0.2287994
50
227.7653015
51
257.8763321
0
ARC
8
DEFAULT_255_1_388
10
6.1635551
20
44.7955961
40
0.3378385
50
257.4583525
51
270.4267406
0
ARC
8
DEFAULT_255_1_388
10
6.1686801
20
44.828223
40
0.3704652
50
269.5965319
51
280.8788143
0
ARC
8
DEFAULT_255_1_388
10
6.1945029
20
44.6992529
40
0.2389415
50
280.6347277
51
299.8594068
0
ARC
8
DEFAULT_255_1_388
10
6.2159798
20
44.6584736
40
0.19289
50
300.3575552
51
314.5515667
0
ARC
8
DEFAULT_255_1_388
10
6.2066474
20
44.6653025
40
0.204312
50
315.0730962
51
345.0429362
0
ARC
8
DEFAULT_255_1_388
10
6.1027982
20
44.6955539
40
0.31246
50
344.598526
51
357.9270698
0
ARC
8
DEFAULT_255_1_388
10
6.0018286
20
44.7024705
40
0.4136265
50
357.4755098
51
0.0224936
0
ARC
8
DEFAULT_255_1_388
10
6.1171164
20
44.7052099
40
0.2983498
50
359.5051035
51
13.4236939
0
ARC
8
DEFAULT_255_1_388
10
6.2146254
20
44.7301637
40
0.1977186
50
12.9497905
51
48.7550905
0
ARC
8
DEFAULT_255_1_388
10
6.1941176
20
44.7021373
40
0.2323321
50
49.509109
51
72.1832965
0
ARC
8
DEFAULT_255_1_388
10
6.1538644
20
44.5826632
40
0.358397
50
71.9008458
51
84.3555134
0
ARC
8
DEFAULT_255_1_388
10
6.1357039
20
44.4294712
40
0.512641
50
84.019632
51
89.3326067
0
LINE
8
DEFAULT_255_1_388
10
7.3081768
20
45.4290987
11
7.3081768
21
45.0450838
0
LINE
8
DEFAULT_255_1_388
10
7.3081768
20
45.0450838
11
7.675024
21
45.0450838
0
LINE
8
DEFAULT_255_1_388
10
7.675024
20
45.0450838
11
7.675024
21
44.8869601
0
LINE
8
DEFAULT_255_1_388
10
7.675024
20
44.8869601
11
7.3081768
21
44.8869601
0
LINE
8
DEFAULT_255_1_388
10
7.3081768
20
44.8869601
11
7.3081768
21
44.4713204
0
LINE
8
DEFAULT_255_1_388
10
7.3081768
20
44.4713204
11
7.1401138
21
44.4713204
0
LINE
8
DEFAULT_255_1_388
10
7.1401138
20
44.4713204
11
7.1401138
21
44.8869601
0
LINE
8
DEFAULT_255_1_388
10
7.1401138
20
44.8869601
11
6.7732667
21
44.8869601
0
LINE
8
DEFAULT_255_1_388
10
6.7732667
20
44.8869601
11
6.7732667
21
45.0450838
0
LINE
8
DEFAULT_255_1_388
10
6.7732667
20
45.0450838
11
7.1401138
21
45.0450838
0
LINE
8
DEFAULT_255_1_388
10
7.1401138
20
45.0450838
11
7.1401138
21
45.4290987
0
LINE
8
DEFAULT_255_1_388
10
7.1401138
20
45.4290987
11
7.3081768
21
45.4290987
0
LINE
8
DEFAULT_255_1_388
10
4.2548367
20
53.5924898
11
4.2548367
21
52.2769
0
LINE
8
DEFAULT_255_1_388
10
4.2548367
20
52.2769
11
4.0813523
21
52.2769
0
LINE
8
DEFAULT_255_1_388
10
4.0813523
20
52.2769
11
4.0813523
21
53.5924898
0
LINE
8
DEFAULT_255_1_388
10
4.0813523
20
53.5924898
11
4.2548367
21
53.5924898
0
LINE
8
DEFAULT_255_1_388
10
5.5830764
20
53.5924898
11
5.5830764
21
52.2769
0
LINE
8
DEFAULT_255_1_388
10
5.5830764
20
52.2769
11
5.4086885
21
52.2769
0
LINE
8
DEFAULT_255_1_388
10
5.4086885
20
52.2769
11
4.7463757
21
53.2906993
0
LINE
8
DEFAULT_255_1_388
10
4.7463757
20
53.2906993
11
4.7463757
21
52.2769
0
LINE
8
DEFAULT_255_1_388
10
4.7463757
20
52.2769
11
4.5719878
21
52.2769
0
LINE
8
DEFAULT_255_1_388
10
4.5719878
20
52.2769
11
4.5719878
21
53.5924898
0
LINE
8
DEFAULT_255_1_388
10
4.5719878
20
53.5924898
11
4.7463757
21
53.5924898
0
LINE
8
DEFAULT_255_1_388
10
4.7463757
20
53.5924898
11
5.4104956
21
52.5741727
0
LINE
8
DEFAULT_255_1_388
10
5.4104956
20
52.5741727
11
5.4104956
21
53.5924898
0
LINE
8
DEFAULT_255_1_388
10
5.4104956
20
53.5924898
11
5.5830764
21
53.5924898
0
LINE
8
DEFAULT_255_1_388
10
6.7098213
20
52.4133382
11
6.7098213
21
52.2769
0
LINE
8
DEFAULT_255_1_388
10
6.7098213
20
52.2769
11
5.8478208
21
52.2769
0
LINE
8
DEFAULT_255_1_388
10
5.8478208
20
52.2769
11
5.8478208
21
52.3970741
0
LINE
8
DEFAULT_255_1_388
10
5.8478208
20
52.3970741
11
6.3032173
21
52.9030702
0
LINE
8
DEFAULT_255_1_388
10
5.9896804
20
53.2048607
11
5.822521
21
53.2048607
0
LINE
8
DEFAULT_255_1_388
10
6.4017058
20
52.795546
11
6.0493157
21
52.4133382
0
LINE
8
DEFAULT_255_1_388
10
6.0493157
20
52.4133382
11
6.7098213
21
52.4133382
0
ARC
8
DEFAULT_255_1_388
10
4.7856232
20
54.2450983
40
2.0258655
50
318.5132526
51
320.7829045
0
ARC
8
DEFAULT_255_1_388
10
5.3804189
20
53.7609929
40
1.2589638
50
320.7372878
51
323.9739031
0
ARC
8
DEFAULT_255_1_388
10
5.8213121
20
53.4415554
40
0.7145141
50
323.8962701
51
328.64194
0
ARC
8
DEFAULT_255_1_388
10
6.0515379
20
53.2995545
40
0.4440242
50
328.8294576
51
331.7891185
0
ARC
8
DEFAULT_255_1_388
10
6.1637699
20
53.2416374
40
0.3177517
50
331.4254512
51
352.9365785
0
ARC
8
DEFAULT_255_1_388
10
6.1790699
20
53.238205
40
0.3021496
50
353.2257659
51
0.0166158
0
ARC
8
DEFAULT_255_1_388
10
6.2027459
20
53.2407894
40
0.2784847
50
359.486299
51
15.9343185
0
ARC
8
DEFAULT_255_1_388
10
6.2597726
20
53.2561269
40
0.2194403
50
16.1712913
51
43.5286088
0
ARC
8
DEFAULT_255_1_388
10
6.2684671
20
53.2648191
40
0.2071504
50
43.4417391
51
83.1661095
0
ARC
8
DEFAULT_255_1_388
10
6.2533832
20
53.1819316
40
0.2912888
50
82.160179
51
90.1505708
0
ARC
8
DEFAULT_255_1_388
10
6.2498313
20
53.1215279
40
0.3517025
50
89.5460741
51
102.5418361
0
ARC
8
DEFAULT_255_1_388
10
6.2225033
20
53.2374933
40
0.2325748
50
102.1738499
51
129.206123
0
ARC
8
DEFAULT_255_1_388
10
6.2136487
20
53.2514664
40
0.2161591
50
129.72865
51
135.753947
0
ARC
8
DEFAULT_255_1_388
10
6.2272969
20
53.2405728
40
0.2335433
50
136.1757367
51
166.3673339
0
ARC
8
DEFAULT_255_1_388
10
6.3405657
20
53.2102148
40
0.3507873
50
165.9090694
51
178.8684636
0
ARC
8
DEFAULT_255_1_388
10
6.4381429
20
53.2049263
40
0.4484624
50
178.4391136
51
180.0083808
0
ARC
8
DEFAULT_255_1_388
10
6.280213
20
53.2093197
40
0.4577138
50
163.2878482
51
180.5581842
0
ARC
8
DEFAULT_255_1_388
10
6.1900171
20
53.2341393
40
0.3641968
50
133.4540601
51
162.947111
0
ARC
8
DEFAULT_255_1_388
10
6.2101053
20
53.2127789
40
0.3935189
50
100.7869829
51
133.4382499
0
ARC
8
DEFAULT_255_1_388
10
6.2492298
20
53.0385399
40
0.5720313
50
89.660664
51
101.3702276
0
ARC
8
DEFAULT_255_1_388
10
6.2566907
20
53.0454263
40
0.5651495
50
78.2172678
51
90.412935
0
ARC
8
DEFAULT_255_1_388
10
6.2966373
20
53.2281511
40
0.378122
50
55.9269121
51
78.4888449
0
ARC
8
DEFAULT_255_1_388
10
6.3187088
20
53.2662187
40
0.3342379
50
47.929771
51
55.4049217
0
ARC
8
DEFAULT_255_1_388
10
6.3301618
20
53.2778618
40
0.3179217
50
4.334829
51
48.0560205
0
ARC
8
DEFAULT_255_1_388
10
6.206942
20
53.2587487
40
0.442341
50
359.9251713
51
5.5971671
0
ARC
8
DEFAULT_255_1_388
10
6.2551575
20
53.2650728
40
0.3941854
50
337.8914027
51
358.9967534
0
ARC
8
DEFAULT_255_1_388
10
5.9499145
20
53.3828295
40
0.7213271
50
326.9132501
51
338.3508308
0
ARC
8
DEFAULT_255_1_388
10
5.5015257
20
53.6702105
40
1.2538973
50
319.6471833
51
327.0959558
0
ARC
8
DEFAULT_255_1_388
10
5.0701915
20
54.026005
40
1.8129975
50
317.2588228
51
319.9045804
0
LINE
8
DEFAULT_255_1_388
10
7.4814653
20
52.6582042
11
7.4814653
21
53.5924898
0
LINE
8
DEFAULT_255_1_388
10
7.4814653
20
53.5924898
11
7.6558533
21
53.5924898
0
LINE
8
DEFAULT_255_1_388
10
7.6558533
20
53.5924898
11
7.6558533
21
52.6609149
0
LINE
8
DEFAULT_255_1_388
10
6.8254775
20
52.6401329
11
6.9989619
21
52.6401329
0
ARC
8
DEFAULT_255_1_388
10
7.1506255
20
52.6565958
40
0.5052462
50
346.3132364
51
0.4897996
0
ARC
8
DEFAULT_255_1_388
10
7.3045788
20
52.6171792
40
0.3463431
50
313.3793278
51
346.6225662
0
ARC
8
DEFAULT_255_1_388
10
7.2819872
20
52.6456186
40
0.3825426
50
281.1587645
51
312.9130978
0
ARC
8
DEFAULT_255_1_388
10
7.2436777
20
52.8137607
40
0.5549427
50
269.6423454
51
281.6796473
0
ARC
8
DEFAULT_255_1_388
10
7.2359556
20
52.8755499
40
0.6167359
50
258.9989698
51
270.3955842
0
ARC
8
DEFAULT_255_1_388
10
7.1938014
20
52.6675792
40
0.4045461
50
239.625581
51
259.2387746
0
ARC
8
DEFAULT_255_1_388
10
7.1613008
20
52.6062638
40
0.3352261
50
227.4961805
51
239.1189042
0
ARC
8
DEFAULT_255_1_388
10
7.1570891
20
52.5994009
40
0.3273245
50
191.3396895
51
227.2280349
0
ARC
8
DEFAULT_255_1_388
10
7.3151213
20
52.6367896
40
0.4896551
50
179.6087821
51
191.9932937
0
ARC
8
DEFAULT_255_1_388
10
7.3301958
20
52.6376216
40
0.3312434
50
179.565607
51
192.0702314
0
ARC
8
DEFAULT_255_1_388
10
7.220891
20
52.613056
40
0.2192212
50
191.7655537
51
215.6462731
0
ARC
8
DEFAULT_255_1_388
10
7.2008151
20
52.6009629
40
0.1958682
50
216.1940686
51
224.3931249
0
ARC
8
DEFAULT_255_1_388
10
7.2015847
20
52.6039862
40
0.1985399
50
224.861176
51
254.3628599
0
ARC
8
DEFAULT_255_1_388
10
7.232039
20
52.7046135
40
0.3036595
50
253.9470645
51
267.395327
0
ARC
8
DEFAULT_255_1_388
10
7.239969
20
52.8085346
40
0.4078462
50
266.9458957
51
270.0343693
0
ARC
8
DEFAULT_255_1_388
10
7.242827
20
52.6778844
40
0.2772084
50
269.4598277
51
286.1819188
0
ARC
8
DEFAULT_255_1_388
10
7.2587243
20
52.6195765
40
0.2167824
50
286.4415261
51
315.8045035
0
ARC
8
DEFAULT_255_1_388
10
7.2526276
20
52.6243201
40
0.2244619
50
316.0212602
51
345.479585
0
ARC
8
DEFAULT_255_1_388
10
7.1434434
20
52.6550753
40
0.3378781
50
345.0729937
51
358.3249855
0
ARC
8
DEFAULT_255_1_388
10
7.045888
20
52.6613509
40
0.4355887
50
357.8749464
51
359.5860856
0
LINE
8
DEFAULT_255_1_388
10
8.4347258
20
52.7919317
11
8.1248032
21
52.7919317
0
LINE
8
DEFAULT_255_1_388
10
8.1248032
20
52.7919317
11
8.1248032
21
52.2769
0
LINE
8
DEFAULT_255_1_388
10
8.1248032
20
52.2769
11
7.9513188
21
52.2769
0
LINE
8
DEFAULT_255_1_388
10
7.9513188
20
52.2769
11
7.9513188
21
53.5924898
0
LINE
8
DEFAULT_255_1_388
10
7.9513188
20
53.5924898
11
8.436533
21
53.5924898
0
LINE
8
DEFAULT_255_1_388
10
8.1248032
20
53.4497267
11
8.1248032
21
52.9337914
0
LINE
8
DEFAULT_255_1_388
10
8.1248032
20
52.9337914
11
8.436533
21
52.9337914
0
LINE
8
DEFAULT_255_1_388
10
8.4464722
20
53.4497267
11
8.1248032
21
53.4497267
0
ARC
8
DEFAULT_255_1_388
10
8.4412703
20
52.9108334
40
0.6816729
50
78.8380084
51
90.398184
0
ARC
8
DEFAULT_255_1_388
10
8.4880733
20
53.1381796
40
0.449571
50
58.9633273
51
79.0810717
0
ARC
8
DEFAULT_255_1_388
10
8.5220118
20
53.2011823
40
0.3781049
50
48.0194715
51
58.4475592
0
ARC
8
DEFAULT_255_1_388
10
8.5319938
20
53.2107818
40
0.3642936
50
3.3374546
51
48.1766642
0
ARC
8
DEFAULT_255_1_388
10
8.3934745
20
53.1908581
40
0.5038766
50
359.9483251
51
4.6822857
0
ARC
8
DEFAULT_255_1_388
10
8.4074668
20
53.1860779
40
0.4899031
50
346.1879032
51
0.5059221
0
ARC
8
DEFAULT_255_1_388
10
8.5603459
20
53.1463763
40
0.3319729
50
310.8832219
51
346.5426612
0
ARC
8
DEFAULT_255_1_388
10
8.5256308
20
53.1932853
40
0.3901853
50
286.6925305
51
310.228778
0
ARC
8
DEFAULT_255_1_388
10
8.4616037
20
53.3946585
40
0.6014737
50
274.6848219
51
287.0247342
0
ARC
8
DEFAULT_255_1_388
10
8.4362586
20
53.6431088
40
0.8511785
50
269.8968222
51
275.0192639
0
ARC
8
DEFAULT_255_1_388
10
8.439358
20
53.4093144
40
0.4755314
50
269.6596206
51
279.4150542
0
ARC
8
DEFAULT_255_1_388
10
8.4683038
20
53.2415945
40
0.3053379
50
279.2050006
51
294.9901776
0
ARC
8
DEFAULT_255_1_388
10
8.5009672
20
53.1687353
40
0.2255036
50
295.2886769
51
311.2912669
0
ARC
8
DEFAULT_255_1_388
10
8.5089413
20
53.1568938
40
0.2113522
50
311.7853512
51
347.2860549
0
ARC
8
DEFAULT_255_1_388
10
8.3982575
20
53.185343
40
0.3256011
50
346.6891629
51
0.1057086
0
ARC
8
DEFAULT_255_1_388
10
8.3060035
20
53.1886247
40
0.417863
50
359.63239
51
359.9961329
0
ARC
8
DEFAULT_255_1_388
10
8.422464
20
53.1913987
40
0.3014155
50
359.4673371
51
15.5931159
0
ARC
8
DEFAULT_255_1_388
10
8.4927702
20
53.2103937
40
0.2285918
50
15.7441779
51
46.620186
0
ARC
8
DEFAULT_255_1_388
10
8.4761462
20
53.1912361
40
0.2539359
50
46.8628482
51
75.6676625
0
ARC
8
DEFAULT_255_1_388
10
8.4430519
20
53.0721243
40
0.3775415
50
75.2763152
51
88.2916439
0
ARC
8
DEFAULT_255_1_388
10
8.4364518
20
52.9719097
40
0.4779221
50
87.8589087
51
88.7986197
0
LINE
8
DEFAULT_255_1_388
10
4.3190367
20
61.5299898
11
4.3190367
21
60.2144
0
LINE
8
DEFAULT_255_1_388
10
4.3190367
20
60.2144
11
4.1455523
21
60.2144
0
LINE
8
DEFAULT_255_1_388
10
4.1455523
20
60.2144
11
4.1455523
21
61.5299898
0
LINE
8
DEFAULT_255_1_388
10
4.1455523
20
61.5299898
11
4.3190367
21
61.5299898
0
LINE
8
DEFAULT_255_1_388
10
5.6472764
20
61.5299898
11
5.6472764
21
60.2144
0
LINE
8
DEFAULT_255_1_388
10
5.6472764
20
60.2144
11
5.4728885
21
60.2144
0
LINE
8
DEFAULT_255_1_388
10
5.4728885
20
60.2144
11
4.8105757
21
61.2281993
0
LINE
8
DEFAULT_255_1_388
10
4.8105757
20
61.2281993
11
4.8105757
21
60.2144
0
LINE
8
DEFAULT_255_1_388
10
4.8105757
20
60.2144
11
4.6361878
21
60.2144
0
LINE
8
DEFAULT_255_1_388
10
4.6361878
20
60.2144
11
4.6361878
21
61.5299898
0
LINE
8
DEFAULT_255_1_388
10
4.6361878
20
61.5299898
11
4.8105757
21
61.5299898
0
LINE
8
DEFAULT_255_1_388
10
4.8105757
20
61.5299898
11
5.4746956
21
60.5116727
0
LINE
8
DEFAULT_255_1_388
10
5.4746956
20
60.5116727
11
5.4746956
21
61.5299898
0
LINE
8
DEFAULT_255_1_388
10
5.4746956
20
61.5299898
11
5.6472764
21
61.5299898
0
LINE
8
DEFAULT_255_1_388
10
6.7740213
20
60.3508382
11
6.7740213
21
60.2144
0
LINE
8
DEFAULT_255_1_388
10
6.7740213
20
60.2144
11
5.9120208
21
60.2144
0
LINE
8
DEFAULT_255_1_388
10
5.9120208
20
60.2144
11
5.9120208
21
60.3345741
0
LINE
8
DEFAULT_255_1_388
10
5.9120208
20
60.3345741
11
6.3674173
21
60.8405702
0
LINE
8
DEFAULT_255_1_388
10
6.0538804
20
61.1423607
11
5.886721
21
61.1423607
0
LINE
8
DEFAULT_255_1_388
10
6.4659058
20
60.733046
11
6.1135157
21
60.3508382
0
LINE
8
DEFAULT_255_1_388
10
6.1135157
20
60.3508382
11
6.7740213
21
60.3508382
0
ARC
8
DEFAULT_255_1_388
10
4.8498232
20
62.1825983
40
2.0258655
50
318.5132526
51
320.7829045
0
ARC
8
DEFAULT_255_1_388
10
5.4446189
20
61.6984929
40
1.2589638
50
320.7372878
51
323.9739031
0
ARC
8
DEFAULT_255_1_388
10
5.8855121
20
61.3790554
40
0.7145141
50
323.8962701
51
328.64194
0
ARC
8
DEFAULT_255_1_388
10
6.1157379
20
61.2370545
40
0.4440242
50
328.8294576
51
331.7891185
0
ARC
8
DEFAULT_255_1_388
10
6.2279699
20
61.1791374
40
0.3177517
50
331.4254512
51
352.9365785
0
ARC
8
DEFAULT_255_1_388
10
6.2432699
20
61.175705
40
0.3021496
50
353.2257659
51
0.0166158
0
ARC
8
DEFAULT_255_1_388
10
6.2669459
20
61.1782894
40
0.2784847
50
359.486299
51
15.9343185
0
ARC
8
DEFAULT_255_1_388
10
6.3239726
20
61.1936269
40
0.2194403
50
16.1712913
51
43.5286088
0
ARC
8
DEFAULT_255_1_388
10
6.3326671
20
61.2023191
40
0.2071504
50
43.4417391
51
83.1661095
0
ARC
8
DEFAULT_255_1_388
10
6.3175832
20
61.1194316
40
0.2912888
50
82.160179
51
90.1505708
0
ARC
8
DEFAULT_255_1_388
10
6.3140313
20
61.0590279
40
0.3517025
50
89.5460741
51
102.5418361
0
ARC
8
DEFAULT_255_1_388
10
6.2867033
20
61.1749933
40
0.2325748
50
102.1738499
51
129.206123
0
ARC
8
DEFAULT_255_1_388
10
6.2778487
20
61.1889664
40
0.2161591
50
129.72865
51
135.753947
0
ARC
8
DEFAULT_255_1_388
10
6.2914969
20
61.1780728
40
0.2335433
50
136.1757367
51
166.3673339
0
ARC
8
DEFAULT_255_1_388
10
6.4047657
20
61.1477148
40
0.3507873
50
165.9090694
51
178.8684636
0
ARC
8
DEFAULT_255_1_388
10
6.5023429
20
61.1424263
40
0.4484624
50
178.4391136
51
180.0083808
0
ARC
8
DEFAULT_255_1_388
10
6.344413
20
61.1468197
40
0.4577138
50
163.2878482
51
180.5581842
0
ARC
8
DEFAULT_255_1_388
10
6.2542171
20
61.1716393
40
0.3641968
50
133.4540601
51
162.947111
0
ARC
8
DEFAULT_255_1_388
10
6.2743053
20
61.1502789
40
0.3935189
50
100.7869829
51
133.4382499
0
ARC
8
DEFAULT_255_1_388
10
6.3134298
20
60.9760399
40
0.5720313
50
89.660664
51
101.3702276
0
ARC
8
DEFAULT_255_1_388
10
6.3208907
20
60.9829263
40
0.5651495
50
78.2172678
51
90.412935
0
ARC
8
DEFAULT_255_1_388
10
6.3608373
20
61.1656511
40
0.378122
50
55.9269121
51
78.4888449
0
ARC
8
DEFAULT_255_1_388
10
6.3829088
20
61.2037187
40
0.3342379
50
47.929771
51
55.4049217
0
ARC
8
DEFAULT_255_1_388
10
6.3943618
20
61.2153618
40
0.3179217
50
4.334829
51
48.0560205
0
ARC
8
DEFAULT_255_1_388
10
6.271142
20
61.1962487
40
0.442341
50
359.9251713
51
5.5971671
0
ARC
8
DEFAULT_255_1_388
10
6.3193575
20
61.2025728
40
0.3941854
50
337.8914027
51
358.9967534
0
ARC
8
DEFAULT_255_1_388
10
6.0141145
20
61.3203295
40
0.7213271
50
326.9132501
51
338.3508308
0
ARC
8
DEFAULT_255_1_388
10
5.5657257
20
61.6077105
40
1.2538973
50
319.6471833
51
327.0959558
0
ARC
8
DEFAULT_255_1_388
10
5.1343915
20
61.963505
40
1.8129975
50
317.2588228
51
319.9045804
0
LINE
8
DEFAULT_255_1_388
10
7.31616
20
60.8414737
11
7.31616
21
60.7050355
0
LINE
8
DEFAULT_255_1_388
10
7.31616
20
60.7050355
11
6.8752205
21
60.7050355
0
LINE
8
DEFAULT_255_1_388
10
6.8752205
20
60.7050355
11
6.8752205
21
60.8414737
0
LINE
8
DEFAULT_255_1_388
10
6.8752205
20
60.8414737
11
7.31616
21
60.8414737
0
LINE
8
DEFAULT_255_1_388
10
4.1800367
20
69.4674898
11
4.1800367
21
68.1519
0
LINE
8
DEFAULT_255_1_388
10
4.1800367
20
68.1519
11
4.0065523
21
68.1519
0
LINE
8
DEFAULT_255_1_388
10
4.0065523
20
68.1519
11
4.0065523
21
69.4674898
0
LINE
8
DEFAULT_255_1_388
10
4.0065523
20
69.4674898
11
4.1800367
21
69.4674898
0
LINE
8
DEFAULT_255_1_388
10
5.5082764
20
69.4674898
11
5.5082764
21
68.1519
0
LINE
8
DEFAULT_255_1_388
10
5.5082764
20
68.1519
11
5.3338885
21
68.1519
0
LINE
8
DEFAULT_255_1_388
10
5.3338885
20
68.1519
11
4.6715757
21
69.1656993
0
LINE
8
DEFAULT_255_1_388
10
4.6715757
20
69.1656993
11
4.6715757
21
68.1519
0
LINE
8
DEFAULT_255_1_388
10
4.6715757
20
68.1519
11
4.4971878
21
68.1519
0
LINE
8
DEFAULT_255_1_388
10
4.4971878
20
68.1519
11
4.4971878
21
69.4674898
0
LINE
8
DEFAULT_255_1_388
10
4.4971878
20
69.4674898
11
4.6715757
21
69.4674898
0
LINE
8
DEFAULT_255_1_388
10
4.6715757
20
69.4674898
11
5.3356956
21
68.4491727
0
LINE
8
DEFAULT_255_1_388
10
5.3356956
20
68.4491727
11
5.3356956
21
69.4674898
0
LINE
8
DEFAULT_255_1_388
10
5.3356956
20
69.4674898
11
5.5082764
21
69.4674898
0
LINE
8
DEFAULT_255_1_388
10
6.6350213
20
68.2883382
11
6.6350213
21
68.1519
0
LINE
8
DEFAULT_255_1_388
10
6.6350213
20
68.1519
11
5.7730208
21
68.1519
0
LINE
8
DEFAULT_255_1_388
10
5.7730208
20
68.1519
11
5.7730208
21
68.2720741
0
LINE
8
DEFAULT_255_1_388
10
5.7730208
20
68.2720741
11
6.2284173
21
68.7780702
0
LINE
8
DEFAULT_255_1_388
10
5.9148804
20
69.0798607
11
5.747721
21
69.0798607
0
LINE
8
DEFAULT_255_1_388
10
6.3269058
20
68.670546
11
5.9745157
21
68.2883382
0
LINE
8
DEFAULT_255_1_388
10
5.9745157
20
68.2883382
11
6.6350213
21
68.2883382
0
ARC
8
DEFAULT_255_1_388
10
4.7108232
20
70.1200983
40
2.0258655
50
318.5132526
51
320.7829045
0
ARC
8
DEFAULT_255_1_388
10
5.3056189
20
69.6359929
40
1.2589638
50
320.7372878
51
323.9739031
0
ARC
8
DEFAULT_255_1_388
10
5.7465121
20
69.3165554
40
0.7145141
50
323.8962701
51
328.64194
0
ARC
8
DEFAULT_255_1_388
10
5.9767379
20
69.1745545
40
0.4440242
50
328.8294576
51
331.7891185
0
ARC
8
DEFAULT_255_1_388
10
6.0889699
20
69.1166374
40
0.3177517
50
331.4254512
51
352.9365785
0
ARC
8
DEFAULT_255_1_388
10
6.1042699
20
69.113205
40
0.3021496
50
353.2257659
51
0.0166158
0
ARC
8
DEFAULT_255_1_388
10
6.1279459
20
69.1157894
40
0.2784847
50
359.486299
51
15.9343185
0
ARC
8
DEFAULT_255_1_388
10
6.1849726
20
69.1311269
40
0.2194403
50
16.1712913
51
43.5286088
0
ARC
8
DEFAULT_255_1_388
10
6.1936671
20
69.1398191
40
0.2071504
50
43.4417391
51
83.1661095
0
ARC
8
DEFAULT_255_1_388
10
6.1785832
20
69.0569316
40
0.2912888
50
82.160179
51
90.1505708
0
ARC
8
DEFAULT_255_1_388
10
6.1750313
20
68.9965279
40
0.3517025
50
89.5460741
51
102.5418361
0
ARC
8
DEFAULT_255_1_388
10
6.1477033
20
69.1124933
40
0.2325748
50
102.1738499
51
129.206123
0
ARC
8
DEFAULT_255_1_388
10
6.1388487
20
69.1264664
40
0.2161591
50
129.72865
51
135.753947
0
ARC
8
DEFAULT_255_1_388
10
6.1524969
20
69.1155728
40
0.2335433
50
136.1757367
51
166.3673339
0
ARC
8
DEFAULT_255_1_388
10
6.2657657
20
69.0852148
40
0.3507873
50
165.9090694
51
178.8684636
0
ARC
8
DEFAULT_255_1_388
10
6.3633429
20
69.0799263
40
0.4484624
50
178.4391136
51
180.0083808
0
ARC
8
DEFAULT_255_1_388
10
6.205413
20
69.0843197
40
0.4577138
50
163.2878482
51
180.5581842
0
ARC
8
DEFAULT_255_1_388
10
6.1152171
20
69.1091393
40
0.3641968
50
133.4540601
51
162.947111
0
ARC
8
DEFAULT_255_1_388
10
6.1353053
20
69.0877789
40
0.3935189
50
100.7869829
51
133.4382499
0
ARC
8
DEFAULT_255_1_388
10
6.1744298
20
68.9135399
40
0.5720313
50
89.660664
51
101.3702276
0
ARC
8
DEFAULT_255_1_388
10
6.1818907
20
68.9204263
40
0.5651495
50
78.2172678
51
90.412935
0
ARC
8
DEFAULT_255_1_388
10
6.2218373
20
69.1031511
40
0.378122
50
55.9269121
51
78.4888449
0
ARC
8
DEFAULT_255_1_388
10
6.2439088
20
69.1412187
40
0.3342379
50
47.929771
51
55.4049217
0
ARC
8
DEFAULT_255_1_388
10
6.2553618
20
69.1528618
40
0.3179217
50
4.334829
51
48.0560205
0
ARC
8
DEFAULT_255_1_388
10
6.132142
20
69.1337487
40
0.442341
50
359.9251713
51
5.5971671
0
ARC
8
DEFAULT_255_1_388
10
6.1803575
20
69.1400728
40
0.3941854
50
337.8914027
51
358.9967534
0
ARC
8
DEFAULT_255_1_388
10
5.8751145
20
69.2578295
40
0.7213271
50
326.9132501
51
338.3508308
0
ARC
8
DEFAULT_255_1_388
10
5.4267257
20
69.5452105
40
1.2538973
50
319.6471833
51
327.0959558
0
ARC
8
DEFAULT_255_1_388
10
4.9953915
20
69.901005
40
1.8129975
50
317.2588228
51
319.9045804
0
LINE
8
DEFAULT_255_1_388
10
7.3081768
20
69.2415987
11
7.3081768
21
68.8575838
0
LINE
8
DEFAULT_255_1_388
10
7.3081768
20
68.8575838
11
7.675024
21
68.8575838
0
LINE
8
DEFAULT_255_1_388
10
7.675024
20
68.8575838
11
7.675024
21
68.6994601
0
LINE
8
DEFAULT_255_1_388
10
7.675024
20
68.6994601
11
7.3081768
21
68.6994601
0
LINE
8
DEFAULT_255_1_388
10
7.3081768
20
68.6994601
11
7.3081768
21
68.2838204
0
LINE
8
DEFAULT_255_1_388
10
7.3081768
20
68.2838204
11
7.1401138
21
68.2838204
0
LINE
8
DEFAULT_255_1_388
10
7.1401138
20
68.2838204
11
7.1401138
21
68.6994601
0
LINE
8
DEFAULT_255_1_388
10
7.1401138
20
68.6994601
11
6.7732667
21
68.6994601
0
LINE
8
DEFAULT_255_1_388
10
6.7732667
20
68.6994601
11
6.7732667
21
68.8575838
0
LINE
8
DEFAULT_255_1_388
10
6.7732667
20
68.8575838
11
7.1401138
21
68.8575838
0
LINE
8
DEFAULT_255_1_388
10
7.1401138
20
68.8575838
11
7.1401138
21
69.2415987
0
LINE
8
DEFAULT_255_1_388
10
7.1401138
20
69.2415987
11
7.3081768
21
69.2415987
0
LINE
8
DEFAULT_255_1_388
10
4.2548367
20
77.4049898
11
4.2548367
21
76.0894
0
LINE
8
DEFAULT_255_1_388
10
4.2548367
20
76.0894
11
4.0813523
21
76.0894
0
LINE
8
DEFAULT_255_1_388
10
4.0813523
20
76.0894
11
4.0813523
21
77.4049898
0
LINE
8
DEFAULT_255_1_388
10
4.0813523
20
77.4049898
11
4.2548367
21
77.4049898
0
LINE
8
DEFAULT_255_1_388
10
5.5830764
20
77.4049898
11
5.5830764
21
76.0894
0
LINE
8
DEFAULT_255_1_388
10
5.5830764
20
76.0894
11
5.4086885
21
76.0894
0
LINE
8
DEFAULT_255_1_388
10
5.4086885
20
76.0894
11
4.7463757
21
77.1031993
0
LINE
8
DEFAULT_255_1_388
10
4.7463757
20
77.1031993
11
4.7463757
21
76.0894
0
LINE
8
DEFAULT_255_1_388
10
4.7463757
20
76.0894
11
4.5719878
21
76.0894
0
LINE
8
DEFAULT_255_1_388
10
4.5719878
20
76.0894
11
4.5719878
21
77.4049898
0
LINE
8
DEFAULT_255_1_388
10
4.5719878
20
77.4049898
11
4.7463757
21
77.4049898
0
LINE
8
DEFAULT_255_1_388
10
4.7463757
20
77.4049898
11
5.4104956
21
76.3866727
0
LINE
8
DEFAULT_255_1_388
10
5.4104956
20
76.3866727
11
5.4104956
21
77.4049898
0
LINE
8
DEFAULT_255_1_388
10
5.4104956
20
77.4049898
11
5.5830764
21
77.4049898
0
LINE
8
DEFAULT_255_1_388
10
6.397188
20
77.4113148
11
6.397188
21
76.0894
0
LINE
8
DEFAULT_255_1_388
10
6.397188
20
76.0894
11
6.229125
21
76.0894
0
LINE
8
DEFAULT_255_1_388
10
6.229125
20
76.0894
11
6.229125
21
77.203495
0
LINE
8
DEFAULT_255_1_388
10
6.229125
20
77.203495
11
5.8920955
21
77.0797066
0
LINE
8
DEFAULT_255_1_388
10
5.8920955
20
77.0797066
11
5.8920955
21
77.2315055
0
LINE
8
DEFAULT_255_1_388
10
5.8920955
20
77.2315055
11
6.3709846
21
77.4113148
0
LINE
8
DEFAULT_255_1_388
10
6.3709846
20
77.4113148
11
6.397188
21
77.4113148
0
LINE
8
DEFAULT_255_1_388
10
7.4814653
20
76.4707042
11
7.4814653
21
77.4049898
0
LINE
8
DEFAULT_255_1_388
10
7.4814653
20
77.4049898
11
7.6558533
21
77.4049898
0
LINE
8
DEFAULT_255_1_388
10
7.6558533
20
77.4049898
11
7.6558533
21
76.4734149
0
LINE
8
DEFAULT_255_1_388
10
6.8254775
20
76.4526329
11
6.9989619
21
76.4526329
0
ARC
8
DEFAULT_255_1_388
10
7.1506255
20
76.4690958
40
0.5052462
50
346.3132364
51
0.4897996
0
ARC
8
DEFAULT_255_1_388
10
7.3045788
20
76.4296792
40
0.3463431
50
313.3793278
51
346.6225662
0
ARC
8
DEFAULT_255_1_388
10
7.2819872
20
76.4581186
40
0.3825426
50
281.1587645
51
312.9130978
0
ARC
8
DEFAULT_255_1_388
10
7.2436777
20
76.6262607
40
0.5549427
50
269.6423454
51
281.6796473
0
ARC
8
DEFAULT_255_1_388
10
7.2359556
20
76.6880499
40
0.6167359
50
258.9989698
51
270.3955842
0
ARC
8
DEFAULT_255_1_388
10
7.1938014
20
76.4800792
40
0.4045461
50
239.625581
51
259.2387746
0
ARC
8
DEFAULT_255_1_388
10
7.1613008
20
76.4187638
40
0.3352261
50
227.4961805
51
239.1189042
0
ARC
8
DEFAULT_255_1_388
10
7.1570891
20
76.4119009
40
0.3273245
50
191.3396895
51
227.2280349
0
ARC
8
DEFAULT_255_1_388
10
7.3151213
20
76.4492896
40
0.4896551
50
179.6087821
51
191.9932937
0
ARC
8
DEFAULT_255_1_388
10
7.3301958
20
76.4501216
40
0.3312434
50
179.565607
51
192.0702314
0
ARC
8
DEFAULT_255_1_388
10
7.220891
20
76.425556
40
0.2192212
50
191.7655537
51
215.6462731
0
ARC
8
DEFAULT_255_1_388
10
7.2008151
20
76.4134629
40
0.1958682
50
216.1940686
51
224.3931249
0
ARC
8
DEFAULT_255_1_388
10
7.2015847
20
76.4164862
40
0.1985399
50
224.861176
51
254.3628599
0
ARC
8
DEFAULT_255_1_388
10
7.232039
20
76.5171135
40
0.3036595
50
253.9470645
51
267.395327
0
ARC
8
DEFAULT_255_1_388
10
7.239969
20
76.6210346
40
0.4078462
50
266.9458957
51
270.0343693
0
ARC
8
DEFAULT_255_1_388
10
7.242827
20
76.4903844
40
0.2772084
50
269.4598277
51
286.1819188
0
ARC
8
DEFAULT_255_1_388
10
7.2587243
20
76.4320765
40
0.2167824
50
286.4415261
51
315.8045035
0
ARC
8
DEFAULT_255_1_388
10
7.2526276
20
76.4368201
40
0.2244619
50
316.0212602
51
345.479585
0
ARC
8
DEFAULT_255_1_388
10
7.1434434
20
76.4675753
40
0.3378781
50
345.0729937
51
358.3249855
0
ARC
8
DEFAULT_255_1_388
10
7.045888
20
76.4738509
40
0.4355887
50
357.8749464
51
359.5860856
0
LINE
8
DEFAULT_255_1_388
10
8.4347258
20
76.6044317
11
8.1248032
21
76.6044317
0
LINE
8
DEFAULT_255_1_388
10
8.1248032
20
76.6044317
11
8.1248032
21
76.0894
0
LINE
8
DEFAULT_255_1_388
10
8.1248032
20
76.0894
11
7.9513188
21
76.0894
0
LINE
8
DEFAULT_255_1_388
10
7.9513188
20
76.0894
11
7.9513188
21
77.4049898
0
LINE
8
DEFAULT_255_1_388
10
7.9513188
20
77.4049898
11
8.436533
21
77.4049898
0
LINE
8
DEFAULT_255_1_388
10
8.1248032
20
77.2622267
11
8.1248032
21
76.7462914
0
LINE
8
DEFAULT_255_1_388
10
8.1248032
20
76.7462914
11
8.436533
21
76.7462914
0
LINE
8
DEFAULT_255_1_388
10
8.4464722
20
77.2622267
11
8.1248032
21
77.2622267
0
ARC
8
DEFAULT_255_1_388
10
8.4412703
20
76.7233334
40
0.6816729
50
78.8380084
51
90.398184
0
ARC
8
DEFAULT_255_1_388
10
8.4880733
20
76.9506796
40
0.449571
50
58.9633273
51
79.0810717
0
ARC
8
DEFAULT_255_1_388
10
8.5220118
20
77.0136823
40
0.3781049
50
48.0194715
51
58.4475592
0
ARC
8
DEFAULT_255_1_388
10
8.5319938
20
77.0232818
40
0.3642936
50
3.3374546
51
48.1766642
0
ARC
8
DEFAULT_255_1_388
10
8.3934745
20
77.0033581
40
0.5038766
50
359.9483251
51
4.6822857
0
ARC
8
DEFAULT_255_1_388
10
8.4074668
20
76.9985779
40
0.4899031
50
346.1879032
51
0.5059221
0
ARC
8
DEFAULT_255_1_388
10
8.5603459
20
76.9588763
40
0.3319729
50
310.8832219
51
346.5426612
0
ARC
8
DEFAULT_255_1_388
10
8.5256308
20
77.0057853
40
0.3901853
50
286.6925305
51
310.228778
0
ARC
8
DEFAULT_255_1_388
10
8.4616037
20
77.2071585
40
0.6014737
50
274.6848219
51
287.0247342
0
ARC
8
DEFAULT_255_1_388
10
8.4362586
20
77.4556088
40
0.8511785
50
269.8968222
51
275.0192639
0
ARC
8
DEFAULT_255_1_388
10
8.439358
20
77.2218144
40
0.4755314
50
269.6596206
51
279.4150542
0
ARC
8
DEFAULT_255_1_388
10
8.4683038
20
77.0540945
40
0.3053379
50
279.2050006
51
294.9901776
0
ARC
8
DEFAULT_255_1_388
10
8.5009672
20
76.9812353
40
0.2255036
50
295.2886769
51
311.2912669
0
ARC
8
DEFAULT_255_1_388
10
8.5089413
20
76.9693938
40
0.2113522
50
311.7853512
51
347.2860549
0
ARC
8
DEFAULT_255_1_388
10
8.3982575
20
76.997843
40
0.3256011
50
346.6891629
51
0.1057086
0
ARC
8
DEFAULT_255_1_388
10
8.3060035
20
77.0011247
40
0.417863
50
359.63239
51
359.9961329
0
ARC
8
DEFAULT_255_1_388
10
8.422464
20
77.0038987
40
0.3014155
50
359.4673371
51
15.5931159
0
ARC
8
DEFAULT_255_1_388
10
8.4927702
20
77.0228937
40
0.2285918
50
15.7441779
51
46.620186
0
ARC
8
DEFAULT_255_1_388
10
8.4761462
20
77.0037361
40
0.2539359
50
46.8628482
51
75.6676625
0
ARC
8
DEFAULT_255_1_388
10
8.4430519
20
76.8846243
40
0.3775415
50
75.2763152
51
88.2916439
0
ARC
8
DEFAULT_255_1_388
10
8.4364518
20
76.7844097
40
0.4779221
50
87.8589087
51
88.7986197
0
LINE
8
DEFAULT_255_1_388
10
4.3190367
20
85.3424898
11
4.3190367
21
84.0269
0
LINE
8
DEFAULT_255_1_388
10
4.3190367
20
84.0269
11
4.1455523
21
84.0269
0
LINE
8
DEFAULT_255_1_388
10
4.1455523
20
84.0269
11
4.1455523
21
85.3424898
0
LINE
8
DEFAULT_255_1_388
10
4.1455523
20
85.3424898
11
4.3190367
21
85.3424898
0
LINE
8
DEFAULT_255_1_388
10
5.6472764
20
85.3424898
11
5.6472764
21
84.0269
0
LINE
8
DEFAULT_255_1_388
10
5.6472764
20
84.0269
11
5.4728885
21
84.0269
0
LINE
8
DEFAULT_255_1_388
10
5.4728885
20
84.0269
11
4.8105757
21
85.0406993
0
LINE
8
DEFAULT_255_1_388
10
4.8105757
20
85.0406993
11
4.8105757
21
84.0269
0
LINE
8
DEFAULT_255_1_388
10
4.8105757
20
84.0269
11
4.6361878
21
84.0269
0
LINE
8
DEFAULT_255_1_388
10
4.6361878
20
84.0269
11
4.6361878
21
85.3424898
0
LINE
8
DEFAULT_255_1_388
10
4.6361878
20
85.3424898
11
4.8105757
21
85.3424898
0
LINE
8
DEFAULT_255_1_388
10
4.8105757
20
85.3424898
11
5.4746956
21
84.3241727
0
LINE
8
DEFAULT_255_1_388
10
5.4746956
20
84.3241727
11
5.4746956
21
85.3424898
0
LINE
8
DEFAULT_255_1_388
10
5.4746956
20
85.3424898
11
5.6472764
21
85.3424898
0
LINE
8
DEFAULT_255_1_388
10
6.461388
20
85.3488148
11
6.461388
21
84.0269
0
LINE
8
DEFAULT_255_1_388
10
6.461388
20
84.0269
11
6.293325
21
84.0269
0
LINE
8
DEFAULT_255_1_388
10
6.293325
20
84.0269
11
6.293325
21
85.140995
0
LINE
8
DEFAULT_255_1_388
10
6.293325
20
85.140995
11
5.9562955
21
85.0172066
0
LINE
8
DEFAULT_255_1_388
10
5.9562955
20
85.0172066
11
5.9562955
21
85.1690055
0
LINE
8
DEFAULT_255_1_388
10
5.9562955
20
85.1690055
11
6.4351846
21
85.3488148
0
LINE
8
DEFAULT_255_1_388
10
6.4351846
20
85.3488148
11
6.461388
21
85.3488148
0
LINE
8
DEFAULT_255_1_388
10
7.31616
20
84.6539737
11
7.31616
21
84.5175355
0
LINE
8
DEFAULT_255_1_388
10
7.31616
20
84.5175355
11
6.8752205
21
84.5175355
0
LINE
8
DEFAULT_255_1_388
10
6.8752205
20
84.5175355
11
6.8752205
21
84.6539737
0
LINE
8
DEFAULT_255_1_388
10
6.8752205
20
84.6539737
11
7.31616
21
84.6539737
0
LINE
8
DEFAULT_255_1_388
10
4.1800367
20
93.2799898
11
4.1800367
21
91.9644
0
LINE
8
DEFAULT_255_1_388
10
4.1800367
20
91.9644
11
4.0065523
21
91.9644
0
LINE
8
DEFAULT_255_1_388
10
4.0065523
20
91.9644
11
4.0065523
21
93.2799898
0
LINE
8
DEFAULT_255_1_388
10
4.0065523
20
93.2799898
11
4.1800367
21
93.2799898
0
LINE
8
DEFAULT_255_1_388
10
5.5082764
20
93.2799898
11
5.5082764
21
91.9644
0
LINE
8
DEFAULT_255_1_388
10
5.5082764
20
91.9644
11
5.3338885
21
91.9644
0
LINE
8
DEFAULT_255_1_388
10
5.3338885
20
91.9644
11
4.6715757
21
92.9781993
0
LINE
8
DEFAULT_255_1_388
10
4.6715757
20
92.9781993
11
4.6715757
21
91.9644
0
LINE
8
DEFAULT_255_1_388
10
4.6715757
20
91.9644
11
4.4971878
21
91.9644
0
LINE
8
DEFAULT_255_1_388
10
4.4971878
20
91.9644
11
4.4971878
21
93.2799898
0
LINE
8
DEFAULT_255_1_388
10
4.4971878
20
93.2799898
11
4.6715757
21
93.2799898
0
LINE
8
DEFAULT_255_1_388
10
4.6715757
20
93.2799898
11
5.3356956
21
92.2616727
0
LINE
8
DEFAULT_255_1_388
10
5.3356956
20
92.2616727
11
5.3356956
21
93.2799898
0
LINE
8
DEFAULT_255_1_388
10
5.3356956
20
93.2799898
11
5.5082764
21
93.2799898
0
LINE
8
DEFAULT_255_1_388
10
6.322388
20
93.2863148
11
6.322388
21
91.9644
0
LINE
8
DEFAULT_255_1_388
10
6.322388
20
91.9644
11
6.154325
21
91.9644
0
LINE
8
DEFAULT_255_1_388
10
6.154325
20
91.9644
11
6.154325
21
93.078495
0
LINE
8
DEFAULT_255_1_388
10
6.154325
20
93.078495
11
5.8172955
21
92.9547066
0
LINE
8
DEFAULT_255_1_388
10
5.8172955
20
92.9547066
11
5.8172955
21
93.1065055
0
LINE
8
DEFAULT_255_1_388
10
5.8172955
20
93.1065055
11
6.2961846
21
93.2863148
0
LINE
8
DEFAULT_255_1_388
10
6.2961846
20
93.2863148
11
6.322388
21
93.2863148
0
LINE
8
DEFAULT_255_1_388
10
7.3081768
20
93.0540987
11
7.3081768
21
92.6700838
0
LINE
8
DEFAULT_255_1_388
10
7.3081768
20
92.6700838
11
7.675024
21
92.6700838
0
LINE
8
DEFAULT_255_1_388
10
7.675024
20
92.6700838
11
7.675024
21
92.5119601
0
LINE
8
DEFAULT_255_1_388
10
7.675024
20
92.5119601
11
7.3081768
21
92.5119601
0
LINE
8
DEFAULT_255_1_388
10
7.3081768
20
92.5119601
11
7.3081768
21
92.0963204
0
LINE
8
DEFAULT_255_1_388
10
7.3081768
20
92.0963204
11
7.1401138
21
92.0963204
0
LINE
8
DEFAULT_255_1_388
10
7.1401138
20
92.0963204
11
7.1401138
21
92.5119601
0
LINE
8
DEFAULT_255_1_388
10
7.1401138
20
92.5119601
11
6.7732667
21
92.5119601
0
LINE
8
DEFAULT_255_1_388
10
6.7732667
20
92.5119601
11
6.7732667
21
92.6700838
0
LINE
8
DEFAULT_255_1_388
10
6.7732667
20
92.6700838
11
7.1401138
21
92.6700838
0
LINE
8
DEFAULT_255_1_388
10
7.1401138
20
92.6700838
11
7.1401138
21
93.0540987
0
LINE
8
DEFAULT_255_1_388
10
7.1401138
20
93.0540987
11
7.3081768
21
93.0540987
0
LINE
8
DEFAULT_255_1_388
10
22.8859637
20
99.9019
11
22.7603682
21
100.2452545
0
LINE
8
DEFAULT_255_1_388
10
22.7603682
20
100.2452545
11
22.2091939
21
100.2452545
0
LINE
8
DEFAULT_255_1_388
10
22.2091939
20
100.2452545
11
22.0854056
21
99.9019
0
LINE
8
DEFAULT_255_1_388
10
22.0854056
20
99.9019
11
21.9064998
21
99.9019
0
LINE
8
DEFAULT_255_1_388
10
21.9064998
20
99.9019
11
22.4088816
21
101.2174898
0
LINE
8
DEFAULT_255_1_388
10
22.4088816
20
101.2174898
11
22.5606805
21
101.2174898
0
LINE
8
DEFAULT_255_1_388
10
22.5606805
20
101.2174898
11
23.0639659
21
99.9019
0
LINE
8
DEFAULT_255_1_388
10
23.0639659
20
99.9019
11
22.8859637
21
99.9019
0
LINE
8
DEFAULT_255_1_388
10
22.4847811
20
101.0033451
11
22.2616006
21
100.3880177
0
LINE
8
DEFAULT_255_1_388
10
22.2616006
20
100.3880177
11
22.708865
21
100.3880177
0
LINE
8
DEFAULT_255_1_388
10
22.708865
20
100.3880177
11
22.4847811
21
101.0033451
0
LINE
8
DEFAULT_255_1_388
10
24.0244549
20
100.3193468
11
24.1988428
21
100.3193468
0
LINE
8
DEFAULT_255_1_388
10
23.1859471
20
100.4982525
11
23.1859471
21
100.6247516
0
LINE
8
DEFAULT_255_1_388
10
24.1988428
20
100.7946217
11
24.0244549
21
100.7946217
0
LINE
8
DEFAULT_255_1_388
10
23.360335
20
100.6202337
11
23.360335
21
100.4928312
0
ARC
8
DEFAULT_255_1_388
10
23.5822662
20
100.3865329
40
0.6202263
50
340.1774904
51
353.7812217
0
ARC
8
DEFAULT_255_1_388
10
23.7590515
20
100.3206893
40
0.4315926
50
311.4560052
51
340.4420756
0
ARC
8
DEFAULT_255_1_388
10
23.7553055
20
100.3331665
40
0.4434573
50
282.4332229
51
310.7514507
0
ARC
8
DEFAULT_255_1_388
10
23.7058873
20
100.5373703
40
0.6535262
50
269.9358869
51
282.8096729
0
ARC
8
DEFAULT_255_1_388
10
23.7000812
20
100.6886329
40
0.8048043
50
269.9995752
51
270.3612856
0
ARC
8
DEFAULT_255_1_388
10
23.6941302
20
100.4087781
40
0.5249831
50
250.7885263
51
270.6488451
0
ARC
8
DEFAULT_255_1_388
10
23.6752127
20
100.3370853
40
0.4510942
50
219.3628377
51
250.0611024
0
ARC
8
DEFAULT_255_1_388
10
23.7685001
20
100.4163653
40
0.5735046
50
193.5480293
51
219.5755675
0
ARC
8
DEFAULT_255_1_388
10
24.035321
20
100.485652
40
0.849146
50
181.1220183
51
193.8754971
0
ARC
8
DEFAULT_255_1_388
10
24.2676443
20
100.4980914
40
1.0816971
50
179.9914644
51
181.5398227
0
ARC
8
DEFAULT_255_1_388
10
24.0599754
20
100.6289586
40
0.8740384
50
169.5837606
51
180.275782
0
ARC
8
DEFAULT_255_1_388
10
23.8533102
20
100.6671439
40
0.6638751
50
155.0367033
51
169.6002779
0
ARC
8
DEFAULT_255_1_388
10
23.725556
20
100.7287336
40
0.5220662
50
136.7831557
51
155.2472983
0
ARC
8
DEFAULT_255_1_388
10
23.6817351
20
100.7659577
40
0.4646502
50
121.7633063
51
136.4281161
0
ARC
8
DEFAULT_255_1_388
10
23.6969191
20
100.7379049
40
0.4964979
50
95.6460018
51
121.5489589
0
ARC
8
DEFAULT_255_1_388
10
23.7146165
20
100.6131704
40
0.6223912
50
89.9245727
51
96.1375919
0
ARC
8
DEFAULT_255_1_388
10
23.720287
20
100.6265721
40
0.6090084
50
76.6779212
51
90.456405
0
ARC
8
DEFAULT_255_1_388
10
23.7645683
20
100.805506
40
0.42469
50
47.4858803
51
76.9287069
0
ARC
8
DEFAULT_255_1_388
10
23.7480297
20
100.7942623
40
0.4441778
50
16.5424081
51
46.8934505
0
ARC
8
DEFAULT_255_1_388
10
23.5671347
20
100.7348265
40
0.6345318
50
5.4072971
51
17.0363711
0
ARC
8
DEFAULT_255_1_388
10
23.4053072
20
100.7088304
40
0.6250632
50
7.8888693
51
15.9242022
0
ARC
8
DEFAULT_255_1_388
10
23.6288057
20
100.7737309
40
0.3923364
50
15.7650676
51
27.9410069
0
ARC
8
DEFAULT_255_1_388
10
23.7530226
20
100.8402317
40
0.2514401
50
27.8167196
51
46.4007942
0
ARC
8
DEFAULT_255_1_388
10
23.7586068
20
100.8395882
40
0.2480958
50
47.4372362
51
75.0695672
0
ARC
8
DEFAULT_255_1_388
10
23.7238904
20
100.7187277
40
0.3738281
50
74.7009379
51
87.8124314
0
ARC
8
DEFAULT_255_1_388
10
23.7156521
20
100.6003659
40
0.4924321
50
87.3802571
51
90.0251599
0
ARC
8
DEFAULT_255_1_388
10
23.7113168
20
100.7323997
40
0.3604218
50
89.3451886
51
108.5744412
0
ARC
8
DEFAULT_255_1_388
10
23.695916
20
100.7901836
40
0.3007661
50
109.2998307
51
143.3037387
0
ARC
8
DEFAULT_255_1_388
10
23.781645
20
100.7242584
40
0.4089031
50
143.075267
51
163.1918576
0
ARC
8
DEFAULT_255_1_388
10
24.0012284
20
100.6549652
40
0.6391492
50
162.9375929
51
174.6208776
0
ARC
8
DEFAULT_255_1_388
10
24.2966666
20
100.6225711
40
0.9363344
50
174.342123
51
180.1430283
0
ARC
8
DEFAULT_255_1_388
10
24.1919207
20
100.4882117
40
0.8315986
50
179.6817261
51
189.150555
0
ARC
8
DEFAULT_255_1_388
10
23.9105956
20
100.4413559
40
0.5464044
50
188.9911061
51
203.5772363
0
ARC
8
DEFAULT_255_1_388
10
23.7891248
20
100.3909539
40
0.4149206
50
203.9075402
51
215.1312435
0
ARC
8
DEFAULT_255_1_388
10
23.6853046
20
100.3104907
40
0.2837747
50
213.9071511
51
263.8848919
0
ARC
8
DEFAULT_255_1_388
10
23.6994039
20
100.3987519
40
0.3730641
50
263.1757928
51
270.1031044
0
ARC
8
DEFAULT_255_1_388
10
23.7030119
20
100.5390511
40
0.5133712
50
269.6722503
51
279.0606936
0
ARC
8
DEFAULT_255_1_388
10
23.7330274
20
100.357615
40
0.3294739
50
278.8749101
51
293.6349581
0
ARC
8
DEFAULT_255_1_388
10
23.7690478
20
100.2730251
40
0.2375405
50
293.8553806
51
310.0518171
0
ARC
8
DEFAULT_255_1_388
10
23.7695987
20
100.2660021
40
0.2318463
50
311.0644687
51
332.0111037
0
ARC
8
DEFAULT_255_1_388
10
23.635466
20
100.3399702
40
0.3850112
50
331.6586806
51
343.2877423
0
ARC
8
DEFAULT_255_1_388
10
23.4034125
20
100.4112806
40
0.6277712
50
343.1446576
51
351.0103568
0
ARC
8
DEFAULT_255_1_388
10
23.2401449
20
100.4412873
40
0.7937327
50
350.71248
51
351.1626997
0
LINE
8
DEFAULT_255_1_388
10
21.0693448
20
45.6549898
11
21.4434205
21
44.5698089
0
LINE
8
DEFAULT_255_1_388
10
21.4434205
20
44.5698089
11
21.8193033
21
45.6549898
0
LINE
8
DEFAULT_255_1_388
10
21.8193033
20
45.6549898
11
22.0090518
21
45.6549898
0
LINE
8
DEFAULT_255_1_388
10
22.0090518
20
45.6549898
11
21.521127
21
44.3394
0
LINE
8
DEFAULT_255_1_388
10
21.521127
20
44.3394
11
21.367521
21
44.3394
0
LINE
8
DEFAULT_255_1_388
10
21.367521
20
44.3394
11
20.8804998
21
45.6549898
0
LINE
8
DEFAULT_255_1_388
10
20.8804998
20
45.6549898
11
21.0693448
21
45.6549898
0
LINE
8
DEFAULT_255_1_388
10
23.1854927
20
45.0378553
11
23.1854927
21
44.9547274
0
LINE
8
DEFAULT_255_1_388
10
22.1274187
20
44.9429811
11
22.1274187
21
45.0378553
0
LINE
8
DEFAULT_255_1_388
10
23.0129119
20
44.9420775
11
23.0129119
21
45.0396625
0
LINE
8
DEFAULT_255_1_388
10
22.2999996
20
45.0514088
11
22.2999996
21
44.9547274
0
ARC
8
DEFAULT_255_1_388
10
22.2132666
20
44.9502726
40
0.9722364
50
350.4878118
51
0.2625322
0
ARC
8
DEFAULT_255_1_388
10
22.4712626
20
44.9058994
40
0.7104556
50
336.0277991
51
350.5787241
0
ARC
8
DEFAULT_255_1_388
10
22.6225732
20
44.8375243
40
0.544417
50
319.887443
51
336.1331163
0
ARC
8
DEFAULT_255_1_388
10
22.6903545
20
44.7832733
40
0.4576311
50
302.4806296
51
319.6144102
0
ARC
8
DEFAULT_255_1_388
10
22.6774166
20
44.8082067
40
0.4856183
50
275.8196423
51
302.1885521
0
ARC
8
DEFAULT_255_1_388
10
22.6587027
20
44.9367466
40
0.6154183
50
269.9169897
51
276.339506
0
ARC
8
DEFAULT_255_1_388
10
22.6536628
20
44.859568
40
0.5382553
50
252.5221437
51
270.441579
0
ARC
8
DEFAULT_255_1_388
10
22.6374878
20
44.7989046
40
0.4755426
50
237.5349961
51
252.1858334
0
ARC
8
DEFAULT_255_1_388
10
22.6475254
20
44.811712
40
0.4917393
50
209.0632754
51
237.3492577
0
ARC
8
DEFAULT_255_1_388
10
22.745458
20
44.8732104
40
0.6072464
50
205.118533
51
209.6465345
0
ARC
8
DEFAULT_255_1_388
10
22.8350582
20
44.9112174
40
0.7045164
50
188.7216633
51
204.8239753
0
ARC
8
DEFAULT_255_1_388
10
23.0597358
20
44.9490387
40
0.9323368
50
180.3722704
51
188.9253909
0
ARC
8
DEFAULT_255_1_388
10
23.0566919
20
45.0423416
40
0.929284
50
169.5253055
51
180.2766048
0
ARC
8
DEFAULT_255_1_388
10
22.8426718
20
45.0817024
40
0.7116745
50
155.8314601
51
169.5088611
0
ARC
8
DEFAULT_255_1_388
10
22.6986181
20
45.1485312
40
0.5528904
50
139.6259579
51
156.0379072
0
ARC
8
DEFAULT_255_1_388
10
22.6322715
20
45.2019143
40
0.4677708
50
122.6414784
51
139.3431662
0
ARC
8
DEFAULT_255_1_388
10
22.643597
20
45.1812787
40
0.4912586
50
93.0224537
51
122.4556091
0
ARC
8
DEFAULT_255_1_388
10
22.6557491
20
45.0726776
40
0.6003837
50
89.9756766
51
93.6340839
0
ARC
8
DEFAULT_255_1_388
10
22.6601088
20
45.1175879
40
0.5554884
50
73.7463329
51
90.4234008
0
ARC
8
DEFAULT_255_1_388
10
22.6798562
20
45.1940772
40
0.4765353
50
57.663051
51
73.4516911
0
ARC
8
DEFAULT_255_1_388
10
22.6789599
20
45.1965108
40
0.4749629
50
29.1441355
51
57.4146687
0
ARC
8
DEFAULT_255_1_388
10
22.5737411
20
45.1308046
40
0.5988917
50
24.0985653
51
29.732054
0
ARC
8
DEFAULT_255_1_388
10
22.4575042
20
45.0826154
40
0.7246823
50
8.6654943
51
23.8241215
0
ARC
8
DEFAULT_255_1_388
10
22.2061461
20
45.0416037
40
0.9793537
50
359.7807044
51
8.8218476
0
ARC
8
DEFAULT_255_1_388
10
22.0771165
20
45.0444731
40
0.9358078
50
359.7054632
51
8.0359751
0
ARC
8
DEFAULT_255_1_388
10
22.4146217
20
45.0936252
40
0.5947474
50
7.8926278
51
20.2962188
0
ARC
8
DEFAULT_255_1_388
10
22.5977067
20
45.1611367
40
0.3996117
50
20.3231056
51
36.4990255
0
ARC
8
DEFAULT_255_1_388
10
22.6748364
20
45.2205399
40
0.3022818
50
36.1436715
51
85.6627846
0
ARC
8
DEFAULT_255_1_388
10
22.656562
20
45.1035881
40
0.4203853
50
84.3845912
51
90.076054
0
ARC
8
DEFAULT_255_1_388
10
22.6517974
20
45.1778416
40
0.346157
50
89.3037228
51
109.9046209
0
ARC
8
DEFAULT_255_1_388
10
22.6413807
20
45.2208379
40
0.3022217
50
110.8229774
51
143.917961
0
ARC
8
DEFAULT_255_1_388
10
22.7464167
20
45.1406455
40
0.434348
50
143.5289166
51
163.2980252
0
ARC
8
DEFAULT_255_1_388
10
22.9610454
20
45.0731685
40
0.659321
50
163.0418884
51
174.3139873
0
ARC
8
DEFAULT_255_1_388
10
23.2315419
20
45.0419378
40
0.9315905
50
174.050934
51
179.4174954
0
ARC
8
DEFAULT_255_1_388
10
23.1747363
20
44.9500382
40
0.8747493
50
179.6928582
51
188.7908948
0
ARC
8
DEFAULT_255_1_388
10
22.8751163
20
44.9021086
40
0.5713262
50
188.6328449
51
202.5630732
0
ARC
8
DEFAULT_255_1_388
10
22.7339999
20
44.8454142
40
0.4192612
50
202.8078931
51
216.1195888
0
ARC
8
DEFAULT_255_1_388
10
22.6429516
20
44.7721479
40
0.3025752
50
215.0755613
51
264.6379773
0
ARC
8
DEFAULT_255_1_388
10
22.6572354
20
44.8656376
40
0.3970284
50
263.8464302
51
270.0830805
0
ARC
8
DEFAULT_255_1_388
10
22.6618899
20
44.8365808
40
0.3679937
50
269.3649295
51
287.5149684
0
ARC
8
DEFAULT_255_1_388
10
22.6819339
20
44.7637714
40
0.2925408
50
288.0629019
51
323.8115617
0
ARC
8
DEFAULT_255_1_388
10
22.5839316
20
44.8368754
40
0.4148018
50
323.6546541
51
342.6591359
0
ARC
8
DEFAULT_255_1_388
10
22.3553973
20
44.911228
40
0.6551163
50
342.4092446
51
353.6451501
0
ARC
8
DEFAULT_255_1_388
10
22.0368767
20
44.9508565
40
0.9760748
50
353.4027553
51
359.4846611
0
LINE
8
DEFAULT_255_1_388
10
24.2516988
20
45.6549898
11
24.2516988
21
45.5610191
0
LINE
8
DEFAULT_255_1_388
10
24.2516988
20
45.5610191
11
23.7068494
21
44.3394
0
LINE
8
DEFAULT_255_1_388
10
23.7068494
20
44.3394
11
23.5315579
21
44.3394
0
LINE
8
DEFAULT_255_1_388
10
23.5315579
20
44.3394
11
24.0746001
21
45.517648
0
LINE
8
DEFAULT_255_1_388
10
24.0746001
20
45.517648
11
23.3625914
21
45.517648
0
LINE
8
DEFAULT_255_1_388
10
23.3625914
20
45.517648
11
23.3625914
21
45.6549898
0
LINE
8
DEFAULT_255_1_388
10
23.3625914
20
45.6549898
11
24.2516988
21
45.6549898
0
LINE
8
DEFAULT_255_1_388
10
22.1146946
20
52.9753553
11
22.1146946
21
52.8922274
0
LINE
8
DEFAULT_255_1_388
10
21.0566206
20
52.8804811
11
21.0566206
21
52.9753553
0
LINE
8
DEFAULT_255_1_388
10
21.9421138
20
52.8795775
11
21.9421138
21
52.9771625
0
LINE
8
DEFAULT_255_1_388
10
21.2292014
20
52.9889088
11
21.2292014
21
52.8922274
0
ARC
8
DEFAULT_255_1_388
10
21.1424684
20
52.8877726
40
0.9722364
50
350.4878118
51
0.2625322
0
ARC
8
DEFAULT_255_1_388
10
21.4004644
20
52.8433994
40
0.7104556
50
336.0277991
51
350.5787241
0
ARC
8
DEFAULT_255_1_388
10
21.5517751
20
52.7750243
40
0.544417
50
319.887443
51
336.1331163
0
ARC
8
DEFAULT_255_1_388
10
21.6195563
20
52.7207733
40
0.4576311
50
302.4806296
51
319.6144102
0
ARC
8
DEFAULT_255_1_388
10
21.6066184
20
52.7457067
40
0.4856183
50
275.8196423
51
302.1885521
0
ARC
8
DEFAULT_255_1_388
10
21.5879046
20
52.8742466
40
0.6154183
50
269.9169897
51
276.339506
0
ARC
8
DEFAULT_255_1_388
10
21.5828646
20
52.797068
40
0.5382553
50
252.5221437
51
270.441579
0
ARC
8
DEFAULT_255_1_388
10
21.5666897
20
52.7364046
40
0.4755426
50
237.5349961
51
252.1858334
0
ARC
8
DEFAULT_255_1_388
10
21.5767273
20
52.749212
40
0.4917393
50
209.0632754
51
237.3492577
0
ARC
8
DEFAULT_255_1_388
10
21.6746599
20
52.8107104
40
0.6072464
50
205.118533
51
209.6465345
0
ARC
8
DEFAULT_255_1_388
10
21.7642601
20
52.8487174
40
0.7045164
50
188.7216633
51
204.8239753
0
ARC
8
DEFAULT_255_1_388
10
21.9889376
20
52.8865387
40
0.9323368
50
180.3722704
51
188.9253909
0
ARC
8
DEFAULT_255_1_388
10
21.9858938
20
52.9798416
40
0.929284
50
169.5253055
51
180.2766048
0
ARC
8
DEFAULT_255_1_388
10
21.7718737
20
53.0192024
40
0.7116745
50
155.8314601
51
169.5088611
0
ARC
8
DEFAULT_255_1_388
10
21.62782
20
53.0860312
40
0.5528904
50
139.6259579
51
156.0379072
0
ARC
8
DEFAULT_255_1_388
10
21.5614733
20
53.1394143
40
0.4677708
50
122.6414784
51
139.3431662
0
ARC
8
DEFAULT_255_1_388
10
21.5727988
20
53.1187787
40
0.4912586
50
93.0224537
51
122.4556091
0
ARC
8
DEFAULT_255_1_388
10
21.5849509
20
53.0101776
40
0.6003837
50
89.9756766
51
93.6340839
0
ARC
8
DEFAULT_255_1_388
10
21.5893107
20
53.0550879
40
0.5554884
50
73.7463329
51
90.4234008
0
ARC
8
DEFAULT_255_1_388
10
21.609058
20
53.1315772
40
0.4765353
50
57.663051
51
73.4516911
0
ARC
8
DEFAULT_255_1_388
10
21.6081618
20
53.1340108
40
0.4749629
50
29.1441355
51
57.4146687
0
ARC
8
DEFAULT_255_1_388
10
21.5029429
20
53.0683046
40
0.5988917
50
24.0985653
51
29.732054
0
ARC
8
DEFAULT_255_1_388
10
21.3867061
20
53.0201154
40
0.7246823
50
8.6654943
51
23.8241215
0
ARC
8
DEFAULT_255_1_388
10
21.1353479
20
52.9791037
40
0.9793537
50
359.7807044
51
8.8218476
0
ARC
8
DEFAULT_255_1_388
10
21.0063184
20
52.9819731
40
0.9358078
50
359.7054632
51
8.0359751
0
ARC
8
DEFAULT_255_1_388
10
21.3438235
20
53.0311252
40
0.5947474
50
7.8926278
51
20.2962188
0
ARC
8
DEFAULT_255_1_388
10
21.5269085
20
53.0986367
40
0.3996117
50
20.3231056
51
36.4990255
0
ARC
8
DEFAULT_255_1_388
10
21.6040383
20
53.1580399
40
0.3022818
50
36.1436715
51
85.6627846
0
ARC
8
DEFAULT_255_1_388
10
21.5857638
20
53.0410881
40
0.4203853
50
84.3845912
51
90.076054
0
ARC
8
DEFAULT_255_1_388
10
21.5809993
20
53.1153416
40
0.346157
50
89.3037228
51
109.9046209
0
ARC
8
DEFAULT_255_1_388
10
21.5705826
20
53.1583379
40
0.3022217
50
110.8229774
51
143.917961
0
ARC
8
DEFAULT_255_1_388
10
21.6756185
20
53.0781455
40
0.434348
50
143.5289166
51
163.2980252
0
ARC
8
DEFAULT_255_1_388
10
21.8902472
20
53.0106685
40
0.659321
50
163.0418884
51
174.3139873
0
ARC
8
DEFAULT_255_1_388
10
22.1607437
20
52.9794378
40
0.9315905
50
174.050934
51
179.4174954
0
ARC
8
DEFAULT_255_1_388
10
22.1039381
20
52.8875382
40
0.8747493
50
179.6928582
51
188.7908948
0
ARC
8
DEFAULT_255_1_388
10
21.8043181
20
52.8396086
40
0.5713262
50
188.6328449
51
202.5630732
0
ARC
8
DEFAULT_255_1_388
10
21.6632018
20
52.7829142
40
0.4192612
50
202.8078931
51
216.1195888
0
ARC
8
DEFAULT_255_1_388
10
21.5721535
20
52.7096479
40
0.3025752
50
215.0755613
51
264.6379773
0
ARC
8
DEFAULT_255_1_388
10
21.5864372
20
52.8031376
40
0.3970284
50
263.8464302
51
270.0830805
0
ARC
8
DEFAULT_255_1_388
10
21.5910917
20
52.7740808
40
0.3679937
50
269.3649295
51
287.5149684
0
ARC
8
DEFAULT_255_1_388
10
21.6111358
20
52.7012714
40
0.2925408
50
288.0629019
51
323.8115617
0
ARC
8
DEFAULT_255_1_388
10
21.5131334
20
52.7743754
40
0.4148018
50
323.6546541
51
342.6591359
0
ARC
8
DEFAULT_255_1_388
10
21.2845992
20
52.848728
40
0.6551163
50
342.4092446
51
353.6451501
0
ARC
8
DEFAULT_255_1_388
10
20.9660785
20
52.8883565
40
0.9760748
50
353.4027553
51
359.4846611
0
LINE
8
DEFAULT_255_1_388
10
23.1682507
20
52.6943468
11
23.3426387
21
52.6943468
0
LINE
8
DEFAULT_255_1_388
10
22.3297429
20
52.8732525
11
22.3297429
21
52.9997516
0
LINE
8
DEFAULT_255_1_388
10
23.3426387
20
53.1696217
11
23.1682507
21
53.1696217
0
LINE
8
DEFAULT_255_1_388
10
22.5041309
20
52.9952337
11
22.5041309
21
52.8678312
0
ARC
8
DEFAULT_255_1_388
10
22.7260621
20
52.7615329
40
0.6202263
50
340.1774904
51
353.7812217
0
ARC
8
DEFAULT_255_1_388
10
22.9028473
20
52.6956893
40
0.4315926
50
311.4560052
51
340.4420756
0
ARC
8
DEFAULT_255_1_388
10
22.8991013
20
52.7081665
40
0.4434573
50
282.4332229
51
310.7514507
0
ARC
8
DEFAULT_255_1_388
10
22.8496831
20
52.9123703
40
0.6535262
50
269.9358869
51
282.8096729
0
ARC
8
DEFAULT_255_1_388
10
22.8438771
20
53.0636329
40
0.8048043
50
269.9995752
51
270.3612856
0
ARC
8
DEFAULT_255_1_388
10
22.8379261
20
52.7837781
40
0.5249831
50
250.7885263
51
270.6488451
0
ARC
8
DEFAULT_255_1_388
10
22.8190085
20
52.7120853
40
0.4510942
50
219.3628377
51
250.0611024
0
ARC
8
DEFAULT_255_1_388
10
22.912296
20
52.7913653
40
0.5735046
50
193.5480293
51
219.5755675
0
ARC
8
DEFAULT_255_1_388
10
23.1791168
20
52.860652
40
0.849146
50
181.1220183
51
193.8754971
0
ARC
8
DEFAULT_255_1_388
10
23.4114402
20
52.8730914
40
1.0816971
50
179.9914644
51
181.5398227
0
ARC
8
DEFAULT_255_1_388
10
23.2037712
20
53.0039586
40
0.8740384
50
169.5837606
51
180.275782
0
ARC
8
DEFAULT_255_1_388
10
22.997106
20
53.0421439
40
0.6638751
50
155.0367033
51
169.6002779
0
ARC
8
DEFAULT_255_1_388
10
22.8693519
20
53.1037336
40
0.5220662
50
136.7831557
51
155.2472983
0
ARC
8
DEFAULT_255_1_388
10
22.8255309
20
53.1409577
40
0.4646502
50
121.7633063
51
136.4281161
0
ARC
8
DEFAULT_255_1_388
10
22.8407149
20
53.1129049
40
0.4964979
50
95.6460018
51
121.5489589
0
ARC
8
DEFAULT_255_1_388
10
22.8584123
20
52.9881704
40
0.6223912
50
89.9245727
51
96.1375919
0
ARC
8
DEFAULT_255_1_388
10
22.8640829
20
53.0015721
40
0.6090084
50
76.6779212
51
90.456405
0
ARC
8
DEFAULT_255_1_388
10
22.9083641
20
53.180506
40
0.42469
50
47.4858803
51
76.9287069
0
ARC
8
DEFAULT_255_1_388
10
22.8918255
20
53.1692623
40
0.4441778
50
16.5424081
51
46.8934505
0
ARC
8
DEFAULT_255_1_388
10
22.7109305
20
53.1098265
40
0.6345318
50
5.4072971
51
17.0363711
0
ARC
8
DEFAULT_255_1_388
10
22.549103
20
53.0838304
40
0.6250632
50
7.8888693
51
15.9242022
0
ARC
8
DEFAULT_255_1_388
10
22.7726015
20
53.1487309
40
0.3923364
50
15.7650676
51
27.9410069
0
ARC
8
DEFAULT_255_1_388
10
22.8968185
20
53.2152317
40
0.2514401
50
27.8167196
51
46.4007942
0
ARC
8
DEFAULT_255_1_388
10
22.9024026
20
53.2145882
40
0.2480958
50
47.4372362
51
75.0695672
0
ARC
8
DEFAULT_255_1_388
10
22.8676862
20
53.0937277
40
0.3738281
50
74.7009379
51
87.8124314
0
ARC
8
DEFAULT_255_1_388
10
22.8594479
20
52.9753659
40
0.4924321
50
87.3802571
51
90.0251599
0
ARC
8
DEFAULT_255_1_388
10
22.8551127
20
53.1073997
40
0.3604218
50
89.3451886
51
108.5744412
0
ARC
8
DEFAULT_255_1_388
10
22.8397119
20
53.1651836
40
0.3007661
50
109.2998307
51
143.3037387
0
ARC
8
DEFAULT_255_1_388
10
22.9254408
20
53.0992584
40
0.4089031
50
143.075267
51
163.1918576
0
ARC
8
DEFAULT_255_1_388
10
23.1450243
20
53.0299652
40
0.6391492
50
162.9375929
51
174.6208776
0
ARC
8
DEFAULT_255_1_388
10
23.4404625
20
52.9975711
40
0.9363344
50
174.342123
51
180.1430283
0
ARC
8
DEFAULT_255_1_388
10
23.3357166
20
52.8632117
40
0.8315986
50
179.6817261
51
189.150555
0
ARC
8
DEFAULT_255_1_388
10
23.0543915
20
52.8163559
40
0.5464044
50
188.9911061
51
203.5772363
0
ARC
8
DEFAULT_255_1_388
10
22.9329207
20
52.7659539
40
0.4149206
50
203.9075402
51
215.1312435
0
ARC
8
DEFAULT_255_1_388
10
22.8291004
20
52.6854907
40
0.2837747
50
213.9071511
51
263.8848919
0
ARC
8
DEFAULT_255_1_388
10
22.8431998
20
52.7737519
40
0.3730641
50
263.1757928
51
270.1031044
0
ARC
8
DEFAULT_255_1_388
10
22.8468077
20
52.9140511
40
0.5133712
50
269.6722503
51
279.0606936
0
ARC
8
DEFAULT_255_1_388
10
22.8768233
20
52.732615
40
0.3294739
50
278.8749101
51
293.6349581
0
ARC
8
DEFAULT_255_1_388
10
22.9128436
20
52.6480251
40
0.2375405
50
293.8553806
51
310.0518171
0
ARC
8
DEFAULT_255_1_388
10
22.9133945
20
52.6410021
40
0.2318463
50
311.0644687
51
332.0111037
0
ARC
8
DEFAULT_255_1_388
10
22.7792618
20
52.7149702
40
0.3850112
50
331.6586806
51
343.2877423
0
ARC
8
DEFAULT_255_1_388
10
22.5472084
20
52.7862806
40
0.6277712
50
343.1446576
51
351.0103568
0
ARC
8
DEFAULT_255_1_388
10
22.3839407
20
52.8162873
40
0.7937327
50
350.71248
51
351.1626997
0
LINE
8
DEFAULT_255_1_388
10
24.3853521
20
53.5924898
11
24.3853521
21
53.4985191
0
LINE
8
DEFAULT_255_1_388
10
24.3853521
20
53.4985191
11
23.8405027
21
52.2769
0
LINE
8
DEFAULT_255_1_388
10
23.8405027
20
52.2769
11
23.6652112
21
52.2769
0
LINE
8
DEFAULT_255_1_388
10
23.6652112
20
52.2769
11
24.2082534
21
53.455148
0
LINE
8
DEFAULT_255_1_388
10
24.2082534
20
53.455148
11
23.4962446
21
53.455148
0
LINE
8
DEFAULT_255_1_388
10
23.4962446
20
53.455148
11
23.4962446
21
53.5924898
0
LINE
8
DEFAULT_255_1_388
10
23.4962446
20
53.5924898
11
24.3853521
21
53.5924898
0
LINE
8
DEFAULT_255_1_388
10
21.9885367
20
61.5299898
11
21.9885367
21
60.2144
0
LINE
8
DEFAULT_255_1_388
10
21.9885367
20
60.2144
11
21.8150523
21
60.2144
0
LINE
8
DEFAULT_255_1_388
10
21.8150523
20
60.2144
11
21.8150523
21
61.5299898
0
LINE
8
DEFAULT_255_1_388
10
21.8150523
20
61.5299898
11
21.9885367
21
61.5299898
0
LINE
8
DEFAULT_255_1_388
10
23.31768
20
60.9128553
11
23.31768
21
60.8297274
0
LINE
8
DEFAULT_255_1_388
10
22.259606
20
60.8179811
11
22.259606
21
60.9128553
0
LINE
8
DEFAULT_255_1_388
10
23.1450992
20
60.8170775
11
23.1450992
21
60.9146625
0
LINE
8
DEFAULT_255_1_388
10
22.4321868
20
60.9264088
11
22.4321868
21
60.8297274
0
ARC
8
DEFAULT_255_1_388
10
22.3454538
20
60.8252726
40
0.9722364
50
350.4878118
51
0.2625322
0
ARC
8
DEFAULT_255_1_388
10
22.6034498
20
60.7808994
40
0.7104556
50
336.0277991
51
350.5787241
0
ARC
8
DEFAULT_255_1_388
10
22.7547605
20
60.7125243
40
0.544417
50
319.887443
51
336.1331163
0
ARC
8
DEFAULT_255_1_388
10
22.8225417
20
60.6582733
40
0.4576311
50
302.4806296
51
319.6144102
0
ARC
8
DEFAULT_255_1_388
10
22.8096038
20
60.6832067
40
0.4856183
50
275.8196423
51
302.1885521
0
ARC
8
DEFAULT_255_1_388
10
22.79089
20
60.8117466
40
0.6154183
50
269.9169897
51
276.339506
0
ARC
8
DEFAULT_255_1_388
10
22.78585
20
60.734568
40
0.5382553
50
252.5221437
51
270.441579
0
ARC
8
DEFAULT_255_1_388
10
22.7696751
20
60.6739046
40
0.4755426
50
237.5349961
51
252.1858334
0
ARC
8
DEFAULT_255_1_388
10
22.7797127
20
60.686712
40
0.4917393
50
209.0632754
51
237.3492577
0
ARC
8
DEFAULT_255_1_388
10
22.8776453
20
60.7482104
40
0.6072464
50
205.118533
51
209.6465345
0
ARC
8
DEFAULT_255_1_388
10
22.9672455
20
60.7862174
40
0.7045164
50
188.7216633
51
204.8239753
0
ARC
8
DEFAULT_255_1_388
10
23.191923
20
60.8240387
40
0.9323368
50
180.3722704
51
188.9253909
0
ARC
8
DEFAULT_255_1_388
10
23.1888792
20
60.9173416
40
0.929284
50
169.5253055
51
180.2766048
0
ARC
8
DEFAULT_255_1_388
10
22.9748591
20
60.9567024
40
0.7116745
50
155.8314601
51
169.5088611
0
ARC
8
DEFAULT_255_1_388
10
22.8308054
20
61.0235312
40
0.5528904
50
139.6259579
51
156.0379072
0
ARC
8
DEFAULT_255_1_388
10
22.7644588
20
61.0769143
40
0.4677708
50
122.6414784
51
139.3431662
0
ARC
8
DEFAULT_255_1_388
10
22.7757842
20
61.0562787
40
0.4912586
50
93.0224537
51
122.4556091
0
ARC
8
DEFAULT_255_1_388
10
22.7879363
20
60.9476776
40
0.6003837
50
89.9756766
51
93.6340839
0
ARC
8
DEFAULT_255_1_388
10
22.7922961
20
60.9925879
40
0.5554884
50
73.7463329
51
90.4234008
0
ARC
8
DEFAULT_255_1_388
10
22.8120434
20
61.0690772
40
0.4765353
50
57.663051
51
73.4516911
0
ARC
8
DEFAULT_255_1_388
10
22.8111472
20
61.0715108
40
0.4749629
50
29.1441355
51
57.4146687
0
ARC
8
DEFAULT_255_1_388
10
22.7059283
20
61.0058046
40
0.5988917
50
24.0985653
51
29.732054
0
ARC
8
DEFAULT_255_1_388
10
22.5896915
20
60.9576154
40
0.7246823
50
8.6654943
51
23.8241215
0
ARC
8
DEFAULT_255_1_388
10
22.3383333
20
60.9166037
40
0.9793537
50
359.7807044
51
8.8218476
0
ARC
8
DEFAULT_255_1_388
10
22.2093038
20
60.9194731
40
0.9358078
50
359.7054632
51
8.0359751
0
ARC
8
DEFAULT_255_1_388
10
22.5468089
20
60.9686252
40
0.5947474
50
7.8926278
51
20.2962188
0
ARC
8
DEFAULT_255_1_388
10
22.7298939
20
61.0361367
40
0.3996117
50
20.3231056
51
36.4990255
0
ARC
8
DEFAULT_255_1_388
10
22.8070237
20
61.0955399
40
0.3022818
50
36.1436715
51
85.6627846
0
ARC
8
DEFAULT_255_1_388
10
22.7887492
20
60.9785881
40
0.4203853
50
84.3845912
51
90.076054
0
ARC
8
DEFAULT_255_1_388
10
22.7839847
20
61.0528416
40
0.346157
50
89.3037228
51
109.9046209
0
ARC
8
DEFAULT_255_1_388
10
22.773568
20
61.0958379
40
0.3022217
50
110.8229774
51
143.917961
0
ARC
8
DEFAULT_255_1_388
10
22.8786039
20
61.0156455
40
0.434348
50
143.5289166
51
163.2980252
0
ARC
8
DEFAULT_255_1_388
10
23.0932326
20
60.9481685
40
0.659321
50
163.0418884
51
174.3139873
0
ARC
8
DEFAULT_255_1_388
10
23.3637291
20
60.9169378
40
0.9315905
50
174.050934
51
179.4174954
0
ARC
8
DEFAULT_255_1_388
10
23.3069235
20
60.8250382
40
0.8747493
50
179.6928582
51
188.7908948
0
ARC
8
DEFAULT_255_1_388
10
23.0073035
20
60.7771086
40
0.5713262
50
188.6328449
51
202.5630732
0
ARC
8
DEFAULT_255_1_388
10
22.8661872
20
60.7204142
40
0.4192612
50
202.8078931
51
216.1195888
0
ARC
8
DEFAULT_255_1_388
10
22.7751389
20
60.6471479
40
0.3025752
50
215.0755613
51
264.6379773
0
ARC
8
DEFAULT_255_1_388
10
22.7894226
20
60.7406376
40
0.3970284
50
263.8464302
51
270.0830805
0
ARC
8
DEFAULT_255_1_388
10
22.7940771
20
60.7115808
40
0.3679937
50
269.3649295
51
287.5149684
0
ARC
8
DEFAULT_255_1_388
10
22.8141212
20
60.6387714
40
0.2925408
50
288.0629019
51
323.8115617
0
ARC
8
DEFAULT_255_1_388
10
22.7161188
20
60.7118754
40
0.4148018
50
323.6546541
51
342.6591359
0
ARC
8
DEFAULT_255_1_388
10
22.4875846
20
60.786228
40
0.6551163
50
342.4092446
51
353.6451501
0
ARC
8
DEFAULT_255_1_388
10
22.1690639
20
60.8258565
40
0.9760748
50
353.4027553
51
359.4846611
0
LINE
8
DEFAULT_255_1_388
10
24.383886
20
61.5299898
11
24.383886
21
61.4360191
0
LINE
8
DEFAULT_255_1_388
10
24.383886
20
61.4360191
11
23.8390367
21
60.2144
0
LINE
8
DEFAULT_255_1_388
10
23.8390367
20
60.2144
11
23.6637452
21
60.2144
0
LINE
8
DEFAULT_255_1_388
10
23.6637452
20
60.2144
11
24.2067874
21
61.392648
0
LINE
8
DEFAULT_255_1_388
10
24.2067874
20
61.392648
11
23.4947786
21
61.392648
0
LINE
8
DEFAULT_255_1_388
10
23.4947786
20
61.392648
11
23.4947786
21
61.5299898
0
LINE
8
DEFAULT_255_1_388
10
23.4947786
20
61.5299898
11
24.383886
21
61.5299898
0
LINE
8
DEFAULT_255_1_388
10
21.0693448
20
69.4674898
11
21.4434205
21
68.3823089
0
LINE
8
DEFAULT_255_1_388
10
21.4434205
20
68.3823089
11
21.8193033
21
69.4674898
0
LINE
8
DEFAULT_255_1_388
10
21.8193033
20
69.4674898
11
22.0090518
21
69.4674898
0
LINE
8
DEFAULT_255_1_388
10
22.0090518
20
69.4674898
11
21.521127
21
68.1519
0
LINE
8
DEFAULT_255_1_388
10
21.521127
20
68.1519
11
21.367521
21
68.1519
0
LINE
8
DEFAULT_255_1_388
10
21.367521
20
68.1519
11
20.8804998
21
69.4674898
0
LINE
8
DEFAULT_255_1_388
10
20.8804998
20
69.4674898
11
21.0693448
21
69.4674898
0
LINE
8
DEFAULT_255_1_388
10
23.1854927
20
68.8503553
11
23.1854927
21
68.7672274
0
LINE
8
DEFAULT_255_1_388
10
22.1274187
20
68.7554811
11
22.1274187
21
68.8503553
0
LINE
8
DEFAULT_255_1_388
10
23.0129119
20
68.7545775
11
23.0129119
21
68.8521625
0
LINE
8
DEFAULT_255_1_388
10
22.2999996
20
68.8639088
11
22.2999996
21
68.7672274
0
ARC
8
DEFAULT_255_1_388
10
22.2132666
20
68.7627726
40
0.9722364
50
350.4878118
51
0.2625322
0
ARC
8
DEFAULT_255_1_388
10
22.4712626
20
68.7183994
40
0.7104556
50
336.0277991
51
350.5787241
0
ARC
8
DEFAULT_255_1_388
10
22.6225732
20
68.6500243
40
0.544417
50
319.887443
51
336.1331163
0
ARC
8
DEFAULT_255_1_388
10
22.6903545
20
68.5957733
40
0.4576311
50
302.4806296
51
319.6144102
0
ARC
8
DEFAULT_255_1_388
10
22.6774166
20
68.6207067
40
0.4856183
50
275.8196423
51
302.1885521
0
ARC
8
DEFAULT_255_1_388
10
22.6587027
20
68.7492466
40
0.6154183
50
269.9169897
51
276.339506
0
ARC
8
DEFAULT_255_1_388
10
22.6536628
20
68.672068
40
0.5382553
50
252.5221437
51
270.441579
0
ARC
8
DEFAULT_255_1_388
10
22.6374878
20
68.6114046
40
0.4755426
50
237.5349961
51
252.1858334
0
ARC
8
DEFAULT_255_1_388
10
22.6475254
20
68.624212
40
0.4917393
50
209.0632754
51
237.3492577
0
ARC
8
DEFAULT_255_1_388
10
22.745458
20
68.6857104
40
0.6072464
50
205.118533
51
209.6465345
0
ARC
8
DEFAULT_255_1_388
10
22.8350582
20
68.7237174
40
0.7045164
50
188.7216633
51
204.8239753
0
ARC
8
DEFAULT_255_1_388
10
23.0597358
20
68.7615387
40
0.9323368
50
180.3722704
51
188.9253909
0
ARC
8
DEFAULT_255_1_388
10
23.0566919
20
68.8548416
40
0.929284
50
169.5253055
51
180.2766048
0
ARC
8
DEFAULT_255_1_388
10
22.8426718
20
68.8942024
40
0.7116745
50
155.8314601
51
169.5088611
0
ARC
8
DEFAULT_255_1_388
10
22.6986181
20
68.9610312
40
0.5528904
50
139.6259579
51
156.0379072
0
ARC
8
DEFAULT_255_1_388
10
22.6322715
20
69.0144143
40
0.4677708
50
122.6414784
51
139.3431662
0
ARC
8
DEFAULT_255_1_388
10
22.643597
20
68.9937787
40
0.4912586
50
93.0224537
51
122.4556091
0
ARC
8
DEFAULT_255_1_388
10
22.6557491
20
68.8851776
40
0.6003837
50
89.9756766
51
93.6340839
0
ARC
8
DEFAULT_255_1_388
10
22.6601088
20
68.9300879
40
0.5554884
50
73.7463329
51
90.4234008
0
ARC
8
DEFAULT_255_1_388
10
22.6798562
20
69.0065772
40
0.4765353
50
57.663051
51
73.4516911
0
ARC
8
DEFAULT_255_1_388
10
22.6789599
20
69.0090108
40
0.4749629
50
29.1441355
51
57.4146687
0
ARC
8
DEFAULT_255_1_388
10
22.5737411
20
68.9433046
40
0.5988917
50
24.0985653
51
29.732054
0
ARC
8
DEFAULT_255_1_388
10
22.4575042
20
68.8951154
40
0.7246823
50
8.6654943
51
23.8241215
0
ARC
8
DEFAULT_255_1_388
10
22.2061461
20
68.8541037
40
0.9793537
50
359.7807044
51
8.8218476
0
ARC
8
DEFAULT_255_1_388
10
22.0771165
20
68.8569731
40
0.9358078
50
359.7054632
51
8.0359751
0
ARC
8
DEFAULT_255_1_388
10
22.4146217
20
68.9061252
40
0.5947474
50
7.8926278
51
20.2962188
0
ARC
8
DEFAULT_255_1_388
10
22.5977067
20
68.9736367
40
0.3996117
50
20.3231056
51
36.4990255
0
ARC
8
DEFAULT_255_1_388
10
22.6748364
20
69.0330399
40
0.3022818
50
36.1436715
51
85.6627846
0
ARC
8
DEFAULT_255_1_388
10
22.656562
20
68.9160881
40
0.4203853
50
84.3845912
51
90.076054
0
ARC
8
DEFAULT_255_1_388
10
22.6517974
20
68.9903416
40
0.346157
50
89.3037228
51
109.9046209
0
ARC
8
DEFAULT_255_1_388
10
22.6413807
20
69.0333379
40
0.3022217
50
110.8229774
51
143.917961
0
ARC
8
DEFAULT_255_1_388
10
22.7464167
20
68.9531455
40
0.434348
50
143.5289166
51
163.2980252
0
ARC
8
DEFAULT_255_1_388
10
22.9610454
20
68.8856685
40
0.659321
50
163.0418884
51
174.3139873
0
ARC
8
DEFAULT_255_1_388
10
23.2315419
20
68.8544378
40
0.9315905
50
174.050934
51
179.4174954
0
ARC
8
DEFAULT_255_1_388
10
23.1747363
20
68.7625382
40
0.8747493
50
179.6928582
51
188.7908948
0
ARC
8
DEFAULT_255_1_388
10
22.8751163
20
68.7146086
40
0.5713262
50
188.6328449
51
202.5630732
0
ARC
8
DEFAULT_255_1_388
10
22.7339999
20
68.6579142
40
0.4192612
50
202.8078931
51
216.1195888
0
ARC
8
DEFAULT_255_1_388
10
22.6429516
20
68.5846479
40
0.3025752
50
215.0755613
51
264.6379773
0
ARC
8
DEFAULT_255_1_388
10
22.6572354
20
68.6781376
40
0.3970284
50
263.8464302
51
270.0830805
0
ARC
8
DEFAULT_255_1_388
10
22.6618899
20
68.6490808
40
0.3679937
50
269.3649295
51
287.5149684
0
ARC
8
DEFAULT_255_1_388
10
22.6819339
20
68.5762714
40
0.2925408
50
288.0629019
51
323.8115617
0
ARC
8
DEFAULT_255_1_388
10
22.5839316
20
68.6493754
40
0.4148018
50
323.6546541
51
342.6591359
0
ARC
8
DEFAULT_255_1_388
10
22.3553973
20
68.723728
40
0.6551163
50
342.4092446
51
353.6451501
0
ARC
8
DEFAULT_255_1_388
10
22.0368767
20
68.7633565
40
0.9760748
50
353.4027553
51
359.4846611
0
LINE
8
DEFAULT_255_1_388
10
24.0285184
20
69.4683934
11
24.058336
21
69.4683934
0
LINE
8
DEFAULT_255_1_388
10
24.058336
20
69.4683934
11
24.058336
21
69.3265338
0
LINE
8
DEFAULT_255_1_388
10
24.058336
20
69.3265338
11
24.0276148
21
69.3265338
0
LINE
8
DEFAULT_255_1_388
10
23.4122874
20
68.6524747
11
23.4122874
21
68.7166278
0
LINE
8
DEFAULT_255_1_388
10
23.5803504
20
68.6949422
11
23.5803504
21
68.6334999
0
ARC
8
DEFAULT_255_1_388
10
24.0335039
20
68.7642826
40
0.562282
50
90.6001079
51
104.5146616
0
ARC
8
DEFAULT_255_1_388
10
23.9897999
20
68.92681
40
0.3939917
50
104.2855758
51
133.8630124
0
ARC
8
DEFAULT_255_1_388
10
24.0082252
20
68.9146243
40
0.4155734
50
134.5304124
51
161.6210222
0
ARC
8
DEFAULT_255_1_388
10
24.1942184
20
68.8490421
40
0.6127682
50
161.2850533
51
174.2074364
0
ARC
8
DEFAULT_255_1_388
10
24.3531751
20
68.8271437
40
0.7731446
50
173.7817938
51
174.9251711
0
ARC
8
DEFAULT_255_1_388
10
23.8405944
20
68.671627
40
0.3412588
50
95.8332067
51
138.995412
0
ARC
8
DEFAULT_255_1_388
10
23.8657225
20
68.5277695
40
0.4870358
50
89.8755506
51
97.0540979
0
ARC
8
DEFAULT_255_1_388
10
23.8710614
20
68.6217841
40
0.3930432
50
71.6407016
51
90.6240821
0
ARC
8
DEFAULT_255_1_388
10
23.8880007
20
68.6841433
40
0.3285421
50
39.6368051
51
71.0190743
0
ARC
8
DEFAULT_255_1_388
10
23.8163915
20
68.6222586
40
0.4231706
50
10.6588054
51
39.9044509
0
ARC
8
DEFAULT_255_1_388
10
23.642246
20
68.5844223
40
0.60133
50
359.6827842
51
11.1326896
0
ARC
8
DEFAULT_255_1_388
10
23.6377796
20
68.5764715
40
0.6058047
50
347.2485908
51
0.4371098
0
ARC
8
DEFAULT_255_1_388
10
23.8253582
20
68.5313379
40
0.4128987
50
318.1408565
51
347.6118497
0
ARC
8
DEFAULT_255_1_388
10
23.8619178
20
68.5012903
40
0.3656244
50
275.6342406
51
317.824739
0
ARC
8
DEFAULT_255_1_388
10
23.8370699
20
68.6474827
40
0.513655
50
269.8872513
51
276.7916069
0
ARC
8
DEFAULT_255_1_388
10
23.8308892
20
68.5321181
40
0.398323
50
246.9139443
51
270.7436787
0
ARC
8
DEFAULT_255_1_388
10
23.8316088
20
68.5161044
40
0.3839368
50
218.1665534
51
245.8780431
0
ARC
8
DEFAULT_255_1_388
10
23.930546
20
68.5988903
40
0.5128958
50
191.4115343
51
218.6077624
0
ARC
8
DEFAULT_255_1_388
10
24.1485776
20
68.6477777
40
0.7363054
50
179.6344971
51
191.7836758
0
ARC
8
DEFAULT_255_1_388
10
24.7765651
20
68.7241495
40
1.3642984
50
171.4523743
51
180.3158856
0
ARC
8
DEFAULT_255_1_388
10
24.2821378
20
68.8010895
40
0.8639311
50
157.9802296
51
171.6246761
0
ARC
8
DEFAULT_255_1_388
10
24.0330728
20
68.9004038
40
0.5958004
50
141.4299236
51
157.8541251
0
ARC
8
DEFAULT_255_1_388
10
23.9608812
20
68.9514746
40
0.5075416
50
102.871586
51
140.8564533
0
ARC
8
DEFAULT_255_1_388
10
24.0337364
20
68.6769943
40
0.7914163
50
90.377773
51
103.5868422
0
ARC
8
DEFAULT_255_1_388
10
23.8381885
20
68.6089543
40
0.2667015
50
89.8751238
51
126.2072139
0
ARC
8
DEFAULT_255_1_388
10
23.8433357
20
68.5915847
40
0.2838229
50
124.9742447
51
144.8960197
0
ARC
8
DEFAULT_255_1_388
10
23.8235602
20
68.6076981
40
0.2583845
50
145.2974778
51
160.2660922
0
ARC
8
DEFAULT_255_1_388
10
24.169209
20
68.6299151
40
0.5888695
50
179.6512124
51
190.285571
0
ARC
8
DEFAULT_255_1_388
10
23.9786569
20
68.5939968
40
0.3949683
50
190.0944895
51
207.5099647
0
ARC
8
DEFAULT_255_1_388
10
23.9150151
20
68.5637177
40
0.3245464
50
207.9585471
51
216.325377
0
ARC
8
DEFAULT_255_1_388
10
23.8767788
20
68.5322712
40
0.2751259
50
215.7661336
51
232.5457193
0
ARC
8
DEFAULT_255_1_388
10
23.8336904
20
68.4775273
40
0.2054668
50
232.8005815
51
270.6605497
0
ARC
8
DEFAULT_255_1_388
10
23.8388329
20
68.5184853
40
0.2464268
50
269.3550767
51
288.474612
0
ARC
8
DEFAULT_255_1_388
10
23.8492835
20
68.4791721
40
0.2058436
50
289.1831976
51
322.9685307
0
ARC
8
DEFAULT_255_1_388
10
23.7804937
20
68.5334279
40
0.2934408
50
322.6007085
51
346.5183319
0
ARC
8
DEFAULT_255_1_388
10
23.6502693
20
68.5666434
40
0.4278249
50
346.2584622
51
358.7739592
0
ARC
8
DEFAULT_255_1_388
10
23.5351269
20
68.5728829
40
0.5430876
50
358.3757628
51
0.0082477
0
ARC
8
DEFAULT_255_1_388
10
23.6208087
20
68.5759856
40
0.4574157
50
359.6211417
51
11.28403
0
ARC
8
DEFAULT_255_1_388
10
23.7644693
20
68.6059535
40
0.3106708
50
11.0483152
51
31.8145585
0
ARC
8
DEFAULT_255_1_388
10
23.7992398
20
68.6248045
40
0.2711963
50
32.3028554
51
38.0820598
0
ARC
8
DEFAULT_255_1_388
10
23.8465631
20
68.6676717
40
0.2075566
50
36.8249851
51
85.741667
0
ARC
8
DEFAULT_255_1_388
10
23.8390044
20
68.6113065
40
0.2643487
50
85.0150021
51
90.050843
0
LINE
8
DEFAULT_255_1_388
10
22.1146946
20
76.7878553
11
22.1146946
21
76.7047274
0
LINE
8
DEFAULT_255_1_388
10
21.0566206
20
76.6929811
11
21.0566206
21
76.7878553
0
LINE
8
DEFAULT_255_1_388
10
21.9421138
20
76.6920775
11
21.9421138
21
76.7896625
0
LINE
8
DEFAULT_255_1_388
10
21.2292014
20
76.8014088
11
21.2292014
21
76.7047274
0
ARC
8
DEFAULT_255_1_388
10
21.1424684
20
76.7002726
40
0.9722364
50
350.4878118
51
0.2625322
0
ARC
8
DEFAULT_255_1_388
10
21.4004644
20
76.6558994
40
0.7104556
50
336.0277991
51
350.5787241
0
ARC
8
DEFAULT_255_1_388
10
21.5517751
20
76.5875243
40
0.544417
50
319.887443
51
336.1331163
0
ARC
8
DEFAULT_255_1_388
10
21.6195563
20
76.5332733
40
0.4576311
50
302.4806296
51
319.6144102
0
ARC
8
DEFAULT_255_1_388
10
21.6066184
20
76.5582067
40
0.4856183
50
275.8196423
51
302.1885521
0
ARC
8
DEFAULT_255_1_388
10
21.5879046
20
76.6867466
40
0.6154183
50
269.9169897
51
276.339506
0
ARC
8
DEFAULT_255_1_388
10
21.5828646
20
76.609568
40
0.5382553
50
252.5221437
51
270.441579
0
ARC
8
DEFAULT_255_1_388
10
21.5666897
20
76.5489046
40
0.4755426
50
237.5349961
51
252.1858334
0
ARC
8
DEFAULT_255_1_388
10
21.5767273
20
76.561712
40
0.4917393
50
209.0632754
51
237.3492577
0
ARC
8
DEFAULT_255_1_388
10
21.6746599
20
76.6232104
40
0.6072464
50
205.118533
51
209.6465345
0
ARC
8
DEFAULT_255_1_388
10
21.7642601
20
76.6612174
40
0.7045164
50
188.7216633
51
204.8239753
0
ARC
8
DEFAULT_255_1_388
10
21.9889376
20
76.6990387
40
0.9323368
50
180.3722704
51
188.9253909
0
ARC
8
DEFAULT_255_1_388
10
21.9858938
20
76.7923416
40
0.929284
50
169.5253055
51
180.2766048
0
ARC
8
DEFAULT_255_1_388
10
21.7718737
20
76.8317024
40
0.7116745
50
155.8314601
51
169.5088611
0
ARC
8
DEFAULT_255_1_388
10
21.62782
20
76.8985312
40
0.5528904
50
139.6259579
51
156.0379072
0
ARC
8
DEFAULT_255_1_388
10
21.5614733
20
76.9519143
40
0.4677708
50
122.6414784
51
139.3431662
0
ARC
8
DEFAULT_255_1_388
10
21.5727988
20
76.9312787
40
0.4912586
50
93.0224537
51
122.4556091
0
ARC
8
DEFAULT_255_1_388
10
21.5849509
20
76.8226776
40
0.6003837
50
89.9756766
51
93.6340839
0
ARC
8
DEFAULT_255_1_388
10
21.5893107
20
76.8675879
40
0.5554884
50
73.7463329
51
90.4234008
0
ARC
8
DEFAULT_255_1_388
10
21.609058
20
76.9440772
40
0.4765353
50
57.663051
51
73.4516911
0
ARC
8
DEFAULT_255_1_388
10
21.6081618
20
76.9465108
40
0.4749629
50
29.1441355
51
57.4146687
0
ARC
8
DEFAULT_255_1_388
10
21.5029429
20
76.8808046
40
0.5988917
50
24.0985653
51
29.732054
0
ARC
8
DEFAULT_255_1_388
10
21.3867061
20
76.8326154
40
0.7246823
50
8.6654943
51
23.8241215
0
ARC
8
DEFAULT_255_1_388
10
21.1353479
20
76.7916037
40
0.9793537
50
359.7807044
51
8.8218476
0
ARC
8
DEFAULT_255_1_388
10
21.0063184
20
76.7944731
40
0.9358078
50
359.7054632
51
8.0359751
0
ARC
8
DEFAULT_255_1_388
10
21.3438235
20
76.8436252
40
0.5947474
50
7.8926278
51
20.2962188
0
ARC
8
DEFAULT_255_1_388
10
21.5269085
20
76.9111367
40
0.3996117
50
20.3231056
51
36.4990255
0
ARC
8
DEFAULT_255_1_388
10
21.6040383
20
76.9705399
40
0.3022818
50
36.1436715
51
85.6627846
0
ARC
8
DEFAULT_255_1_388
10
21.5857638
20
76.8535881
40
0.4203853
50
84.3845912
51
90.076054
0
ARC
8
DEFAULT_255_1_388
10
21.5809993
20
76.9278416
40
0.346157
50
89.3037228
51
109.9046209
0
ARC
8
DEFAULT_255_1_388
10
21.5705826
20
76.9708379
40
0.3022217
50
110.8229774
51
143.917961
0
ARC
8
DEFAULT_255_1_388
10
21.6756185
20
76.8906455
40
0.434348
50
143.5289166
51
163.2980252
0
ARC
8
DEFAULT_255_1_388
10
21.8902472
20
76.8231685
40
0.659321
50
163.0418884
51
174.3139873
0
ARC
8
DEFAULT_255_1_388
10
22.1607437
20
76.7919378
40
0.9315905
50
174.050934
51
179.4174954
0
ARC
8
DEFAULT_255_1_388
10
22.1039381
20
76.7000382
40
0.8747493
50
179.6928582
51
188.7908948
0
ARC
8
DEFAULT_255_1_388
10
21.8043181
20
76.6521086
40
0.5713262
50
188.6328449
51
202.5630732
0
ARC
8
DEFAULT_255_1_388
10
21.6632018
20
76.5954142
40
0.4192612
50
202.8078931
51
216.1195888
0
ARC
8
DEFAULT_255_1_388
10
21.5721535
20
76.5221479
40
0.3025752
50
215.0755613
51
264.6379773
0
ARC
8
DEFAULT_255_1_388
10
21.5864372
20
76.6156376
40
0.3970284
50
263.8464302
51
270.0830805
0
ARC
8
DEFAULT_255_1_388
10
21.5910917
20
76.5865808
40
0.3679937
50
269.3649295
51
287.5149684
0
ARC
8
DEFAULT_255_1_388
10
21.6111358
20
76.5137714
40
0.2925408
50
288.0629019
51
323.8115617
0
ARC
8
DEFAULT_255_1_388
10
21.5131334
20
76.5868754
40
0.4148018
50
323.6546541
51
342.6591359
0
ARC
8
DEFAULT_255_1_388
10
21.2845992
20
76.661228
40
0.6551163
50
342.4092446
51
353.6451501
0
ARC
8
DEFAULT_255_1_388
10
20.9660785
20
76.7008565
40
0.9760748
50
353.4027553
51
359.4846611
0
LINE
8
DEFAULT_255_1_388
10
23.1682507
20
76.5068468
11
23.3426387
21
76.5068468
0
LINE
8
DEFAULT_255_1_388
10
22.3297429
20
76.6857525
11
22.3297429
21
76.8122516
0
LINE
8
DEFAULT_255_1_388
10
23.3426387
20
76.9821217
11
23.1682507
21
76.9821217
0
LINE
8
DEFAULT_255_1_388
10
22.5041309
20
76.8077337
11
22.5041309
21
76.6803312
0
ARC
8
DEFAULT_255_1_388
10
22.7260621
20
76.5740329
40
0.6202263
50
340.1774904
51
353.7812217
0
ARC
8
DEFAULT_255_1_388
10
22.9028473
20
76.5081893
40
0.4315926
50
311.4560052
51
340.4420756
0
ARC
8
DEFAULT_255_1_388
10
22.8991013
20
76.5206665
40
0.4434573
50
282.4332229
51
310.7514507
0
ARC
8
DEFAULT_255_1_388
10
22.8496831
20
76.7248703
40
0.6535262
50
269.9358869
51
282.8096729
0
ARC
8
DEFAULT_255_1_388
10
22.8438771
20
76.8761329
40
0.8048043
50
269.9995752
51
270.3612856
0
ARC
8
DEFAULT_255_1_388
10
22.8379261
20
76.5962781
40
0.5249831
50
250.7885263
51
270.6488451
0
ARC
8
DEFAULT_255_1_388
10
22.8190085
20
76.5245853
40
0.4510942
50
219.3628377
51
250.0611024
0
ARC
8
DEFAULT_255_1_388
10
22.912296
20
76.6038653
40
0.5735046
50
193.5480293
51
219.5755675
0
ARC
8
DEFAULT_255_1_388
10
23.1791168
20
76.673152
40
0.849146
50
181.1220183
51
193.8754971
0
ARC
8
DEFAULT_255_1_388
10
23.4114402
20
76.6855914
40
1.0816971
50
179.9914644
51
181.5398227
0
ARC
8
DEFAULT_255_1_388
10
23.2037712
20
76.8164586
40
0.8740384
50
169.5837606
51
180.275782
0
ARC
8
DEFAULT_255_1_388
10
22.997106
20
76.8546439
40
0.6638751
50
155.0367033
51
169.6002779
0
ARC
8
DEFAULT_255_1_388
10
22.8693519
20
76.9162336
40
0.5220662
50
136.7831557
51
155.2472983
0
ARC
8
DEFAULT_255_1_388
10
22.8255309
20
76.9534577
40
0.4646502
50
121.7633063
51
136.4281161
0
ARC
8
DEFAULT_255_1_388
10
22.8407149
20
76.9254049
40
0.4964979
50
95.6460018
51
121.5489589
0
ARC
8
DEFAULT_255_1_388
10
22.8584123
20
76.8006704
40
0.6223912
50
89.9245727
51
96.1375919
0
ARC
8
DEFAULT_255_1_388
10
22.8640829
20
76.8140721
40
0.6090084
50
76.6779212
51
90.456405
0
ARC
8
DEFAULT_255_1_388
10
22.9083641
20
76.993006
40
0.42469
50
47.4858803
51
76.9287069
0
ARC
8
DEFAULT_255_1_388
10
22.8918255
20
76.9817623
40
0.4441778
50
16.5424081
51
46.8934505
0
ARC
8
DEFAULT_255_1_388
10
22.7109305
20
76.9223265
40
0.6345318
50
5.4072971
51
17.0363711
0
ARC
8
DEFAULT_255_1_388
10
22.549103
20
76.8963304
40
0.6250632
50
7.8888693
51
15.9242022
0
ARC
8
DEFAULT_255_1_388
10
22.7726015
20
76.9612309
40
0.3923364
50
15.7650676
51
27.9410069
0
ARC
8
DEFAULT_255_1_388
10
22.8968185
20
77.0277317
40
0.2514401
50
27.8167196
51
46.4007942
0
ARC
8
DEFAULT_255_1_388
10
22.9024026
20
77.0270882
40
0.2480958
50
47.4372362
51
75.0695672
0
ARC
8
DEFAULT_255_1_388
10
22.8676862
20
76.9062277
40
0.3738281
50
74.7009379
51
87.8124314
0
ARC
8
DEFAULT_255_1_388
10
22.8594479
20
76.7878659
40
0.4924321
50
87.3802571
51
90.0251599
0
ARC
8
DEFAULT_255_1_388
10
22.8551127
20
76.9198997
40
0.3604218
50
89.3451886
51
108.5744412
0
ARC
8
DEFAULT_255_1_388
10
22.8397119
20
76.9776836
40
0.3007661
50
109.2998307
51
143.3037387
0
ARC
8
DEFAULT_255_1_388
10
22.9254408
20
76.9117584
40
0.4089031
50
143.075267
51
163.1918576
0
ARC
8
DEFAULT_255_1_388
10
23.1450243
20
76.8424652
40
0.6391492
50
162.9375929
51
174.6208776
0
ARC
8
DEFAULT_255_1_388
10
23.4404625
20
76.8100711
40
0.9363344
50
174.342123
51
180.1430283
0
ARC
8
DEFAULT_255_1_388
10
23.3357166
20
76.6757117
40
0.8315986
50
179.6817261
51
189.150555
0
ARC
8
DEFAULT_255_1_388
10
23.0543915
20
76.6288559
40
0.5464044
50
188.9911061
51
203.5772363
0
ARC
8
DEFAULT_255_1_388
10
22.9329207
20
76.5784539
40
0.4149206
50
203.9075402
51
215.1312435
0
ARC
8
DEFAULT_255_1_388
10
22.8291004
20
76.4979907
40
0.2837747
50
213.9071511
51
263.8848919
0
ARC
8
DEFAULT_255_1_388
10
22.8431998
20
76.5862519
40
0.3730641
50
263.1757928
51
270.1031044
0
ARC
8
DEFAULT_255_1_388
10
22.8468077
20
76.7265511
40
0.5133712
50
269.6722503
51
279.0606936
0
ARC
8
DEFAULT_255_1_388
10
22.8768233
20
76.545115
40
0.3294739
50
278.8749101
51
293.6349581
0
ARC
8
DEFAULT_255_1_388
10
22.9128436
20
76.4605251
40
0.2375405
50
293.8553806
51
310.0518171
0
ARC
8
DEFAULT_255_1_388
10
22.9133945
20
76.4535021
40
0.2318463
50
311.0644687
51
332.0111037
0
ARC
8
DEFAULT_255_1_388
10
22.7792618
20
76.5274702
40
0.3850112
50
331.6586806
51
343.2877423
0
ARC
8
DEFAULT_255_1_388
10
22.5472084
20
76.5987806
40
0.6277712
50
343.1446576
51
351.0103568
0
ARC
8
DEFAULT_255_1_388
10
22.3839407
20
76.6287873
40
0.7937327
50
350.71248
51
351.1626997
0
LINE
8
DEFAULT_255_1_388
10
24.1621716
20
77.4058934
11
24.1919893
21
77.4058934
0
LINE
8
DEFAULT_255_1_388
10
24.1919893
20
77.4058934
11
24.1919893
21
77.2640338
0
LINE
8
DEFAULT_255_1_388
10
24.1919893
20
77.2640338
11
24.1612681
21
77.2640338
0
LINE
8
DEFAULT_255_1_388
10
23.5459407
20
76.5899747
11
23.5459407
21
76.6541278
0
LINE
8
DEFAULT_255_1_388
10
23.7140037
20
76.6324422
11
23.7140037
21
76.5709999
0
ARC
8
DEFAULT_255_1_388
10
24.1671572
20
76.7017826
40
0.562282
50
90.6001079
51
104.5146616
0
ARC
8
DEFAULT_255_1_388
10
24.1234532
20
76.86431
40
0.3939917
50
104.2855758
51
133.8630124
0
ARC
8
DEFAULT_255_1_388
10
24.1418784
20
76.8521243
40
0.4155734
50
134.5304124
51
161.6210222
0
ARC
8
DEFAULT_255_1_388
10
24.3278717
20
76.7865421
40
0.6127682
50
161.2850533
51
174.2074364
0
ARC
8
DEFAULT_255_1_388
10
24.4868283
20
76.7646437
40
0.7731446
50
173.7817938
51
174.9251711
0
ARC
8
DEFAULT_255_1_388
10
23.9742477
20
76.609127
40
0.3412588
50
95.8332067
51
138.995412
0
ARC
8
DEFAULT_255_1_388
10
23.9993757
20
76.4652695
40
0.4870358
50
89.8755506
51
97.0540979
0
ARC
8
DEFAULT_255_1_388
10
24.0047146
20
76.5592841
40
0.3930432
50
71.6407016
51
90.6240821
0
ARC
8
DEFAULT_255_1_388
10
24.021654
20
76.6216433
40
0.3285421
50
39.6368051
51
71.0190743
0
ARC
8
DEFAULT_255_1_388
10
23.9500447
20
76.5597586
40
0.4231706
50
10.6588054
51
39.9044509
0
ARC
8
DEFAULT_255_1_388
10
23.7758993
20
76.5219223
40
0.60133
50
359.6827842
51
11.1326896
0
ARC
8
DEFAULT_255_1_388
10
23.7714329
20
76.5139715
40
0.6058047
50
347.2485908
51
0.4371098
0
ARC
8
DEFAULT_255_1_388
10
23.9590114
20
76.4688379
40
0.4128987
50
318.1408565
51
347.6118497
0
ARC
8
DEFAULT_255_1_388
10
23.9955711
20
76.4387903
40
0.3656244
50
275.6342406
51
317.824739
0
ARC
8
DEFAULT_255_1_388
10
23.9707232
20
76.5849827
40
0.513655
50
269.8872513
51
276.7916069
0
ARC
8
DEFAULT_255_1_388
10
23.9645425
20
76.4696181
40
0.398323
50
246.9139443
51
270.7436787
0
ARC
8
DEFAULT_255_1_388
10
23.9652621
20
76.4536044
40
0.3839368
50
218.1665534
51
245.8780431
0
ARC
8
DEFAULT_255_1_388
10
24.0641993
20
76.5363903
40
0.5128958
50
191.4115343
51
218.6077624
0
ARC
8
DEFAULT_255_1_388
10
24.2822309
20
76.5852777
40
0.7363054
50
179.6344971
51
191.7836758
0
ARC
8
DEFAULT_255_1_388
10
24.9102183
20
76.6616495
40
1.3642984
50
171.4523743
51
180.3158856
0
ARC
8
DEFAULT_255_1_388
10
24.415791
20
76.7385895
40
0.8639311
50
157.9802296
51
171.6246761
0
ARC
8
DEFAULT_255_1_388
10
24.1667261
20
76.8379038
40
0.5958004
50
141.4299236
51
157.8541251
0
ARC
8
DEFAULT_255_1_388
10
24.0945344
20
76.8889746
40
0.5075416
50
102.871586
51
140.8564533
0
ARC
8
DEFAULT_255_1_388
10
24.1673897
20
76.6144943
40
0.7914163
50
90.377773
51
103.5868422
0
ARC
8
DEFAULT_255_1_388
10
23.9718418
20
76.5464543
40
0.2667015
50
89.8751238
51
126.2072139
0
ARC
8
DEFAULT_255_1_388
10
23.9769889
20
76.5290847
40
0.2838229
50
124.9742447
51
144.8960197
0
ARC
8
DEFAULT_255_1_388
10
23.9572134
20
76.5451981
40
0.2583845
50
145.2974778
51
160.2660922
0
ARC
8
DEFAULT_255_1_388
10
24.3028623
20
76.5674151
40
0.5888695
50
179.6512124
51
190.285571
0
ARC
8
DEFAULT_255_1_388
10
24.1123102
20
76.5314968
40
0.3949683
50
190.0944895
51
207.5099647
0
ARC
8
DEFAULT_255_1_388
10
24.0486684
20
76.5012177
40
0.3245464
50
207.9585471
51
216.325377
0
ARC
8
DEFAULT_255_1_388
10
24.0104321
20
76.4697712
40
0.2751259
50
215.7661336
51
232.5457193
0
ARC
8
DEFAULT_255_1_388
10
23.9673437
20
76.4150273
40
0.2054668
50
232.8005815
51
270.6605497
0
ARC
8
DEFAULT_255_1_388
10
23.9724861
20
76.4559853
40
0.2464268
50
269.3550767
51
288.474612
0
ARC
8
DEFAULT_255_1_388
10
23.9829368
20
76.4166721
40
0.2058436
50
289.1831976
51
322.9685307
0
ARC
8
DEFAULT_255_1_388
10
23.914147
20
76.4709279
40
0.2934408
50
322.6007085
51
346.5183319
0
ARC
8
DEFAULT_255_1_388
10
23.7839226
20
76.5041434
40
0.4278249
50
346.2584622
51
358.7739592
0
ARC
8
DEFAULT_255_1_388
10
23.6687801
20
76.5103829
40
0.5430876
50
358.3757628
51
0.0082477
0
ARC
8
DEFAULT_255_1_388
10
23.754462
20
76.5134856
40
0.4574157
50
359.6211417
51
11.28403
0
ARC
8
DEFAULT_255_1_388
10
23.8981226
20
76.5434535
40
0.3106708
50
11.0483152
51
31.8145585
0
ARC
8
DEFAULT_255_1_388
10
23.9328931
20
76.5623045
40
0.2711963
50
32.3028554
51
38.0820598
0
ARC
8
DEFAULT_255_1_388
10
23.9802164
20
76.6051717
40
0.2075566
50
36.8249851
51
85.741667
0
ARC
8
DEFAULT_255_1_388
10
23.9726577
20
76.5488065
40
0.2643487
50
85.0150021
51
90.050843
0
LINE
8
DEFAULT_255_1_388
10
21.9885367
20
85.3424898
11
21.9885367
21
84.0269
0
LINE
8
DEFAULT_255_1_388
10
21.9885367
20
84.0269
11
21.8150523
21
84.0269
0
LINE
8
DEFAULT_255_1_388
10
21.8150523
20
84.0269
11
21.8150523
21
85.3424898
0
LINE
8
DEFAULT_255_1_388
10
21.8150523
20
85.3424898
11
21.9885367
21
85.3424898
0
LINE
8
DEFAULT_255_1_388
10
23.31768
20
84.7253553
11
23.31768
21
84.6422274
0
LINE
8
DEFAULT_255_1_388
10
22.259606
20
84.6304811
11
22.259606
21
84.7253553
0
LINE
8
DEFAULT_255_1_388
10
23.1450992
20
84.6295775
11
23.1450992
21
84.7271625
0
LINE
8
DEFAULT_255_1_388
10
22.4321868
20
84.7389088
11
22.4321868
21
84.6422274
0
ARC
8
DEFAULT_255_1_388
10
22.3454538
20
84.6377726
40
0.9722364
50
350.4878118
51
0.2625322
0
ARC
8
DEFAULT_255_1_388
10
22.6034498
20
84.5933994
40
0.7104556
50
336.0277991
51
350.5787241
0
ARC
8
DEFAULT_255_1_388
10
22.7547605
20
84.5250243
40
0.544417
50
319.887443
51
336.1331163
0
ARC
8
DEFAULT_255_1_388
10
22.8225417
20
84.4707733
40
0.4576311
50
302.4806296
51
319.6144102
0
ARC
8
DEFAULT_255_1_388
10
22.8096038
20
84.4957067
40
0.4856183
50
275.8196423
51
302.1885521
0
ARC
8
DEFAULT_255_1_388
10
22.79089
20
84.6242466
40
0.6154183
50
269.9169897
51
276.339506
0
ARC
8
DEFAULT_255_1_388
10
22.78585
20
84.547068
40
0.5382553
50
252.5221437
51
270.441579
0
ARC
8
DEFAULT_255_1_388
10
22.7696751
20
84.4864046
40
0.4755426
50
237.5349961
51
252.1858334
0
ARC
8
DEFAULT_255_1_388
10
22.7797127
20
84.499212
40
0.4917393
50
209.0632754
51
237.3492577
0
ARC
8
DEFAULT_255_1_388
10
22.8776453
20
84.5607104
40
0.6072464
50
205.118533
51
209.6465345
0
ARC
8
DEFAULT_255_1_388
10
22.9672455
20
84.5987174
40
0.7045164
50
188.7216633
51
204.8239753
0
ARC
8
DEFAULT_255_1_388
10
23.191923
20
84.6365387
40
0.9323368
50
180.3722704
51
188.9253909
0
ARC
8
DEFAULT_255_1_388
10
23.1888792
20
84.7298416
40
0.929284
50
169.5253055
51
180.2766048
0
ARC
8
DEFAULT_255_1_388
10
22.9748591
20
84.7692024
40
0.7116745
50
155.8314601
51
169.5088611
0
ARC
8
DEFAULT_255_1_388
10
22.8308054
20
84.8360312
40
0.5528904
50
139.6259579
51
156.0379072
0
ARC
8
DEFAULT_255_1_388
10
22.7644588
20
84.8894143
40
0.4677708
50
122.6414784
51
139.3431662
0
ARC
8
DEFAULT_255_1_388
10
22.7757842
20
84.8687787
40
0.4912586
50
93.0224537
51
122.4556091
0
ARC
8
DEFAULT_255_1_388
10
22.7879363
20
84.7601776
40
0.6003837
50
89.9756766
51
93.6340839
0
ARC
8
DEFAULT_255_1_388
10
22.7922961
20
84.8050879
40
0.5554884
50
73.7463329
51
90.4234008
0
ARC
8
DEFAULT_255_1_388
10
22.8120434
20
84.8815772
40
0.4765353
50
57.663051
51
73.4516911
0
ARC
8
DEFAULT_255_1_388
10
22.8111472
20
84.8840108
40
0.4749629
50
29.1441355
51
57.4146687
0
ARC
8
DEFAULT_255_1_388
10
22.7059283
20
84.8183046
40
0.5988917
50
24.0985653
51
29.732054
0
ARC
8
DEFAULT_255_1_388
10
22.5896915
20
84.7701154
40
0.7246823
50
8.6654943
51
23.8241215
0
ARC
8
DEFAULT_255_1_388
10
22.3383333
20
84.7291037
40
0.9793537
50
359.7807044
51
8.8218476
0
ARC
8
DEFAULT_255_1_388
10
22.2093038
20
84.7319731
40
0.9358078
50
359.7054632
51
8.0359751
0
ARC
8
DEFAULT_255_1_388
10
22.5468089
20
84.7811252
40
0.5947474
50
7.8926278
51
20.2962188
0
ARC
8
DEFAULT_255_1_388
10
22.7298939
20
84.8486367
40
0.3996117
50
20.3231056
51
36.4990255
0
ARC
8
DEFAULT_255_1_388
10
22.8070237
20
84.9080399
40
0.3022818
50
36.1436715
51
85.6627846
0
ARC
8
DEFAULT_255_1_388
10
22.7887492
20
84.7910881
40
0.4203853
50
84.3845912
51
90.076054
0
ARC
8
DEFAULT_255_1_388
10
22.7839847
20
84.8653416
40
0.346157
50
89.3037228
51
109.9046209
0
ARC
8
DEFAULT_255_1_388
10
22.773568
20
84.9083379
40
0.3022217
50
110.8229774
51
143.917961
0
ARC
8
DEFAULT_255_1_388
10
22.8786039
20
84.8281455
40
0.434348
50
143.5289166
51
163.2980252
0
ARC
8
DEFAULT_255_1_388
10
23.0932326
20
84.7606685
40
0.659321
50
163.0418884
51
174.3139873
0
ARC
8
DEFAULT_255_1_388
10
23.3637291
20
84.7294378
40
0.9315905
50
174.050934
51
179.4174954
0
ARC
8
DEFAULT_255_1_388
10
23.3069235
20
84.6375382
40
0.8747493
50
179.6928582
51
188.7908948
0
ARC
8
DEFAULT_255_1_388
10
23.0073035
20
84.5896086
40
0.5713262
50
188.6328449
51
202.5630732
0
ARC
8
DEFAULT_255_1_388
10
22.8661872
20
84.5329142
40
0.4192612
50
202.8078931
51
216.1195888
0
ARC
8
DEFAULT_255_1_388
10
22.7751389
20
84.4596479
40
0.3025752
50
215.0755613
51
264.6379773
0
ARC
8
DEFAULT_255_1_388
10
22.7894226
20
84.5531376
40
0.3970284
50
263.8464302
51
270.0830805
0
ARC
8
DEFAULT_255_1_388
10
22.7940771
20
84.5240808
40
0.3679937
50
269.3649295
51
287.5149684
0
ARC
8
DEFAULT_255_1_388
10
22.8141212
20
84.4512714
40
0.2925408
50
288.0629019
51
323.8115617
0
ARC
8
DEFAULT_255_1_388
10
22.7161188
20
84.5243754
40
0.4148018
50
323.6546541
51
342.6591359
0
ARC
8
DEFAULT_255_1_388
10
22.4875846
20
84.598728
40
0.6551163
50
342.4092446
51
353.6451501
0
ARC
8
DEFAULT_255_1_388
10
22.1690639
20
84.6383565
40
0.9760748
50
353.4027553
51
359.4846611
0
LINE
8
DEFAULT_255_1_388
10
24.1607056
20
85.3433934
11
24.1905232
21
85.3433934
0
LINE
8
DEFAULT_255_1_388
10
24.1905232
20
85.3433934
11
24.1905232
21
85.2015338
0
LINE
8
DEFAULT_255_1_388
10
24.1905232
20
85.2015338
11
24.1598021
21
85.2015338
0
LINE
8
DEFAULT_255_1_388
10
23.5444747
20
84.5274747
11
23.5444747
21
84.5916278
0
LINE
8
DEFAULT_255_1_388
10
23.7125376
20
84.5699422
11
23.7125376
21
84.5084999
0
ARC
8
DEFAULT_255_1_388
10
24.1656912
20
84.6392826
40
0.562282
50
90.6001079
51
104.5146616
0
ARC
8
DEFAULT_255_1_388
10
24.1219872
20
84.80181
40
0.3939917
50
104.2855758
51
133.8630124
0
ARC
8
DEFAULT_255_1_388
10
24.1404124
20
84.7896243
40
0.4155734
50
134.5304124
51
161.6210222
0
ARC
8
DEFAULT_255_1_388
10
24.3264056
20
84.7240421
40
0.6127682
50
161.2850533
51
174.2074364
0
ARC
8
DEFAULT_255_1_388
10
24.4853623
20
84.7021437
40
0.7731446
50
173.7817938
51
174.9251711
0
ARC
8
DEFAULT_255_1_388
10
23.9727817
20
84.546627
40
0.3412588
50
95.8332067
51
138.995412
0
ARC
8
DEFAULT_255_1_388
10
23.9979097
20
84.4027695
40
0.4870358
50
89.8755506
51
97.0540979
0
ARC
8
DEFAULT_255_1_388
10
24.0032486
20
84.4967841
40
0.3930432
50
71.6407016
51
90.6240821
0
ARC
8
DEFAULT_255_1_388
10
24.020188
20
84.5591433
40
0.3285421
50
39.6368051
51
71.0190743
0
ARC
8
DEFAULT_255_1_388
10
23.9485787
20
84.4972586
40
0.4231706
50
10.6588054
51
39.9044509
0
ARC
8
DEFAULT_255_1_388
10
23.7744333
20
84.4594223
40
0.60133
50
359.6827842
51
11.1326896
0
ARC
8
DEFAULT_255_1_388
10
23.7699669
20
84.4514715
40
0.6058047
50
347.2485908
51
0.4371098
0
ARC
8
DEFAULT_255_1_388
10
23.9575454
20
84.4063379
40
0.4128987
50
318.1408565
51
347.6118497
0
ARC
8
DEFAULT_255_1_388
10
23.9941051
20
84.3762903
40
0.3656244
50
275.6342406
51
317.824739
0
ARC
8
DEFAULT_255_1_388
10
23.9692572
20
84.5224827
40
0.513655
50
269.8872513
51
276.7916069
0
ARC
8
DEFAULT_255_1_388
10
23.9630764
20
84.4071181
40
0.398323
50
246.9139443
51
270.7436787
0
ARC
8
DEFAULT_255_1_388
10
23.963796
20
84.3911044
40
0.3839368
50
218.1665534
51
245.8780431
0
ARC
8
DEFAULT_255_1_388
10
24.0627332
20
84.4738903
40
0.5128958
50
191.4115343
51
218.6077624
0
ARC
8
DEFAULT_255_1_388
10
24.2807649
20
84.5227777
40
0.7363054
50
179.6344971
51
191.7836758
0
ARC
8
DEFAULT_255_1_388
10
24.9087523
20
84.5991495
40
1.3642984
50
171.4523743
51
180.3158856
0
ARC
8
DEFAULT_255_1_388
10
24.414325
20
84.6760895
40
0.8639311
50
157.9802296
51
171.6246761
0
ARC
8
DEFAULT_255_1_388
10
24.1652601
20
84.7754038
40
0.5958004
50
141.4299236
51
157.8541251
0
ARC
8
DEFAULT_255_1_388
10
24.0930684
20
84.8264746
40
0.5075416
50
102.871586
51
140.8564533
0
ARC
8
DEFAULT_255_1_388
10
24.1659237
20
84.5519943
40
0.7914163
50
90.377773
51
103.5868422
0
ARC
8
DEFAULT_255_1_388
10
23.9703758
20
84.4839543
40
0.2667015
50
89.8751238
51
126.2072139
0
ARC
8
DEFAULT_255_1_388
10
23.9755229
20
84.4665847
40
0.2838229
50
124.9742447
51
144.8960197
0
ARC
8
DEFAULT_255_1_388
10
23.9557474
20
84.4826981
40
0.2583845
50
145.2974778
51
160.2660922
0
ARC
8
DEFAULT_255_1_388
10
24.3013962
20
84.5049151
40
0.5888695
50
179.6512124
51
190.285571
0
ARC
8
DEFAULT_255_1_388
10
24.1108442
20
84.4689968
40
0.3949683
50
190.0944895
51
207.5099647
0
ARC
8
DEFAULT_255_1_388
10
24.0472024
20
84.4387177
40
0.3245464
50
207.9585471
51
216.325377
0
ARC
8
DEFAULT_255_1_388
10
24.0089661
20
84.4072712
40
0.2751259
50
215.7661336
51
232.5457193
0
ARC
8
DEFAULT_255_1_388
10
23.9658777
20
84.3525273
40
0.2054668
50
232.8005815
51
270.6605497
0
ARC
8
DEFAULT_255_1_388
10
23.9710201
20
84.3934853
40
0.2464268
50
269.3550767
51
288.474612
0
ARC
8
DEFAULT_255_1_388
10
23.9814708
20
84.3541721
40
0.2058436
50
289.1831976
51
322.9685307
0
ARC
8
DEFAULT_255_1_388
10
23.912681
20
84.4084279
40
0.2934408
50
322.6007085
51
346.5183319
0
ARC
8
DEFAULT_255_1_388
10
23.7824566
20
84.4416434
40
0.4278249
50
346.2584622
51
358.7739592
0
ARC
8
DEFAULT_255_1_388
10
23.6673141
20
84.4478829
40
0.5430876
50
358.3757628
51
0.0082477
0
ARC
8
DEFAULT_255_1_388
10
23.752996
20
84.4509856
40
0.4574157
50
359.6211417
51
11.28403
0
ARC
8
DEFAULT_255_1_388
10
23.8966566
20
84.4809535
40
0.3106708
50
11.0483152
51
31.8145585
0
ARC
8
DEFAULT_255_1_388
10
23.9314271
20
84.4998045
40
0.2711963
50
32.3028554
51
38.0820598
0
ARC
8
DEFAULT_255_1_388
10
23.9787504
20
84.5426717
40
0.2075566
50
36.8249851
51
85.741667
0
ARC
8
DEFAULT_255_1_388
10
23.9711917
20
84.4863065
40
0.2643487
50
85.0150021
51
90.050843
0
LINE
8
DEFAULT_255_1_388
10
21.7506342
20
92.6194842
11
21.7506342
21
92.1369808
0
LINE
8
DEFAULT_255_1_388
10
20.7368349
20
92.5589454
11
20.7368349
21
92.6736981
0
LINE
8
DEFAULT_255_1_388
10
21.7506342
20
92.8941678
11
21.5771498
21
92.8941678
0
LINE
8
DEFAULT_255_1_388
10
20.9112228
20
92.6782159
11
20.9112228
21
92.5706917
0
LINE
8
DEFAULT_255_1_388
10
21.5780534
20
92.1830626
11
21.5780534
21
92.4785282
0
LINE
8
DEFAULT_255_1_388
10
21.5780534
20
92.4785282
11
21.2735521
21
92.4785282
0
LINE
8
DEFAULT_255_1_388
10
21.2735521
20
92.4785282
11
21.2735521
21
92.6194842
0
LINE
8
DEFAULT_255_1_388
10
21.2735521
20
92.6194842
11
21.7506342
21
92.6194842
0
ARC
8
DEFAULT_255_1_388
10
21.4320942
20
92.3612284
40
0.3895571
50
295.8437277
51
324.8549962
0
ARC
8
DEFAULT_255_1_388
10
21.3853325
20
92.4458619
40
0.4861381
50
291.5691164
51
296.4556269
0
ARC
8
DEFAULT_255_1_388
10
21.3278327
20
92.5994801
40
0.6501442
50
278.6622213
51
291.3047061
0
ARC
8
DEFAULT_255_1_388
10
21.2896359
20
92.8411557
40
0.8948168
50
270.0200506
51
278.7494673
0
ARC
8
DEFAULT_255_1_388
10
21.2852563
20
93.0257453
40
1.0794166
50
270.0022372
51
270.2490917
0
ARC
8
DEFAULT_255_1_388
10
21.2810456
20
92.5298827
40
0.5835695
50
253.5785313
51
270.4175629
0
ARC
8
DEFAULT_255_1_388
10
21.2615452
20
92.4543625
40
0.5056241
50
238.8203954
51
253.2788387
0
ARC
8
DEFAULT_255_1_388
10
21.2593367
20
92.4486224
40
0.4995712
50
206.7883476
51
238.696262
0
ARC
8
DEFAULT_255_1_388
10
21.3468763
20
92.5010847
40
0.6014056
50
206.1137778
51
207.4912776
0
ARC
8
DEFAULT_255_1_388
10
21.4135599
20
92.5294284
40
0.6737692
50
188.6922336
51
205.782076
0
ARC
8
DEFAULT_255_1_388
10
21.6223958
20
92.5649455
40
0.8855812
50
180.3881972
51
188.9218085
0
ARC
8
DEFAULT_255_1_388
10
21.7605116
20
92.6800622
40
1.0236965
50
170.2024645
51
180.3561986
0
ARC
8
DEFAULT_255_1_388
10
21.4046266
20
92.7437101
40
0.6621746
50
154.2856519
51
170.3893388
0
ARC
8
DEFAULT_255_1_388
10
21.260423
20
92.8097192
40
0.5036209
50
139.8400879
51
153.9334639
0
ARC
8
DEFAULT_255_1_388
10
21.2200133
20
92.8420716
40
0.4518751
50
98.4190017
51
139.6707015
0
ARC
8
DEFAULT_255_1_388
10
21.2627101
20
92.6344755
40
0.6635912
50
89.7660128
51
99.4415389
0
ARC
8
DEFAULT_255_1_388
10
21.2700497
20
92.6418517
40
0.6562258
50
78.0552044
51
90.4042252
0
ARC
8
DEFAULT_255_1_388
10
21.3155561
20
92.8464661
40
0.4466287
50
54.6380186
51
78.3338577
0
ARC
8
DEFAULT_255_1_388
10
21.3369859
20
92.8825444
40
0.4048184
50
50.0313964
51
54.1562739
0
ARC
8
DEFAULT_255_1_388
10
21.3248753
20
92.8716798
40
0.4209308
50
18.1092229
51
49.7179911
0
ARC
8
DEFAULT_255_1_388
10
21.1609833
20
92.8116399
40
0.5953982
50
7.967396
51
18.698492
0
ARC
8
DEFAULT_255_1_388
10
21.1779094
20
92.8255236
40
0.4050986
50
9.7558763
51
27.3214087
0
ARC
8
DEFAULT_255_1_388
10
21.3047559
20
92.8889087
40
0.2633168
50
27.736147
51
84.5257861
0
ARC
8
DEFAULT_255_1_388
10
21.2678968
20
92.7039988
40
0.4513019
50
82.1064239
51
90.1997295
0
ARC
8
DEFAULT_255_1_388
10
21.2622985
20
92.7611501
40
0.3941684
50
89.4148952
51
105.5824837
0
ARC
8
DEFAULT_255_1_388
10
21.2333865
20
92.8664043
40
0.2850167
50
105.6678541
51
144.2649156
0
ARC
8
DEFAULT_255_1_388
10
21.3338758
20
92.7949024
40
0.4083468
50
144.3560675
51
162.8564185
0
ARC
8
DEFAULT_255_1_388
10
21.56832
20
92.7196083
40
0.6545749
50
162.6076338
51
173.6779811
0
ARC
8
DEFAULT_255_1_388
10
21.9127315
20
92.6777422
40
1.0015089
50
173.4670996
51
179.9729015
0
ARC
8
DEFAULT_255_1_388
10
21.6980186
20
92.5659636
40
0.78681
50
179.6556955
51
190.007958
0
ARC
8
DEFAULT_255_1_388
10
21.4374468
20
92.518166
40
0.5218997
50
189.8117884
51
206.6795375
0
ARC
8
DEFAULT_255_1_388
10
21.3423914
20
92.4738514
40
0.4170788
50
207.1031171
51
217.7074698
0
ARC
8
DEFAULT_255_1_388
10
21.2710344
20
92.4117596
40
0.3226945
50
216.7345117
51
265.6812141
0
ARC
8
DEFAULT_255_1_388
10
21.2857486
20
92.513503
40
0.4253149
50
264.7367524
51
270.0610826
0
ARC
8
DEFAULT_255_1_388
10
21.2883672
20
92.8330173
40
0.7448321
50
269.8334494
51
276.0538364
0
ARC
8
DEFAULT_255_1_388
10
21.3116534
20
92.6190924
40
0.5296446
50
275.9894423
51
284.4615914
0
ARC
8
DEFAULT_255_1_388
10
21.3338047
20
92.525857
40
0.4338353
50
284.7038488
51
286.4938196
0
ARC
8
DEFAULT_255_1_388
10
21.3797196
20
92.3779371
40
0.2789738
50
286.0770429
51
304.2629628
0
ARC
8
DEFAULT_255_1_388
10
21.3947354
20
92.353368
40
0.2502188
50
304.5886247
51
317.1074126
0
LINE
8
DEFAULT_255_1_388
10
23.0508634
20
93.2799898
11
23.0508634
21
91.9644
0
LINE
8
DEFAULT_255_1_388
10
23.0508634
20
91.9644
11
22.8764755
21
91.9644
0
LINE
8
DEFAULT_255_1_388
10
22.8764755
20
91.9644
11
22.2141627
21
92.9781993
0
LINE
8
DEFAULT_255_1_388
10
22.2141627
20
92.9781993
11
22.2141627
21
91.9644
0
LINE
8
DEFAULT_255_1_388
10
22.2141627
20
91.9644
11
22.0397748
21
91.9644
0
LINE
8
DEFAULT_255_1_388
10
22.0397748
20
91.9644
11
22.0397748
21
93.2799898
0
LINE
8
DEFAULT_255_1_388
10
22.0397748
20
93.2799898
11
22.2141627
21
93.2799898
0
LINE
8
DEFAULT_255_1_388
10
22.2141627
20
93.2799898
11
22.8782826
21
92.2616727
0
LINE
8
DEFAULT_255_1_388
10
22.8782826
20
92.2616727
11
22.8782826
21
93.2799898
0
LINE
8
DEFAULT_255_1_388
10
22.8782826
20
93.2799898
11
23.0508634
21
93.2799898
0
LINE
8
DEFAULT_255_1_388
10
23.7231154
20
91.9644
11
23.3589789
21
91.9644
0
LINE
8
DEFAULT_255_1_388
10
23.3589789
20
91.9644
11
23.3589789
21
93.2799898
0
LINE
8
DEFAULT_255_1_388
10
23.3589789
20
93.2799898
11
23.7303439
21
93.2799898
0
LINE
8
DEFAULT_255_1_388
10
24.3104323
20
92.6664696
11
24.3104323
21
92.5824381
0
LINE
8
DEFAULT_255_1_388
10
23.7348617
20
93.1372267
11
23.5324633
21
93.1372267
0
LINE
8
DEFAULT_255_1_388
10
23.5324633
20
93.1372267
11
23.5324633
21
92.1062596
0
LINE
8
DEFAULT_255_1_388
10
23.5324633
20
92.1062596
11
23.7149833
21
92.1062596
0
LINE
8
DEFAULT_255_1_388
10
24.138755
20
92.5860523
11
24.138755
21
92.6628553
0
ARC
8
DEFAULT_255_1_388
10
23.7347234
20
92.6201436
40
0.6598608
50
75.4100343
51
90.3802731
0
ARC
8
DEFAULT_255_1_388
10
23.7605479
20
92.7277691
40
0.5492049
50
60.1455157
51
75.1889627
0
ARC
8
DEFAULT_255_1_388
10
23.7784071
20
92.7588914
40
0.5133226
50
26.525419
51
60.1451222
0
ARC
8
DEFAULT_255_1_388
10
23.6523857
20
92.6920642
40
0.6559324
50
7.4029944
51
26.832209
0
ARC
8
DEFAULT_255_1_388
10
23.4730254
20
92.6641229
40
0.8374103
50
0.1605597
51
7.7176135
0
ARC
8
DEFAULT_255_1_388
10
23.4914654
20
92.5781321
40
0.8189782
50
348.7289744
51
0.30125
0
ARC
8
DEFAULT_255_1_388
10
23.6778118
20
92.5411156
40
0.628991
50
333.0706936
51
348.7181455
0
ARC
8
DEFAULT_255_1_388
10
23.7865747
20
92.4820449
40
0.5052808
50
299.2531435
51
333.4571133
0
ARC
8
DEFAULT_255_1_388
10
23.7459777
20
92.5591629
40
0.5924066
50
278.1072193
51
299.0340218
0
ARC
8
DEFAULT_255_1_388
10
23.7171826
20
92.7287979
40
0.7644209
50
270.4446841
51
278.4508355
0
ARC
8
DEFAULT_255_1_388
10
23.719531
20
92.62423
40
0.5179903
50
269.4969684
51
284.0204874
0
ARC
8
DEFAULT_255_1_388
10
23.7595028
20
92.4706415
40
0.3592968
50
283.7699076
51
318.1557121
0
ARC
8
DEFAULT_255_1_388
10
23.7215573
20
92.4990399
40
0.4065308
50
318.7417595
51
343.687252
0
ARC
8
DEFAULT_255_1_388
10
23.5186152
20
92.5624275
40
0.6191194
50
343.3324891
51
355.8548594
0
ARC
8
DEFAULT_255_1_388
10
23.282519
20
92.5848719
40
0.856237
50
355.4988754
51
0.0789913
0
ARC
8
DEFAULT_255_1_388
10
23.3705989
20
92.667608
40
0.7681709
50
359.6455047
51
9.8607559
0
ARC
8
DEFAULT_255_1_388
10
23.6361712
20
92.7155664
40
0.498312
50
9.6573037
51
26.1931522
0
ARC
8
DEFAULT_255_1_388
10
23.7405787
20
92.7640587
40
0.3832303
50
26.5777895
51
40.1533752
0
ARC
8
DEFAULT_255_1_388
10
23.7693452
20
92.786502
40
0.3467742
50
40.3839958
51
80.1430923
0
ARC
8
DEFAULT_255_1_388
10
23.7325708
20
92.6234486
40
0.5137832
50
79.2153636
51
89.7445174
0
ENDSEC
0
EOF