0
SECTION
2
HEADER
9
$MEASUREMENT
70
1
0
ENDSEC
0
SECTION
2
TABLES
0
TABLE
2
LTYPE
0
LTYPE
72
65
70
64
2
CONTINUOUS
3
______
73
0
40
0
0
ENDTAB
0
TABLE
2
LAYER
0
LAYER
2
DEFAULT_255_2_778
70
0
62
255
6
CONTINUOUS
0
LAYER
2
DEFAULT_255_1_234
70
0
62
255
6
CONTINUOUS
0
ENDTAB
0
ENDSEC
0
SECTION
2
ENTITIES
0
ARC
8
DEFAULT_255_2_778
10
3.5700693
20
171.0552017
40
0.7914215
50
129.1312896
51
180.1450914
0
ARC
8
DEFAULT_255_2_778
10
3.5703345
20
171.0556888
40
0.7912112
50
89.854026
51
129.1684493
0
ARC
8
DEFAULT_255_2_778
10
25.7993937
20
171.0553754
40
0.7915249
50
39.4792447
51
90.147911
0
ARC
8
DEFAULT_255_2_778
10
25.7999935
20
171.055222
40
0.7911595
50
359.8533901
51
39.5154338
0
ARC
8
DEFAULT_255_2_778
10
25.7996693
20
-1.9863506
40
0.7914836
50
309.4761667
51
0.1482649
0
ARC
8
DEFAULT_255_2_778
10
25.799398
20
-1.9867816
40
0.7913235
50
269.8517415
51
309.511178
0
ARC
8
DEFAULT_255_2_778
10
3.570342
20
-1.9867235
40
0.7913815
50
219.1282118
51
270.1454017
0
ARC
8
DEFAULT_255_2_778
10
3.5700247
20
-1.986341
40
0.7913769
50
179.8524075
51
219.1641908
0
LINE
8
DEFAULT_255_2_778
10
3.5723503
20
171.8468976
11
25.7973503
21
171.8468976
0
LINE
8
DEFAULT_255_2_778
10
26.5911503
20
171.0531976
11
26.5911503
21
-1.9843024
0
LINE
8
DEFAULT_255_2_778
10
25.7973503
20
-2.7781024
11
3.5723503
21
-2.7781024
0
LINE
8
DEFAULT_255_2_778
10
2.7786503
20
-1.9843024
11
2.7786503
21
171.0531976
0
LINE
8
DEFAULT_255_1_234
10
11.2345484
20
0.0153343
11
11.2345484
21
-0.110764
0
LINE
8
DEFAULT_255_1_234
10
11.2345484
20
-0.110764
11
10.7277458
21
-0.110764
0
LINE
8
DEFAULT_255_1_234
10
10.7277458
20
-0.110764
11
10.7277458
21
-0.5252017
0
LINE
8
DEFAULT_255_1_234
10
10.7277458
20
-0.5252017
11
11.3164722
21
-0.5252017
0
LINE
8
DEFAULT_255_1_234
10
11.3164722
20
-0.5252017
11
11.3164722
21
-0.6513
0
LINE
8
DEFAULT_255_1_234
10
11.3164722
20
-0.6513
11
10.5735364
21
-0.6513
0
LINE
8
DEFAULT_255_1_234
10
10.5735364
20
-0.6513
11
10.5735364
21
0.5181211
0
LINE
8
DEFAULT_255_1_234
10
10.5735364
20
0.5181211
11
11.3084404
21
0.5181211
0
LINE
8
DEFAULT_255_1_234
10
11.3084404
20
0.5181211
11
11.3084404
21
0.3912196
0
LINE
8
DEFAULT_255_1_234
10
11.3084404
20
0.3912196
11
10.7277458
21
0.3912196
0
LINE
8
DEFAULT_255_1_234
10
10.7277458
20
0.3912196
11
10.7277458
21
0.0153343
0
LINE
8
DEFAULT_255_1_234
10
10.7277458
20
0.0153343
11
11.2345484
21
0.0153343
0
LINE
8
DEFAULT_255_1_234
10
12.4071822
20
0.5181211
11
12.4071822
21
-0.6513
0
LINE
8
DEFAULT_255_1_234
10
12.4071822
20
-0.6513
11
12.2521697
21
-0.6513
0
LINE
8
DEFAULT_255_1_234
10
12.2521697
20
-0.6513
11
12.2521697
21
-0.110764
0
LINE
8
DEFAULT_255_1_234
10
12.2521697
20
-0.110764
11
11.6626401
21
-0.110764
0
LINE
8
DEFAULT_255_1_234
10
11.6626401
20
-0.110764
11
11.6626401
21
-0.6513
0
LINE
8
DEFAULT_255_1_234
10
11.6626401
20
-0.6513
11
11.5084307
21
-0.6513
0
LINE
8
DEFAULT_255_1_234
10
11.5084307
20
-0.6513
11
11.5084307
21
0.5181211
0
LINE
8
DEFAULT_255_1_234
10
11.5084307
20
0.5181211
11
11.6626401
21
0.5181211
0
LINE
8
DEFAULT_255_1_234
10
11.6626401
20
0.5181211
11
11.6626401
21
0.0153343
0
LINE
8
DEFAULT_255_1_234
10
11.6626401
20
0.0153343
11
12.2521697
21
0.0153343
0
LINE
8
DEFAULT_255_1_234
10
12.2521697
20
0.0153343
11
12.2521697
21
0.5181211
0
LINE
8
DEFAULT_255_1_234
10
12.2521697
20
0.5181211
11
12.4071822
21
0.5181211
0
LINE
8
DEFAULT_255_1_234
10
12.9669944
20
-0.0938974
11
12.9669944
21
-0.2151766
0
LINE
8
DEFAULT_255_1_234
10
12.9669944
20
-0.2151766
11
12.5750456
21
-0.2151766
0
LINE
8
DEFAULT_255_1_234
10
12.5750456
20
-0.2151766
11
12.5750456
21
-0.0938974
0
LINE
8
DEFAULT_255_1_234
10
12.5750456
20
-0.0938974
11
12.9669944
21
-0.0938974
0
LINE
8
DEFAULT_255_1_234
10
13.4585368
20
-0.6513
11
13.1348577
21
-0.6513
0
LINE
8
DEFAULT_255_1_234
10
13.1348577
20
-0.6513
11
13.1348577
21
0.5181211
0
LINE
8
DEFAULT_255_1_234
10
13.1348577
20
0.5181211
11
13.4649622
21
0.5181211
0
LINE
8
DEFAULT_255_1_234
10
13.9805998
20
-0.0272339
11
13.9805998
21
-0.1019291
0
LINE
8
DEFAULT_255_1_234
10
13.468978
20
0.3912196
11
13.2890671
21
0.3912196
0
LINE
8
DEFAULT_255_1_234
10
13.2890671
20
0.3912196
11
13.2890671
21
-0.5252017
0
LINE
8
DEFAULT_255_1_234
10
13.2890671
20
-0.5252017
11
13.4513082
21
-0.5252017
0
LINE
8
DEFAULT_255_1_234
10
13.8279967
20
-0.0987164
11
13.8279967
21
-0.0304466
0
ARC
8
DEFAULT_255_1_234
10
13.4688564
20
-0.0684106
40
0.5865446
50
75.4101064
51
90.3804066
0
ARC
8
DEFAULT_255_1_234
10
13.4918078
20
0.0272492
40
0.4881916
50
60.145586
51
75.1888407
0
ARC
8
DEFAULT_255_1_234
10
13.5076853
20
0.0549199
40
0.4562893
50
26.5253612
51
60.1450928
0
ARC
8
DEFAULT_255_1_234
10
13.3956602
20
-0.0044842
40
0.5830602
50
7.4030428
51
26.8320788
0
ARC
8
DEFAULT_255_1_234
10
13.2362359
20
-0.0293196
40
0.7443669
50
0.1605367
51
7.7176192
0
ARC
8
DEFAULT_255_1_234
10
13.2526264
20
-0.1057566
40
0.7279835
50
348.7289388
51
0.3012466
0
ARC
8
DEFAULT_255_1_234
10
13.4182694
20
-0.1386614
40
0.559104
50
333.0706509
51
348.7181832
0
ARC
8
DEFAULT_255_1_234
10
13.5149452
20
-0.1911681
40
0.4491417
50
299.2531685
51
333.4571258
0
ARC
8
DEFAULT_255_1_234
10
13.4788591
20
-0.1226172
40
0.5265881
50
278.107187
51
299.0339503
0
ARC
8
DEFAULT_255_1_234
10
13.453267
20
0.0281216
40
0.679442
50
270.4443897
51
278.4511052
0
ARC
8
DEFAULT_255_1_234
10
13.45535
20
-0.0647787
40
0.4604407
50
269.4970433
51
284.0205042
0
ARC
8
DEFAULT_255_1_234
10
13.4908801
20
-0.2013022
40
0.3193797
50
283.7700273
51
318.1555492
0
ARC
8
DEFAULT_255_1_234
10
13.4571559
20
-0.1760633
40
0.3613588
50
318.7415601
51
343.6873628
0
ARC
8
DEFAULT_255_1_234
10
13.2767583
20
-0.1197168
40
0.5503313
50
343.3325091
51
355.8548958
0
ARC
8
DEFAULT_255_1_234
10
13.0669267
20
-0.0997681
40
0.7610708
50
355.4988528
51
0.0791727
0
ARC
8
DEFAULT_255_1_234
10
13.145189
20
-0.026222
40
0.6828208
50
359.6455037
51
9.8607896
0
ARC
8
DEFAULT_255_1_234
10
13.3812587
20
0.0164099
40
0.4429406
50
9.6571907
51
26.1932807
0
ARC
8
DEFAULT_255_1_234
10
13.4740576
20
0.0595118
40
0.3406537
50
26.5777228
51
40.1532208
0
ARC
8
DEFAULT_255_1_234
10
13.4996303
20
0.0794619
40
0.308246
50
40.3840491
51
80.1431104
0
ARC
8
DEFAULT_255_1_234
10
13.466942
20
-0.0654667
40
0.4566909
50
79.2152159
51
89.7445637
0
LINE
8
DEFAULT_255_1_234
10
14.6632975
20
0.5237433
11
14.6632975
21
-0.6513
0
LINE
8
DEFAULT_255_1_234
10
14.6632975
20
-0.6513
11
14.5139072
21
-0.6513
0
LINE
8
DEFAULT_255_1_234
10
14.5139072
20
-0.6513
11
14.5139072
21
0.3390133
0
LINE
8
DEFAULT_255_1_234
10
14.5139072
20
0.3390133
11
14.2143233
21
0.2289785
0
LINE
8
DEFAULT_255_1_234
10
14.2143233
20
0.2289785
11
14.2143233
21
0.3639117
0
LINE
8
DEFAULT_255_1_234
10
14.2143233
20
0.3639117
11
14.6400055
21
0.5237433
0
LINE
8
DEFAULT_255_1_234
10
14.6400055
20
0.5237433
11
14.6632975
21
0.5237433
0
LINE
8
DEFAULT_255_1_234
10
15.6552172
20
0.5189243
11
15.6817219
21
0.5189243
0
LINE
8
DEFAULT_255_1_234
10
15.6817219
20
0.5189243
11
15.6817219
21
0.392826
0
LINE
8
DEFAULT_255_1_234
10
15.6817219
20
0.392826
11
15.654414
21
0.392826
0
LINE
8
DEFAULT_255_1_234
10
15.1074526
20
-0.2063417
11
15.1074526
21
-0.1493164
0
LINE
8
DEFAULT_255_1_234
10
15.256843
20
-0.1685925
11
15.256843
21
-0.2232083
0
ARC
8
DEFAULT_255_1_234
10
15.6596488
20
-0.1069545
40
0.4998079
50
90.6001036
51
104.514704
0
ARC
8
DEFAULT_255_1_234
10
15.6208003
20
0.0375131
40
0.3502176
50
104.2855254
51
133.862935
0
ARC
8
DEFAULT_255_1_234
10
15.6371761
20
0.026683
40
0.3693984
50
134.5302688
51
161.6210873
0
ARC
8
DEFAULT_255_1_234
10
15.8024949
20
-0.0316105
40
0.5446739
50
161.2849839
51
174.2076652
0
ARC
8
DEFAULT_255_1_234
10
15.9431887
20
-0.0510213
40
0.6866274
50
173.7810589
51
174.9254635
0
ARC
8
DEFAULT_255_1_234
10
15.4881719
20
-0.1893161
40
0.3033419
50
95.8330959
51
138.9954921
0
ARC
8
DEFAULT_255_1_234
10
15.5105075
20
-0.3171625
40
0.4328947
50
89.8753725
51
97.0544009
0
ARC
8
DEFAULT_255_1_234
10
15.5152541
20
-0.2336252
40
0.3493769
50
71.6407809
51
90.6240094
0
ARC
8
DEFAULT_255_1_234
10
15.5303114
20
-0.1781918
40
0.2920396
50
39.6367836
51
71.019018
0
ARC
8
DEFAULT_255_1_234
10
15.4666587
20
-0.2332002
40
0.3761538
50
10.658731
51
39.9043955
0
ARC
8
DEFAULT_255_1_234
10
15.311867
20
-0.2668314
40
0.5345136
50
359.682601
51
11.132623
0
ARC
8
DEFAULT_255_1_234
10
15.3078801
20
-0.273899
40
0.5385081
50
347.2486944
51
0.4369317
0
ARC
8
DEFAULT_255_1_234
10
15.4746278
20
-0.3140193
40
0.3670249
50
318.1409698
51
347.6118597
0
ARC
8
DEFAULT_255_1_234
10
15.5071271
20
-0.3407298
40
0.3250007
50
275.6342139
51
317.8248465
0
ARC
8
DEFAULT_255_1_234
10
15.4850382
20
-0.2107781
40
0.4565864
50
269.8874292
51
276.7917694
0
ARC
8
DEFAULT_255_1_234
10
15.4795453
20
-0.3133257
40
0.3540676
50
246.9140195
51
270.7437342
0
ARC
8
DEFAULT_255_1_234
10
15.4801843
20
-0.3275616
40
0.3412781
50
218.1665114
51
245.878116
0
ARC
8
DEFAULT_255_1_234
10
15.5681304
20
-0.2539721
40
0.455911
50
191.4115814
51
218.6077802
0
ARC
8
DEFAULT_255_1_234
10
15.7619393
20
-0.2105167
40
0.6545001
50
179.6345085
51
191.7836486
0
ARC
8
DEFAULT_255_1_234
10
16.320173
20
-0.1426303
40
1.2127388
50
171.4525249
51
180.3158839
0
ARC
8
DEFAULT_255_1_234
10
15.8806605
20
-0.0742392
40
0.7679464
50
157.9802646
51
171.6246686
0
ARC
8
DEFAULT_255_1_234
10
15.6592626
20
0.0140421
40
0.5296008
50
141.4298019
51
157.854097
0
ARC
8
DEFAULT_255_1_234
10
15.5950947
20
0.0594381
40
0.4511509
50
102.8715806
51
140.8564722
0
ARC
8
DEFAULT_255_1_234
10
15.6598563
20
-0.1845448
40
0.7034845
50
90.3778349
51
103.5869322
0
ARC
8
DEFAULT_255_1_234
10
15.4860339
20
-0.245027
40
0.2370698
50
89.8751008
51
126.2071704
0
ARC
8
DEFAULT_255_1_234
10
15.4906129
20
-0.2604697
40
0.2522934
50
124.9745049
51
144.895901
0
ARC
8
DEFAULT_255_1_234
10
15.4730319
20
-0.246144
40
0.2296779
50
145.2974905
51
160.2660252
0
ARC
8
DEFAULT_255_1_234
10
15.7802858
20
-0.2263929
40
0.5234525
50
179.6514266
51
190.2855912
0
ARC
8
DEFAULT_255_1_234
10
15.6108995
20
-0.2583214
40
0.3510893
50
190.0945431
51
207.5098196
0
ARC
8
DEFAULT_255_1_234
10
15.5543265
20
-0.2852377
40
0.288489
50
207.9583163
51
216.3251085
0
ARC
8
DEFAULT_255_1_234
10
15.5203373
20
-0.3131895
40
0.2445587
50
215.7661442
51
232.5456785
0
ARC
8
DEFAULT_255_1_234
10
15.4820356
20
-0.3618518
40
0.1826382
50
232.8005391
51
270.6605633
0
ARC
8
DEFAULT_255_1_234
10
15.4866057
20
-0.3254388
40
0.2190529
50
269.35537
51
288.4744281
0
ARC
8
DEFAULT_255_1_234
10
15.4958954
20
-0.3603882
40
0.1829749
50
289.1833337
51
322.9683818
0
ARC
8
DEFAULT_255_1_234
10
15.4347476
20
-0.3121609
40
0.2608399
50
322.6007884
51
346.5182367
0
ARC
8
DEFAULT_255_1_234
10
15.3190072
20
-0.2826384
40
0.3802777
50
346.2582162
51
358.7741648
0
ARC
8
DEFAULT_255_1_234
10
15.2171741
20
-0.2771035
40
0.4822176
50
358.3755224
51
0.0098023
0
ARC
8
DEFAULT_255_1_234
10
15.2927928
20
-0.2743343
40
0.4066078
50
359.6214041
51
11.2839074
0
ARC
8
DEFAULT_255_1_234
10
15.4205075
20
-0.2476934
40
0.2761514
50
11.0482309
51
31.8146458
0
ARC
8
DEFAULT_255_1_234
10
15.4514118
20
-0.2309416
40
0.2410679
50
32.3035391
51
38.082671
0
ARC
8
DEFAULT_255_1_234
10
15.4934778
20
-0.1928338
40
0.1844966
50
36.825067
51
85.7415724
0
ARC
8
DEFAULT_255_1_234
10
15.4867611
20
-0.2428699
40
0.2349122
50
85.0140713
51
90.0513278
0
LINE
8
DEFAULT_255_1_234
10
16.721832
20
0.0153343
11
16.721832
21
-0.110764
0
LINE
8
DEFAULT_255_1_234
10
16.721832
20
-0.110764
11
16.2150293
21
-0.110764
0
LINE
8
DEFAULT_255_1_234
10
16.2150293
20
-0.110764
11
16.2150293
21
-0.5252017
0
LINE
8
DEFAULT_255_1_234
10
16.2150293
20
-0.5252017
11
16.8037558
21
-0.5252017
0
LINE
8
DEFAULT_255_1_234
10
16.8037558
20
-0.5252017
11
16.8037558
21
-0.6513
0
LINE
8
DEFAULT_255_1_234
10
16.8037558
20
-0.6513
11
16.06082
21
-0.6513
0
LINE
8
DEFAULT_255_1_234
10
16.06082
20
-0.6513
11
16.06082
21
0.5181211
0
LINE
8
DEFAULT_255_1_234
10
16.06082
20
0.5181211
11
16.795724
21
0.5181211
0
LINE
8
DEFAULT_255_1_234
10
16.795724
20
0.5181211
11
16.795724
21
0.3912196
0
LINE
8
DEFAULT_255_1_234
10
16.795724
20
0.3912196
11
16.2150293
21
0.3912196
0
LINE
8
DEFAULT_255_1_234
10
16.2150293
20
0.3912196
11
16.2150293
21
0.0153343
0
LINE
8
DEFAULT_255_1_234
10
16.2150293
20
0.0153343
11
16.721832
21
0.0153343
0
LINE
8
DEFAULT_255_1_234
10
17.6784121
20
-0.6513
11
17.4246091
21
-0.1782306
0
LINE
8
DEFAULT_255_1_234
10
17.4246091
20
-0.1782306
11
17.1499237
21
-0.1782306
0
LINE
8
DEFAULT_255_1_234
10
17.1499237
20
-0.1782306
11
17.1499237
21
-0.6513
0
LINE
8
DEFAULT_255_1_234
10
17.1499237
20
-0.6513
11
16.9949111
21
-0.6513
0
LINE
8
DEFAULT_255_1_234
10
16.9949111
20
-0.6513
11
16.9949111
21
0.5181211
0
LINE
8
DEFAULT_255_1_234
10
16.9949111
20
0.5181211
11
17.3820409
21
0.5181211
0
LINE
8
DEFAULT_255_1_234
10
17.5691804
20
-0.1453005
11
17.8438659
21
-0.6416619
0
LINE
8
DEFAULT_255_1_234
10
17.8438659
20
-0.6416619
11
17.8438659
21
-0.6513
0
LINE
8
DEFAULT_255_1_234
10
17.8438659
20
-0.6513
11
17.6784121
21
-0.6513
0
LINE
8
DEFAULT_255_1_234
10
17.1499237
20
0.3912196
11
17.1499237
21
-0.0521323
0
LINE
8
DEFAULT_255_1_234
10
17.1499237
20
-0.0521323
11
17.38686
21
-0.0521323
0
LINE
8
DEFAULT_255_1_234
10
17.3860568
20
0.3912196
11
17.1499237
21
0.3912196
0
ARC
8
DEFAULT_255_1_234
10
17.3862049
20
-0.1780239
40
0.6961575
50
80.653586
51
90.3427061
0
ARC
8
DEFAULT_255_1_234
10
17.4281523
20
0.0682348
40
0.4463577
50
65.6987447
51
80.8329603
0
ARC
8
DEFAULT_255_1_234
10
17.4759164
20
0.1777322
40
0.3269094
50
50.0017161
51
65.4305835
0
ARC
8
DEFAULT_255_1_234
10
17.4977628
20
0.2072482
40
0.2902647
50
11.628416
51
49.5603263
0
ARC
8
DEFAULT_255_1_234
10
17.3441964
20
0.1697299
40
0.4482792
50
359.5655735
51
12.3691
0
ARC
8
DEFAULT_255_1_234
10
17.4518824
20
0.1634644
40
0.3405924
50
341.9983148
51
0.4822259
0
ARC
8
DEFAULT_255_1_234
10
17.4913664
20
0.1527471
40
0.2997359
50
323.8609373
51
341.61416
0
ARC
8
DEFAULT_255_1_234
10
17.4611908
20
0.1760484
40
0.3378487
50
296.7018614
51
323.6876402
0
ARC
8
DEFAULT_255_1_234
10
17.4170804
20
0.2549235
40
0.4281516
50
290.8086567
51
297.2323311
0
ARC
8
DEFAULT_255_1_234
10
17.3894333
20
0.3072351
40
0.3593766
50
269.589728
51
281.8058135
0
ARC
8
DEFAULT_255_1_234
10
17.4145232
20
0.1924743
40
0.2419125
50
281.5501019
51
303.9357432
0
ARC
8
DEFAULT_255_1_234
10
17.428242
20
0.1686936
40
0.2145323
50
304.4415616
51
311.2106213
0
ARC
8
DEFAULT_255_1_234
10
17.4414525
20
0.1547632
40
0.1953505
50
310.9875673
51
356.2715578
0
ARC
8
DEFAULT_255_1_234
10
17.3658174
20
0.1660422
40
0.2716331
50
354.9348262
51
0.0609027
0
ARC
8
DEFAULT_255_1_234
10
17.3471048
20
0.1687435
40
0.2903554
50
359.5239371
51
12.8808918
0
ARC
8
DEFAULT_255_1_234
10
17.4448604
20
0.1926728
40
0.1897315
50
12.4173452
51
43.1022135
0
ARC
8
DEFAULT_255_1_234
10
17.4510208
20
0.1963724
40
0.1827118
50
43.5751728
51
48.203944
0
ARC
8
DEFAULT_255_1_234
10
17.43407
20
0.1742302
40
0.2105272
50
48.7809703
51
72.6969569
0
ARC
8
DEFAULT_255_1_234
10
17.3986325
20
0.066682
40
0.3237537
50
72.3702241
51
84.8791103
0
ARC
8
DEFAULT_255_1_234
10
17.3838801
20
-0.0675231
40
0.4587478
50
84.5400526
51
89.7281406
0
ARC
8
DEFAULT_255_2_778
10
31.9007682
20
169.4741699
40
11.0854885
50
180.0840769
51
180.110284
0
ARC
8
DEFAULT_255_2_778
10
262.6630055
20
169.8455943
40
241.8480246
50
180.0868647
51
180.0918473
0
ARC
8
DEFAULT_255_2_778
10
597.9520561
20
170.3544927
40
577.1374613
50
180.0830396
51
180.0869218
0
ARC
8
DEFAULT_255_2_778
10
669.2866106
20
170.4590648
40
648.4720924
50
180.077732
51
180.0831444
0
ARC
8
DEFAULT_255_2_778
10
790.361737
20
170.6267128
40
769.5473348
50
180.0733267
51
180.0779842
0
ARC
8
DEFAULT_255_2_778
10
787.0360856
20
170.6227661
40
766.2216813
50
180.0680536
51
180.0733499
0
ARC
8
DEFAULT_255_2_778
10
723.3068274
20
170.5495407
40
702.4923812
50
180.0598348
51
180.068255
0
ARC
8
DEFAULT_255_2_778
10
588.2711598
20
170.4092243
40
567.4566407
50
180.0456571
51
180.0599058
0
ARC
8
DEFAULT_255_2_778
10
422.4931505
20
170.2767726
40
401.6785785
50
180.0278507
51
180.0456073
0
ARC
8
DEFAULT_255_2_778
10
276.8530266
20
170.2069973
40
256.0384379
50
180.0049237
51
180.0280786
0
ARC
8
DEFAULT_255_2_778
10
271.3303529
20
170.2027106
40
250.5157639
50
180.0008322
51
180.0040518
0
ARC
8
DEFAULT_255_2_778
10
154.05429
20
170.2050863
40
133.239701
50
179.9578023
51
180.0025862
0
ARC
8
DEFAULT_255_2_778
10
83.8108951
20
170.2568652
40
62.996287
50
179.8990132
51
179.9578435
0
ARC
8
DEFAULT_255_2_778
10
48.8436273
20
170.3185998
40
28.0289646
50
179.819585
51
179.8992237
0
ARC
8
DEFAULT_255_2_778
10
30.8138506
20
170.3774065
40
9.9990924
50
179.6460695
51
179.8312383
0
ARC
8
DEFAULT_255_2_778
10
22.3145388
20
170.4324588
40
1.4996048
50
179.023405
51
179.7434663
0
ARC
8
DEFAULT_255_2_778
10
20.8404541
20
170.4584738
40
0.0253063
50
173.7189991
51
181.0320833
0
ARC
8
DEFAULT_255_2_778
10
20.821309
20
170.2477411
40
0.2135878
50
89.695023
51
91.6129067
0
ARC
8
DEFAULT_255_2_778
10
20.8554974
20
162.9029698
40
7.5584285
50
90.0805187
51
90.2505434
0
ARC
8
DEFAULT_255_2_778
10
20.9094678
20
132.019944
40
38.4415011
50
90.0357106
51
90.0962728
0
ARC
8
DEFAULT_255_2_778
10
20.9637754
20
52.5707357
40
117.8907279
50
90.0046031
51
90.0380383
0
ARC
8
DEFAULT_255_2_778
10
20.9739735
20
27.8252657
40
142.6361988
50
89.9973188
51
90.007901
0
ARC
8
DEFAULT_255_2_778
10
20.9770607
20
-150.6769307
40
321.1383954
50
89.9856871
51
89.9993599
0
ARC
8
DEFAULT_255_2_778
10
20.931998
20
-344.8006551
40
515.262125
50
89.9770232
51
89.9860686
0
ARC
8
DEFAULT_255_2_778
10
20.8382754
20
-587.4563362
40
757.9178243
50
89.9685316
51
89.9772944
0
ARC
8
DEFAULT_255_2_778
10
20.5533698
20
-1106.1871626
40
1276.648729
50
89.9669064
51
89.9685314
0
ARC
8
DEFAULT_255_2_778
10
20.5341245
20
-1124.9649013
40
1295.4264758
50
89.9635761
51
89.9665349
0
ARC
8
DEFAULT_255_2_778
10
20.5898282
20
-1032.9582666
40
1203.4198243
50
89.961453
51
89.9634435
0
ARC
8
DEFAULT_255_2_778
10
21.6564944
20
536.5995905
40
366.1383955
50
269.9597768
51
269.9613686
0
ARC
8
DEFAULT_255_2_778
10
21.4307686
20
198.0037785
40
27.5425082
50
269.9560206
51
269.965085
0
ARC
8
DEFAULT_255_2_778
10
24.0548224
20
3953.3078572
40
3782.8475035
50
269.9600013
51
269.9602975
0
ARC
8
DEFAULT_255_2_778
10
21.5129169
20
282.1114829
40
111.6502492
50
269.9592651
51
269.9624187
0
ARC
8
DEFAULT_255_2_778
10
24.9801887
20
5187.0014122
40
5016.541404
50
269.9595626
51
269.9597442
0
ARC
8
DEFAULT_255_2_778
10
21.472338
20
191.9106978
40
21.4494579
50
269.9552587
51
269.9721186
0
ARC
8
DEFAULT_255_2_778
10
20.8096402
20
169.0846736
40
0.0349919
50
268.4259877
51
279.3086891
0
ARC
8
DEFAULT_255_2_778
10
20.7794581
20
170.0845533
40
1.0352711
50
270.7275861
51
271.6174103
0
ARC
8
DEFAULT_255_2_778
10
20.7253201
20
173.9765156
40
4.9276094
50
270.3831688
51
270.7823727
0
ARC
8
DEFAULT_255_2_778
10
20.6493396
20
184.4902403
40
15.4416081
50
270.2101292
51
270.4042004
0
ARC
8
DEFAULT_255_2_778
10
20.5676037
20
205.7987015
40
36.7502259
50
270.0988387
51
270.2157229
0
ARC
8
DEFAULT_255_2_778
10
20.5079126
20
237.6532247
40
68.6048047
50
270.0415264
51
270.1027974
0
ARC
8
DEFAULT_255_2_778
10
20.4792531
20
274.8247778
40
105.7763687
50
269.9983965
51
270.0424573
0
ARC
8
DEFAULT_255_2_778
10
20.4801912
20
329.7045371
40
160.6561281
50
269.9581543
51
269.9986097
0
ARC
8
DEFAULT_255_2_778
10
20.5557588
20
428.3219525
40
259.2735723
50
269.9128744
51
269.9573714
0
ARC
8
DEFAULT_255_2_778
10
20.7359672
20
551.3938113
40
382.3455629
50
269.8896474
51
269.9139141
0
ARC
8
DEFAULT_255_2_778
10
20.897905
20
636.6935426
40
467.6454479
50
269.8757243
51
269.8899354
0
ARC
8
DEFAULT_255_2_778
10
21.1424358
20
748.9601117
40
579.9122834
50
269.871981
51
269.8756234
0
ARC
8
DEFAULT_255_2_778
10
21.0586085
20
710.5497577
40
541.501838
50
269.8591614
51
269.8717698
0
ARC
8
DEFAULT_255_2_778
10
21.0950878
20
725.3902083
40
556.3423335
50
269.8500542
51
269.8591614
0
ARC
8
DEFAULT_255_2_778
10
20.9591239
20
673.9515088
40
504.9034543
50
269.8439984
51
269.850207
0
ARC
8
DEFAULT_255_2_778
10
21.1823406
20
753.7436001
40
584.6958575
50
269.8402407
51
269.8434141
0
ARC
8
DEFAULT_255_2_778
10
20.6755515
20
570.2777358
40
401.2292934
50
269.8350827
51
269.8395589
0
ARC
8
DEFAULT_255_2_778
10
21.0885439
20
708.751036
40
539.7032088
50
269.8322635
51
269.8335522
0
ARC
8
DEFAULT_255_2_778
10
19.4455488
20
147.2604141
40
21.7898169
50
89.8343769
51
89.8365742
0
ARC
8
DEFAULT_255_2_778
10
19.3991236
20
169.0444251
40
0.108727
50
359.7279414
51
3.0142513
0
ARC
8
DEFAULT_255_2_778
10
15.8810904
20
169.008078
40
3.6269361
50
0.1873626
51
0.5660396
0
ARC
8
DEFAULT_255_2_778
10
-0.8470738
20
168.9396382
40
20.3552392
50
0.1025282
51
0.226029
0
ARC
8
DEFAULT_255_2_778
10
-32.9272018
20
168.8740576
40
52.4354339
50
0.063908
51
0.1114605
0
ARC
8
DEFAULT_255_2_778
10
-92.0923748
20
168.8085956
40
111.6006431
50
0.0227943
51
0.0636353
0
ARC
8
DEFAULT_255_2_778
10
-193.634672
20
168.7643149
40
213.1429499
50
359.9987868
51
0.0238382
0
ARC
8
DEFAULT_255_2_778
10
-328.3967502
20
168.7630692
40
347.9050282
50
359.9837367
51
359.9994619
0
ARC
8
DEFAULT_255_2_778
10
-531.7681227
20
168.8239507
40
551.2764098
50
359.9658166
51
359.9834088
0
ARC
8
DEFAULT_255_2_778
10
-796.3772112
20
168.975681
40
815.8855418
50
359.9565348
51
359.9662477
0
ARC
8
DEFAULT_255_2_778
10
-963.6208505
20
169.0971241
40
983.1292253
50
359.950158
51
359.9568513
0
ARC
8
DEFAULT_255_2_778
10
-1157.5492517
20
169.2595962
40
1177.0576944
50
359.9497013
51
359.9504611
0
ARC
8
DEFAULT_255_2_778
10
-1137.7523141
20
169.2490354
40
1157.2607551
50
359.9440514
51
359.9493637
0
ARC
8
DEFAULT_255_2_778
10
-1373.5200701
20
169.48325
40
1393.0286277
50
359.940877
51
359.9438873
0
ARC
8
DEFAULT_255_2_778
10
-1024.7261604
20
169.1261075
40
1044.2345351
50
359.9383028
51
359.9407248
0
ARC
8
DEFAULT_255_2_778
10
-707.210725
20
168.7843348
40
726.7189157
50
359.9354024
51
359.9382922
0
ARC
8
DEFAULT_255_2_778
10
-939.6834657
20
169.0491757
40
959.1918073
50
359.9341278
51
359.9352386
0
ARC
8
DEFAULT_255_2_778
10
-36.3930144
20
168.0089009
40
55.9007571
50
359.9293203
51
359.9359454
0
ARC
8
DEFAULT_255_2_778
10
10.7467339
20
170.7565354
40
0.2953652
50
268.7324806
51
270.2040014
0
ARC
8
DEFAULT_255_2_778
10
10.7882581
20
180.9243601
40
10.4632664
50
269.7783758
51
269.9080444
0
ARC
8
DEFAULT_255_2_778
10
10.8624283
20
220.6731372
40
50.2121123
50
269.8962044
51
269.9412538
0
ARC
8
DEFAULT_255_2_778
10
10.9490235
20
299.0678622
40
128.6068851
50
269.9384845
51
269.959127
0
ARC
8
DEFAULT_255_2_778
10
11.0566691
20
447.0187513
40
276.5578135
50
269.9586915
51
269.9744595
0
ARC
8
DEFAULT_255_2_778
10
11.1802647
20
720.8166281
40
550.3557182
50
269.9742986
51
269.98472
0
ARC
8
DEFAULT_255_2_778
10
11.2742171
20
1054.2922957
40
883.8313991
50
269.9843947
51
269.9899552
0
ARC
8
DEFAULT_255_2_778
10
11.3612184
20
1558.3077377
40
1387.8468487
50
269.9900113
51
269.9959366
0
ARC
8
DEFAULT_255_2_778
10
11.4180121
20
2320.7100886
40
2150.2492018
50
269.995864
51
270.0000857
0
ARC
8
DEFAULT_255_2_778
10
11.4191974
20
3059.2060122
40
2888.7451253
50
270.0000403
51
270.0030154
0
ARC
8
DEFAULT_255_2_778
10
11.3474821
20
4351.3599173
40
4180.8990324
50
270.0030663
51
270.0054892
0
ARC
8
DEFAULT_255_2_778
10
11.1972466
20
5757.9926528
40
5587.5317759
50
270.0056479
51
270.0087761
0
ARC
8
DEFAULT_255_2_778
10
10.9609857
20
7332.2003416
40
7161.7394824
50
270.0087372
51
270.0112994
0
ARC
8
DEFAULT_255_2_778
10
11.0051354
20
7255.449281
40
7084.9884147
50
270.0110648
51
270.0123548
0
ARC
8
DEFAULT_255_2_778
10
10.643084
20
9040.3111087
40
8869.850279
50
270.0122074
51
270.0131924
0
ARC
8
DEFAULT_255_2_778
10
10.8205016
20
8384.766707
40
8214.305854
50
270.0130077
51
270.0139906
0
ARC
8
DEFAULT_255_2_778
10
10.8047952
20
8575.1085687
40
8404.6477139
50
270.0137808
51
270.0145582
0
ARC
8
DEFAULT_255_2_778
10
9.1226661
20
15135.8660388
40
14965.4053997
50
270.0146161
51
270.0149661
0
ARC
8
DEFAULT_255_2_778
10
10.5486954
20
9668.9952807
40
9498.5344557
50
270.0149778
51
270.0156194
0
ARC
8
DEFAULT_255_2_778
10
10.1141755
20
11258.1530251
40
11087.6922597
50
270.0156261
51
270.0160634
0
ARC
8
DEFAULT_255_2_778
10
7.3364671
20
21256.3061969
40
21085.8458175
50
270.0159945
51
270.0161591
0
ARC
8
DEFAULT_255_2_778
10
11.6495246
20
5884.8962227
40
5714.435238
50
270.016381
51
270.0167349
0
ARC
8
DEFAULT_255_2_778
10
13.0984304
20
939.4814365
40
769.0202397
50
270.0164032
51
270.017753
0
ARC
8
DEFAULT_255_2_778
10
12.6168075
20
2585.3353649
40
2414.8742385
50
270.0170805
51
270.017598
0
ARC
8
DEFAULT_255_2_778
10
13.3270626
20
290.150399
40
119.6891629
50
270.0150583
51
270.0186396
0
ARC
8
DEFAULT_255_2_778
10
14.9618599
20
167.8681079
40
0.2120783
50
19.7993636
51
21.6135287
0
ARC
8
DEFAULT_255_2_778
10
5.8234114
20
164.3393546
40
10.0081584
50
21.1243388
51
21.3114157
0
ARC
8
DEFAULT_255_2_778
10
-37.4977321
20
147.4643914
40
56.49994
50
21.2876186
51
21.3360043
0
ARC
8
DEFAULT_255_2_778
10
-145.9452987
20
105.1062508
40
172.9262548
50
21.3352868
51
21.3666204
0
ARC
8
DEFAULT_255_2_778
10
-363.9229986
20
19.8389405
40
406.9877677
50
21.3652102
51
21.3805812
0
LINE
8
DEFAULT_255_2_778
10
15.0556377
20
168.2108924
11
15.0554507
21
168.2113702
0
ARC
8
DEFAULT_255_2_778
10
-661.7946377
20
-96.7798702
40
726.8744044
50
21.3806683
51
21.3929469
0
ARC
8
DEFAULT_255_2_778
10
-856.6364381
20
-173.1035701
40
936.1317444
50
21.3925879
51
21.3972949
0
ARC
8
DEFAULT_255_2_778
10
-744.8163275
20
-129.2887431
40
816.0339667
50
21.397354
51
21.4003223
0
ARC
8
DEFAULT_255_2_778
10
90.7268819
20
198.1669864
40
81.3843916
50
201.3996524
51
201.4032745
0
LINE
8
DEFAULT_255_2_778
10
14.9532907
20
168.472171
11
14.9495002
21
168.4818424
0
ARC
8
DEFAULT_255_2_778
10
13.517887
20
168.2115619
40
0.2717049
50
269.7292414
51
271.4368835
0
ARC
8
DEFAULT_255_2_778
10
13.4787768
20
177.6966783
40
9.7568916
50
270.0730211
51
270.2221289
0
ARC
8
DEFAULT_255_2_778
10
13.4178372
20
217.0126297
40
49.0728899
50
270.0320035
51
270.0856694
0
ARC
8
DEFAULT_255_2_778
10
13.3683084
20
292.436171
40
124.4964473
50
270.0125245
51
270.035409
0
ARC
8
DEFAULT_255_2_778
10
13.3394301
20
413.5353014
40
245.5955812
50
269.9996137
51
270.013086
0
ARC
8
DEFAULT_255_2_778
10
13.3407217
20
572.2242697
40
404.2845495
50
269.9876375
51
269.9995823
0
ARC
8
DEFAULT_255_2_778
10
13.3948962
20
827.1691063
40
659.2293917
50
269.9799495
51
269.98771
0
ARC
8
DEFAULT_255_2_778
10
13.5079497
20
1143.9035424
40
975.963848
50
269.9720485
51
269.9798195
0
ARC
8
DEFAULT_255_2_778
10
13.7858658
20
1702.4308753
40
1534.4912499
50
269.9703069
51
269.9718453
0
ARC
8
DEFAULT_255_2_778
10
13.7762312
20
1665.604843
40
1497.6652177
50
269.967104
51
269.9699453
0
ARC
8
DEFAULT_255_2_778
10
13.6585067
20
1455.9105729
40
1287.9709146
50
269.9649336
51
269.9669852
0
ARC
8
DEFAULT_255_2_778
10
13.5288579
20
1238.6708923
40
1070.7311953
50
269.9626615
51
269.9647567
0
ARC
8
DEFAULT_255_2_778
10
13.1150234
20
612.2740223
40
444.3341888
50
269.9607758
51
269.9633867
0
ARC
8
DEFAULT_255_2_778
10
12.6736245
20
-30.7437873
40
198.6837723
50
89.9604313
51
89.9624892
0
ARC
8
DEFAULT_255_2_778
10
13.9533971
20
170.6107174
40
0.1496629
50
267.128735
51
270.5415064
0
ARC
8
DEFAULT_255_2_778
10
13.9962507
20
175.7985925
40
5.3376922
50
269.5551808
51
269.8551485
0
ARC
8
DEFAULT_255_2_778
10
14.0507752
20
192.3425859
40
21.8817742
50
269.8218974
51
269.9049374
0
ARC
8
DEFAULT_255_2_778
10
14.1065243
20
226.3986013
40
55.9378353
50
269.9057109
51
269.9690809
0
ARC
8
DEFAULT_255_2_778
10
14.1480204
20
294.8636555
40
124.402902
50
269.9669855
51
270.001659
0
ARC
8
DEFAULT_255_2_778
10
14.1479881
20
391.3751817
40
220.9144281
50
270.0009426
51
270.0250002
0
ARC
8
DEFAULT_255_2_778
10
14.0876739
20
535.5854927
40
365.1247517
50
270.0245907
51
270.0400112
0
ARC
8
DEFAULT_255_2_778
10
13.98719
20
678.8906063
40
508.4299006
50
270.0400574
51
270.0511315
0
ARC
8
DEFAULT_255_2_778
10
13.8752094
20
802.7178102
40
632.2571551
50
270.0512652
51
270.0596711
0
ARC
8
DEFAULT_255_2_778
10
13.8060916
20
869.9265634
40
699.4659439
50
270.0595992
51
270.0662947
0
ARC
8
DEFAULT_255_2_778
10
13.8093706
20
866.826193
40
696.3655717
50
270.0663201
51
270.0704962
0
ARC
8
DEFAULT_255_2_778
10
13.9287235
20
771.6709519
40
601.210256
50
270.0702794
51
270.074386
0
ARC
8
DEFAULT_255_2_778
10
14.0633869
20
668.4450611
40
497.9842775
50
270.0743116
51
270.0768754
0
ARC
8
DEFAULT_255_2_778
10
14.557187
20
300.1051877
40
129.6440731
50
270.0770577
51
270.0805286
0
ARC
8
DEFAULT_255_2_778
10
19.7865682
20
169.4741699
40
11.0854885
50
180.0840769
51
180.110284
0
ARC
8
DEFAULT_255_2_778
10
250.5488055
20
169.8455943
40
241.8480246
50
180.0868647
51
180.0918473
0
ARC
8
DEFAULT_255_2_778
10
585.837856
20
170.3544927
40
577.1374613
50
180.0830396
51
180.0869218
0
ARC
8
DEFAULT_255_2_778
10
657.1724106
20
170.4590648
40
648.4720924
50
180.077732
51
180.0831444
0
ARC
8
DEFAULT_255_2_778
10
778.247537
20
170.6267128
40
769.5473348
50
180.0733267
51
180.0779842
0
ARC
8
DEFAULT_255_2_778
10
774.9218857
20
170.6227661
40
766.2216813
50
180.0680536
51
180.0733499
0
ARC
8
DEFAULT_255_2_778
10
711.1926274
20
170.5495407
40
702.4923812
50
180.0598348
51
180.068255
0
ARC
8
DEFAULT_255_2_778
10
576.1569598
20
170.4092243
40
567.4566407
50
180.0456571
51
180.0599058
0
ARC
8
DEFAULT_255_2_778
10
410.3789505
20
170.2767726
40
401.6785785
50
180.0278507
51
180.0456073
0
ARC
8
DEFAULT_255_2_778
10
264.7388266
20
170.2069973
40
256.0384379
50
180.0049237
51
180.0280786
0
ARC
8
DEFAULT_255_2_778
10
259.2161529
20
170.2027106
40
250.5157639
50
180.0008322
51
180.0040518
0
ARC
8
DEFAULT_255_2_778
10
141.94009
20
170.2050863
40
133.239701
50
179.9578023
51
180.0025862
0
ARC
8
DEFAULT_255_2_778
10
71.6966951
20
170.2568652
40
62.996287
50
179.8990132
51
179.9578435
0
ARC
8
DEFAULT_255_2_778
10
36.7294273
20
170.3185998
40
28.0289646
50
179.819585
51
179.8992237
0
ARC
8
DEFAULT_255_2_778
10
18.6996506
20
170.3774065
40
9.9990924
50
179.6460695
51
179.8312383
0
ARC
8
DEFAULT_255_2_778
10
10.2003388
20
170.4324588
40
1.4996048
50
179.023405
51
179.7434663
0
ARC
8
DEFAULT_255_2_778
10
8.7262541
20
170.4584738
40
0.0253063
50
173.7189991
51
181.0320833
0
ARC
8
DEFAULT_255_2_778
10
8.7071257
20
170.2465642
40
0.2147648
50
89.69583
51
91.6085127
0
ARC
8
DEFAULT_255_2_778
10
8.7414098
20
162.8608891
40
7.6005092
50
90.0803101
51
90.2498533
0
ARC
8
DEFAULT_255_2_778
10
8.7955241
20
131.8125486
40
38.6488965
50
90.0356206
51
90.0960162
0
ARC
8
DEFAULT_255_2_778
10
8.8499632
20
51.9683622
40
118.4931015
50
90.0045934
51
90.0379417
0
ARC
8
DEFAULT_255_2_778
10
8.8601799
20
27.1421817
40
143.3192828
50
89.9973252
51
90.0078821
0
ARC
8
DEFAULT_255_2_778
10
8.8622984
20
-164.4776912
40
334.9391559
50
89.9861178
51
89.9992179
0
ARC
8
DEFAULT_255_2_778
10
8.8087445
20
-377.6017283
40
548.0631997
50
89.9774215
51
89.9859175
0
ARC
8
DEFAULT_255_2_778
10
8.705443
20
-628.8433047
40
799.3047974
50
89.968766
51
89.9771136
0
ARC
8
DEFAULT_255_2_778
10
8.4432737
20
-1105.7228307
40
1276.1843955
50
89.9670347
51
89.968667
0
ARC
8
DEFAULT_255_2_778
10
8.4289233
20
-1112.5050693
40
1282.9666413
50
89.963579
51
89.9665681
0
ARC
8
DEFAULT_255_2_778
10
8.4945235
20
-1005.0316097
40
1175.4931616
50
89.96141
51
89.9634466
0
ARC
8
DEFAULT_255_2_778
10
9.5465784
20
540.8572673
40
370.3960735
50
269.9597296
51
269.9613009
0
ARC
8
DEFAULT_255_2_778
10
9.3175259
20
197.9314866
40
27.4702163
50
269.9559427
51
269.9650141
0
ARC
8
DEFAULT_255_2_778
10
12.7906756
20
5160.2629246
40
4989.8028697
50
269.9599267
51
269.9601506
0
ARC
8
DEFAULT_255_2_778
10
9.4002419
20
282.5424874
40
112.0812541
50
269.9591089
51
269.962237
0
ARC
8
DEFAULT_255_2_778
10
9.5872581
20
529.5650183
40
359.1038555
50
269.9583748
51
269.9604007
0
ARC
8
DEFAULT_255_2_778
10
9.3764175
20
219.2058976
40
48.7446633
50
269.9560978
51
269.9669502
0
ARC
8
DEFAULT_255_2_778
10
8.6954436
20
169.0846321
40
0.0349504
50
268.4251507
51
279.3141647
0
ARC
8
DEFAULT_255_2_778
10
8.6652804
20
170.0832438
40
1.0339616
50
270.72804
51
271.6184463
0
ARC
8
DEFAULT_255_2_778
10
8.6111765
20
173.9703729
40
4.9214667
50
270.3833957
51
270.7828533
0
ARC
8
DEFAULT_255_2_778
10
8.5352417
20
184.4711796
40
15.4225473
50
270.210258
51
270.4044502
0
ARC
8
DEFAULT_255_2_778
10
8.4535566
20
205.7532733
40
36.7047977
50
270.0988984
51
270.2158557
0
ARC
8
DEFAULT_255_2_778
10
8.3938993
20
237.5704753
40
68.5220553
50
270.0415522
51
270.1028597
0
ARC
8
DEFAULT_255_2_778
10
8.3652587
20
274.6951382
40
105.6467291
50
269.9983955
51
270.0424833
0
ARC
8
DEFAULT_255_2_778
10
8.3661961
20
329.5076295
40
160.4592205
50
269.9581286
51
269.9986089
0
ARC
8
DEFAULT_255_2_778
10
8.4417172
20
428.0047035
40
258.9563233
50
269.9128211
51
269.9573454
0
ARC
8
DEFAULT_255_2_778
10
8.6218096
20
550.9226974
40
381.8744491
50
269.8895797
51
269.9138616
0
ARC
8
DEFAULT_255_2_778
10
8.7836894
20
636.1392259
40
467.0911313
50
269.8756487
51
269.8898679
0
ARC
8
DEFAULT_255_2_778
10
9.02726
20
747.9012151
40
578.853386
50
269.871902
51
269.8755488
0
ARC
8
DEFAULT_255_2_778
10
8.9441737
20
709.8512707
40
540.803351
50
269.8590749
51
269.8716919
0
ARC
8
DEFAULT_255_2_778
10
8.9808472
20
724.7617466
40
555.7138719
50
269.849963
51
269.859075
0
ARC
8
DEFAULT_255_2_778
10
8.8450676
20
673.4194898
40
504.3714356
50
269.8439031
51
269.8501144
0
ARC
8
DEFAULT_255_2_778
10
9.0679746
20
753.0533919
40
584.0056494
50
269.840144
51
269.8433192
0
ARC
8
DEFAULT_255_2_778
10
8.5621115
20
570.0240579
40
400.9756164
50
269.8349829
51
269.8394592
0
ARC
8
DEFAULT_255_2_778
10
8.9782097
20
709.4740969
40
540.4262756
50
269.8321628
51
269.833449
0
ARC
8
DEFAULT_255_2_778
10
7.3291177
20
146.2213031
40
22.8289323
50
89.8343094
51
89.8364055
0
LINE
8
DEFAULT_255_2_778
10
19.5077002
20
170.4612424
11
19.5077002
21
169.4528424
0
LINE
8
DEFAULT_255_2_778
10
19.5077002
20
169.4528424
11
20.8153002
21
169.4528424
0
LINE
8
DEFAULT_255_2_778
10
21.4619002
20
170.4612424
11
21.4619002
21
167.9399424
0
LINE
8
DEFAULT_255_2_778
10
21.4619002
20
167.9399424
11
20.8153002
21
167.9399424
0
LINE
8
DEFAULT_255_2_778
10
20.8153002
20
167.9399424
11
20.8153002
21
169.0501424
0
LINE
8
DEFAULT_255_2_778
10
19.5077002
20
167.9399424
11
18.8611002
21
167.9399424
0
LINE
8
DEFAULT_255_2_778
10
18.8611002
20
167.9399424
11
18.8611002
21
170.4612424
0
LINE
8
DEFAULT_255_2_778
10
18.8611002
20
170.4612424
11
19.5077002
21
170.4612424
0
LINE
8
DEFAULT_255_2_778
10
19.5077002
20
170.4612424
11
19.5077002
21
170.4612424
0
LINE
8
DEFAULT_255_2_778
10
13.3660002
20
170.4612424
11
13.3660002
21
170.0331424
0
LINE
8
DEFAULT_255_2_778
10
13.3660002
20
170.0331424
11
12.3761002
21
170.0331424
0
LINE
8
DEFAULT_255_2_778
10
12.3761002
20
170.0331424
11
12.3761002
21
167.9399424
0
LINE
8
DEFAULT_255_2_778
10
12.3761002
20
167.9399424
11
11.7295002
21
167.9399424
0
LINE
8
DEFAULT_255_2_778
10
11.7295002
20
167.9399424
11
11.7295002
21
170.0331424
0
LINE
8
DEFAULT_255_2_778
10
11.7295002
20
170.0331424
11
10.7402002
21
170.0331424
0
LINE
8
DEFAULT_255_2_778
10
10.7402002
20
170.0331424
11
10.7402002
21
170.4612424
0
LINE
8
DEFAULT_255_2_778
10
15.8824002
20
167.9399424
11
15.1614002
21
167.9399424
0
LINE
8
DEFAULT_255_2_778
10
14.9495002
20
168.4818424
11
13.7364002
21
168.4818424
0
LINE
8
DEFAULT_255_2_778
10
13.7364002
20
168.4818424
11
13.5247002
21
167.9399424
0
LINE
8
DEFAULT_255_2_778
10
12.8037002
20
167.9399424
11
13.9459002
21
170.4612424
0
LINE
8
DEFAULT_255_2_778
10
14.7394002
20
170.4612424
11
15.8821002
21
167.9399424
0
LINE
8
DEFAULT_255_2_778
10
15.8821002
20
167.9399424
11
15.8824002
21
167.9399424
0
LINE
8
DEFAULT_255_2_778
10
14.3417002
20
170.0328424
11
13.8922002
21
168.8856424
0
LINE
8
DEFAULT_255_2_778
10
13.8922002
20
168.8856424
11
14.7942002
21
168.8856424
0
LINE
8
DEFAULT_255_2_778
10
14.7942002
20
168.8856424
11
14.3420002
21
170.0328424
0
LINE
8
DEFAULT_255_2_778
10
14.3420002
20
170.0328424
11
14.3417002
21
170.0328424
0
LINE
8
DEFAULT_255_2_778
10
21.9750002
20
170.4612424
11
22.6224002
21
170.4612424
0
LINE
8
DEFAULT_255_2_778
10
22.6224002
20
170.4612424
11
22.6224002
21
167.9399424
0
LINE
8
DEFAULT_255_2_778
10
22.6224002
20
167.9399424
11
21.9750002
21
167.9399424
0
LINE
8
DEFAULT_255_2_778
10
21.9750002
20
167.9399424
11
21.9750002
21
170.4612424
0
LINE
8
DEFAULT_255_2_778
10
21.9750002
20
170.4612424
11
21.9750002
21
170.4612424
0
LINE
8
DEFAULT_255_2_778
10
7.3943002
20
170.4612424
11
7.3943002
21
169.4528424
0
LINE
8
DEFAULT_255_2_778
10
7.3943002
20
169.4528424
11
8.7011002
21
169.4528424
0
LINE
8
DEFAULT_255_2_778
10
9.3483002
20
170.4612424
11
9.3483002
21
167.9399424
0
LINE
8
DEFAULT_255_2_778
10
9.3483002
20
167.9399424
11
8.7011002
21
167.9399424
0
LINE
8
DEFAULT_255_2_778
10
8.7011002
20
167.9399424
11
8.7011002
21
169.0501424
0
LINE
8
DEFAULT_255_2_778
10
7.3943002
20
169.0501424
11
7.3943002
21
167.9399424
0
LINE
8
DEFAULT_255_2_778
10
7.3943002
20
167.9399424
11
6.7474002
21
167.9399424
0
LINE
8
DEFAULT_255_2_778
10
6.7474002
20
167.9399424
11
6.7474002
21
170.4612424
0
LINE
8
DEFAULT_255_2_778
10
6.7474002
20
170.4612424
11
7.3943002
21
170.4612424
0
LINE
8
DEFAULT_255_2_778
10
7.3943002
20
170.4612424
11
7.3943002
21
170.4612424
0
LINE
8
DEFAULT_255_2_778
10
9.8615002
20
170.4612424
11
10.5087002
21
170.4612424
0
LINE
8
DEFAULT_255_2_778
10
10.5087002
20
170.4612424
11
10.5087002
21
167.9399424
0
LINE
8
DEFAULT_255_2_778
10
10.5087002
20
167.9399424
11
9.8615002
21
167.9399424
0
LINE
8
DEFAULT_255_2_778
10
9.8615002
20
167.9399424
11
9.8615002
21
170.4612424
0
LINE
8
DEFAULT_255_2_778
10
9.8615002
20
170.4612424
11
9.8615002
21
170.4612424
0
ARC
8
DEFAULT_255_2_778
10
17.4432498
20
169.169343
40
1.6712029
50
179.7780449
51
198.548653
0
ARC
8
DEFAULT_255_2_778
10
17.3285801
20
169.2158612
40
1.5570357
50
157.2384894
51
181.4737073
0
ARC
8
DEFAULT_255_2_778
10
16.8557993
20
169.3824579
40
1.0570238
50
150.0033041
51
155.6503891
0
ARC
8
DEFAULT_255_2_778
10
16.8912441
20
169.3690902
40
1.0944213
50
111.1896137
51
150.3249309
0
ARC
8
DEFAULT_255_2_778
10
17.211737
20
168.5491045
40
1.9748127
50
90.0023899
51
111.260283
0
LINE
8
DEFAULT_255_2_778
10
17.2116546
20
170.5239172
11
17.2124594
21
170.523917
0
ARC
8
DEFAULT_255_2_778
10
17.2053152
20
168.5220328
40
2.001897
50
65.6894838
51
89.7955268
0
ARC
8
DEFAULT_255_2_778
10
17.6941262
20
169.6060165
40
0.8127984
50
11.194763
51
65.633853
0
ARC
8
DEFAULT_255_2_778
10
17.1873663
20
169.5035758
40
1.3298061
50
5.546653
51
11.2855352
0
ARC
8
DEFAULT_255_2_778
10
16.4257687
20
169.4185107
40
2.096089
50
5.069153
51
5.8488032
0
ARC
8
DEFAULT_255_2_778
10
17.2342589
20
169.5975815
40
0.6000319
50
0.5858781
51
19.5041288
0
ARC
8
DEFAULT_255_2_778
10
17.3510531
20
169.6337505
40
0.4778888
50
20.0917475
51
72.2606938
0
ARC
8
DEFAULT_255_2_778
10
17.217452
20
169.2232329
40
0.9095965
50
72.1240293
51
89.9981804
0
ARC
8
DEFAULT_255_2_778
10
17.217443
20
169.2338837
40
0.8989456
50
89.9975864
51
90.2985155
0
ARC
8
DEFAULT_255_2_778
10
17.2094016
20
169.2177853
40
0.9150378
50
89.7897444
51
110.2588109
0
ARC
8
DEFAULT_255_2_778
10
17.101001
20
169.5241628
40
0.5900947
50
110.6852559
51
162.0403298
0
ARC
8
DEFAULT_255_2_778
10
18.0683819
20
169.173883
40
1.6187234
50
160.8041275
51
179.9386229
0
ARC
8
DEFAULT_255_2_778
10
18.1558236
20
169.1909548
40
1.7062331
50
180.5150557
51
195.5894688
0
ARC
8
DEFAULT_255_2_778
10
17.0879104
20
168.887183
40
0.5959962
50
195.0508469
51
248.0946429
0
ARC
8
DEFAULT_255_2_778
10
17.2161907
20
169.2310499
40
0.962939
50
248.6461851
51
269.7958357
0
ARC
8
DEFAULT_255_2_778
10
17.2162371
20
169.2066504
40
0.9385398
50
269.7876919
51
288.3854007
0
ARC
8
DEFAULT_255_2_778
10
17.3618099
20
168.7614006
40
0.4701081
50
288.6648473
51
337.0664801
0
ARC
8
DEFAULT_255_2_778
10
17.1620914
20
168.8443937
40
0.686381
50
337.1824881
51
0.3525413
0
ARC
8
DEFAULT_255_2_778
10
17.1306441
20
168.9223919
40
1.4016582
50
347.106098
51
356.982897
0
ARC
8
DEFAULT_255_2_778
10
17.714149
20
168.7831536
40
0.8018149
50
294.3589809
51
347.5005795
0
ARC
8
DEFAULT_255_2_778
10
17.2068565
20
169.9763417
40
2.0982328
50
270.1611893
51
293.5397442
0
ARC
8
DEFAULT_255_2_778
10
17.2113432
20
169.3639698
40
1.4858535
50
269.9818014
51
270.0546119
0
ARC
8
DEFAULT_255_2_778
10
17.2109535
20
169.9831674
40
2.1050512
50
251.8970159
51
269.9977614
0
ARC
8
DEFAULT_255_2_778
10
16.8688452
20
169.0134855
40
1.0773317
50
200.3966403
51
253.1665191
0
LINE
8
DEFAULT_255_2_778
10
18.5136594
20
169.603717
11
17.8342594
21
169.603717
0
LINE
8
DEFAULT_255_2_778
10
17.8484594
20
168.848617
11
18.5303594
21
168.848617
0
LINE
8
DEFAULT_255_1_234
10
9.9589364
20
166.5441211
11
10.1581235
21
166.5441211
0
LINE
8
DEFAULT_255_1_234
10
10.1581235
20
166.5441211
11
10.5404342
21
165.5899506
0
LINE
8
DEFAULT_255_1_234
10
10.5404342
20
165.5899506
11
10.922745
21
166.5441211
0
LINE
8
DEFAULT_255_1_234
10
10.922745
20
166.5441211
11
11.1227353
21
166.5441211
0
LINE
8
DEFAULT_255_1_234
10
11.1227353
20
166.5441211
11
11.1227353
21
165.3747
0
LINE
8
DEFAULT_255_1_234
10
11.1227353
20
165.3747
11
10.9685259
21
165.3747
0
LINE
8
DEFAULT_255_1_234
10
10.9685259
20
165.3747
11
10.9685259
21
165.8300996
0
LINE
8
DEFAULT_255_1_234
10
10.9685259
20
165.8300996
11
10.982983
21
166.3216419
0
LINE
8
DEFAULT_255_1_234
10
10.982983
20
166.3216419
11
10.5990659
21
165.3747
0
LINE
8
DEFAULT_255_1_234
10
10.5990659
20
165.3747
11
10.4809994
21
165.3747
0
LINE
8
DEFAULT_255_1_234
10
10.4809994
20
165.3747
11
10.0978854
21
166.3192324
0
LINE
8
DEFAULT_255_1_234
10
10.0978854
20
166.3192324
11
10.1131458
21
165.8300996
0
LINE
8
DEFAULT_255_1_234
10
10.1131458
20
165.8300996
11
10.1131458
21
165.3747
0
LINE
8
DEFAULT_255_1_234
10
10.1131458
20
165.3747
11
9.9589364
21
165.3747
0
LINE
8
DEFAULT_255_1_234
10
9.9589364
20
165.3747
11
9.9589364
21
166.5441211
0
LINE
8
DEFAULT_255_1_234
10
11.5331571
20
166.2437341
11
11.5331571
21
165.3747
0
LINE
8
DEFAULT_255_1_234
10
11.5331571
20
165.3747
11
11.3845699
21
165.3747
0
LINE
8
DEFAULT_255_1_234
10
11.3845699
20
165.3747
11
11.3845699
21
166.2437341
0
LINE
8
DEFAULT_255_1_234
10
11.3845699
20
166.2437341
11
11.5331571
21
166.2437341
0
ARC
8
DEFAULT_255_1_234
10
11.4703848
20
166.4751889
40
0.097867
50
161.415052
51
180.5526306
0
ARC
8
DEFAULT_255_1_234
10
11.4579626
20
166.4786077
40
0.0850062
50
138.1827368
51
160.9307106
0
ARC
8
DEFAULT_255_1_234
10
11.4469572
20
166.4881588
40
0.0704362
50
104.6368899
51
138.0039868
0
ARC
8
DEFAULT_255_1_234
10
11.4576726
20
166.4514963
40
0.1086221
50
92.0600725
51
105.2189128
0
ARC
8
DEFAULT_255_1_234
10
11.4600075
20
166.4172117
40
0.1429728
50
89.9756393
51
92.5012496
0
ARC
8
DEFAULT_255_1_234
10
11.4610094
20
166.4397731
40
0.1204151
50
78.0235316
51
90.4478182
0
ARC
8
DEFAULT_255_1_234
10
11.4702186
20
166.4811295
40
0.0780493
50
55.051506
51
78.3369085
0
ARC
8
DEFAULT_255_1_234
10
11.475246
20
166.4895711
40
0.0682538
50
42.0501187
51
54.4513741
0
ARC
8
DEFAULT_255_1_234
10
11.4617328
20
166.4771798
40
0.0865878
50
1.7497075
51
42.1496013
0
ARC
8
DEFAULT_255_1_234
10
11.436266
20
166.4742738
40
0.1121515
50
359.9852656
51
2.8364544
0
ARC
8
DEFAULT_255_1_234
10
11.4528653
20
166.4733229
40
0.0955566
50
342.1070653
51
0.552888
0
ARC
8
DEFAULT_255_1_234
10
11.467135
20
166.4693904
40
0.0807713
50
316.7107116
51
341.6516965
0
ARC
8
DEFAULT_255_1_234
10
11.4738387
20
166.4633823
40
0.0717724
50
285.4397031
51
316.5324284
0
ARC
8
DEFAULT_255_1_234
10
11.4628304
20
166.4999554
40
0.1099597
50
272.3547054
51
285.8953117
0
ARC
8
DEFAULT_255_1_234
10
11.4601462
20
166.5365048
40
0.1465932
50
269.9695369
51
272.8160237
0
ARC
8
DEFAULT_255_1_234
10
11.4591644
20
166.5145863
40
0.1246779
50
258.8431134
51
270.4153935
0
ARC
8
DEFAULT_255_1_234
10
11.4501686
20
166.4710414
40
0.0802162
50
238.5431189
51
259.1288175
0
ARC
8
DEFAULT_255_1_234
10
11.4433571
20
166.4586856
40
0.0661247
50
222.5062634
51
237.9906969
0
ARC
8
DEFAULT_255_1_234
10
11.4561158
20
166.4702889
40
0.0833707
50
184.1069131
51
222.460413
0
ARC
8
DEFAULT_255_1_234
10
11.4830399
20
166.4741349
40
0.1105176
50
179.9429482
51
185.0960898
0
LINE
8
DEFAULT_255_1_234
10
12.3242833
20
165.6485823
11
12.4648387
21
165.6485823
0
LINE
8
DEFAULT_255_1_234
10
11.7323442
20
165.8011853
11
11.7323442
21
165.8260837
0
LINE
8
DEFAULT_255_1_234
10
12.4648387
20
165.9449534
11
12.3242833
21
165.9449534
0
LINE
8
DEFAULT_255_1_234
10
11.8809313
20
165.8204615
11
11.8809313
21
165.7923504
0
ARC
8
DEFAULT_255_1_234
10
12.1230868
20
165.6939121
40
0.2140268
50
269.0327816
51
309.2224514
0
ARC
8
DEFAULT_255_1_234
10
12.1440623
20
165.6724108
40
0.1841255
50
308.396669
51
329.6984113
0
ARC
8
DEFAULT_255_1_234
10
12.1578478
20
165.661982
40
0.166974
50
330.401383
51
355.3970571
0
ARC
8
DEFAULT_255_1_234
10
12.2035344
20
165.6637082
40
0.2617417
50
329.2357853
51
356.6870514
0
ARC
8
DEFAULT_255_1_234
10
12.1485366
20
165.6927971
40
0.3238945
50
324.8706984
51
329.7905871
0
ARC
8
DEFAULT_255_1_234
10
12.1407084
20
165.6995106
40
0.3341614
50
298.8769168
51
324.7016144
0
ARC
8
DEFAULT_255_1_234
10
12.1075276
20
165.7523917
40
0.3965068
50
296.9023738
51
299.385174
0
ARC
8
DEFAULT_255_1_234
10
12.1204889
20
165.7236422
40
0.365007
50
269.8406811
51
297.1299281
0
ARC
8
DEFAULT_255_1_234
10
12.1151546
20
165.7874407
40
0.4288259
50
253.315473
51
270.5771285
0
ARC
8
DEFAULT_255_1_234
10
12.0904581
20
165.6980739
40
0.3361372
50
221.1002312
51
252.9744583
0
ARC
8
DEFAULT_255_1_234
10
12.1364578
20
165.737559
40
0.3967576
50
194.5394537
51
221.0302238
0
ARC
8
DEFAULT_255_1_234
10
12.3213399
20
165.7890952
40
0.5886672
50
182.0499201
51
194.8773585
0
ARC
8
DEFAULT_255_1_234
10
12.4983597
20
165.800906
40
0.7660157
50
179.9791086
51
182.4591564
0
ARC
8
DEFAULT_255_1_234
10
12.3245642
20
165.8290498
40
0.5922274
50
168.614861
51
180.2869651
0
ARC
8
DEFAULT_255_1_234
10
12.2043786
20
165.8526269
40
0.4697532
50
154.9162259
51
168.5402336
0
ARC
8
DEFAULT_255_1_234
10
12.1122294
20
165.898163
40
0.3669966
50
133.5746694
51
155.2558665
0
ARC
8
DEFAULT_255_1_234
10
12.0959453
20
165.9120467
40
0.3457206
50
122.0165146
51
133.2055214
0
ARC
8
DEFAULT_255_1_234
10
12.0995292
20
165.9032361
40
0.355095
50
97.8731644
51
121.7531281
0
ARC
8
DEFAULT_255_1_234
10
12.1174374
20
165.7975159
40
0.4622833
50
89.8471353
51
98.2769494
0
ARC
8
DEFAULT_255_1_234
10
12.1223127
20
165.8585091
40
0.401305
50
73.3760412
51
90.5199766
0
ARC
8
DEFAULT_255_1_234
10
12.141949
20
165.9307516
40
0.3264695
50
47.7085968
51
73.0509704
0
ARC
8
DEFAULT_255_1_234
10
12.154936
20
165.9420128
40
0.309407
50
3.7443473
51
48.0843753
0
ARC
8
DEFAULT_255_1_234
10
12.056231
20
165.9262614
40
0.4090351
50
2.6192045
51
5.0432185
0
ARC
8
DEFAULT_255_1_234
10
12.1019163
20
165.9302592
40
0.2228519
50
3.780656
51
23.9356886
0
ARC
8
DEFAULT_255_1_234
10
12.1247779
20
165.9383155
40
0.198697
50
24.4869552
51
46.9440088
0
ARC
8
DEFAULT_255_1_234
10
12.124863
20
165.9406484
40
0.1969404
50
46.498716
51
89.3298174
0
ARC
8
DEFAULT_255_1_234
10
12.1186984
20
165.8811723
40
0.2565428
50
88.1083975
51
90.0061569
0
ARC
8
DEFAULT_255_1_234
10
12.1159414
20
165.8865759
40
0.251154
50
89.3773333
51
107.2071161
0
ARC
8
DEFAULT_255_1_234
10
12.1016537
20
165.938319
40
0.1975072
50
107.6883219
51
143.3583002
0
ARC
8
DEFAULT_255_1_234
10
12.158392
20
165.8956873
40
0.2684762
50
143.2846717
51
162.935323
0
ARC
8
DEFAULT_255_1_234
10
12.3089522
20
165.8473652
40
0.4265927
50
162.6650068
51
174.0805419
0
ARC
8
DEFAULT_255_1_234
10
12.5232361
20
165.8224636
40
0.6423078
50
173.8423985
51
180.1785963
0
ARC
8
DEFAULT_255_1_234
10
12.4684461
20
165.7893039
40
0.5875227
50
179.7028978
51
188.2277152
0
ARC
8
DEFAULT_255_1_234
10
12.2582763
20
165.7578247
40
0.3750127
50
188.0629871
51
201.1160002
0
ARC
8
DEFAULT_255_1_234
10
12.1484961
20
165.7159238
40
0.2575093
50
201.2187293
51
216.9761968
0
ARC
8
DEFAULT_255_1_234
10
12.1033524
20
165.6820993
40
0.2010998
50
217.0135981
51
265.2056839
0
ARC
8
DEFAULT_255_1_234
10
12.1189384
20
165.7742695
40
0.2943543
50
263.681807
51
270.104251
0
LINE
8
DEFAULT_255_1_234
10
13.0519588
20
166.2485531
11
13.0519588
21
166.1104072
0
LINE
8
DEFAULT_255_1_234
10
12.780486
20
165.9915375
11
12.780486
21
165.3747
0
LINE
8
DEFAULT_255_1_234
10
12.780486
20
165.3747
11
12.6318989
21
165.3747
0
LINE
8
DEFAULT_255_1_234
10
12.6318989
20
165.3747
11
12.6318989
21
166.2437341
0
LINE
8
DEFAULT_255_1_234
10
12.6318989
20
166.2437341
11
12.7764702
21
166.2437341
0
LINE
8
DEFAULT_255_1_234
10
12.7764702
20
166.2437341
11
12.7788797
21
166.1433374
0
ARC
8
DEFAULT_255_1_234
10
12.9852993
20
165.7044342
40
0.4114092
50
80.6754243
51
86.8932892
0
ARC
8
DEFAULT_255_1_234
10
12.9792528
20
165.60767
40
0.5083596
50
86.8038578
51
90.0431435
0
ARC
8
DEFAULT_255_1_234
10
12.9755509
20
165.8533866
40
0.2626638
50
89.2759698
51
106.6213787
0
ARC
8
DEFAULT_255_1_234
10
12.9551072
20
165.927683
40
0.1856317
50
107.1346045
51
157.6458115
0
ARC
8
DEFAULT_255_1_234
10
13.0242674
20
165.8893311
40
0.2643398
50
155.6586782
51
157.2539184
0
ARC
8
DEFAULT_255_1_234
10
13.0037876
20
166.0062157
40
0.2634121
50
127.8165941
51
148.6302098
0
ARC
8
DEFAULT_255_1_234
10
12.9784345
20
166.0322218
40
0.2273596
50
91.3329982
51
126.7875809
0
ARC
8
DEFAULT_255_1_234
10
12.9860286
20
165.9607195
40
0.299078
50
89.986594
51
92.4688449
0
ARC
8
DEFAULT_255_1_234
10
12.9868681
20
165.9882078
40
0.2715908
50
85.3589899
51
90.1623399
0
ARC
8
DEFAULT_255_1_234
10
12.9953196
20
166.0886164
40
0.1708278
50
78.401942
51
85.4594656
0
ARC
8
DEFAULT_255_1_234
10
13.009808
20
166.1577236
40
0.1002194
50
67.7858312
51
78.5728455
0
ARC
8
DEFAULT_255_1_234
10
13.0205933
20
166.1856887
40
0.0702548
50
63.4835954
51
67.3062642
0
LINE
8
DEFAULT_255_1_234
10
13.1330793
20
165.8068075
11
13.1330793
21
165.8172488
0
LINE
8
DEFAULT_255_1_234
10
13.9242056
20
165.8100202
11
13.9242056
21
165.799579
0
ARC
8
DEFAULT_255_1_234
10
13.6916973
20
165.8204837
40
0.5586273
50
166.3003825
51
180.3317926
0
ARC
8
DEFAULT_255_1_234
10
13.6054132
20
165.8397964
40
0.4702272
50
153.8608245
51
166.0967125
0
ARC
8
DEFAULT_255_1_234
10
13.5388535
20
165.875475
40
0.3947658
50
135.1316692
51
154.253643
0
ARC
8
DEFAULT_255_1_234
10
13.5110094
20
165.9000666
40
0.3576898
50
121.7044358
51
134.776924
0
ARC
8
DEFAULT_255_1_234
10
13.5177088
20
165.8871867
40
0.3721701
50
93.4002104
51
121.5398234
0
ARC
8
DEFAULT_255_1_234
10
13.5272044
20
165.8046228
40
0.4551749
50
89.9706281
51
93.9769836
0
ARC
8
DEFAULT_255_1_234
10
13.5319136
20
165.8436362
40
0.4161854
50
71.3323442
51
90.6161982
0
ARC
8
DEFAULT_255_1_234
10
13.5481832
20
165.9038578
40
0.3539455
50
41.1815071
51
70.707185
0
ARC
8
DEFAULT_255_1_234
10
13.5004232
20
165.8604919
40
0.4184468
50
12.1971897
51
41.3445735
0
ARC
8
DEFAULT_255_1_234
10
13.307824
20
165.8146425
40
0.616399
50
359.5703439
51
12.5804035
0
ARC
8
DEFAULT_255_1_234
10
13.3551315
20
165.7964116
40
0.5690829
50
347.0197749
51
0.3188898
0
ARC
8
DEFAULT_255_1_234
10
13.4509817
20
165.7757808
40
0.4710501
50
334.3504053
51
346.846361
0
ARC
8
DEFAULT_255_1_234
10
13.535524
20
165.7318805
40
0.3758475
50
310.422922
51
334.8045033
0
ARC
8
DEFAULT_255_1_234
10
13.5437066
20
165.7254782
40
0.3656736
50
301.8486886
51
310.097356
0
ARC
8
DEFAULT_255_1_234
10
13.5404792
20
165.7330638
40
0.3738224
50
274.307774
51
301.655379
0
ARC
8
DEFAULT_255_1_234
10
13.5294099
20
165.8208361
40
0.4621997
50
269.9546461
51
274.8588071
0
ARC
8
DEFAULT_255_1_234
10
13.5245033
20
165.7707249
40
0.4121134
50
250.888809
51
270.631312
0
ARC
8
DEFAULT_255_1_234
10
13.5094953
20
165.7148277
40
0.3544073
50
221.1701932
51
250.2227191
0
ARC
8
DEFAULT_255_1_234
10
13.5579107
20
165.7589439
40
0.4198961
50
191.6263638
51
221.3526367
0
ARC
8
DEFAULT_255_1_234
10
13.7467103
20
165.8026329
40
0.6136451
50
179.610213
51
192.0693181
0
ARC
8
DEFAULT_255_1_234
10
13.7890331
20
165.7963633
40
0.5065736
50
179.636298
51
190.6162791
0
ARC
8
DEFAULT_255_1_234
10
13.6247999
20
165.764359
40
0.3392576
50
190.4136628
51
208.7170242
0
ARC
8
DEFAULT_255_1_234
10
13.5737623
20
165.7390366
40
0.2823401
50
209.1867941
51
217.4225593
0
ARC
8
DEFAULT_255_1_234
10
13.5208457
20
165.6924558
40
0.2120636
50
216.1156896
51
265.2575835
0
ARC
8
DEFAULT_255_1_234
10
13.5287606
20
165.7498109
40
0.2698952
50
264.5897417
51
270.0601757
0
ARC
8
DEFAULT_255_1_234
10
13.5320666
20
165.7118185
40
0.2319225
50
269.2532621
51
291.8792492
0
ARC
8
DEFAULT_255_1_234
10
13.5349888
20
165.6940238
40
0.2143562
50
292.9269754
51
323.1776747
0
ARC
8
DEFAULT_255_1_234
10
13.495671
20
165.7288452
40
0.2667346
50
322.2518483
51
323.0930371
0
ARC
8
DEFAULT_255_1_234
10
13.4662369
20
165.746999
40
0.3011886
50
323.6941278
51
343.8493282
0
ARC
8
DEFAULT_255_1_234
10
13.3083912
20
165.795035
40
0.4661719
50
343.5748474
51
355.0079071
0
ARC
8
DEFAULT_255_1_234
10
13.1076157
20
165.8158424
40
0.6680042
50
354.7285225
51
0.1206288
0
ARC
8
DEFAULT_255_1_234
10
13.2844623
20
165.8204751
40
0.4911667
50
359.623636
51
11.2015604
0
ARC
8
DEFAULT_255_1_234
10
13.4378851
20
165.852064
40
0.3345323
50
10.9989411
51
30.8319188
0
ARC
8
DEFAULT_255_1_234
10
13.4774723
20
165.8729297
40
0.2898553
50
31.3008956
51
37.3959224
0
ARC
8
DEFAULT_255_1_234
10
13.5271302
20
165.9148653
40
0.2249582
50
36.5915954
51
62.2442953
0
ARC
8
DEFAULT_255_1_234
10
13.5317755
20
165.9145602
40
0.2231053
50
63.3365542
51
89.7195421
0
ARC
8
DEFAULT_255_1_234
10
13.5274609
20
165.8576884
40
0.2800267
50
88.8936788
51
90.0047485
0
ARC
8
DEFAULT_255_1_234
10
13.5242968
20
165.9149787
40
0.2227586
50
89.1921125
51
114.7099455
0
ARC
8
DEFAULT_255_1_234
10
13.5271732
20
165.9187628
40
0.2205633
50
115.7997161
51
142.2900762
0
ARC
8
DEFAULT_255_1_234
10
13.5710465
20
165.8797658
40
0.2791541
50
141.4658779
51
142.3795754
0
ARC
8
DEFAULT_255_1_234
10
13.5819369
20
165.8754557
40
0.2904292
50
143.0175714
51
163.234115
0
ARC
8
DEFAULT_255_1_234
10
13.7397542
20
165.8255054
40
0.4559523
50
162.9447461
51
174.3732162
0
ARC
8
DEFAULT_255_1_234
10
13.9543356
20
165.8014143
40
0.6718682
50
174.1228657
51
180.1565175
0
LINE
8
DEFAULT_255_1_234
10
15.2020551
20
166.0413343
11
15.2020551
21
165.915236
0
LINE
8
DEFAULT_255_1_234
10
15.2020551
20
165.915236
11
14.6952524
21
165.915236
0
LINE
8
DEFAULT_255_1_234
10
14.6952524
20
165.915236
11
14.6952524
21
165.5007983
0
LINE
8
DEFAULT_255_1_234
10
14.6952524
20
165.5007983
11
15.2839789
21
165.5007983
0
LINE
8
DEFAULT_255_1_234
10
15.2839789
20
165.5007983
11
15.2839789
21
165.3747
0
LINE
8
DEFAULT_255_1_234
10
15.2839789
20
165.3747
11
14.5410431
21
165.3747
0
LINE
8
DEFAULT_255_1_234
10
14.5410431
20
165.3747
11
14.5410431
21
166.5441211
0
LINE
8
DEFAULT_255_1_234
10
14.5410431
20
166.5441211
11
15.2759471
21
166.5441211
0
LINE
8
DEFAULT_255_1_234
10
15.2759471
20
166.5441211
11
15.2759471
21
166.4172196
0
LINE
8
DEFAULT_255_1_234
10
15.2759471
20
166.4172196
11
14.6952524
21
166.4172196
0
LINE
8
DEFAULT_255_1_234
10
14.6952524
20
166.4172196
11
14.6952524
21
166.0413343
0
LINE
8
DEFAULT_255_1_234
10
14.6952524
20
166.0413343
11
15.2020551
21
166.0413343
0
LINE
8
DEFAULT_255_1_234
10
16.3746889
20
166.5441211
11
16.3746889
21
165.3747
0
LINE
8
DEFAULT_255_1_234
10
16.3746889
20
165.3747
11
16.2196764
21
165.3747
0
LINE
8
DEFAULT_255_1_234
10
16.2196764
20
165.3747
11
16.2196764
21
165.915236
0
LINE
8
DEFAULT_255_1_234
10
16.2196764
20
165.915236
11
15.6301468
21
165.915236
0
LINE
8
DEFAULT_255_1_234
10
15.6301468
20
165.915236
11
15.6301468
21
165.3747
0
LINE
8
DEFAULT_255_1_234
10
15.6301468
20
165.3747
11
15.4759374
21
165.3747
0
LINE
8
DEFAULT_255_1_234
10
15.4759374
20
165.3747
11
15.4759374
21
166.5441211
0
LINE
8
DEFAULT_255_1_234
10
15.4759374
20
166.5441211
11
15.6301468
21
166.5441211
0
LINE
8
DEFAULT_255_1_234
10
15.6301468
20
166.5441211
11
15.6301468
21
166.0413343
0
LINE
8
DEFAULT_255_1_234
10
15.6301468
20
166.0413343
11
16.2196764
21
166.0413343
0
LINE
8
DEFAULT_255_1_234
10
16.2196764
20
166.0413343
11
16.2196764
21
166.5441211
0
LINE
8
DEFAULT_255_1_234
10
16.2196764
20
166.5441211
11
16.3746889
21
166.5441211
0
LINE
8
DEFAULT_255_1_234
10
16.703187
20
166.5441211
11
17.035701
21
165.5795093
0
LINE
8
DEFAULT_255_1_234
10
17.035701
20
165.5795093
11
17.3698213
21
166.5441211
0
LINE
8
DEFAULT_255_1_234
10
17.3698213
20
166.5441211
11
17.5384878
21
166.5441211
0
LINE
8
DEFAULT_255_1_234
10
17.5384878
20
166.5441211
11
17.1047739
21
165.3747
0
LINE
8
DEFAULT_255_1_234
10
17.1047739
20
165.3747
11
16.9682344
21
165.3747
0
LINE
8
DEFAULT_255_1_234
10
16.9682344
20
165.3747
11
16.5353237
21
166.5441211
0
LINE
8
DEFAULT_255_1_234
10
16.5353237
20
166.5441211
11
16.703187
21
166.5441211
0
LINE
8
DEFAULT_255_1_234
10
18.0974968
20
166.3433276
11
18.0974968
21
166.0019788
0
LINE
8
DEFAULT_255_1_234
10
18.0974968
20
166.0019788
11
18.4235854
21
166.0019788
0
LINE
8
DEFAULT_255_1_234
10
18.4235854
20
166.0019788
11
18.4235854
21
165.8614233
0
LINE
8
DEFAULT_255_1_234
10
18.4235854
20
165.8614233
11
18.0974968
21
165.8614233
0
LINE
8
DEFAULT_255_1_234
10
18.0974968
20
165.8614233
11
18.0974968
21
165.4919634
0
LINE
8
DEFAULT_255_1_234
10
18.0974968
20
165.4919634
11
17.9481064
21
165.4919634
0
LINE
8
DEFAULT_255_1_234
10
17.9481064
20
165.4919634
11
17.9481064
21
165.8614233
0
LINE
8
DEFAULT_255_1_234
10
17.9481064
20
165.8614233
11
17.6220179
21
165.8614233
0
LINE
8
DEFAULT_255_1_234
10
17.6220179
20
165.8614233
11
17.6220179
21
166.0019788
0
LINE
8
DEFAULT_255_1_234
10
17.6220179
20
166.0019788
11
17.9481064
21
166.0019788
0
LINE
8
DEFAULT_255_1_234
10
17.9481064
20
166.0019788
11
17.9481064
21
166.3433276
0
LINE
8
DEFAULT_255_1_234
10
17.9481064
20
166.3433276
11
18.0974968
21
166.3433276
0
LINE
8
DEFAULT_255_2_778
10
19.9765417
20
148.0343324
11
18.6536417
21
148.0343324
0
LINE
8
DEFAULT_255_2_778
10
18.6536417
20
148.0343324
11
18.6536417
21
79.2426324
0
LINE
8
DEFAULT_255_2_778
10
17.3307834
20
79.2427333
11
19.9765834
21
79.2427333
0
LINE
8
DEFAULT_255_2_778
10
19.9765834
20
79.2427333
11
19.9765834
21
73.9510333
0
LINE
8
DEFAULT_255_2_778
10
19.9765834
20
73.9510333
11
17.3307834
21
73.9510333
0
LINE
8
DEFAULT_255_2_778
10
17.3307834
20
73.9510333
11
17.3307834
21
79.2427333
0
LINE
8
DEFAULT_255_2_778
10
18.1245
20
74.4802666
11
18.1245
21
78.7135666
0
LINE
8
DEFAULT_255_2_778
10
17.8599167
20
77.919875
11
18.1245167
21
78.713575
0
LINE
8
DEFAULT_255_2_778
10
18.1245167
20
78.713575
11
18.3891167
21
77.919875
0
LINE
8
DEFAULT_255_2_778
10
18.3891167
20
77.919875
11
17.8599167
21
77.919875
0
LINE
8
DEFAULT_255_2_778
10
19.1828
20
78.7135666
11
19.1828
21
74.4802666
0
LINE
8
DEFAULT_255_2_778
10
18.9182167
20
75.273975
11
19.1828167
21
74.480275
0
LINE
8
DEFAULT_255_2_778
10
19.1828167
20
74.480275
11
19.4474167
21
75.273975
0
LINE
8
DEFAULT_255_2_778
10
19.4474167
20
75.273975
11
18.9182167
21
75.273975
0
LINE
8
DEFAULT_255_2_778
10
18.6536417
20
73.9510324
11
18.6536417
21
5.1593324
0
LINE
8
DEFAULT_255_2_778
10
18.6536417
20
5.1593324
11
19.9765417
21
5.1593324
0
LINE
8
DEFAULT_255_1_234
10
4.9274119
20
163.5116792
11
4.9274119
21
163.3904
0
LINE
8
DEFAULT_255_1_234
10
4.9274119
20
163.3904
11
4.161184
21
163.3904
0
LINE
8
DEFAULT_255_1_234
10
4.161184
20
163.3904
11
4.161184
21
163.4972221
0
LINE
8
DEFAULT_255_1_234
10
4.161184
20
163.4972221
11
4.5659836
21
163.9469995
0
LINE
8
DEFAULT_255_1_234
10
4.2872823
20
164.2152595
11
4.1386952
21
164.2152595
0
LINE
8
DEFAULT_255_1_234
10
4.6535296
20
163.8514218
11
4.3402918
21
163.5116792
0
LINE
8
DEFAULT_255_1_234
10
4.3402918
20
163.5116792
11
4.9274119
21
163.5116792
0
ARC
8
DEFAULT_255_1_234
10
3.216967
20
165.1399527
40
1.8008286
50
318.5132453
51
320.7828378
0
ARC
8
DEFAULT_255_1_234
10
3.7456644
20
164.7096426
40
1.1191493
50
320.7372736
51
323.9737074
0
ARC
8
DEFAULT_255_1_234
10
4.1376501
20
164.4256361
40
0.6350923
50
323.8961724
51
328.6421089
0
ARC
8
DEFAULT_255_1_234
10
4.3423096
20
164.2994031
40
0.3946393
50
328.8299013
51
331.789948
0
ARC
8
DEFAULT_255_1_234
10
4.4420274
20
164.2479509
40
0.2824501
50
331.4255242
51
352.9364833
0
ARC
8
DEFAULT_255_1_234
10
4.4556775
20
164.2448976
40
0.2685315
50
353.2248685
51
0.0169286
0
ARC
8
DEFAULT_255_1_234
10
4.4766652
20
164.247195
40
0.2475536
50
359.4866256
51
15.9339782
0
ARC
8
DEFAULT_255_1_234
10
4.5273637
20
164.2608286
40
0.1950618
50
16.1714718
51
43.5284424
0
ARC
8
DEFAULT_255_1_234
10
4.5350946
20
164.2685573
40
0.184134
50
43.4415429
51
83.1661404
0
ARC
8
DEFAULT_255_1_234
10
4.5216864
20
164.1948771
40
0.258926
50
82.160215
51
90.1505798
0
ARC
8
DEFAULT_255_1_234
10
4.5185291
20
164.1411865
40
0.3126255
50
89.5460705
51
102.5418777
0
ARC
8
DEFAULT_255_1_234
10
4.4942377
20
164.2442665
40
0.2067346
50
102.1739365
51
129.2061916
0
ARC
8
DEFAULT_255_1_234
10
4.4863449
20
164.2567094
40
0.1921118
50
129.7279328
51
135.7542026
0
ARC
8
DEFAULT_255_1_234
10
4.4984977
20
164.2470045
40
0.2075944
50
136.175737
51
166.3674722
0
ARC
8
DEFAULT_255_1_234
10
4.5991896
20
164.2200182
40
0.3118201
50
165.9092917
51
178.8683903
0
ARC
8
DEFAULT_255_1_234
10
4.6856757
20
164.2153179
40
0.3983935
50
178.438168
51
180.0083905
0
ARC
8
DEFAULT_255_1_234
10
4.5455359
20
164.2192231
40
0.4068601
50
163.2878735
51
180.5581814
0
ARC
8
DEFAULT_255_1_234
10
4.4653621
20
164.241284
40
0.3237344
50
133.454115
51
162.9470031
0
ARC
8
DEFAULT_255_1_234
10
4.4832162
20
164.2223
40
0.349795
50
100.7869394
51
133.4384016
0
ARC
8
DEFAULT_255_1_234
10
4.5179934
20
164.0674319
40
0.5084616
50
89.6605301
51
101.3704185
0
ARC
8
DEFAULT_255_1_234
10
4.5246273
20
164.0735496
40
0.502348
50
78.2171172
51
90.4130393
0
ARC
8
DEFAULT_255_1_234
10
4.5601351
20
164.2359637
40
0.3361092
50
55.9268222
51
78.4888551
0
ARC
8
DEFAULT_255_1_234
10
4.5797791
20
164.2698324
40
0.2970617
50
47.9292255
51
55.4054003
0
ARC
8
DEFAULT_255_1_234
10
4.5899352
20
164.2801502
40
0.2825983
50
4.3347696
51
48.0560701
0
ARC
8
DEFAULT_255_1_234
10
4.4803745
20
164.2631601
40
0.393225
50
359.925209
51
5.5967654
0
ARC
8
DEFAULT_255_1_234
10
4.5232637
20
164.2687816
40
0.3503892
50
337.8914096
51
358.9967724
0
ARC
8
DEFAULT_255_1_234
10
4.2519049
20
164.3734706
40
0.6412172
50
326.9135351
51
338.3505194
0
ARC
8
DEFAULT_255_1_234
10
3.8533353
20
164.6289284
40
1.1146189
50
319.6472867
51
327.095818
0
ARC
8
DEFAULT_255_1_234
10
3.4700356
20
164.9451
40
1.6114559
50
317.2586784
51
319.9046139
0
LINE
8
DEFAULT_255_1_234
10
5.7121127
20
164.5598211
11
5.7121127
21
163.783152
0
LINE
8
DEFAULT_255_1_234
10
5.7121127
20
163.783152
11
5.8743538
21
163.783152
0
LINE
8
DEFAULT_255_1_234
10
5.8743538
20
163.783152
11
5.8743538
21
163.6618728
0
LINE
8
DEFAULT_255_1_234
10
5.8743538
20
163.6618728
11
5.7121127
21
163.6618728
0
LINE
8
DEFAULT_255_1_234
10
5.7121127
20
163.6618728
11
5.7121127
21
163.3904
0
LINE
8
DEFAULT_255_1_234
10
5.7121127
20
163.3904
11
5.5627224
21
163.3904
0
LINE
8
DEFAULT_255_1_234
10
5.5627224
20
163.3904
11
5.5627224
21
163.6618728
0
LINE
8
DEFAULT_255_1_234
10
5.5627224
20
163.6618728
11
5.0302181
21
163.6618728
0
LINE
8
DEFAULT_255_1_234
10
5.0302181
20
163.6618728
11
5.0302181
21
163.7494187
0
LINE
8
DEFAULT_255_1_234
10
5.0302181
20
163.7494187
11
5.5538875
21
164.5598211
0
LINE
8
DEFAULT_255_1_234
10
5.5538875
20
164.5598211
11
5.7121127
21
164.5598211
0
LINE
8
DEFAULT_255_1_234
10
5.5450525
20
164.3244912
11
5.1988846
21
163.783152
0
LINE
8
DEFAULT_255_1_234
10
5.1988846
20
163.783152
11
5.5627224
21
163.783152
0
LINE
8
DEFAULT_255_1_234
10
5.5627224
20
163.783152
11
5.5627224
21
164.3566181
0
LINE
8
DEFAULT_255_1_234
10
5.5627224
20
164.3566181
11
5.5450525
21
164.3244912
0
LINE
8
DEFAULT_255_1_234
10
6.101652
20
164.5598211
11
6.434166
21
163.5952093
0
LINE
8
DEFAULT_255_1_234
10
6.434166
20
163.5952093
11
6.7682863
21
164.5598211
0
LINE
8
DEFAULT_255_1_234
10
6.7682863
20
164.5598211
11
6.9369528
21
164.5598211
0
LINE
8
DEFAULT_255_1_234
10
6.9369528
20
164.5598211
11
6.5032389
21
163.3904
0
LINE
8
DEFAULT_255_1_234
10
6.5032389
20
163.3904
11
6.3666994
21
163.3904
0
LINE
8
DEFAULT_255_1_234
10
6.3666994
20
163.3904
11
5.9337887
21
164.5598211
0
LINE
8
DEFAULT_255_1_234
10
5.9337887
20
164.5598211
11
6.101652
21
164.5598211
0
LINE
8
DEFAULT_255_1_234
10
23.1643817
20
164.0819327
11
23.1643817
21
163.8891709
0
LINE
8
DEFAULT_255_1_234
10
22.426265
20
163.8690916
11
22.426265
21
164.0674755
0
LINE
8
DEFAULT_255_1_234
10
23.0157946
20
163.8490123
11
23.0157946
21
164.0923739
0
LINE
8
DEFAULT_255_1_234
10
22.5748521
20
164.1036184
11
22.5748521
21
163.8658789
0
ARC
8
DEFAULT_255_1_234
10
21.9396707
20
163.8842805
40
1.2247208
50
353.8441951
51
0.2287902
0
ARC
8
DEFAULT_255_1_234
10
22.4036211
20
163.8324806
40
0.7578929
50
344.4934747
51
353.9765454
0
ARC
8
DEFAULT_255_1_234
10
22.7028801
20
163.7473981
40
0.4467846
50
329.2803592
51
344.7472793
0
ARC
8
DEFAULT_255_1_234
10
22.8021626
20
163.6929018
40
0.3336173
50
324.9352394
51
328.6160465
0
ARC
8
DEFAULT_255_1_234
10
22.8398734
20
163.6665427
40
0.2876076
50
280.580143
51
324.9173126
0
ARC
8
DEFAULT_255_1_234
10
22.7997527
20
163.8336099
40
0.4592847
50
269.5977311
51
281.6734359
0
ARC
8
DEFAULT_255_1_234
10
22.7925433
20
163.8216173
40
0.4472986
50
256.6228859
51
270.51044
0
ARC
8
DEFAULT_255_1_234
10
22.752341
20
163.6667877
40
0.2873874
50
215.8618325
51
257.2788573
0
ARC
8
DEFAULT_255_1_234
10
22.8544442
20
163.7352977
40
0.4102928
50
197.9693508
51
215.2623606
0
ARC
8
DEFAULT_255_1_234
10
23.1029558
20
163.8191709
40
0.6725652
50
187.8816417
51
198.2346507
0
ARC
8
DEFAULT_255_1_234
10
23.4987766
20
163.8763079
40
1.0724845
50
180.8976217
51
188.0055519
0
ARC
8
DEFAULT_255_1_234
10
23.7787954
20
163.8866777
40
1.3526448
50
180.7449369
51
181.1510016
0
ARC
8
DEFAULT_255_1_234
10
23.6210683
20
164.0723042
40
1.1948131
50
173.7675579
51
180.231553
0
ARC
8
DEFAULT_255_1_234
10
23.169283
20
164.1233666
40
0.7401564
50
164.3058563
51
173.9002247
0
ARC
8
DEFAULT_255_1_234
10
22.8780899
20
164.2072656
40
0.4371288
50
148.7922025
51
164.568378
0
ARC
8
DEFAULT_255_1_234
10
22.7829351
20
164.2603929
40
0.3282386
50
144.5883898
51
148.1176286
0
ARC
8
DEFAULT_255_1_234
10
22.7486249
20
164.2843315
40
0.2864044
50
101.6440918
51
144.514236
0
ARC
8
DEFAULT_255_1_234
10
22.7911315
20
164.1154069
40
0.4604934
50
89.5284041
51
102.5819763
0
ARC
8
DEFAULT_255_1_234
10
22.7990403
20
164.1115018
40
0.464401
50
77.0437873
51
90.5081339
0
ARC
8
DEFAULT_255_1_234
10
22.8392405
20
164.2757615
40
0.2953195
50
48.2778575
51
77.4994676
0
ARC
8
DEFAULT_255_1_234
10
22.8465036
20
164.2886746
40
0.2808655
50
36.3142134
51
47.6305865
0
ARC
8
DEFAULT_255_1_234
10
22.7596343
20
164.2301515
40
0.3855453
50
18.2931786
51
35.6769206
0
ARC
8
DEFAULT_255_1_234
10
22.5053102
20
164.1428593
40
0.654423
50
8.024666
51
18.5605216
0
ARC
8
DEFAULT_255_1_234
10
22.0890022
20
164.0813792
40
1.0752407
50
1.1274072
51
8.1718305
0
ARC
8
DEFAULT_255_1_234
10
21.7654213
20
164.0686885
40
1.3990231
50
0.5424119
51
1.3863029
0
ARC
8
DEFAULT_255_1_234
10
21.947559
20
164.0959342
40
1.0682415
50
359.8090433
51
4.9407866
0
ARC
8
DEFAULT_255_1_234
10
22.3685604
20
164.1335113
40
0.6455691
50
4.8362157
51
12.2904523
0
ARC
8
DEFAULT_255_1_234
10
22.6440719
20
164.1948965
40
0.3633074
50
12.0805627
51
23.8173984
0
ARC
8
DEFAULT_255_1_234
10
22.7614425
20
164.2445919
40
0.2358723
50
24.2871213
51
31.3935614
0
ARC
8
DEFAULT_255_1_234
10
22.8139122
20
164.2789233
40
0.1732111
50
30.7407893
51
82.4657128
0
ARC
8
DEFAULT_255_1_234
10
22.7959256
20
164.1905691
40
0.263235
50
81.1060089
51
90.2184952
0
ARC
8
DEFAULT_255_1_234
10
22.7923555
20
164.2163924
40
0.2374236
50
89.3806855
51
105.6762551
0
ARC
8
DEFAULT_255_1_234
10
22.7740186
20
164.2830567
40
0.1682847
50
105.7981136
51
149.7388061
0
ARC
8
DEFAULT_255_1_234
10
22.8804264
20
164.219095
40
0.2924306
50
149.4208916
51
163.6286378
0
ARC
8
DEFAULT_255_1_234
10
23.0895152
20
164.155325
40
0.5110213
50
163.3763315
51
172.1410975
0
ARC
8
DEFAULT_255_1_234
10
23.4195871
20
164.1080518
40
0.8444586
50
172.0259487
51
178.0703232
0
ARC
8
DEFAULT_255_1_234
10
23.722596
20
164.0936906
40
1.1477868
50
177.8631668
51
179.5044149
0
ARC
8
DEFAULT_255_1_234
10
23.6153365
20
163.8622389
40
1.0404907
50
179.7995573
51
185.2460446
0
ARC
8
DEFAULT_255_1_234
10
23.2110404
20
163.8239513
40
0.6343885
50
185.1411642
51
193.0079639
0
ARC
8
DEFAULT_255_1_234
10
22.9466877
20
163.7614641
40
0.3627568
50
192.7897626
51
205.2507664
0
ARC
8
DEFAULT_255_1_234
10
22.8420424
20
163.7147415
40
0.2481908
50
205.8005384
51
211.2537509
0
ARC
8
DEFAULT_255_1_234
10
22.7896864
20
163.679658
40
0.1852521
50
210.3789793
51
238.4008143
0
ARC
8
DEFAULT_255_1_234
10
22.7877386
20
163.6843376
40
0.1882621
50
239.6520629
51
265.9793761
0
ARC
8
DEFAULT_255_1_234
10
22.7962586
20
163.7515427
40
0.2559272
50
265.1315437
51
270.060332
0
ARC
8
DEFAULT_255_1_234
10
22.7991365
20
163.7191534
40
0.2235528
50
269.3314664
51
287.2178029
0
ARC
8
DEFAULT_255_1_234
10
22.8129217
20
163.6688279
40
0.1714108
50
287.7958004
51
329.080874
0
ARC
8
DEFAULT_255_1_234
10
22.7171674
20
163.728593
40
0.2842745
50
328.6634704
51
343.3325132
0
ARC
8
DEFAULT_255_1_234
10
22.4998694
20
163.7962863
40
0.5118644
50
343.0499468
51
351.9393422
0
ARC
8
DEFAULT_255_1_234
10
22.1531994
20
163.8473949
40
0.8622784
50
351.8069023
51
357.7959224
0
ARC
8
DEFAULT_255_1_234
10
21.829655
20
163.8641721
40
1.1862365
50
357.5871873
51
359.2677531
0
LINE
8
DEFAULT_255_1_234
10
23.4479021
20
164.5598211
11
23.7804161
21
163.5952093
0
LINE
8
DEFAULT_255_1_234
10
23.7804161
20
163.5952093
11
24.1145364
21
164.5598211
0
LINE
8
DEFAULT_255_1_234
10
24.1145364
20
164.5598211
11
24.2832029
21
164.5598211
0
LINE
8
DEFAULT_255_1_234
10
24.2832029
20
164.5598211
11
23.849489
21
163.3904
0
LINE
8
DEFAULT_255_1_234
10
23.849489
20
163.3904
11
23.7129495
21
163.3904
0
LINE
8
DEFAULT_255_1_234
10
23.7129495
20
163.3904
11
23.2800388
21
164.5598211
0
LINE
8
DEFAULT_255_1_234
10
23.2800388
20
164.5598211
11
23.4479021
21
164.5598211
0
LINE
8
DEFAULT_255_1_234
10
23.186823
20
5.0114663
11
23.3418355
21
5.0114663
0
LINE
8
DEFAULT_255_1_234
10
22.4414777
20
5.1704947
11
22.4414777
21
5.2829391
0
LINE
8
DEFAULT_255_1_234
10
23.3418355
20
5.4339357
11
23.186823
21
5.4339357
0
LINE
8
DEFAULT_255_1_234
10
22.5964902
20
5.2789232
11
22.5964902
21
5.1656757
0
ARC
8
DEFAULT_255_1_234
10
22.7937742
20
5.0711846
40
0.5513052
50
340.1774281
51
353.7814284
0
ARC
8
DEFAULT_255_1_234
10
22.9509095
20
5.0126582
40
0.3836379
50
311.4558989
51
340.4421614
0
ARC
8
DEFAULT_255_1_234
10
22.9475763
20
5.0237528
40
0.3941894
50
282.4333181
51
310.7513653
0
ARC
8
DEFAULT_255_1_234
10
22.9036502
20
5.2052679
40
0.5809175
50
269.9358511
51
282.809604
0
ARC
8
DEFAULT_255_1_234
10
22.8984568
20
5.3510212
40
0.7266847
50
270.0021091
51
270.3581957
0
ARC
8
DEFAULT_255_1_234
10
22.8931985
20
5.0909585
40
0.4666519
50
250.7884749
51
270.6489167
0
ARC
8
DEFAULT_255_1_234
10
22.876382
20
5.0272319
40
0.4009729
50
219.3627325
51
250.0611886
0
ARC
8
DEFAULT_255_1_234
10
22.9593031
20
5.0977042
40
0.5097822
50
193.5479632
51
219.5756669
0
ARC
8
DEFAULT_255_1_234
10
23.1964652
20
5.1592919
40
0.7547848
50
181.1218675
51
193.87563
0
ARC
8
DEFAULT_255_1_234
10
23.4034833
20
5.170358
40
0.9620055
50
179.9918545
51
181.5394234
0
ARC
8
DEFAULT_255_1_234
10
23.2183935
20
5.2866788
40
0.7769248
50
169.5837241
51
180.2757934
0
ARC
8
DEFAULT_255_1_234
10
23.0346873
20
5.3206229
40
0.590109
50
155.0365899
51
169.6003176
0
ARC
8
DEFAULT_255_1_234
10
22.9211337
20
5.3753677
40
0.4640625
50
136.783148
51
155.2472683
0
ARC
8
DEFAULT_255_1_234
10
22.8821814
20
5.4084562
40
0.4130255
50
121.7633186
51
136.428115
0
ARC
8
DEFAULT_255_1_234
10
22.8956776
20
5.3835227
40
0.4413323
50
95.6459699
51
121.5490577
0
ARC
8
DEFAULT_255_1_234
10
22.9114058
20
5.2726949
40
0.55319
50
89.924208
51
96.1377933
0
ARC
8
DEFAULT_255_1_234
10
22.9164491
20
5.2845542
40
0.5413475
50
76.6779277
51
90.4563316
0
ARC
8
DEFAULT_255_1_234
10
22.9558114
20
5.4436114
40
0.3775041
50
47.485847
51
76.9287264
0
ARC
8
DEFAULT_255_1_234
10
22.9411087
20
5.4336159
40
0.3948286
50
16.5424086
51
46.8933463
0
ARC
8
DEFAULT_255_1_234
10
22.7803244
20
5.3807861
40
0.564021
50
5.4072051
51
17.0365086
0
ARC
8
DEFAULT_255_1_234
10
22.6364261
20
5.3576679
40
0.5556559
50
7.8891745
51
15.9239216
0
ARC
8
DEFAULT_255_1_234
10
22.8351274
20
5.4153631
40
0.3487515
50
15.7653144
51
27.9410532
0
ARC
8
DEFAULT_255_1_234
10
22.9455492
20
5.474479
40
0.2235026
50
27.8166557
51
46.4008329
0
ARC
8
DEFAULT_255_1_234
10
22.9505135
20
5.4739082
40
0.2205286
50
47.4371857
51
75.0698205
0
ARC
8
DEFAULT_255_1_234
10
22.9196529
20
5.3664765
40
0.3322915
50
74.7008593
51
87.8124495
0
ARC
8
DEFAULT_255_1_234
10
22.9123217
20
5.2608844
40
0.4380987
50
87.3814673
51
90.0240855
0
ARC
8
DEFAULT_255_1_234
10
22.908476
20
5.3786291
40
0.3203749
50
89.3451631
51
108.5745436
0
ARC
8
DEFAULT_255_1_234
10
22.8947865
20
5.4299908
40
0.2673494
50
109.2998449
51
143.3037509
0
ARC
8
DEFAULT_255_1_234
10
22.9709938
20
5.3713881
40
0.3634757
50
143.0753173
51
163.1916937
0
ARC
8
DEFAULT_255_1_234
10
23.1661666
20
5.3097967
40
0.5681262
50
162.9373603
51
174.6208611
0
ARC
8
DEFAULT_255_1_234
10
23.4287708
20
5.281001
40
0.8322832
50
174.3419979
51
180.1430411
0
ARC
8
DEFAULT_255_1_234
10
23.3356864
20
5.1615698
40
0.7392076
50
179.6817502
51
189.150529
0
ARC
8
DEFAULT_255_1_234
10
23.0856112
20
5.119919
40
0.4856932
50
188.9910863
51
203.5773039
0
ARC
8
DEFAULT_255_1_234
10
22.9776445
20
5.0751211
40
0.3688271
50
203.9077269
51
215.1312379
0
ARC
8
DEFAULT_255_1_234
10
22.8853539
20
5.0035941
40
0.2522457
50
213.9071664
51
263.8849284
0
ARC
8
DEFAULT_255_1_234
10
22.8978868
20
5.0820518
40
0.3316174
50
263.1758525
51
270.1031083
0
ARC
8
DEFAULT_255_1_234
10
22.901096
20
5.2067365
40
0.4563091
50
269.6719807
51
279.0609165
0
ARC
8
DEFAULT_255_1_234
10
22.9277728
20
5.0454907
40
0.2928759
50
278.8750225
51
293.6346586
0
ARC
8
DEFAULT_255_1_234
10
22.9597936
20
4.97029
40
0.2111472
50
293.8553404
51
310.0518804
0
ARC
8
DEFAULT_255_1_234
10
22.960279
20
4.9640516
40
0.2060917
50
311.0646779
51
332.0108348
0
ARC
8
DEFAULT_255_1_234
10
22.8410517
20
5.0297978
40
0.3422352
50
331.6588543
51
343.2878891
0
ARC
8
DEFAULT_255_1_234
10
22.6348032
20
5.0931798
40
0.5580003
50
343.1446044
51
351.010618
0
ARC
8
DEFAULT_255_1_234
10
22.4806678
20
5.1212871
40
0.7146438
50
350.7157277
51
351.1602153
0
LINE
8
DEFAULT_255_1_234
10
24.2799426
20
4.7616792
11
24.2799426
21
4.6404
0
LINE
8
DEFAULT_255_1_234
10
24.2799426
20
4.6404
11
23.5137147
21
4.6404
0
LINE
8
DEFAULT_255_1_234
10
23.5137147
20
4.6404
11
23.5137147
21
4.7472221
0
LINE
8
DEFAULT_255_1_234
10
23.5137147
20
4.7472221
11
23.9185144
21
5.1969995
0
LINE
8
DEFAULT_255_1_234
10
23.639813
20
5.4652595
11
23.4912259
21
5.4652595
0
LINE
8
DEFAULT_255_1_234
10
24.0060603
20
5.1014218
11
23.6928225
21
4.7616792
0
LINE
8
DEFAULT_255_1_234
10
23.6928225
20
4.7616792
11
24.2799426
21
4.7616792
0
ARC
8
DEFAULT_255_1_234
10
22.5694977
20
6.3899527
40
1.8008286
50
318.5132453
51
320.7828378
0
ARC
8
DEFAULT_255_1_234
10
23.0981951
20
5.9596426
40
1.1191493
50
320.7372736
51
323.9737074
0
ARC
8
DEFAULT_255_1_234
10
23.4901808
20
5.6756361
40
0.6350923
50
323.8961724
51
328.6421089
0
ARC
8
DEFAULT_255_1_234
10
23.6948403
20
5.5494031
40
0.3946393
50
328.8299013
51
331.789948
0
ARC
8
DEFAULT_255_1_234
10
23.7945582
20
5.4979509
40
0.2824501
50
331.4255242
51
352.9364833
0
ARC
8
DEFAULT_255_1_234
10
23.8082082
20
5.4948976
40
0.2685315
50
353.2248685
51
0.0169286
0
ARC
8
DEFAULT_255_1_234
10
23.8291959
20
5.497195
40
0.2475536
50
359.4866256
51
15.9339782
0
ARC
8
DEFAULT_255_1_234
10
23.8798944
20
5.5108286
40
0.1950618
50
16.1714718
51
43.5284424
0
ARC
8
DEFAULT_255_1_234
10
23.8876253
20
5.5185573
40
0.184134
50
43.4415429
51
83.1661404
0
ARC
8
DEFAULT_255_1_234
10
23.8742171
20
5.4448771
40
0.258926
50
82.160215
51
90.1505798
0
ARC
8
DEFAULT_255_1_234
10
23.8710599
20
5.3911865
40
0.3126255
50
89.5460705
51
102.5418777
0
ARC
8
DEFAULT_255_1_234
10
23.8467685
20
5.4942665
40
0.2067346
50
102.1739365
51
129.2061916
0
ARC
8
DEFAULT_255_1_234
10
23.8388756
20
5.5067094
40
0.1921118
50
129.7279328
51
135.7542026
0
ARC
8
DEFAULT_255_1_234
10
23.8510284
20
5.4970045
40
0.2075944
50
136.175737
51
166.3674722
0
ARC
8
DEFAULT_255_1_234
10
23.9517203
20
5.4700182
40
0.3118201
50
165.9092917
51
178.8683903
0
ARC
8
DEFAULT_255_1_234
10
24.0382065
20
5.4653179
40
0.3983935
50
178.438168
51
180.0083905
0
ARC
8
DEFAULT_255_1_234
10
23.8980667
20
5.4692231
40
0.4068601
50
163.2878735
51
180.5581814
0
ARC
8
DEFAULT_255_1_234
10
23.8178928
20
5.491284
40
0.3237344
50
133.454115
51
162.9470031
0
ARC
8
DEFAULT_255_1_234
10
23.8357469
20
5.4723
40
0.349795
50
100.7869394
51
133.4384016
0
ARC
8
DEFAULT_255_1_234
10
23.8705241
20
5.3174319
40
0.5084616
50
89.6605301
51
101.3704185
0
ARC
8
DEFAULT_255_1_234
10
23.877158
20
5.3235496
40
0.502348
50
78.2171172
51
90.4130393
0
ARC
8
DEFAULT_255_1_234
10
23.9126658
20
5.4859637
40
0.3361092
50
55.9268222
51
78.4888551
0
ARC
8
DEFAULT_255_1_234
10
23.9323098
20
5.5198324
40
0.2970617
50
47.9292255
51
55.4054003
0
ARC
8
DEFAULT_255_1_234
10
23.9424659
20
5.5301502
40
0.2825983
50
4.3347696
51
48.0560701
0
ARC
8
DEFAULT_255_1_234
10
23.8329052
20
5.5131601
40
0.393225
50
359.925209
51
5.5967654
0
ARC
8
DEFAULT_255_1_234
10
23.8757944
20
5.5187816
40
0.3503892
50
337.8914096
51
358.9967724
0
ARC
8
DEFAULT_255_1_234
10
23.6044356
20
5.6234706
40
0.6412172
50
326.9135351
51
338.3505194
0
ARC
8
DEFAULT_255_1_234
10
23.205866
20
5.8789284
40
1.1146189
50
319.6472867
51
327.095818
0
ARC
8
DEFAULT_255_1_234
10
22.8225663
20
6.1951
40
1.6114559
50
317.2586784
51
319.9046139
0
LINE
8
DEFAULT_255_1_234
10
22.8253378
20
13.1136169
11
22.8253378
21
13.2348962
0
LINE
8
DEFAULT_255_1_234
10
22.8253378
20
13.2348962
11
22.936979
21
13.2348962
0
LINE
8
DEFAULT_255_1_234
10
22.7466268
20
13.4405087
11
22.5980396
21
13.4405087
0
LINE
8
DEFAULT_255_1_234
10
22.5875983
20
12.8863188
11
22.7369887
21
12.8863188
0
LINE
8
DEFAULT_255_1_234
10
22.936979
20
13.1136169
11
22.8253378
21
13.1136169
0
ARC
8
DEFAULT_255_1_234
10
22.9340656
20
13.5741713
40
0.3392876
50
270.4919872
51
281.8951556
0
ARC
8
DEFAULT_255_1_234
10
22.9581918
20
13.4639702
40
0.2264817
50
281.6691735
51
301.2943132
0
ARC
8
DEFAULT_255_1_234
10
22.9752128
20
13.4328304
40
0.1910381
50
301.7833094
51
311.7545298
0
ARC
8
DEFAULT_255_1_234
10
22.9843704
20
13.4226748
40
0.1773635
50
311.7323931
51
354.2802411
0
ARC
8
DEFAULT_255_1_234
10
22.9117329
20
13.4351722
40
0.2509385
50
353.0937916
51
0.1181479
0
ARC
8
DEFAULT_255_1_234
10
22.8656114
20
13.4399386
40
0.2970898
50
359.1805295
51
15.0453146
0
ARC
8
DEFAULT_255_1_234
10
23.0001951
20
13.4791992
40
0.1569564
50
13.9577229
51
77.6713066
0
ARC
8
DEFAULT_255_1_234
10
22.961548
20
13.3406949
40
0.3006298
50
76.1116566
51
90.7026153
0
ARC
8
DEFAULT_255_1_234
10
22.9556318
20
13.3680545
40
0.2732568
50
89.5324876
51
103.531937
0
ARC
8
DEFAULT_255_1_234
10
22.9355762
20
13.4479884
40
0.1908508
50
103.2931773
51
133.5619022
0
ARC
8
DEFAULT_255_1_234
10
22.9311251
20
13.4539375
40
0.1834746
50
133.8349307
51
173.5344437
0
ARC
8
DEFAULT_255_1_234
10
23.0034294
20
13.4411213
40
0.2568033
50
172.5096846
51
180.1366907
0
ARC
8
DEFAULT_255_1_234
10
22.9083188
20
13.4445622
40
0.3103056
50
155.3484492
51
180.7484736
0
ARC
8
DEFAULT_255_1_234
10
22.9034277
20
13.4416846
40
0.3070957
50
131.5744599
51
154.4798489
0
ARC
8
DEFAULT_255_1_234
10
22.9347424
20
13.410031
40
0.3515643
50
96.9875458
51
131.9690667
0
ARC
8
DEFAULT_255_1_234
10
22.9566904
20
13.2854636
40
0.4779224
50
89.8596053
51
97.7825159
0
ARC
8
DEFAULT_255_1_234
10
22.9614967
20
13.2592616
40
0.5041361
50
78.3655447
51
90.4131539
0
ARC
8
DEFAULT_255_1_234
10
22.9972885
20
13.4251887
40
0.3344039
50
56.6229102
51
78.638727
0
ARC
8
DEFAULT_255_1_234
10
23.0187829
20
13.4627805
40
0.2912001
50
47.0253525
51
56.0854072
0
ARC
8
DEFAULT_255_1_234
10
23.0207609
20
13.4667223
40
0.2869704
50
10.9208013
51
46.7778124
0
ARC
8
DEFAULT_255_1_234
10
22.8843675
20
13.4351857
40
0.426899
50
359.6364486
51
11.6087304
0
ARC
8
DEFAULT_255_1_234
10
23.0678519
20
13.4336752
40
0.243409
50
332.3549906
51
359.7179418
0
ARC
8
DEFAULT_255_1_234
10
23.0028121
20
13.4645142
40
0.3153459
50
325.2333722
51
332.8745602
0
ARC
8
DEFAULT_255_1_234
10
23.0180744
20
13.4538828
40
0.2967456
50
292.9802137
51
325.2392345
0
ARC
8
DEFAULT_255_1_234
10
22.9906118
20
13.5072863
40
0.3566604
50
292.5402179
51
293.6924929
0
ARC
8
DEFAULT_255_1_234
10
23.0298714
20
12.8618091
40
0.3307468
50
57.6435486
51
72.8625112
0
ARC
8
DEFAULT_255_1_234
10
23.0653214
20
12.9192549
40
0.2632492
50
36.7248896
51
57.4697979
0
ARC
8
DEFAULT_255_1_234
10
23.0641847
20
12.920522
40
0.2634081
50
8.0545065
51
36.356114
0
ARC
8
DEFAULT_255_1_234
10
22.9779032
20
12.9050174
40
0.3510261
50
359.8320645
51
8.5869982
0
ARC
8
DEFAULT_255_1_234
10
22.9403808
20
12.9002101
40
0.3885653
50
343.9829931
51
0.5571613
0
ARC
8
DEFAULT_255_1_234
10
23.0290005
20
12.8759438
40
0.2966924
50
311.6359546
51
343.7651759
0
ARC
8
DEFAULT_255_1_234
10
22.9911574
20
12.9186102
40
0.3537231
50
279.7829875
51
311.6255694
0
ARC
8
DEFAULT_255_1_234
10
22.9610351
20
13.062328
40
0.5004971
50
269.7286406
51
280.3856417
0
ARC
8
DEFAULT_255_1_234
10
22.9548423
20
13.0581996
40
0.4963778
50
256.6828919
51
270.4412052
0
ARC
8
DEFAULT_255_1_234
10
22.9209719
20
12.9197394
40
0.3538406
50
229.4223008
51
256.8556159
0
ARC
8
DEFAULT_255_1_234
10
22.8795112
20
12.8730736
40
0.2914296
50
181.818294
51
229.6455059
0
ARC
8
DEFAULT_255_1_234
10
22.9835068
20
12.8861496
40
0.3959084
50
179.9755256
51
183.2323064
0
ARC
8
DEFAULT_255_1_234
10
22.9662814
20
12.8841037
40
0.2293034
50
179.4465117
51
196.2869258
0
ARC
8
DEFAULT_255_1_234
10
22.9175222
20
12.8707651
40
0.1787621
50
196.5661473
51
227.705904
0
ARC
8
DEFAULT_255_1_234
10
22.9339317
20
12.8891155
40
0.2033784
50
227.7652068
51
257.8762805
0
ARC
8
DEFAULT_255_1_234
10
22.9564287
20
12.9834156
40
0.3003081
50
257.4584385
51
270.426602
0
ARC
8
DEFAULT_255_1_234
10
22.9609853
20
13.0123996
40
0.329292
50
269.5962073
51
280.8789248
0
ARC
8
DEFAULT_255_1_234
10
22.9839382
20
12.8977685
40
0.2123908
50
280.6346389
51
299.8595945
0
ARC
8
DEFAULT_255_1_234
10
23.0030289
20
12.8615212
40
0.171457
50
300.3576302
51
314.5517981
0
ARC
8
DEFAULT_255_1_234
10
22.9947349
20
12.8675919
40
0.1816095
50
315.0728369
51
345.0431014
0
ARC
8
DEFAULT_255_1_234
10
22.9024163
20
12.8944841
40
0.2777492
50
344.5986631
51
357.9269593
0
ARC
8
DEFAULT_255_1_234
10
22.8128489
20
12.9006276
40
0.3674917
50
357.4748886
51
0.0231117
0
ARC
8
DEFAULT_255_1_234
10
22.9151599
20
12.9030679
40
0.2651907
50
359.5047933
51
13.4239635
0
ARC
8
DEFAULT_255_1_234
10
23.0018242
20
12.9252478
40
0.1757509
50
12.9498199
51
48.7551375
0
ARC
8
DEFAULT_255_1_234
10
22.9835976
20
12.90034
40
0.2065134
50
49.5088623
51
72.1836453
0
ARC
8
DEFAULT_255_1_234
10
22.9478129
20
12.7941291
40
0.3185836
50
71.9010081
51
84.3554254
0
ARC
8
DEFAULT_255_1_234
10
22.9316761
20
12.6580326
40
0.4556151
50
84.0193428
51
89.333121
0
LINE
8
DEFAULT_255_1_234
10
24.0212636
20
13.7529433
11
24.0212636
21
12.5779
0
LINE
8
DEFAULT_255_1_234
10
24.0212636
20
12.5779
11
23.8718733
21
12.5779
0
LINE
8
DEFAULT_255_1_234
10
23.8718733
20
12.5779
11
23.8718733
21
13.5682133
0
LINE
8
DEFAULT_255_1_234
10
23.8718733
20
13.5682133
11
23.5722895
21
13.4581785
0
LINE
8
DEFAULT_255_1_234
10
23.5722895
20
13.4581785
11
23.5722895
21
13.5931117
0
LINE
8
DEFAULT_255_1_234
10
23.5722895
20
13.5931117
11
23.9979716
21
13.7529433
0
LINE
8
DEFAULT_255_1_234
10
23.9979716
20
13.7529433
11
24.0212636
21
13.7529433
0
LINE
8
DEFAULT_255_1_234
10
22.8163378
20
21.0511169
11
22.8163378
21
21.1723962
0
LINE
8
DEFAULT_255_1_234
10
22.8163378
20
21.1723962
11
22.927979
21
21.1723962
0
LINE
8
DEFAULT_255_1_234
10
22.7376268
20
21.3780087
11
22.5890396
21
21.3780087
0
LINE
8
DEFAULT_255_1_234
10
22.5785983
20
20.8238188
11
22.7279887
21
20.8238188
0
LINE
8
DEFAULT_255_1_234
10
22.927979
20
21.0511169
11
22.8163378
21
21.0511169
0
ARC
8
DEFAULT_255_1_234
10
22.9250656
20
21.5116713
40
0.3392876
50
270.4919872
51
281.8951556
0
ARC
8
DEFAULT_255_1_234
10
22.9491918
20
21.4014702
40
0.2264817
50
281.6691735
51
301.2943132
0
ARC
8
DEFAULT_255_1_234
10
22.9662128
20
21.3703304
40
0.1910381
50
301.7833094
51
311.7545298
0
ARC
8
DEFAULT_255_1_234
10
22.9753704
20
21.3601748
40
0.1773635
50
311.7323931
51
354.2802411
0
ARC
8
DEFAULT_255_1_234
10
22.9027329
20
21.3726722
40
0.2509385
50
353.0937916
51
0.1181479
0
ARC
8
DEFAULT_255_1_234
10
22.8566114
20
21.3774386
40
0.2970898
50
359.1805295
51
15.0453146
0
ARC
8
DEFAULT_255_1_234
10
22.9911951
20
21.4166992
40
0.1569564
50
13.9577229
51
77.6713066
0
ARC
8
DEFAULT_255_1_234
10
22.952548
20
21.2781949
40
0.3006298
50
76.1116566
51
90.7026153
0
ARC
8
DEFAULT_255_1_234
10
22.9466318
20
21.3055545
40
0.2732568
50
89.5324876
51
103.531937
0
ARC
8
DEFAULT_255_1_234
10
22.9265762
20
21.3854884
40
0.1908508
50
103.2931773
51
133.5619022
0
ARC
8
DEFAULT_255_1_234
10
22.9221251
20
21.3914375
40
0.1834746
50
133.8349307
51
173.5344437
0
ARC
8
DEFAULT_255_1_234
10
22.9944294
20
21.3786213
40
0.2568033
50
172.5096846
51
180.1366907
0
ARC
8
DEFAULT_255_1_234
10
22.8993188
20
21.3820622
40
0.3103056
50
155.3484492
51
180.7484736
0
ARC
8
DEFAULT_255_1_234
10
22.8944277
20
21.3791846
40
0.3070957
50
131.5744599
51
154.4798489
0
ARC
8
DEFAULT_255_1_234
10
22.9257424
20
21.347531
40
0.3515643
50
96.9875458
51
131.9690667
0
ARC
8
DEFAULT_255_1_234
10
22.9476904
20
21.2229636
40
0.4779224
50
89.8596053
51
97.7825159
0
ARC
8
DEFAULT_255_1_234
10
22.9524967
20
21.1967616
40
0.5041361
50
78.3655447
51
90.4131539
0
ARC
8
DEFAULT_255_1_234
10
22.9882885
20
21.3626887
40
0.3344039
50
56.6229102
51
78.638727
0
ARC
8
DEFAULT_255_1_234
10
23.0097829
20
21.4002805
40
0.2912001
50
47.0253525
51
56.0854072
0
ARC
8
DEFAULT_255_1_234
10
23.0117609
20
21.4042223
40
0.2869704
50
10.9208013
51
46.7778124
0
ARC
8
DEFAULT_255_1_234
10
22.8753675
20
21.3726857
40
0.426899
50
359.6364486
51
11.6087304
0
ARC
8
DEFAULT_255_1_234
10
23.0588519
20
21.3711752
40
0.243409
50
332.3549906
51
359.7179418
0
ARC
8
DEFAULT_255_1_234
10
22.9938121
20
21.4020142
40
0.3153459
50
325.2333722
51
332.8745602
0
ARC
8
DEFAULT_255_1_234
10
23.0090744
20
21.3913828
40
0.2967456
50
292.9802137
51
325.2392345
0
ARC
8
DEFAULT_255_1_234
10
22.9816118
20
21.4447863
40
0.3566604
50
292.5402179
51
293.6924929
0
ARC
8
DEFAULT_255_1_234
10
23.0208714
20
20.7993091
40
0.3307468
50
57.6435486
51
72.8625112
0
ARC
8
DEFAULT_255_1_234
10
23.0563214
20
20.8567549
40
0.2632492
50
36.7248896
51
57.4697979
0
ARC
8
DEFAULT_255_1_234
10
23.0551847
20
20.858022
40
0.2634081
50
8.0545065
51
36.356114
0
ARC
8
DEFAULT_255_1_234
10
22.9689032
20
20.8425174
40
0.3510261
50
359.8320645
51
8.5869982
0
ARC
8
DEFAULT_255_1_234
10
22.9313808
20
20.8377101
40
0.3885653
50
343.9829931
51
0.5571613
0
ARC
8
DEFAULT_255_1_234
10
23.0200005
20
20.8134438
40
0.2966924
50
311.6359546
51
343.7651759
0
ARC
8
DEFAULT_255_1_234
10
22.9821574
20
20.8561102
40
0.3537231
50
279.7829875
51
311.6255694
0
ARC
8
DEFAULT_255_1_234
10
22.9520351
20
20.999828
40
0.5004971
50
269.7286406
51
280.3856417
0
ARC
8
DEFAULT_255_1_234
10
22.9458423
20
20.9956996
40
0.4963778
50
256.6828919
51
270.4412052
0
ARC
8
DEFAULT_255_1_234
10
22.9119719
20
20.8572394
40
0.3538406
50
229.4223008
51
256.8556159
0
ARC
8
DEFAULT_255_1_234
10
22.8705112
20
20.8105736
40
0.2914296
50
181.818294
51
229.6455059
0
ARC
8
DEFAULT_255_1_234
10
22.9745068
20
20.8236496
40
0.3959084
50
179.9755256
51
183.2323064
0
ARC
8
DEFAULT_255_1_234
10
22.9572814
20
20.8216037
40
0.2293034
50
179.4465117
51
196.2869258
0
ARC
8
DEFAULT_255_1_234
10
22.9085222
20
20.8082651
40
0.1787621
50
196.5661473
51
227.705904
0
ARC
8
DEFAULT_255_1_234
10
22.9249317
20
20.8266155
40
0.2033784
50
227.7652068
51
257.8762805
0
ARC
8
DEFAULT_255_1_234
10
22.9474287
20
20.9209156
40
0.3003081
50
257.4584385
51
270.426602
0
ARC
8
DEFAULT_255_1_234
10
22.9519853
20
20.9498996
40
0.329292
50
269.5962073
51
280.8789248
0
ARC
8
DEFAULT_255_1_234
10
22.9749382
20
20.8352685
40
0.2123908
50
280.6346389
51
299.8595945
0
ARC
8
DEFAULT_255_1_234
10
22.9940289
20
20.7990212
40
0.171457
50
300.3576302
51
314.5517981
0
ARC
8
DEFAULT_255_1_234
10
22.9857349
20
20.8050919
40
0.1816095
50
315.0728369
51
345.0431014
0
ARC
8
DEFAULT_255_1_234
10
22.8934163
20
20.8319841
40
0.2777492
50
344.5986631
51
357.9269593
0
ARC
8
DEFAULT_255_1_234
10
22.8038489
20
20.8381276
40
0.3674917
50
357.4748886
51
0.0231117
0
ARC
8
DEFAULT_255_1_234
10
22.9061599
20
20.8405679
40
0.2651907
50
359.5047933
51
13.4239635
0
ARC
8
DEFAULT_255_1_234
10
22.9928242
20
20.8627478
40
0.1757509
50
12.9498199
51
48.7551375
0
ARC
8
DEFAULT_255_1_234
10
22.9745976
20
20.83784
40
0.2065134
50
49.5088623
51
72.1836453
0
ARC
8
DEFAULT_255_1_234
10
22.9388129
20
20.7316291
40
0.3185836
50
71.9010081
51
84.3554254
0
ARC
8
DEFAULT_255_1_234
10
22.9226761
20
20.5955326
40
0.4556151
50
84.0193428
51
89.333121
0
LINE
8
DEFAULT_255_1_234
10
24.2572316
20
21.2069327
11
24.2572316
21
21.0141709
0
LINE
8
DEFAULT_255_1_234
10
23.5191149
20
20.9940916
11
23.5191149
21
21.1924755
0
LINE
8
DEFAULT_255_1_234
10
24.1086445
20
20.9740123
11
24.1086445
21
21.2173739
0
LINE
8
DEFAULT_255_1_234
10
23.6677021
20
21.2286184
11
23.6677021
21
20.9908789
0
ARC
8
DEFAULT_255_1_234
10
23.0325206
20
21.0092805
40
1.2247208
50
353.8441951
51
0.2287902
0
ARC
8
DEFAULT_255_1_234
10
23.496471
20
20.9574806
40
0.7578929
50
344.4934747
51
353.9765454
0
ARC
8
DEFAULT_255_1_234
10
23.79573
20
20.8723981
40
0.4467846
50
329.2803592
51
344.7472793
0
ARC
8
DEFAULT_255_1_234
10
23.8950125
20
20.8179018
40
0.3336173
50
324.9352394
51
328.6160465
0
ARC
8
DEFAULT_255_1_234
10
23.9327233
20
20.7915427
40
0.2876076
50
280.580143
51
324.9173126
0
ARC
8
DEFAULT_255_1_234
10
23.8926026
20
20.9586099
40
0.4592847
50
269.5977311
51
281.6734359
0
ARC
8
DEFAULT_255_1_234
10
23.8853932
20
20.9466173
40
0.4472986
50
256.6228859
51
270.51044
0
ARC
8
DEFAULT_255_1_234
10
23.8451909
20
20.7917877
40
0.2873874
50
215.8618325
51
257.2788573
0
ARC
8
DEFAULT_255_1_234
10
23.9472941
20
20.8602977
40
0.4102928
50
197.9693508
51
215.2623606
0
ARC
8
DEFAULT_255_1_234
10
24.1958057
20
20.9441709
40
0.6725652
50
187.8816417
51
198.2346507
0
ARC
8
DEFAULT_255_1_234
10
24.5916265
20
21.0013079
40
1.0724845
50
180.8976217
51
188.0055519
0
ARC
8
DEFAULT_255_1_234
10
24.8716453
20
21.0116777
40
1.3526448
50
180.7449369
51
181.1510016
0
ARC
8
DEFAULT_255_1_234
10
24.7139182
20
21.1973042
40
1.1948131
50
173.7675579
51
180.231553
0
ARC
8
DEFAULT_255_1_234
10
24.2621329
20
21.2483666
40
0.7401564
50
164.3058563
51
173.9002247
0
ARC
8
DEFAULT_255_1_234
10
23.9709398
20
21.3322656
40
0.4371288
50
148.7922025
51
164.568378
0
ARC
8
DEFAULT_255_1_234
10
23.875785
20
21.3853929
40
0.3282386
50
144.5883898
51
148.1176286
0
ARC
8
DEFAULT_255_1_234
10
23.8414748
20
21.4093315
40
0.2864044
50
101.6440918
51
144.514236
0
ARC
8
DEFAULT_255_1_234
10
23.8839814
20
21.2404069
40
0.4604934
50
89.5284041
51
102.5819763
0
ARC
8
DEFAULT_255_1_234
10
23.8918902
20
21.2365018
40
0.464401
50
77.0437873
51
90.5081339
0
ARC
8
DEFAULT_255_1_234
10
23.9320904
20
21.4007615
40
0.2953195
50
48.2778575
51
77.4994676
0
ARC
8
DEFAULT_255_1_234
10
23.9393535
20
21.4136746
40
0.2808655
50
36.3142134
51
47.6305865
0
ARC
8
DEFAULT_255_1_234
10
23.8524842
20
21.3551515
40
0.3855453
50
18.2931786
51
35.6769206
0
ARC
8
DEFAULT_255_1_234
10
23.5981601
20
21.2678593
40
0.654423
50
8.024666
51
18.5605216
0
ARC
8
DEFAULT_255_1_234
10
23.1818521
20
21.2063792
40
1.0752407
50
1.1274072
51
8.1718305
0
ARC
8
DEFAULT_255_1_234
10
22.8582712
20
21.1936885
40
1.3990231
50
0.5424119
51
1.3863029
0
ARC
8
DEFAULT_255_1_234
10
23.0404089
20
21.2209342
40
1.0682415
50
359.8090433
51
4.9407866
0
ARC
8
DEFAULT_255_1_234
10
23.4614103
20
21.2585113
40
0.6455691
50
4.8362157
51
12.2904523
0
ARC
8
DEFAULT_255_1_234
10
23.7369218
20
21.3198965
40
0.3633074
50
12.0805627
51
23.8173984
0
ARC
8
DEFAULT_255_1_234
10
23.8542924
20
21.3695919
40
0.2358723
50
24.2871213
51
31.3935614
0
ARC
8
DEFAULT_255_1_234
10
23.9067621
20
21.4039233
40
0.1732111
50
30.7407893
51
82.4657128
0
ARC
8
DEFAULT_255_1_234
10
23.8887755
20
21.3155691
40
0.263235
50
81.1060089
51
90.2184952
0
ARC
8
DEFAULT_255_1_234
10
23.8852054
20
21.3413924
40
0.2374236
50
89.3806855
51
105.6762551
0
ARC
8
DEFAULT_255_1_234
10
23.8668685
20
21.4080567
40
0.1682847
50
105.7981136
51
149.7388061
0
ARC
8
DEFAULT_255_1_234
10
23.9732763
20
21.344095
40
0.2924306
50
149.4208916
51
163.6286378
0
ARC
8
DEFAULT_255_1_234
10
24.1823651
20
21.280325
40
0.5110213
50
163.3763315
51
172.1410975
0
ARC
8
DEFAULT_255_1_234
10
24.512437
20
21.2330518
40
0.8444586
50
172.0259487
51
178.0703232
0
ARC
8
DEFAULT_255_1_234
10
24.815446
20
21.2186906
40
1.1477868
50
177.8631668
51
179.5044149
0
ARC
8
DEFAULT_255_1_234
10
24.7081864
20
20.9872389
40
1.0404907
50
179.7995573
51
185.2460446
0
ARC
8
DEFAULT_255_1_234
10
24.3038903
20
20.9489513
40
0.6343885
50
185.1411642
51
193.0079639
0
ARC
8
DEFAULT_255_1_234
10
24.0395376
20
20.8864641
40
0.3627568
50
192.7897626
51
205.2507664
0
ARC
8
DEFAULT_255_1_234
10
23.9348923
20
20.8397415
40
0.2481908
50
205.8005384
51
211.2537509
0
ARC
8
DEFAULT_255_1_234
10
23.8825363
20
20.804658
40
0.1852521
50
210.3789793
51
238.4008143
0
ARC
8
DEFAULT_255_1_234
10
23.8805885
20
20.8093376
40
0.1882621
50
239.6520629
51
265.9793761
0
ARC
8
DEFAULT_255_1_234
10
23.8891085
20
20.8765427
40
0.2559272
50
265.1315437
51
270.060332
0
ARC
8
DEFAULT_255_1_234
10
23.8919864
20
20.8441534
40
0.2235528
50
269.3314664
51
287.2178029
0
ARC
8
DEFAULT_255_1_234
10
23.9057716
20
20.7938279
40
0.1714108
50
287.7958004
51
329.080874
0
ARC
8
DEFAULT_255_1_234
10
23.8100173
20
20.853593
40
0.2842745
50
328.6634704
51
343.3325132
0
ARC
8
DEFAULT_255_1_234
10
23.5927193
20
20.9212863
40
0.5118644
50
343.0499468
51
351.9393422
0
ARC
8
DEFAULT_255_1_234
10
23.2460493
20
20.9723949
40
0.8622784
50
351.8069023
51
357.7959224
0
ARC
8
DEFAULT_255_1_234
10
22.9225049
20
20.9891721
40
1.1862365
50
357.5871873
51
359.2677531
0
LINE
8
DEFAULT_255_1_234
10
23.3665119
20
28.5741792
11
23.3665119
21
28.4529
0
LINE
8
DEFAULT_255_1_234
10
23.3665119
20
28.4529
11
22.600284
21
28.4529
0
LINE
8
DEFAULT_255_1_234
10
22.600284
20
28.4529
11
22.600284
21
28.5597221
0
LINE
8
DEFAULT_255_1_234
10
22.600284
20
28.5597221
11
23.0050836
21
29.0094995
0
LINE
8
DEFAULT_255_1_234
10
22.7263823
20
29.2777595
11
22.5777952
21
29.2777595
0
LINE
8
DEFAULT_255_1_234
10
23.0926296
20
28.9139218
11
22.7793918
21
28.5741792
0
LINE
8
DEFAULT_255_1_234
10
22.7793918
20
28.5741792
11
23.3665119
21
28.5741792
0
ARC
8
DEFAULT_255_1_234
10
21.656067
20
30.2024527
40
1.8008286
50
318.5132453
51
320.7828378
0
ARC
8
DEFAULT_255_1_234
10
22.1847644
20
29.7721426
40
1.1191493
50
320.7372736
51
323.9737074
0
ARC
8
DEFAULT_255_1_234
10
22.5767501
20
29.4881361
40
0.6350923
50
323.8961724
51
328.6421089
0
ARC
8
DEFAULT_255_1_234
10
22.7814096
20
29.3619031
40
0.3946393
50
328.8299013
51
331.789948
0
ARC
8
DEFAULT_255_1_234
10
22.8811274
20
29.3104509
40
0.2824501
50
331.4255242
51
352.9364833
0
ARC
8
DEFAULT_255_1_234
10
22.8947775
20
29.3073976
40
0.2685315
50
353.2248685
51
0.0169286
0
ARC
8
DEFAULT_255_1_234
10
22.9157652
20
29.309695
40
0.2475536
50
359.4866256
51
15.9339782
0
ARC
8
DEFAULT_255_1_234
10
22.9664637
20
29.3233286
40
0.1950618
50
16.1714718
51
43.5284424
0
ARC
8
DEFAULT_255_1_234
10
22.9741946
20
29.3310573
40
0.184134
50
43.4415429
51
83.1661404
0
ARC
8
DEFAULT_255_1_234
10
22.9607864
20
29.2573771
40
0.258926
50
82.160215
51
90.1505798
0
ARC
8
DEFAULT_255_1_234
10
22.9576291
20
29.2036865
40
0.3126255
50
89.5460705
51
102.5418777
0
ARC
8
DEFAULT_255_1_234
10
22.9333377
20
29.3067665
40
0.2067346
50
102.1739365
51
129.2061916
0
ARC
8
DEFAULT_255_1_234
10
22.9254449
20
29.3192094
40
0.1921118
50
129.7279328
51
135.7542026
0
ARC
8
DEFAULT_255_1_234
10
22.9375977
20
29.3095045
40
0.2075944
50
136.175737
51
166.3674722
0
ARC
8
DEFAULT_255_1_234
10
23.0382896
20
29.2825182
40
0.3118201
50
165.9092917
51
178.8683903
0
ARC
8
DEFAULT_255_1_234
10
23.1247757
20
29.2778179
40
0.3983935
50
178.438168
51
180.0083905
0
ARC
8
DEFAULT_255_1_234
10
22.9846359
20
29.2817231
40
0.4068601
50
163.2878735
51
180.5581814
0
ARC
8
DEFAULT_255_1_234
10
22.9044621
20
29.303784
40
0.3237344
50
133.454115
51
162.9470031
0
ARC
8
DEFAULT_255_1_234
10
22.9223162
20
29.2848
40
0.349795
50
100.7869394
51
133.4384016
0
ARC
8
DEFAULT_255_1_234
10
22.9570934
20
29.1299319
40
0.5084616
50
89.6605301
51
101.3704185
0
ARC
8
DEFAULT_255_1_234
10
22.9637273
20
29.1360496
40
0.502348
50
78.2171172
51
90.4130393
0
ARC
8
DEFAULT_255_1_234
10
22.9992351
20
29.2984637
40
0.3361092
50
55.9268222
51
78.4888551
0
ARC
8
DEFAULT_255_1_234
10
23.0188791
20
29.3323324
40
0.2970617
50
47.9292255
51
55.4054003
0
ARC
8
DEFAULT_255_1_234
10
23.0290352
20
29.3426502
40
0.2825983
50
4.3347696
51
48.0560701
0
ARC
8
DEFAULT_255_1_234
10
22.9194745
20
29.3256601
40
0.393225
50
359.925209
51
5.5967654
0
ARC
8
DEFAULT_255_1_234
10
22.9623637
20
29.3312816
40
0.3503892
50
337.8914096
51
358.9967724
0
ARC
8
DEFAULT_255_1_234
10
22.6910049
20
29.4359706
40
0.6412172
50
326.9135351
51
338.3505194
0
ARC
8
DEFAULT_255_1_234
10
22.2924353
20
29.6914284
40
1.1146189
50
319.6472867
51
327.095818
0
ARC
8
DEFAULT_255_1_234
10
21.9091356
20
30.0076
40
1.6114559
50
317.2586784
51
319.9046139
0
LINE
8
DEFAULT_255_1_234
10
24.2427745
20
29.1548739
11
24.2427745
21
29.1115025
0
LINE
8
DEFAULT_255_1_234
10
23.7006322
20
28.4520968
11
23.6717179
21
28.4520968
0
LINE
8
DEFAULT_255_1_234
10
23.6717179
20
28.4520968
11
23.6717179
21
28.5773919
0
LINE
8
DEFAULT_255_1_234
10
23.6717179
20
28.5773919
11
23.7030417
21
28.5773919
0
LINE
8
DEFAULT_255_1_234
10
24.0941874
20
29.1259597
11
24.0941874
21
29.1853945
0
ARC
8
DEFAULT_255_1_234
10
23.8148143
20
29.2005403
40
0.3635579
50
297.4037347
51
320.016758
0
ARC
8
DEFAULT_255_1_234
10
23.8438092
20
29.144824
40
0.3007486
50
270.2633101
51
297.3851877
0
ARC
8
DEFAULT_255_1_234
10
23.8404048
20
29.1911904
40
0.3471448
50
269.9966443
51
270.7900392
0
ARC
8
DEFAULT_255_1_234
10
23.8378529
20
29.1910143
40
0.3469779
50
254.5999133
51
270.4180344
0
ARC
8
DEFAULT_255_1_234
10
23.8235888
20
29.1345647
40
0.2887697
50
236.4717942
51
254.3541279
0
ARC
8
DEFAULT_255_1_234
10
23.8392106
20
29.1555711
40
0.3149125
50
208.4727207
51
236.2134933
0
ARC
8
DEFAULT_255_1_234
10
23.9030881
20
29.1946455
40
0.3897115
50
204.3447514
51
209.0453999
0
ARC
8
DEFAULT_255_1_234
10
23.9710457
20
29.2234656
40
0.4635101
50
183.9375985
51
204.1276318
0
ARC
8
DEFAULT_255_1_234
10
24.0618708
20
29.2332482
40
0.5548037
50
179.9652252
51
184.3013875
0
ARC
8
DEFAULT_255_1_234
10
24.0378754
20
29.2365507
40
0.5308164
50
166.7585989
51
180.3201225
0
ARC
8
DEFAULT_255_1_234
10
23.9532368
20
29.2549488
40
0.4442163
50
154.6955053
51
166.5679793
0
ARC
8
DEFAULT_255_1_234
10
23.8679238
20
29.297921
40
0.3487299
50
136.3324195
51
155.0871442
0
ARC
8
DEFAULT_255_1_234
10
23.8398311
20
29.3219954
40
0.3117924
50
121.236733
51
135.9680508
0
ARC
8
DEFAULT_255_1_234
10
23.8538809
20
29.2959743
40
0.3413302
50
96.845628
51
120.9881519
0
ARC
8
DEFAULT_255_1_234
10
23.8684391
20
29.2024515
40
0.4359341
50
89.8870174
51
97.2802754
0
ARC
8
DEFAULT_255_1_234
10
23.8736829
20
29.2662095
40
0.3722009
50
70.6505584
51
90.6749113
0
ARC
8
DEFAULT_255_1_234
10
23.8868108
20
29.3175361
40
0.3194571
50
36.7492984
51
69.8219918
0
ARC
8
DEFAULT_255_1_234
10
23.7869273
20
29.2396993
40
0.4460685
50
15.39587
51
37.0840084
0
ARC
8
DEFAULT_255_1_234
10
23.5739706
20
29.1776242
40
0.6678714
50
3.9488873
51
15.6798563
0
ARC
8
DEFAULT_255_1_234
10
23.3338334
20
29.1559964
40
0.9089418
50
359.929245
51
4.2665314
0
ARC
8
DEFAULT_255_1_234
10
22.8732771
20
29.1048513
40
1.3695135
50
352.8366322
51
0.2782669
0
ARC
8
DEFAULT_255_1_234
10
23.402045
20
29.0361629
40
0.8363105
50
341.8359505
51
352.9884176
0
ARC
8
DEFAULT_255_1_234
10
23.7239169
20
28.92767
40
0.4966642
50
322.8578092
51
342.1527901
0
ARC
8
DEFAULT_255_1_234
10
23.8103125
20
28.8687384
40
0.3922466
50
319.334325
51
322.0998941
0
ARC
8
DEFAULT_255_1_234
10
23.7793462
20
28.8998209
40
0.4360033
50
285.9541367
51
318.8878087
0
ARC
8
DEFAULT_255_1_234
10
23.7066723
20
29.13086
40
0.678149
50
272.9281676
51
286.4922826
0
ARC
8
DEFAULT_255_1_234
10
23.6876841
20
29.3559587
40
0.9039547
50
270.8207226
51
273.4012994
0
ARC
8
DEFAULT_255_1_234
10
23.6965692
20
29.1740666
40
0.5967098
50
270.6214993
51
281.4062806
0
ARC
8
DEFAULT_255_1_234
10
23.7395673
20
28.9684833
40
0.3866861
50
281.1852553
51
299.0621114
0
ARC
8
DEFAULT_255_1_234
10
23.7769244
20
28.8963798
40
0.3055236
50
299.5067782
51
313.1200873
0
ARC
8
DEFAULT_255_1_234
10
23.7791211
20
28.8884554
40
0.2982623
50
313.8526205
51
338.5989322
0
ARC
8
DEFAULT_255_1_234
10
23.6167285
20
28.9551781
40
0.4738131
50
338.2523585
51
351.2430902
0
ARC
8
DEFAULT_255_1_234
10
23.3756581
20
28.9961447
40
0.7183203
50
350.9409515
51
357.6691871
0
ARC
8
DEFAULT_255_1_234
10
23.8647011
20
29.1963764
40
0.2294452
50
269.9447023
51
306.8248917
0
ARC
8
DEFAULT_255_1_234
10
23.8409926
20
29.2386898
40
0.2775994
50
305.5072438
51
327.0773448
0
ARC
8
DEFAULT_255_1_234
10
23.8528367
20
29.2292025
40
0.2625056
50
327.4104943
51
336.840169
0
ARC
8
DEFAULT_255_1_234
10
23.5434432
20
29.1886302
40
0.5507537
50
359.6633817
51
10.117533
0
ARC
8
DEFAULT_255_1_234
10
23.718823
20
29.2210777
40
0.372403
50
9.9430141
51
26.7700076
0
ARC
8
DEFAULT_255_1_234
10
23.7785442
20
29.2486187
40
0.3066865
50
27.2015464
51
34.6829435
0
ARC
8
DEFAULT_255_1_234
10
23.8274922
20
29.2853977
40
0.245519
50
34.1250343
51
50.3070065
0
ARC
8
DEFAULT_255_1_234
10
23.8721602
20
29.3388385
40
0.1758693
50
50.3851167
51
90.6705993
0
ARC
8
DEFAULT_255_1_234
10
23.8674835
20
29.3083799
40
0.2063326
50
89.272901
51
111.9140407
0
ARC
8
DEFAULT_255_1_234
10
23.8655363
20
29.322444
40
0.1925887
50
112.9382311
51
142.5320782
0
ARC
8
DEFAULT_255_1_234
10
23.9201543
20
29.2780969
40
0.2629232
50
142.1021256
51
166.3835592
0
ARC
8
DEFAULT_255_1_234
10
24.0382848
20
29.2475915
40
0.3849193
50
166.1100289
51
178.665427
0
ARC
8
DEFAULT_255_1_234
10
24.1430437
20
29.2417117
40
0.4897989
50
178.2632126
51
180.0111093
0
ARC
8
DEFAULT_255_1_234
10
24.0628558
20
29.2388728
40
0.40962
50
179.6161962
51
191.8787166
0
ARC
8
DEFAULT_255_1_234
10
23.9408397
20
29.2118896
40
0.2846655
50
191.6191692
51
215.2972286
0
ARC
8
DEFAULT_255_1_234
10
23.9211588
20
29.2003918
40
0.2619665
50
215.7320102
51
216.5355409
0
ARC
8
DEFAULT_255_1_234
10
23.8672674
20
29.1571647
40
0.1929497
50
215.7486685
51
239.9727502
0
ARC
8
DEFAULT_255_1_234
10
23.860259
20
29.1520894
40
0.1850822
50
241.0650169
51
269.2810483
0
ARC
8
DEFAULT_255_1_234
10
23.8644505
20
29.2011371
40
0.2342059
50
268.4062526
51
270.0071348
0
LINE
8
DEFAULT_255_1_234
10
23.3665119
20
36.5116792
11
23.3665119
21
36.3904
0
LINE
8
DEFAULT_255_1_234
10
23.3665119
20
36.3904
11
22.600284
21
36.3904
0
LINE
8
DEFAULT_255_1_234
10
22.600284
20
36.3904
11
22.600284
21
36.4972221
0
LINE
8
DEFAULT_255_1_234
10
22.600284
20
36.4972221
11
23.0050836
21
36.9469995
0
LINE
8
DEFAULT_255_1_234
10
22.7263823
20
37.2152595
11
22.5777952
21
37.2152595
0
LINE
8
DEFAULT_255_1_234
10
23.0926296
20
36.8514218
11
22.7793918
21
36.5116792
0
LINE
8
DEFAULT_255_1_234
10
22.7793918
20
36.5116792
11
23.3665119
21
36.5116792
0
ARC
8
DEFAULT_255_1_234
10
21.656067
20
38.1399527
40
1.8008286
50
318.5132453
51
320.7828378
0
ARC
8
DEFAULT_255_1_234
10
22.1847644
20
37.7096426
40
1.1191493
50
320.7372736
51
323.9737074
0
ARC
8
DEFAULT_255_1_234
10
22.5767501
20
37.4256361
40
0.6350923
50
323.8961724
51
328.6421089
0
ARC
8
DEFAULT_255_1_234
10
22.7814096
20
37.2994031
40
0.3946393
50
328.8299013
51
331.789948
0
ARC
8
DEFAULT_255_1_234
10
22.8811274
20
37.2479509
40
0.2824501
50
331.4255242
51
352.9364833
0
ARC
8
DEFAULT_255_1_234
10
22.8947775
20
37.2448976
40
0.2685315
50
353.2248685
51
0.0169286
0
ARC
8
DEFAULT_255_1_234
10
22.9157652
20
37.247195
40
0.2475536
50
359.4866256
51
15.9339782
0
ARC
8
DEFAULT_255_1_234
10
22.9664637
20
37.2608286
40
0.1950618
50
16.1714718
51
43.5284424
0
ARC
8
DEFAULT_255_1_234
10
22.9741946
20
37.2685573
40
0.184134
50
43.4415429
51
83.1661404
0
ARC
8
DEFAULT_255_1_234
10
22.9607864
20
37.1948771
40
0.258926
50
82.160215
51
90.1505798
0
ARC
8
DEFAULT_255_1_234
10
22.9576291
20
37.1411865
40
0.3126255
50
89.5460705
51
102.5418777
0
ARC
8
DEFAULT_255_1_234
10
22.9333377
20
37.2442665
40
0.2067346
50
102.1739365
51
129.2061916
0
ARC
8
DEFAULT_255_1_234
10
22.9254449
20
37.2567094
40
0.1921118
50
129.7279328
51
135.7542026
0
ARC
8
DEFAULT_255_1_234
10
22.9375977
20
37.2470045
40
0.2075944
50
136.175737
51
166.3674722
0
ARC
8
DEFAULT_255_1_234
10
23.0382896
20
37.2200182
40
0.3118201
50
165.9092917
51
178.8683903
0
ARC
8
DEFAULT_255_1_234
10
23.1247757
20
37.2153179
40
0.3983935
50
178.438168
51
180.0083905
0
ARC
8
DEFAULT_255_1_234
10
22.9846359
20
37.2192231
40
0.4068601
50
163.2878735
51
180.5581814
0
ARC
8
DEFAULT_255_1_234
10
22.9044621
20
37.241284
40
0.3237344
50
133.454115
51
162.9470031
0
ARC
8
DEFAULT_255_1_234
10
22.9223162
20
37.2223
40
0.349795
50
100.7869394
51
133.4384016
0
ARC
8
DEFAULT_255_1_234
10
22.9570934
20
37.0674319
40
0.5084616
50
89.6605301
51
101.3704185
0
ARC
8
DEFAULT_255_1_234
10
22.9637273
20
37.0735496
40
0.502348
50
78.2171172
51
90.4130393
0
ARC
8
DEFAULT_255_1_234
10
22.9992351
20
37.2359637
40
0.3361092
50
55.9268222
51
78.4888551
0
ARC
8
DEFAULT_255_1_234
10
23.0188791
20
37.2698324
40
0.2970617
50
47.9292255
51
55.4054003
0
ARC
8
DEFAULT_255_1_234
10
23.0290352
20
37.2801502
40
0.2825983
50
4.3347696
51
48.0560701
0
ARC
8
DEFAULT_255_1_234
10
22.9194745
20
37.2631601
40
0.393225
50
359.925209
51
5.5967654
0
ARC
8
DEFAULT_255_1_234
10
22.9623637
20
37.2687816
40
0.3503892
50
337.8914096
51
358.9967724
0
ARC
8
DEFAULT_255_1_234
10
22.6910049
20
37.3734706
40
0.6412172
50
326.9135351
51
338.3505194
0
ARC
8
DEFAULT_255_1_234
10
22.2924353
20
37.6289284
40
1.1146189
50
319.6472867
51
327.095818
0
ARC
8
DEFAULT_255_1_234
10
21.9091356
20
37.9451
40
1.6114559
50
317.2586784
51
319.9046139
0
ARC
8
DEFAULT_255_1_234
10
23.9509123
20
37.2520703
40
0.2822356
50
338.8763615
51
0.5166041
0
ARC
8
DEFAULT_255_1_234
10
23.9677777
20
37.2475208
40
0.2648703
50
325.8412414
51
338.4795939
0
ARC
8
DEFAULT_255_1_234
10
23.9287145
20
37.2746042
40
0.3124019
50
296.7586019
51
325.753654
0
ARC
8
DEFAULT_255_1_234
10
23.8999253
20
37.3230789
40
0.368668
50
296.0902311
51
297.3618122
0
ARC
8
DEFAULT_255_1_234
10
23.9256711
20
36.6676041
40
0.3518806
50
47.9009248
51
67.1946869
0
ARC
8
DEFAULT_255_1_234
10
23.9452953
20
36.6922395
40
0.320451
50
35.236241
51
47.551371
0
ARC
8
DEFAULT_255_1_234
10
23.9714571
20
36.7096993
40
0.2890103
50
359.2759738
51
35.4014081
0
ARC
8
DEFAULT_255_1_234
10
23.8969602
20
36.7023826
40
0.3635026
50
343.1294516
51
0.5776525
0
ARC
8
DEFAULT_255_1_234
10
23.9694147
20
36.682433
40
0.2883832
50
310.8497458
51
342.744803
0
ARC
8
DEFAULT_255_1_234
10
23.927626
20
36.7301294
40
0.3517954
50
281.5473923
51
310.9169905
0
ARC
8
DEFAULT_255_1_234
10
23.891971
20
36.8854084
40
0.5110832
50
269.6192722
51
281.9789957
0
ARC
8
DEFAULT_255_1_234
10
23.8847499
20
36.8854828
40
0.5111606
50
257.4584469
51
270.4287458
0
ARC
8
DEFAULT_255_1_234
10
23.8466642
20
36.7251344
40
0.3463762
50
228.7553743
51
257.8484423
0
ARC
8
DEFAULT_255_1_234
10
23.815684
20
36.6878442
40
0.297916
50
184.0104442
51
228.5071787
0
ARC
8
DEFAULT_255_1_234
10
23.9319784
20
36.7055512
40
0.4152734
50
179.9315461
51
185.3254504
0
ARC
8
DEFAULT_255_1_234
10
23.814343
20
36.7092992
40
0.2976554
50
145.6795913
51
180.6259649
0
ARC
8
DEFAULT_255_1_234
10
23.8306779
20
36.6978929
40
0.3175776
50
115.5537925
51
145.6416199
0
ARC
8
DEFAULT_255_1_234
10
23.8647709
20
36.6368028
40
0.3874232
50
113.2437915
51
116.2054627
0
ARC
8
DEFAULT_255_1_234
10
23.8494922
20
37.276658
40
0.3154751
50
222.9548379
51
244.1372485
0
ARC
8
DEFAULT_255_1_234
10
23.8372997
20
37.2629834
40
0.2972382
50
213.3439227
51
222.6271327
0
ARC
8
DEFAULT_255_1_234
10
23.8180932
20
37.2499308
40
0.274019
50
180.4316517
51
213.2713999
0
ARC
8
DEFAULT_255_1_234
10
23.8755933
20
37.254611
40
0.33158
50
179.9992944
51
181.1655061
0
ARC
8
DEFAULT_255_1_234
10
23.916535
20
37.2580561
40
0.3725376
50
164.6186108
51
180.5292368
0
ARC
8
DEFAULT_255_1_234
10
23.8267213
20
37.2822101
40
0.2795349
50
132.2454369
51
164.5092287
0
ARC
8
DEFAULT_255_1_234
10
23.8554317
20
37.2497028
40
0.3229019
50
100.7052766
51
132.1387266
0
ARC
8
DEFAULT_255_1_234
10
23.8859289
20
37.1119086
40
0.4639835
50
89.6732617
51
101.2449487
0
ARC
8
DEFAULT_255_1_234
10
23.8921487
20
37.129399
40
0.4464999
50
76.2876631
51
90.4586123
0
ARC
8
DEFAULT_255_1_234
10
23.9227719
20
37.251622
40
0.3205023
50
47.8240157
51
76.4266918
0
ARC
8
DEFAULT_255_1_234
10
23.9450269
20
37.277659
40
0.2862661
50
6.9168658
51
47.6261438
0
ARC
8
DEFAULT_255_1_234
10
23.8263672
20
37.255737
40
0.4067708
50
359.8419705
51
7.9694496
0
ARC
8
DEFAULT_255_1_234
10
23.8605569
20
36.7116925
40
0.2513121
50
359.4454068
51
16.9256425
0
ARC
8
DEFAULT_255_1_234
10
23.907438
20
36.7246033
40
0.2027071
50
17.292259
51
45.462717
0
ARC
8
DEFAULT_255_1_234
10
23.9020316
20
36.7199434
40
0.2098212
50
45.3028762
51
83.1921472
0
ARC
8
DEFAULT_255_1_234
10
23.8877
20
36.6397895
40
0.2911472
50
82.2614531
51
90.143954
0
ARC
8
DEFAULT_255_1_234
10
23.884612
20
36.663095
40
0.2678513
50
89.4959189
51
104.8579811
0
ARC
8
DEFAULT_255_1_234
10
23.8669379
20
36.730089
40
0.1985654
50
104.8855873
51
135.2448349
0
ARC
8
DEFAULT_255_1_234
10
23.8719152
20
36.7256336
40
0.2052373
50
135.3398955
51
172.104394
0
ARC
8
DEFAULT_255_1_234
10
23.952621
20
36.7101925
40
0.2873299
50
171.2651929
51
180.1859362
0
ARC
8
DEFAULT_255_1_234
10
23.9356911
20
36.7069733
40
0.2704083
50
179.515471
51
193.6466734
0
ARC
8
DEFAULT_255_1_234
10
23.854068
20
36.6861777
40
0.1861855
50
193.3540587
51
225.8256931
0
ARC
8
DEFAULT_255_1_234
10
23.8581437
20
36.6932524
40
0.1941102
50
226.418029
51
255.8553723
0
ARC
8
DEFAULT_255_1_234
10
23.883787
20
36.7868998
40
0.2911917
50
255.4655572
51
268.7985967
0
ARC
8
DEFAULT_255_1_234
10
23.8885062
20
36.8707491
40
0.3751331
50
268.3464808
51
270.0104874
0
ARC
8
DEFAULT_255_1_234
10
23.890845
20
36.8023138
40
0.3067064
50
269.575914
51
282.0823146
0
ARC
8
DEFAULT_255_1_234
10
23.9133359
20
36.7028803
40
0.2047712
50
281.7522535
51
306.6056425
0
ARC
8
DEFAULT_255_1_234
10
23.9231785
20
36.6867487
40
0.1859604
50
307.1350025
51
314.0277951
0
ARC
8
DEFAULT_255_1_234
10
23.9195869
20
36.6893766
40
0.1903475
50
314.2553419
51
350.169324
0
ARC
8
DEFAULT_255_1_234
10
23.8344338
20
36.7078409
40
0.2774269
50
349.4145679
51
0.2930737
0
ARC
8
DEFAULT_255_1_234
10
23.8864771
20
37.2237353
40
0.2300764
50
89.477591
51
105.729794
0
ARC
8
DEFAULT_255_1_234
10
23.8728684
20
37.2742637
40
0.1777519
50
105.922966
51
135.1662921
0
ARC
8
DEFAULT_255_1_234
10
23.8749187
20
37.2728419
40
0.1802087
50
135.3053131
51
168.9882338
0
ARC
8
DEFAULT_255_1_234
10
23.9576759
20
37.2538721
40
0.2650806
50
168.3802067
51
180.3602358
0
ARC
8
DEFAULT_255_1_234
10
23.9348339
20
37.2501041
40
0.2422425
50
179.5029707
51
194.9126783
0
ARC
8
DEFAULT_255_1_234
10
23.8763
20
37.234711
40
0.1817188
50
194.9722181
51
224.1943972
0
ARC
8
DEFAULT_255_1_234
10
23.8734867
20
37.2324169
40
0.1781027
50
224.2961434
51
262.0157375
0
ARC
8
DEFAULT_255_1_234
10
23.887711
20
37.3055661
40
0.2525492
50
261.1250369
51
270.1959853
0
ARC
8
DEFAULT_255_1_234
10
23.8906865
20
37.2868339
40
0.233825
50
269.4825617
51
285.0988277
0
ARC
8
DEFAULT_255_1_234
10
23.9061024
20
37.228999
40
0.1739712
50
285.1585659
51
315.9484648
0
ARC
8
DEFAULT_255_1_234
10
23.8972036
20
37.2371886
40
0.1860616
50
316.0412958
51
351.9162715
0
ARC
8
DEFAULT_255_1_234
10
23.8238991
20
37.2513245
40
0.2606517
50
351.1056823
51
0.1936567
0
ARC
8
DEFAULT_255_1_234
10
23.850182
20
37.2543369
40
0.234377
50
359.4789506
51
16.0679113
0
ARC
8
DEFAULT_255_1_234
10
23.8977779
20
37.267181
40
0.1850875
50
16.3251951
51
44.791304
0
ARC
8
DEFAULT_255_1_234
10
23.896006
20
37.2672339
40
0.186312
50
44.3958661
51
88.2498933
0
ARC
8
DEFAULT_255_1_234
10
23.8886614
20
37.2061154
40
0.2476868
50
86.9833827
51
90.0200148
0
LINE
8
DEFAULT_255_1_234
10
23.3665119
20
44.4491792
11
23.3665119
21
44.3279
0
LINE
8
DEFAULT_255_1_234
10
23.3665119
20
44.3279
11
22.600284
21
44.3279
0
LINE
8
DEFAULT_255_1_234
10
22.600284
20
44.3279
11
22.600284
21
44.4347221
0
LINE
8
DEFAULT_255_1_234
10
22.600284
20
44.4347221
11
23.0050836
21
44.8844995
0
LINE
8
DEFAULT_255_1_234
10
22.7263823
20
45.1527595
11
22.5777952
21
45.1527595
0
LINE
8
DEFAULT_255_1_234
10
23.0926296
20
44.7889218
11
22.7793918
21
44.4491792
0
LINE
8
DEFAULT_255_1_234
10
22.7793918
20
44.4491792
11
23.3665119
21
44.4491792
0
ARC
8
DEFAULT_255_1_234
10
21.656067
20
46.0774527
40
1.8008286
50
318.5132453
51
320.7828378
0
ARC
8
DEFAULT_255_1_234
10
22.1847644
20
45.6471426
40
1.1191493
50
320.7372736
51
323.9737074
0
ARC
8
DEFAULT_255_1_234
10
22.5767501
20
45.3631361
40
0.6350923
50
323.8961724
51
328.6421089
0
ARC
8
DEFAULT_255_1_234
10
22.7814096
20
45.2369031
40
0.3946393
50
328.8299013
51
331.789948
0
ARC
8
DEFAULT_255_1_234
10
22.8811274
20
45.1854509
40
0.2824501
50
331.4255242
51
352.9364833
0
ARC
8
DEFAULT_255_1_234
10
22.8947775
20
45.1823976
40
0.2685315
50
353.2248685
51
0.0169286
0
ARC
8
DEFAULT_255_1_234
10
22.9157652
20
45.184695
40
0.2475536
50
359.4866256
51
15.9339782
0
ARC
8
DEFAULT_255_1_234
10
22.9664637
20
45.1983286
40
0.1950618
50
16.1714718
51
43.5284424
0
ARC
8
DEFAULT_255_1_234
10
22.9741946
20
45.2060573
40
0.184134
50
43.4415429
51
83.1661404
0
ARC
8
DEFAULT_255_1_234
10
22.9607864
20
45.1323771
40
0.258926
50
82.160215
51
90.1505798
0
ARC
8
DEFAULT_255_1_234
10
22.9576291
20
45.0786865
40
0.3126255
50
89.5460705
51
102.5418777
0
ARC
8
DEFAULT_255_1_234
10
22.9333377
20
45.1817665
40
0.2067346
50
102.1739365
51
129.2061916
0
ARC
8
DEFAULT_255_1_234
10
22.9254449
20
45.1942094
40
0.1921118
50
129.7279328
51
135.7542026
0
ARC
8
DEFAULT_255_1_234
10
22.9375977
20
45.1845045
40
0.2075944
50
136.175737
51
166.3674722
0
ARC
8
DEFAULT_255_1_234
10
23.0382896
20
45.1575182
40
0.3118201
50
165.9092917
51
178.8683903
0
ARC
8
DEFAULT_255_1_234
10
23.1247757
20
45.1528179
40
0.3983935
50
178.438168
51
180.0083905
0
ARC
8
DEFAULT_255_1_234
10
22.9846359
20
45.1567231
40
0.4068601
50
163.2878735
51
180.5581814
0
ARC
8
DEFAULT_255_1_234
10
22.9044621
20
45.178784
40
0.3237344
50
133.454115
51
162.9470031
0
ARC
8
DEFAULT_255_1_234
10
22.9223162
20
45.1598
40
0.349795
50
100.7869394
51
133.4384016
0
ARC
8
DEFAULT_255_1_234
10
22.9570934
20
45.0049319
40
0.5084616
50
89.6605301
51
101.3704185
0
ARC
8
DEFAULT_255_1_234
10
22.9637273
20
45.0110496
40
0.502348
50
78.2171172
51
90.4130393
0
ARC
8
DEFAULT_255_1_234
10
22.9992351
20
45.1734637
40
0.3361092
50
55.9268222
51
78.4888551
0
ARC
8
DEFAULT_255_1_234
10
23.0188791
20
45.2073324
40
0.2970617
50
47.9292255
51
55.4054003
0
ARC
8
DEFAULT_255_1_234
10
23.0290352
20
45.2176502
40
0.2825983
50
4.3347696
51
48.0560701
0
ARC
8
DEFAULT_255_1_234
10
22.9194745
20
45.2006601
40
0.393225
50
359.925209
51
5.5967654
0
ARC
8
DEFAULT_255_1_234
10
22.9623637
20
45.2062816
40
0.3503892
50
337.8914096
51
358.9967724
0
ARC
8
DEFAULT_255_1_234
10
22.6910049
20
45.3109706
40
0.6412172
50
326.9135351
51
338.3505194
0
ARC
8
DEFAULT_255_1_234
10
22.2924353
20
45.5664284
40
1.1146189
50
319.6472867
51
327.095818
0
ARC
8
DEFAULT_255_1_234
10
21.9091356
20
45.8826
40
1.6114559
50
317.2586784
51
319.9046139
0
LINE
8
DEFAULT_255_1_234
10
24.2789173
20
45.4973211
11
24.2789173
21
45.413791
0
LINE
8
DEFAULT_255_1_234
10
24.2789173
20
45.413791
11
23.7946035
21
44.3279
0
LINE
8
DEFAULT_255_1_234
10
23.7946035
20
44.3279
11
23.6387878
21
44.3279
0
LINE
8
DEFAULT_255_1_234
10
23.6387878
20
44.3279
11
24.1214953
21
45.3752387
0
LINE
8
DEFAULT_255_1_234
10
24.1214953
20
45.3752387
11
23.4885943
21
45.3752387
0
LINE
8
DEFAULT_255_1_234
10
23.4885943
20
45.3752387
11
23.4885943
21
45.4973211
0
LINE
8
DEFAULT_255_1_234
10
23.4885943
20
45.4973211
11
24.2789173
21
45.4973211
0
LINE
8
DEFAULT_255_1_234
10
23.3665119
20
52.3866792
11
23.3665119
21
52.2654
0
LINE
8
DEFAULT_255_1_234
10
23.3665119
20
52.2654
11
22.600284
21
52.2654
0
LINE
8
DEFAULT_255_1_234
10
22.600284
20
52.2654
11
22.600284
21
52.3722221
0
LINE
8
DEFAULT_255_1_234
10
22.600284
20
52.3722221
11
23.0050836
21
52.8219995
0
LINE
8
DEFAULT_255_1_234
10
22.7263823
20
53.0902595
11
22.5777952
21
53.0902595
0
LINE
8
DEFAULT_255_1_234
10
23.0926296
20
52.7264218
11
22.7793918
21
52.3866792
0
LINE
8
DEFAULT_255_1_234
10
22.7793918
20
52.3866792
11
23.3665119
21
52.3866792
0
ARC
8
DEFAULT_255_1_234
10
21.656067
20
54.0149527
40
1.8008286
50
318.5132453
51
320.7828378
0
ARC
8
DEFAULT_255_1_234
10
22.1847644
20
53.5846426
40
1.1191493
50
320.7372736
51
323.9737074
0
ARC
8
DEFAULT_255_1_234
10
22.5767501
20
53.3006361
40
0.6350923
50
323.8961724
51
328.6421089
0
ARC
8
DEFAULT_255_1_234
10
22.7814096
20
53.1744031
40
0.3946393
50
328.8299013
51
331.789948
0
ARC
8
DEFAULT_255_1_234
10
22.8811274
20
53.1229509
40
0.2824501
50
331.4255242
51
352.9364833
0
ARC
8
DEFAULT_255_1_234
10
22.8947775
20
53.1198976
40
0.2685315
50
353.2248685
51
0.0169286
0
ARC
8
DEFAULT_255_1_234
10
22.9157652
20
53.122195
40
0.2475536
50
359.4866256
51
15.9339782
0
ARC
8
DEFAULT_255_1_234
10
22.9664637
20
53.1358286
40
0.1950618
50
16.1714718
51
43.5284424
0
ARC
8
DEFAULT_255_1_234
10
22.9741946
20
53.1435573
40
0.184134
50
43.4415429
51
83.1661404
0
ARC
8
DEFAULT_255_1_234
10
22.9607864
20
53.0698771
40
0.258926
50
82.160215
51
90.1505798
0
ARC
8
DEFAULT_255_1_234
10
22.9576291
20
53.0161865
40
0.3126255
50
89.5460705
51
102.5418777
0
ARC
8
DEFAULT_255_1_234
10
22.9333377
20
53.1192665
40
0.2067346
50
102.1739365
51
129.2061916
0
ARC
8
DEFAULT_255_1_234
10
22.9254449
20
53.1317094
40
0.1921118
50
129.7279328
51
135.7542026
0
ARC
8
DEFAULT_255_1_234
10
22.9375977
20
53.1220045
40
0.2075944
50
136.175737
51
166.3674722
0
ARC
8
DEFAULT_255_1_234
10
23.0382896
20
53.0950182
40
0.3118201
50
165.9092917
51
178.8683903
0
ARC
8
DEFAULT_255_1_234
10
23.1247757
20
53.0903179
40
0.3983935
50
178.438168
51
180.0083905
0
ARC
8
DEFAULT_255_1_234
10
22.9846359
20
53.0942231
40
0.4068601
50
163.2878735
51
180.5581814
0
ARC
8
DEFAULT_255_1_234
10
22.9044621
20
53.116284
40
0.3237344
50
133.454115
51
162.9470031
0
ARC
8
DEFAULT_255_1_234
10
22.9223162
20
53.0973
40
0.349795
50
100.7869394
51
133.4384016
0
ARC
8
DEFAULT_255_1_234
10
22.9570934
20
52.9424319
40
0.5084616
50
89.6605301
51
101.3704185
0
ARC
8
DEFAULT_255_1_234
10
22.9637273
20
52.9485496
40
0.502348
50
78.2171172
51
90.4130393
0
ARC
8
DEFAULT_255_1_234
10
22.9992351
20
53.1109637
40
0.3361092
50
55.9268222
51
78.4888551
0
ARC
8
DEFAULT_255_1_234
10
23.0188791
20
53.1448324
40
0.2970617
50
47.9292255
51
55.4054003
0
ARC
8
DEFAULT_255_1_234
10
23.0290352
20
53.1551502
40
0.2825983
50
4.3347696
51
48.0560701
0
ARC
8
DEFAULT_255_1_234
10
22.9194745
20
53.1381601
40
0.393225
50
359.925209
51
5.5967654
0
ARC
8
DEFAULT_255_1_234
10
22.9623637
20
53.1437816
40
0.3503892
50
337.8914096
51
358.9967724
0
ARC
8
DEFAULT_255_1_234
10
22.6910049
20
53.2484706
40
0.6412172
50
326.9135351
51
338.3505194
0
ARC
8
DEFAULT_255_1_234
10
22.2924353
20
53.5039284
40
1.1146189
50
319.6472867
51
327.095818
0
ARC
8
DEFAULT_255_1_234
10
21.9091356
20
53.8201
40
1.6114559
50
317.2586784
51
319.9046139
0
LINE
8
DEFAULT_255_1_234
10
24.0805334
20
53.4356243
11
24.1070381
21
53.4356243
0
LINE
8
DEFAULT_255_1_234
10
24.1070381
20
53.4356243
11
24.1070381
21
53.309526
0
LINE
8
DEFAULT_255_1_234
10
24.1070381
20
53.309526
11
24.0797302
21
53.309526
0
LINE
8
DEFAULT_255_1_234
10
23.5327688
20
52.7103583
11
23.5327688
21
52.7673836
0
LINE
8
DEFAULT_255_1_234
10
23.6821592
20
52.7481075
11
23.6821592
21
52.6934917
0
ARC
8
DEFAULT_255_1_234
10
24.084965
20
52.8097455
40
0.4998079
50
90.6001036
51
104.514704
0
ARC
8
DEFAULT_255_1_234
10
24.0461166
20
52.9542131
40
0.3502176
50
104.2855254
51
133.862935
0
ARC
8
DEFAULT_255_1_234
10
24.0624923
20
52.943383
40
0.3693984
50
134.5302688
51
161.6210873
0
ARC
8
DEFAULT_255_1_234
10
24.2278112
20
52.8850895
40
0.5446739
50
161.2849839
51
174.2076652
0
ARC
8
DEFAULT_255_1_234
10
24.3685049
20
52.8656787
40
0.6866274
50
173.7810589
51
174.9254635
0
ARC
8
DEFAULT_255_1_234
10
23.9134881
20
52.7273839
40
0.3033419
50
95.8330959
51
138.9954921
0
ARC
8
DEFAULT_255_1_234
10
23.9358237
20
52.5995375
40
0.4328947
50
89.8753725
51
97.0544009
0
ARC
8
DEFAULT_255_1_234
10
23.9405703
20
52.6830748
40
0.3493769
50
71.6407809
51
90.6240094
0
ARC
8
DEFAULT_255_1_234
10
23.9556276
20
52.7385082
40
0.2920396
50
39.6367836
51
71.019018
0
ARC
8
DEFAULT_255_1_234
10
23.8919749
20
52.6834998
40
0.3761538
50
10.658731
51
39.9043955
0
ARC
8
DEFAULT_255_1_234
10
23.7371832
20
52.6498686
40
0.5345136
50
359.682601
51
11.132623
0
ARC
8
DEFAULT_255_1_234
10
23.7331963
20
52.642801
40
0.5385081
50
347.2486944
51
0.4369317
0
ARC
8
DEFAULT_255_1_234
10
23.899944
20
52.6026807
40
0.3670249
50
318.1409698
51
347.6118597
0
ARC
8
DEFAULT_255_1_234
10
23.9324433
20
52.5759702
40
0.3250007
50
275.6342139
51
317.8248465
0
ARC
8
DEFAULT_255_1_234
10
23.9103544
20
52.7059219
40
0.4565864
50
269.8874292
51
276.7917694
0
ARC
8
DEFAULT_255_1_234
10
23.9048615
20
52.6033743
40
0.3540676
50
246.9140195
51
270.7437342
0
ARC
8
DEFAULT_255_1_234
10
23.9055005
20
52.5891384
40
0.3412781
50
218.1665114
51
245.878116
0
ARC
8
DEFAULT_255_1_234
10
23.9934466
20
52.6627279
40
0.455911
50
191.4115814
51
218.6077802
0
ARC
8
DEFAULT_255_1_234
10
24.1872555
20
52.7061833
40
0.6545001
50
179.6345085
51
191.7836486
0
ARC
8
DEFAULT_255_1_234
10
24.7454892
20
52.7740697
40
1.2127388
50
171.4525249
51
180.3158839
0
ARC
8
DEFAULT_255_1_234
10
24.3059768
20
52.8424608
40
0.7679464
50
157.9802646
51
171.6246686
0
ARC
8
DEFAULT_255_1_234
10
24.0845789
20
52.9307421
40
0.5296008
50
141.4298019
51
157.854097
0
ARC
8
DEFAULT_255_1_234
10
24.0204109
20
52.9761381
40
0.4511509
50
102.8715806
51
140.8564722
0
ARC
8
DEFAULT_255_1_234
10
24.0851725
20
52.7321552
40
0.7034845
50
90.3778349
51
103.5869322
0
ARC
8
DEFAULT_255_1_234
10
23.9113501
20
52.671673
40
0.2370698
50
89.8751008
51
126.2071704
0
ARC
8
DEFAULT_255_1_234
10
23.9159291
20
52.6562303
40
0.2522934
50
124.9745049
51
144.895901
0
ARC
8
DEFAULT_255_1_234
10
23.8983481
20
52.670556
40
0.2296779
50
145.2974905
51
160.2660252
0
ARC
8
DEFAULT_255_1_234
10
24.205602
20
52.6903071
40
0.5234525
50
179.6514266
51
190.2855912
0
ARC
8
DEFAULT_255_1_234
10
24.0362157
20
52.6583786
40
0.3510893
50
190.0945431
51
207.5098196
0
ARC
8
DEFAULT_255_1_234
10
23.9796427
20
52.6314623
40
0.288489
50
207.9583163
51
216.3251085
0
ARC
8
DEFAULT_255_1_234
10
23.9456535
20
52.6035105
40
0.2445587
50
215.7661442
51
232.5456785
0
ARC
8
DEFAULT_255_1_234
10
23.9073518
20
52.5548482
40
0.1826382
50
232.8005391
51
270.6605633
0
ARC
8
DEFAULT_255_1_234
10
23.9119219
20
52.5912612
40
0.2190529
50
269.35537
51
288.4744281
0
ARC
8
DEFAULT_255_1_234
10
23.9212116
20
52.5563118
40
0.1829749
50
289.1833337
51
322.9683818
0
ARC
8
DEFAULT_255_1_234
10
23.8600638
20
52.6045391
40
0.2608399
50
322.6007884
51
346.5182367
0
ARC
8
DEFAULT_255_1_234
10
23.7443234
20
52.6340616
40
0.3802777
50
346.2582162
51
358.7741648
0
ARC
8
DEFAULT_255_1_234
10
23.6424903
20
52.6395965
40
0.4822176
50
358.3755224
51
0.0098023
0
ARC
8
DEFAULT_255_1_234
10
23.718109
20
52.6423657
40
0.4066078
50
359.6214041
51
11.2839074
0
ARC
8
DEFAULT_255_1_234
10
23.8458237
20
52.6690066
40
0.2761514
50
11.0482309
51
31.8146458
0
ARC
8
DEFAULT_255_1_234
10
23.876728
20
52.6857584
40
0.2410679
50
32.3035391
51
38.082671
0
ARC
8
DEFAULT_255_1_234
10
23.918794
20
52.7238662
40
0.1844966
50
36.825067
51
85.7415724
0
ARC
8
DEFAULT_255_1_234
10
23.9120773
20
52.6738301
40
0.2349122
50
85.0140713
51
90.0513278
0
LINE
8
DEFAULT_255_1_234
10
23.3665119
20
60.3241792
11
23.3665119
21
60.2029
0
LINE
8
DEFAULT_255_1_234
10
23.3665119
20
60.2029
11
22.600284
21
60.2029
0
LINE
8
DEFAULT_255_1_234
10
22.600284
20
60.2029
11
22.600284
21
60.3097221
0
LINE
8
DEFAULT_255_1_234
10
22.600284
20
60.3097221
11
23.0050836
21
60.7594995
0
LINE
8
DEFAULT_255_1_234
10
22.7263823
20
61.0277595
11
22.5777952
21
61.0277595
0
LINE
8
DEFAULT_255_1_234
10
23.0926296
20
60.6639218
11
22.7793918
21
60.3241792
0
LINE
8
DEFAULT_255_1_234
10
22.7793918
20
60.3241792
11
23.3665119
21
60.3241792
0
ARC
8
DEFAULT_255_1_234
10
21.656067
20
61.9524527
40
1.8008286
50
318.5132453
51
320.7828378
0
ARC
8
DEFAULT_255_1_234
10
22.1847644
20
61.5221426
40
1.1191493
50
320.7372736
51
323.9737074
0
ARC
8
DEFAULT_255_1_234
10
22.5767501
20
61.2381361
40
0.6350923
50
323.8961724
51
328.6421089
0
ARC
8
DEFAULT_255_1_234
10
22.7814096
20
61.1119031
40
0.3946393
50
328.8299013
51
331.789948
0
ARC
8
DEFAULT_255_1_234
10
22.8811274
20
61.0604509
40
0.2824501
50
331.4255242
51
352.9364833
0
ARC
8
DEFAULT_255_1_234
10
22.8947775
20
61.0573976
40
0.2685315
50
353.2248685
51
0.0169286
0
ARC
8
DEFAULT_255_1_234
10
22.9157652
20
61.059695
40
0.2475536
50
359.4866256
51
15.9339782
0
ARC
8
DEFAULT_255_1_234
10
22.9664637
20
61.0733286
40
0.1950618
50
16.1714718
51
43.5284424
0
ARC
8
DEFAULT_255_1_234
10
22.9741946
20
61.0810573
40
0.184134
50
43.4415429
51
83.1661404
0
ARC
8
DEFAULT_255_1_234
10
22.9607864
20
61.0073771
40
0.258926
50
82.160215
51
90.1505798
0
ARC
8
DEFAULT_255_1_234
10
22.9576291
20
60.9536865
40
0.3126255
50
89.5460705
51
102.5418777
0
ARC
8
DEFAULT_255_1_234
10
22.9333377
20
61.0567665
40
0.2067346
50
102.1739365
51
129.2061916
0
ARC
8
DEFAULT_255_1_234
10
22.9254449
20
61.0692094
40
0.1921118
50
129.7279328
51
135.7542026
0
ARC
8
DEFAULT_255_1_234
10
22.9375977
20
61.0595045
40
0.2075944
50
136.175737
51
166.3674722
0
ARC
8
DEFAULT_255_1_234
10
23.0382896
20
61.0325182
40
0.3118201
50
165.9092917
51
178.8683903
0
ARC
8
DEFAULT_255_1_234
10
23.1247757
20
61.0278179
40
0.3983935
50
178.438168
51
180.0083905
0
ARC
8
DEFAULT_255_1_234
10
22.9846359
20
61.0317231
40
0.4068601
50
163.2878735
51
180.5581814
0
ARC
8
DEFAULT_255_1_234
10
22.9044621
20
61.053784
40
0.3237344
50
133.454115
51
162.9470031
0
ARC
8
DEFAULT_255_1_234
10
22.9223162
20
61.0348
40
0.349795
50
100.7869394
51
133.4384016
0
ARC
8
DEFAULT_255_1_234
10
22.9570934
20
60.8799319
40
0.5084616
50
89.6605301
51
101.3704185
0
ARC
8
DEFAULT_255_1_234
10
22.9637273
20
60.8860496
40
0.502348
50
78.2171172
51
90.4130393
0
ARC
8
DEFAULT_255_1_234
10
22.9992351
20
61.0484637
40
0.3361092
50
55.9268222
51
78.4888551
0
ARC
8
DEFAULT_255_1_234
10
23.0188791
20
61.0823324
40
0.2970617
50
47.9292255
51
55.4054003
0
ARC
8
DEFAULT_255_1_234
10
23.0290352
20
61.0926502
40
0.2825983
50
4.3347696
51
48.0560701
0
ARC
8
DEFAULT_255_1_234
10
22.9194745
20
61.0756601
40
0.393225
50
359.925209
51
5.5967654
0
ARC
8
DEFAULT_255_1_234
10
22.9623637
20
61.0812816
40
0.3503892
50
337.8914096
51
358.9967724
0
ARC
8
DEFAULT_255_1_234
10
22.6910049
20
61.1859706
40
0.6412172
50
326.9135351
51
338.3505194
0
ARC
8
DEFAULT_255_1_234
10
22.2924353
20
61.4414284
40
1.1146189
50
319.6472867
51
327.095818
0
ARC
8
DEFAULT_255_1_234
10
21.9091356
20
61.7576
40
1.6114559
50
317.2586784
51
319.9046139
0
LINE
8
DEFAULT_255_1_234
10
23.7110734
20
60.7586963
11
23.5922037
21
60.7892169
0
LINE
8
DEFAULT_255_1_234
10
23.5922037
20
60.7892169
11
23.6516386
21
61.3723211
0
LINE
8
DEFAULT_255_1_234
10
23.6516386
20
61.3723211
11
24.2508063
21
61.3723211
0
LINE
8
DEFAULT_255_1_234
10
24.2508063
20
61.3723211
11
24.2508063
21
61.2349784
0
LINE
8
DEFAULT_255_1_234
10
24.2508063
20
61.2349784
11
23.7777369
21
61.2349784
0
LINE
8
DEFAULT_255_1_234
10
23.7777369
20
61.2349784
11
23.7423972
21
60.9161184
0
LINE
8
DEFAULT_255_1_234
10
23.5504387
20
60.5105156
11
23.6909941
21
60.5105156
0
LINE
8
DEFAULT_255_1_234
10
23.750429
20
60.7908232
11
23.7110734
21
60.7586963
0
ARC
8
DEFAULT_255_1_234
10
23.9278756
20
60.598123
40
0.3681349
50
93.7182161
51
120.2538958
0
ARC
8
DEFAULT_255_1_234
10
23.9373019
20
60.5173394
40
0.449379
50
89.9660152
51
94.2496022
0
ARC
8
DEFAULT_255_1_234
10
23.9413753
20
60.5762549
40
0.390482
50
73.8043271
51
90.5585896
0
ARC
8
DEFAULT_255_1_234
10
23.964865
20
60.6620602
40
0.3015334
50
41.3071453
51
73.5430202
0
ARC
8
DEFAULT_255_1_234
10
23.9232477
20
60.6262324
40
0.3564457
50
13.5075983
51
41.2174222
0
ARC
8
DEFAULT_255_1_234
10
23.7590681
20
60.5832486
40
0.5261351
50
1.1331335
51
13.8829381
0
ARC
8
DEFAULT_255_1_234
10
23.617905
20
60.5756665
40
0.6674378
50
359.9919444
51
1.544251
0
ARC
8
DEFAULT_255_1_234
10
23.7455876
20
60.571528
40
0.5397702
50
347.8572367
51
0.4293338
0
ARC
8
DEFAULT_255_1_234
10
23.9206194
20
60.5318736
40
0.3603188
50
323.673004
51
348.1672506
0
ARC
8
DEFAULT_255_1_234
10
23.9500702
20
60.5139168
40
0.3259678
50
316.8171152
51
323.1492751
0
ARC
8
DEFAULT_255_1_234
10
23.9561891
20
60.510246
40
0.3189975
50
281.8396411
51
316.5457803
0
ARC
8
DEFAULT_255_1_234
10
23.9186155
20
60.6657762
40
0.4789527
50
269.5770101
51
282.4214771
0
ARC
8
DEFAULT_255_1_234
10
23.9114966
20
60.6444125
40
0.45759
50
256.2427136
51
270.4486331
0
ARC
8
DEFAULT_255_1_234
10
23.8815869
20
60.5244229
40
0.3339303
50
228.9023911
51
256.3314342
0
ARC
8
DEFAULT_255_1_234
10
23.8742101
20
60.5127746
40
0.32031
50
193.753695
51
228.5271154
0
ARC
8
DEFAULT_255_1_234
10
23.9980055
20
60.54908
40
0.4492253
50
184.924711
51
194.497588
0
ARC
8
DEFAULT_255_1_234
10
24.0172622
20
60.5526591
40
0.3289787
50
187.3600538
51
198.6732863
0
ARC
8
DEFAULT_255_1_234
10
23.9122916
20
60.5162674
40
0.217884
50
198.4451669
51
217.794479
0
ARC
8
DEFAULT_255_1_234
10
23.8827091
20
60.4953085
40
0.1816698
50
218.2887171
51
228.5612368
0
ARC
8
DEFAULT_255_1_234
10
23.8924878
20
60.5084963
40
0.1980329
50
228.9654866
51
258.1234728
0
ARC
8
DEFAULT_255_1_234
10
23.9130588
20
60.5965833
40
0.2884748
50
257.7258293
51
270.401361
0
ARC
8
DEFAULT_255_1_234
10
23.9175474
20
60.5520821
40
0.2439788
50
269.4204404
51
286.4209037
0
ARC
8
DEFAULT_255_1_234
10
23.9323962
20
60.4981657
40
0.1880666
50
286.7251356
51
320.600362
0
ARC
8
DEFAULT_255_1_234
10
23.8940787
20
60.5292595
40
0.2374121
50
320.6712579
51
344.5441685
0
ARC
8
DEFAULT_255_1_234
10
23.7784113
20
60.5632045
40
0.3579479
50
344.2412205
51
356.7357071
0
ARC
8
DEFAULT_255_1_234
10
23.6535262
20
60.5735444
40
0.4832297
50
356.3548756
51
0.0500261
0
ARC
8
DEFAULT_255_1_234
10
23.7871771
20
60.576665
40
0.3495889
50
359.5576869
51
12.953486
0
ARC
8
DEFAULT_255_1_234
10
23.8926668
20
60.6022434
40
0.2410532
50
12.6490276
51
41.6081334
0
ARC
8
DEFAULT_255_1_234
10
23.9157039
20
60.6218321
40
0.2108218
50
41.7850273
51
85.9892764
0
ARC
8
DEFAULT_255_1_234
10
23.9033776
20
60.5405462
40
0.2928454
50
84.6957577
51
90.0676183
0
ARC
8
DEFAULT_255_1_234
10
23.901026
20
60.4736716
40
0.3597255
50
89.6804936
51
99.1614436
0
ARC
8
DEFAULT_255_1_234
10
23.8804891
20
60.5964131
40
0.235281
50
98.9830931
51
113.8908934
0
ARC
8
DEFAULT_255_1_234
10
23.8575301
20
60.6505587
40
0.176479
50
114.1950727
51
127.3641004
0
LINE
8
DEFAULT_255_1_234
10
23.2606119
20
68.2616792
11
23.2606119
21
68.1404
0
LINE
8
DEFAULT_255_1_234
10
23.2606119
20
68.1404
11
22.494384
21
68.1404
0
LINE
8
DEFAULT_255_1_234
10
22.494384
20
68.1404
11
22.494384
21
68.2472221
0
LINE
8
DEFAULT_255_1_234
10
22.494384
20
68.2472221
11
22.8991836
21
68.6969995
0
LINE
8
DEFAULT_255_1_234
10
22.6204823
20
68.9652595
11
22.4718952
21
68.9652595
0
LINE
8
DEFAULT_255_1_234
10
22.9867296
20
68.6014218
11
22.6734918
21
68.2616792
0
LINE
8
DEFAULT_255_1_234
10
22.6734918
20
68.2616792
11
23.2606119
21
68.2616792
0
ARC
8
DEFAULT_255_1_234
10
21.550167
20
69.8899527
40
1.8008286
50
318.5132453
51
320.7828378
0
ARC
8
DEFAULT_255_1_234
10
22.0788644
20
69.4596426
40
1.1191493
50
320.7372736
51
323.9737074
0
ARC
8
DEFAULT_255_1_234
10
22.4708501
20
69.1756361
40
0.6350923
50
323.8961724
51
328.6421089
0
ARC
8
DEFAULT_255_1_234
10
22.6755096
20
69.0494031
40
0.3946393
50
328.8299013
51
331.789948
0
ARC
8
DEFAULT_255_1_234
10
22.7752274
20
68.9979509
40
0.2824501
50
331.4255242
51
352.9364833
0
ARC
8
DEFAULT_255_1_234
10
22.7888775
20
68.9948976
40
0.2685315
50
353.2248685
51
0.0169286
0
ARC
8
DEFAULT_255_1_234
10
22.8098652
20
68.997195
40
0.2475536
50
359.4866256
51
15.9339782
0
ARC
8
DEFAULT_255_1_234
10
22.8605637
20
69.0108286
40
0.1950618
50
16.1714718
51
43.5284424
0
ARC
8
DEFAULT_255_1_234
10
22.8682946
20
69.0185573
40
0.184134
50
43.4415429
51
83.1661404
0
ARC
8
DEFAULT_255_1_234
10
22.8548864
20
68.9448771
40
0.258926
50
82.160215
51
90.1505798
0
ARC
8
DEFAULT_255_1_234
10
22.8517291
20
68.8911865
40
0.3126255
50
89.5460705
51
102.5418777
0
ARC
8
DEFAULT_255_1_234
10
22.8274377
20
68.9942665
40
0.2067346
50
102.1739365
51
129.2061916
0
ARC
8
DEFAULT_255_1_234
10
22.8195449
20
69.0067094
40
0.1921118
50
129.7279328
51
135.7542026
0
ARC
8
DEFAULT_255_1_234
10
22.8316977
20
68.9970045
40
0.2075944
50
136.175737
51
166.3674722
0
ARC
8
DEFAULT_255_1_234
10
22.9323896
20
68.9700182
40
0.3118201
50
165.9092917
51
178.8683903
0
ARC
8
DEFAULT_255_1_234
10
23.0188757
20
68.9653179
40
0.3983935
50
178.438168
51
180.0083905
0
ARC
8
DEFAULT_255_1_234
10
22.8787359
20
68.9692231
40
0.4068601
50
163.2878735
51
180.5581814
0
ARC
8
DEFAULT_255_1_234
10
22.7985621
20
68.991284
40
0.3237344
50
133.454115
51
162.9470031
0
ARC
8
DEFAULT_255_1_234
10
22.8164162
20
68.9723
40
0.349795
50
100.7869394
51
133.4384016
0
ARC
8
DEFAULT_255_1_234
10
22.8511934
20
68.8174319
40
0.5084616
50
89.6605301
51
101.3704185
0
ARC
8
DEFAULT_255_1_234
10
22.8578273
20
68.8235496
40
0.502348
50
78.2171172
51
90.4130393
0
ARC
8
DEFAULT_255_1_234
10
22.8933351
20
68.9859637
40
0.3361092
50
55.9268222
51
78.4888551
0
ARC
8
DEFAULT_255_1_234
10
22.9129791
20
69.0198324
40
0.2970617
50
47.9292255
51
55.4054003
0
ARC
8
DEFAULT_255_1_234
10
22.9231352
20
69.0301502
40
0.2825983
50
4.3347696
51
48.0560701
0
ARC
8
DEFAULT_255_1_234
10
22.8135745
20
69.0131601
40
0.393225
50
359.925209
51
5.5967654
0
ARC
8
DEFAULT_255_1_234
10
22.8564637
20
69.0187816
40
0.3503892
50
337.8914096
51
358.9967724
0
ARC
8
DEFAULT_255_1_234
10
22.5851049
20
69.1234706
40
0.6412172
50
326.9135351
51
338.3505194
0
ARC
8
DEFAULT_255_1_234
10
22.1865353
20
69.3789284
40
1.1146189
50
319.6472867
51
327.095818
0
ARC
8
DEFAULT_255_1_234
10
21.8032356
20
69.6951
40
1.6114559
50
317.2586784
51
319.9046139
0
LINE
8
DEFAULT_255_1_234
10
24.0453127
20
69.3098211
11
24.0453127
21
68.533152
0
LINE
8
DEFAULT_255_1_234
10
24.0453127
20
68.533152
11
24.2075538
21
68.533152
0
LINE
8
DEFAULT_255_1_234
10
24.2075538
20
68.533152
11
24.2075538
21
68.4118728
0
LINE
8
DEFAULT_255_1_234
10
24.2075538
20
68.4118728
11
24.0453127
21
68.4118728
0
LINE
8
DEFAULT_255_1_234
10
24.0453127
20
68.4118728
11
24.0453127
21
68.1404
0
LINE
8
DEFAULT_255_1_234
10
24.0453127
20
68.1404
11
23.8959224
21
68.1404
0
LINE
8
DEFAULT_255_1_234
10
23.8959224
20
68.1404
11
23.8959224
21
68.4118728
0
LINE
8
DEFAULT_255_1_234
10
23.8959224
20
68.4118728
11
23.3634181
21
68.4118728
0
LINE
8
DEFAULT_255_1_234
10
23.3634181
20
68.4118728
11
23.3634181
21
68.4994187
0
LINE
8
DEFAULT_255_1_234
10
23.3634181
20
68.4994187
11
23.8870875
21
69.3098211
0
LINE
8
DEFAULT_255_1_234
10
23.8870875
20
69.3098211
11
24.0453127
21
69.3098211
0
LINE
8
DEFAULT_255_1_234
10
23.8782525
20
69.0744912
11
23.5320846
21
68.533152
0
LINE
8
DEFAULT_255_1_234
10
23.5320846
20
68.533152
11
23.8959224
21
68.533152
0
LINE
8
DEFAULT_255_1_234
10
23.8959224
20
68.533152
11
23.8959224
21
69.1066181
0
LINE
8
DEFAULT_255_1_234
10
23.8959224
20
69.1066181
11
23.8782525
21
69.0744912
0
LINE
8
DEFAULT_255_1_234
10
23.195923
20
76.4489663
11
23.3509355
21
76.4489663
0
LINE
8
DEFAULT_255_1_234
10
22.4505777
20
76.6079947
11
22.4505777
21
76.7204391
0
LINE
8
DEFAULT_255_1_234
10
23.3509355
20
76.8714357
11
23.195923
21
76.8714357
0
LINE
8
DEFAULT_255_1_234
10
22.6055902
20
76.7164232
11
22.6055902
21
76.6031757
0
ARC
8
DEFAULT_255_1_234
10
22.8028742
20
76.5086846
40
0.5513052
50
340.1774281
51
353.7814284
0
ARC
8
DEFAULT_255_1_234
10
22.9600095
20
76.4501582
40
0.3836379
50
311.4558989
51
340.4421614
0
ARC
8
DEFAULT_255_1_234
10
22.9566763
20
76.4612528
40
0.3941894
50
282.4333181
51
310.7513653
0
ARC
8
DEFAULT_255_1_234
10
22.9127502
20
76.6427679
40
0.5809175
50
269.9358511
51
282.809604
0
ARC
8
DEFAULT_255_1_234
10
22.9075568
20
76.7885212
40
0.7266847
50
270.0021091
51
270.3581957
0
ARC
8
DEFAULT_255_1_234
10
22.9022985
20
76.5284585
40
0.4666519
50
250.7884749
51
270.6489167
0
ARC
8
DEFAULT_255_1_234
10
22.885482
20
76.4647319
40
0.4009729
50
219.3627325
51
250.0611886
0
ARC
8
DEFAULT_255_1_234
10
22.9684031
20
76.5352042
40
0.5097822
50
193.5479632
51
219.5756669
0
ARC
8
DEFAULT_255_1_234
10
23.2055652
20
76.5967919
40
0.7547848
50
181.1218675
51
193.87563
0
ARC
8
DEFAULT_255_1_234
10
23.4125833
20
76.607858
40
0.9620055
50
179.9918545
51
181.5394234
0
ARC
8
DEFAULT_255_1_234
10
23.2274935
20
76.7241788
40
0.7769248
50
169.5837241
51
180.2757934
0
ARC
8
DEFAULT_255_1_234
10
23.0437873
20
76.7581229
40
0.590109
50
155.0365899
51
169.6003176
0
ARC
8
DEFAULT_255_1_234
10
22.9302337
20
76.8128677
40
0.4640625
50
136.783148
51
155.2472683
0
ARC
8
DEFAULT_255_1_234
10
22.8912814
20
76.8459562
40
0.4130255
50
121.7633186
51
136.428115
0
ARC
8
DEFAULT_255_1_234
10
22.9047776
20
76.8210227
40
0.4413323
50
95.6459699
51
121.5490577
0
ARC
8
DEFAULT_255_1_234
10
22.9205058
20
76.7101949
40
0.55319
50
89.924208
51
96.1377933
0
ARC
8
DEFAULT_255_1_234
10
22.9255491
20
76.7220542
40
0.5413475
50
76.6779277
51
90.4563316
0
ARC
8
DEFAULT_255_1_234
10
22.9649114
20
76.8811114
40
0.3775041
50
47.485847
51
76.9287264
0
ARC
8
DEFAULT_255_1_234
10
22.9502087
20
76.8711159
40
0.3948286
50
16.5424086
51
46.8933463
0
ARC
8
DEFAULT_255_1_234
10
22.7894244
20
76.8182861
40
0.564021
50
5.4072051
51
17.0365086
0
ARC
8
DEFAULT_255_1_234
10
22.6455261
20
76.7951679
40
0.5556559
50
7.8891745
51
15.9239216
0
ARC
8
DEFAULT_255_1_234
10
22.8442274
20
76.8528631
40
0.3487515
50
15.7653144
51
27.9410532
0
ARC
8
DEFAULT_255_1_234
10
22.9546492
20
76.911979
40
0.2235026
50
27.8166557
51
46.4008329
0
ARC
8
DEFAULT_255_1_234
10
22.9596135
20
76.9114082
40
0.2205286
50
47.4371857
51
75.0698205
0
ARC
8
DEFAULT_255_1_234
10
22.9287529
20
76.8039765
40
0.3322915
50
74.7008593
51
87.8124495
0
ARC
8
DEFAULT_255_1_234
10
22.9214217
20
76.6983844
40
0.4380987
50
87.3814673
51
90.0240855
0
ARC
8
DEFAULT_255_1_234
10
22.917576
20
76.8161291
40
0.3203749
50
89.3451631
51
108.5745436
0
ARC
8
DEFAULT_255_1_234
10
22.9038865
20
76.8674908
40
0.2673494
50
109.2998449
51
143.3037509
0
ARC
8
DEFAULT_255_1_234
10
22.9800938
20
76.8088881
40
0.3634757
50
143.0753173
51
163.1916937
0
ARC
8
DEFAULT_255_1_234
10
23.1752666
20
76.7472967
40
0.5681262
50
162.9373603
51
174.6208611
0
ARC
8
DEFAULT_255_1_234
10
23.4378708
20
76.718501
40
0.8322832
50
174.3419979
51
180.1430411
0
ARC
8
DEFAULT_255_1_234
10
23.3447864
20
76.5990698
40
0.7392076
50
179.6817502
51
189.150529
0
ARC
8
DEFAULT_255_1_234
10
23.0947112
20
76.557419
40
0.4856932
50
188.9910863
51
203.5773039
0
ARC
8
DEFAULT_255_1_234
10
22.9867445
20
76.5126211
40
0.3688271
50
203.9077269
51
215.1312379
0
ARC
8
DEFAULT_255_1_234
10
22.8944539
20
76.4410941
40
0.2522457
50
213.9071664
51
263.8849284
0
ARC
8
DEFAULT_255_1_234
10
22.9069868
20
76.5195518
40
0.3316174
50
263.1758525
51
270.1031083
0
ARC
8
DEFAULT_255_1_234
10
22.910196
20
76.6442365
40
0.4563091
50
269.6719807
51
279.0609165
0
ARC
8
DEFAULT_255_1_234
10
22.9368728
20
76.4829907
40
0.2928759
50
278.8750225
51
293.6346586
0
ARC
8
DEFAULT_255_1_234
10
22.9688936
20
76.40779
40
0.2111472
50
293.8553404
51
310.0518804
0
ARC
8
DEFAULT_255_1_234
10
22.969379
20
76.4015516
40
0.2060917
50
311.0646779
51
332.0108348
0
ARC
8
DEFAULT_255_1_234
10
22.8501517
20
76.4672978
40
0.3422352
50
331.6588543
51
343.2878891
0
ARC
8
DEFAULT_255_1_234
10
22.6439032
20
76.5306798
40
0.5580003
50
343.1446044
51
351.010618
0
ARC
8
DEFAULT_255_1_234
10
22.4897678
20
76.5587871
40
0.7146438
50
350.7157277
51
351.1602153
0
LINE
8
DEFAULT_255_1_234
10
24.0111444
20
77.2529433
11
24.0111444
21
76.0779
0
LINE
8
DEFAULT_255_1_234
10
24.0111444
20
76.0779
11
23.8617541
21
76.0779
0
LINE
8
DEFAULT_255_1_234
10
23.8617541
20
76.0779
11
23.8617541
21
77.0682133
0
LINE
8
DEFAULT_255_1_234
10
23.8617541
20
77.0682133
11
23.5621703
21
76.9581785
0
LINE
8
DEFAULT_255_1_234
10
23.5621703
20
76.9581785
11
23.5621703
21
77.0931117
0
LINE
8
DEFAULT_255_1_234
10
23.5621703
20
77.0931117
11
23.9878524
21
77.2529433
0
LINE
8
DEFAULT_255_1_234
10
23.9878524
20
77.2529433
11
24.0111444
21
77.2529433
0
LINE
8
DEFAULT_255_1_234
10
23.3665119
20
84.1366792
11
23.3665119
21
84.0154
0
LINE
8
DEFAULT_255_1_234
10
23.3665119
20
84.0154
11
22.600284
21
84.0154
0
LINE
8
DEFAULT_255_1_234
10
22.600284
20
84.0154
11
22.600284
21
84.1222221
0
LINE
8
DEFAULT_255_1_234
10
22.600284
20
84.1222221
11
23.0050836
21
84.5719995
0
LINE
8
DEFAULT_255_1_234
10
22.7263823
20
84.8402595
11
22.5777952
21
84.8402595
0
LINE
8
DEFAULT_255_1_234
10
23.0926296
20
84.4764218
11
22.7793918
21
84.1366792
0
LINE
8
DEFAULT_255_1_234
10
22.7793918
20
84.1366792
11
23.3665119
21
84.1366792
0
ARC
8
DEFAULT_255_1_234
10
21.656067
20
85.7649527
40
1.8008286
50
318.5132453
51
320.7828378
0
ARC
8
DEFAULT_255_1_234
10
22.1847644
20
85.3346426
40
1.1191493
50
320.7372736
51
323.9737074
0
ARC
8
DEFAULT_255_1_234
10
22.5767501
20
85.0506361
40
0.6350923
50
323.8961724
51
328.6421089
0
ARC
8
DEFAULT_255_1_234
10
22.7814096
20
84.9244031
40
0.3946393
50
328.8299013
51
331.789948
0
ARC
8
DEFAULT_255_1_234
10
22.8811274
20
84.8729509
40
0.2824501
50
331.4255242
51
352.9364833
0
ARC
8
DEFAULT_255_1_234
10
22.8947775
20
84.8698976
40
0.2685315
50
353.2248685
51
0.0169286
0
ARC
8
DEFAULT_255_1_234
10
22.9157652
20
84.872195
40
0.2475536
50
359.4866256
51
15.9339782
0
ARC
8
DEFAULT_255_1_234
10
22.9664637
20
84.8858286
40
0.1950618
50
16.1714718
51
43.5284424
0
ARC
8
DEFAULT_255_1_234
10
22.9741946
20
84.8935573
40
0.184134
50
43.4415429
51
83.1661404
0
ARC
8
DEFAULT_255_1_234
10
22.9607864
20
84.8198771
40
0.258926
50
82.160215
51
90.1505798
0
ARC
8
DEFAULT_255_1_234
10
22.9576291
20
84.7661865
40
0.3126255
50
89.5460705
51
102.5418777
0
ARC
8
DEFAULT_255_1_234
10
22.9333377
20
84.8692665
40
0.2067346
50
102.1739365
51
129.2061916
0
ARC
8
DEFAULT_255_1_234
10
22.9254449
20
84.8817094
40
0.1921118
50
129.7279328
51
135.7542026
0
ARC
8
DEFAULT_255_1_234
10
22.9375977
20
84.8720045
40
0.2075944
50
136.175737
51
166.3674722
0
ARC
8
DEFAULT_255_1_234
10
23.0382896
20
84.8450182
40
0.3118201
50
165.9092917
51
178.8683903
0
ARC
8
DEFAULT_255_1_234
10
23.1247757
20
84.8403179
40
0.3983935
50
178.438168
51
180.0083905
0
ARC
8
DEFAULT_255_1_234
10
22.9846359
20
84.8442231
40
0.4068601
50
163.2878735
51
180.5581814
0
ARC
8
DEFAULT_255_1_234
10
22.9044621
20
84.866284
40
0.3237344
50
133.454115
51
162.9470031
0
ARC
8
DEFAULT_255_1_234
10
22.9223162
20
84.8473
40
0.349795
50
100.7869394
51
133.4384016
0
ARC
8
DEFAULT_255_1_234
10
22.9570934
20
84.6924319
40
0.5084616
50
89.6605301
51
101.3704185
0
ARC
8
DEFAULT_255_1_234
10
22.9637273
20
84.6985496
40
0.502348
50
78.2171172
51
90.4130393
0
ARC
8
DEFAULT_255_1_234
10
22.9992351
20
84.8609637
40
0.3361092
50
55.9268222
51
78.4888551
0
ARC
8
DEFAULT_255_1_234
10
23.0188791
20
84.8948324
40
0.2970617
50
47.9292255
51
55.4054003
0
ARC
8
DEFAULT_255_1_234
10
23.0290352
20
84.9051502
40
0.2825983
50
4.3347696
51
48.0560701
0
ARC
8
DEFAULT_255_1_234
10
22.9194745
20
84.8881601
40
0.393225
50
359.925209
51
5.5967654
0
ARC
8
DEFAULT_255_1_234
10
22.9623637
20
84.8937816
40
0.3503892
50
337.8914096
51
358.9967724
0
ARC
8
DEFAULT_255_1_234
10
22.6910049
20
84.9984706
40
0.6412172
50
326.9135351
51
338.3505194
0
ARC
8
DEFAULT_255_1_234
10
22.2924353
20
85.2539284
40
1.1146189
50
319.6472867
51
327.095818
0
ARC
8
DEFAULT_255_1_234
10
21.9091356
20
85.5701
40
1.6114559
50
317.2586784
51
319.9046139
0
LINE
8
DEFAULT_255_1_234
10
23.7399877
20
84.5511169
11
23.7399877
21
84.6723962
0
LINE
8
DEFAULT_255_1_234
10
23.7399877
20
84.6723962
11
23.8516289
21
84.6723962
0
LINE
8
DEFAULT_255_1_234
10
23.6612767
20
84.8780087
11
23.5126895
21
84.8780087
0
LINE
8
DEFAULT_255_1_234
10
23.5022482
20
84.3238188
11
23.6516386
21
84.3238188
0
LINE
8
DEFAULT_255_1_234
10
23.8516289
20
84.5511169
11
23.7399877
21
84.5511169
0
ARC
8
DEFAULT_255_1_234
10
23.8487155
20
85.0116713
40
0.3392876
50
270.4919872
51
281.8951556
0
ARC
8
DEFAULT_255_1_234
10
23.8728417
20
84.9014702
40
0.2264817
50
281.6691735
51
301.2943132
0
ARC
8
DEFAULT_255_1_234
10
23.8898627
20
84.8703304
40
0.1910381
50
301.7833094
51
311.7545298
0
ARC
8
DEFAULT_255_1_234
10
23.8990203
20
84.8601748
40
0.1773635
50
311.7323931
51
354.2802411
0
ARC
8
DEFAULT_255_1_234
10
23.8263828
20
84.8726722
40
0.2509385
50
353.0937916
51
0.1181479
0
ARC
8
DEFAULT_255_1_234
10
23.7802613
20
84.8774386
40
0.2970898
50
359.1805295
51
15.0453146
0
ARC
8
DEFAULT_255_1_234
10
23.914845
20
84.9166992
40
0.1569564
50
13.9577229
51
77.6713066
0
ARC
8
DEFAULT_255_1_234
10
23.8761979
20
84.7781949
40
0.3006298
50
76.1116566
51
90.7026153
0
ARC
8
DEFAULT_255_1_234
10
23.8702817
20
84.8055545
40
0.2732568
50
89.5324876
51
103.531937
0
ARC
8
DEFAULT_255_1_234
10
23.8502261
20
84.8854884
40
0.1908508
50
103.2931773
51
133.5619022
0
ARC
8
DEFAULT_255_1_234
10
23.845775
20
84.8914375
40
0.1834746
50
133.8349307
51
173.5344437
0
ARC
8
DEFAULT_255_1_234
10
23.9180793
20
84.8786213
40
0.2568033
50
172.5096846
51
180.1366907
0
ARC
8
DEFAULT_255_1_234
10
23.8229687
20
84.8820622
40
0.3103056
50
155.3484492
51
180.7484736
0
ARC
8
DEFAULT_255_1_234
10
23.8180776
20
84.8791846
40
0.3070957
50
131.5744599
51
154.4798489
0
ARC
8
DEFAULT_255_1_234
10
23.8493923
20
84.847531
40
0.3515643
50
96.9875458
51
131.9690667
0
ARC
8
DEFAULT_255_1_234
10
23.8713403
20
84.7229636
40
0.4779224
50
89.8596053
51
97.7825159
0
ARC
8
DEFAULT_255_1_234
10
23.8761466
20
84.6967616
40
0.5041361
50
78.3655447
51
90.4131539
0
ARC
8
DEFAULT_255_1_234
10
23.9119384
20
84.8626887
40
0.3344039
50
56.6229102
51
78.638727
0
ARC
8
DEFAULT_255_1_234
10
23.9334328
20
84.9002805
40
0.2912001
50
47.0253525
51
56.0854072
0
ARC
8
DEFAULT_255_1_234
10
23.9354108
20
84.9042223
40
0.2869704
50
10.9208013
51
46.7778124
0
ARC
8
DEFAULT_255_1_234
10
23.7990174
20
84.8726857
40
0.426899
50
359.6364486
51
11.6087304
0
ARC
8
DEFAULT_255_1_234
10
23.9825018
20
84.8711752
40
0.243409
50
332.3549906
51
359.7179418
0
ARC
8
DEFAULT_255_1_234
10
23.917462
20
84.9020142
40
0.3153459
50
325.2333722
51
332.8745602
0
ARC
8
DEFAULT_255_1_234
10
23.9327244
20
84.8913828
40
0.2967456
50
292.9802137
51
325.2392345
0
ARC
8
DEFAULT_255_1_234
10
23.9052617
20
84.9447863
40
0.3566604
50
292.5402179
51
293.6924929
0
ARC
8
DEFAULT_255_1_234
10
23.9445213
20
84.2993091
40
0.3307468
50
57.6435486
51
72.8625112
0
ARC
8
DEFAULT_255_1_234
10
23.9799713
20
84.3567549
40
0.2632492
50
36.7248896
51
57.4697979
0
ARC
8
DEFAULT_255_1_234
10
23.9788346
20
84.358022
40
0.2634081
50
8.0545065
51
36.356114
0
ARC
8
DEFAULT_255_1_234
10
23.8925531
20
84.3425174
40
0.3510261
50
359.8320645
51
8.5869982
0
ARC
8
DEFAULT_255_1_234
10
23.8550307
20
84.3377101
40
0.3885653
50
343.9829931
51
0.5571613
0
ARC
8
DEFAULT_255_1_234
10
23.9436504
20
84.3134438
40
0.2966924
50
311.6359546
51
343.7651759
0
ARC
8
DEFAULT_255_1_234
10
23.9058074
20
84.3561102
40
0.3537231
50
279.7829875
51
311.6255694
0
ARC
8
DEFAULT_255_1_234
10
23.875685
20
84.499828
40
0.5004971
50
269.7286406
51
280.3856417
0
ARC
8
DEFAULT_255_1_234
10
23.8694922
20
84.4956996
40
0.4963778
50
256.6828919
51
270.4412052
0
ARC
8
DEFAULT_255_1_234
10
23.8356218
20
84.3572394
40
0.3538406
50
229.4223008
51
256.8556159
0
ARC
8
DEFAULT_255_1_234
10
23.7941611
20
84.3105736
40
0.2914296
50
181.818294
51
229.6455059
0
ARC
8
DEFAULT_255_1_234
10
23.8981567
20
84.3236496
40
0.3959084
50
179.9755256
51
183.2323064
0
ARC
8
DEFAULT_255_1_234
10
23.8809313
20
84.3216037
40
0.2293034
50
179.4465117
51
196.2869258
0
ARC
8
DEFAULT_255_1_234
10
23.8321721
20
84.3082651
40
0.1787621
50
196.5661473
51
227.705904
0
ARC
8
DEFAULT_255_1_234
10
23.8485816
20
84.3266155
40
0.2033784
50
227.7652068
51
257.8762805
0
ARC
8
DEFAULT_255_1_234
10
23.8710786
20
84.4209156
40
0.3003081
50
257.4584385
51
270.426602
0
ARC
8
DEFAULT_255_1_234
10
23.8756352
20
84.4498996
40
0.329292
50
269.5962073
51
280.8789248
0
ARC
8
DEFAULT_255_1_234
10
23.8985881
20
84.3352685
40
0.2123908
50
280.6346389
51
299.8595945
0
ARC
8
DEFAULT_255_1_234
10
23.9176788
20
84.2990212
40
0.171457
50
300.3576302
51
314.5517981
0
ARC
8
DEFAULT_255_1_234
10
23.9093848
20
84.3050919
40
0.1816095
50
315.0728369
51
345.0431014
0
ARC
8
DEFAULT_255_1_234
10
23.8170662
20
84.3319841
40
0.2777492
50
344.5986631
51
357.9269593
0
ARC
8
DEFAULT_255_1_234
10
23.7274989
20
84.3381276
40
0.3674917
50
357.4748886
51
0.0231117
0
ARC
8
DEFAULT_255_1_234
10
23.8298098
20
84.3405679
40
0.2651907
50
359.5047933
51
13.4239635
0
ARC
8
DEFAULT_255_1_234
10
23.9164741
20
84.3627478
40
0.1757509
50
12.9498199
51
48.7551375
0
ARC
8
DEFAULT_255_1_234
10
23.8982475
20
84.33784
40
0.2065134
50
49.5088623
51
72.1836453
0
ARC
8
DEFAULT_255_1_234
10
23.8624628
20
84.2316291
40
0.3185836
50
71.9010081
51
84.3554254
0
ARC
8
DEFAULT_255_1_234
10
23.846326
20
84.0955326
40
0.4556151
50
84.0193428
51
89.333121
0
LINE
8
DEFAULT_255_1_234
10
23.3665119
20
92.0741792
11
23.3665119
21
91.9529
0
LINE
8
DEFAULT_255_1_234
10
23.3665119
20
91.9529
11
22.600284
21
91.9529
0
LINE
8
DEFAULT_255_1_234
10
22.600284
20
91.9529
11
22.600284
21
92.0597221
0
LINE
8
DEFAULT_255_1_234
10
22.600284
20
92.0597221
11
23.0050836
21
92.5094995
0
LINE
8
DEFAULT_255_1_234
10
22.7263823
20
92.7777595
11
22.5777952
21
92.7777595
0
LINE
8
DEFAULT_255_1_234
10
23.0926296
20
92.4139218
11
22.7793918
21
92.0741792
0
LINE
8
DEFAULT_255_1_234
10
22.7793918
20
92.0741792
11
23.3665119
21
92.0741792
0
ARC
8
DEFAULT_255_1_234
10
21.656067
20
93.7024527
40
1.8008286
50
318.5132453
51
320.7828378
0
ARC
8
DEFAULT_255_1_234
10
22.1847644
20
93.2721426
40
1.1191493
50
320.7372736
51
323.9737074
0
ARC
8
DEFAULT_255_1_234
10
22.5767501
20
92.9881361
40
0.6350923
50
323.8961724
51
328.6421089
0
ARC
8
DEFAULT_255_1_234
10
22.7814096
20
92.8619031
40
0.3946393
50
328.8299013
51
331.789948
0
ARC
8
DEFAULT_255_1_234
10
22.8811274
20
92.8104509
40
0.2824501
50
331.4255242
51
352.9364833
0
ARC
8
DEFAULT_255_1_234
10
22.8947775
20
92.8073976
40
0.2685315
50
353.2248685
51
0.0169286
0
ARC
8
DEFAULT_255_1_234
10
22.9157652
20
92.809695
40
0.2475536
50
359.4866256
51
15.9339782
0
ARC
8
DEFAULT_255_1_234
10
22.9664637
20
92.8233286
40
0.1950618
50
16.1714718
51
43.5284424
0
ARC
8
DEFAULT_255_1_234
10
22.9741946
20
92.8310573
40
0.184134
50
43.4415429
51
83.1661404
0
ARC
8
DEFAULT_255_1_234
10
22.9607864
20
92.7573771
40
0.258926
50
82.160215
51
90.1505798
0
ARC
8
DEFAULT_255_1_234
10
22.9576291
20
92.7036865
40
0.3126255
50
89.5460705
51
102.5418777
0
ARC
8
DEFAULT_255_1_234
10
22.9333377
20
92.8067665
40
0.2067346
50
102.1739365
51
129.2061916
0
ARC
8
DEFAULT_255_1_234
10
22.9254449
20
92.8192094
40
0.1921118
50
129.7279328
51
135.7542026
0
ARC
8
DEFAULT_255_1_234
10
22.9375977
20
92.8095045
40
0.2075944
50
136.175737
51
166.3674722
0
ARC
8
DEFAULT_255_1_234
10
23.0382896
20
92.7825182
40
0.3118201
50
165.9092917
51
178.8683903
0
ARC
8
DEFAULT_255_1_234
10
23.1247757
20
92.7778179
40
0.3983935
50
178.438168
51
180.0083905
0
ARC
8
DEFAULT_255_1_234
10
22.9846359
20
92.7817231
40
0.4068601
50
163.2878735
51
180.5581814
0
ARC
8
DEFAULT_255_1_234
10
22.9044621
20
92.803784
40
0.3237344
50
133.454115
51
162.9470031
0
ARC
8
DEFAULT_255_1_234
10
22.9223162
20
92.7848
40
0.349795
50
100.7869394
51
133.4384016
0
ARC
8
DEFAULT_255_1_234
10
22.9570934
20
92.6299319
40
0.5084616
50
89.6605301
51
101.3704185
0
ARC
8
DEFAULT_255_1_234
10
22.9637273
20
92.6360496
40
0.502348
50
78.2171172
51
90.4130393
0
ARC
8
DEFAULT_255_1_234
10
22.9992351
20
92.7984637
40
0.3361092
50
55.9268222
51
78.4888551
0
ARC
8
DEFAULT_255_1_234
10
23.0188791
20
92.8323324
40
0.2970617
50
47.9292255
51
55.4054003
0
ARC
8
DEFAULT_255_1_234
10
23.0290352
20
92.8426502
40
0.2825983
50
4.3347696
51
48.0560701
0
ARC
8
DEFAULT_255_1_234
10
22.9194745
20
92.8256601
40
0.393225
50
359.925209
51
5.5967654
0
ARC
8
DEFAULT_255_1_234
10
22.9623637
20
92.8312816
40
0.3503892
50
337.8914096
51
358.9967724
0
ARC
8
DEFAULT_255_1_234
10
22.6910049
20
92.9359706
40
0.6412172
50
326.9135351
51
338.3505194
0
ARC
8
DEFAULT_255_1_234
10
22.2924353
20
93.1914284
40
1.1146189
50
319.6472867
51
327.095818
0
ARC
8
DEFAULT_255_1_234
10
21.9091356
20
93.5076
40
1.6114559
50
317.2586784
51
319.9046139
0
LINE
8
DEFAULT_255_1_234
10
24.2901618
20
92.0741792
11
24.2901618
21
91.9529
0
LINE
8
DEFAULT_255_1_234
10
24.2901618
20
91.9529
11
23.5239339
21
91.9529
0
LINE
8
DEFAULT_255_1_234
10
23.5239339
20
91.9529
11
23.5239339
21
92.0597221
0
LINE
8
DEFAULT_255_1_234
10
23.5239339
20
92.0597221
11
23.9287335
21
92.5094995
0
LINE
8
DEFAULT_255_1_234
10
23.6500322
20
92.7777595
11
23.5014451
21
92.7777595
0
LINE
8
DEFAULT_255_1_234
10
24.0162795
20
92.4139218
11
23.7030417
21
92.0741792
0
LINE
8
DEFAULT_255_1_234
10
23.7030417
20
92.0741792
11
24.2901618
21
92.0741792
0
ARC
8
DEFAULT_255_1_234
10
22.5797169
20
93.7024527
40
1.8008286
50
318.5132453
51
320.7828378
0
ARC
8
DEFAULT_255_1_234
10
23.1084143
20
93.2721426
40
1.1191493
50
320.7372736
51
323.9737074
0
ARC
8
DEFAULT_255_1_234
10
23.5004
20
92.9881361
40
0.6350923
50
323.8961724
51
328.6421089
0
ARC
8
DEFAULT_255_1_234
10
23.7050595
20
92.8619031
40
0.3946393
50
328.8299013
51
331.789948
0
ARC
8
DEFAULT_255_1_234
10
23.8047774
20
92.8104509
40
0.2824501
50
331.4255242
51
352.9364833
0
ARC
8
DEFAULT_255_1_234
10
23.8184274
20
92.8073976
40
0.2685315
50
353.2248685
51
0.0169286
0
ARC
8
DEFAULT_255_1_234
10
23.8394151
20
92.809695
40
0.2475536
50
359.4866256
51
15.9339782
0
ARC
8
DEFAULT_255_1_234
10
23.8901136
20
92.8233286
40
0.1950618
50
16.1714718
51
43.5284424
0
ARC
8
DEFAULT_255_1_234
10
23.8978445
20
92.8310573
40
0.184134
50
43.4415429
51
83.1661404
0
ARC
8
DEFAULT_255_1_234
10
23.8844363
20
92.7573771
40
0.258926
50
82.160215
51
90.1505798
0
ARC
8
DEFAULT_255_1_234
10
23.881279
20
92.7036865
40
0.3126255
50
89.5460705
51
102.5418777
0
ARC
8
DEFAULT_255_1_234
10
23.8569876
20
92.8067665
40
0.2067346
50
102.1739365
51
129.2061916
0
ARC
8
DEFAULT_255_1_234
10
23.8490948
20
92.8192094
40
0.1921118
50
129.7279328
51
135.7542026
0
ARC
8
DEFAULT_255_1_234
10
23.8612476
20
92.8095045
40
0.2075944
50
136.175737
51
166.3674722
0
ARC
8
DEFAULT_255_1_234
10
23.9619395
20
92.7825182
40
0.3118201
50
165.9092917
51
178.8683903
0
ARC
8
DEFAULT_255_1_234
10
24.0484256
20
92.7778179
40
0.3983935
50
178.438168
51
180.0083905
0
ARC
8
DEFAULT_255_1_234
10
23.9082859
20
92.7817231
40
0.4068601
50
163.2878735
51
180.5581814
0
ARC
8
DEFAULT_255_1_234
10
23.828112
20
92.803784
40
0.3237344
50
133.454115
51
162.9470031
0
ARC
8
DEFAULT_255_1_234
10
23.8459661
20
92.7848
40
0.349795
50
100.7869394
51
133.4384016
0
ARC
8
DEFAULT_255_1_234
10
23.8807433
20
92.6299319
40
0.5084616
50
89.6605301
51
101.3704185
0
ARC
8
DEFAULT_255_1_234
10
23.8873772
20
92.6360496
40
0.502348
50
78.2171172
51
90.4130393
0
ARC
8
DEFAULT_255_1_234
10
23.922885
20
92.7984637
40
0.3361092
50
55.9268222
51
78.4888551
0
ARC
8
DEFAULT_255_1_234
10
23.942529
20
92.8323324
40
0.2970617
50
47.9292255
51
55.4054003
0
ARC
8
DEFAULT_255_1_234
10
23.9526851
20
92.8426502
40
0.2825983
50
4.3347696
51
48.0560701
0
ARC
8
DEFAULT_255_1_234
10
23.8431244
20
92.8256601
40
0.393225
50
359.925209
51
5.5967654
0
ARC
8
DEFAULT_255_1_234
10
23.8860136
20
92.8312816
40
0.3503892
50
337.8914096
51
358.9967724
0
ARC
8
DEFAULT_255_1_234
10
23.6146548
20
92.9359706
40
0.6412172
50
326.9135351
51
338.3505194
0
ARC
8
DEFAULT_255_1_234
10
23.2160852
20
93.1914284
40
1.1146189
50
319.6472867
51
327.095818
0
ARC
8
DEFAULT_255_1_234
10
22.8327855
20
93.5076
40
1.6114559
50
317.2586784
51
319.9046139
0
LINE
8
DEFAULT_255_1_234
10
23.3755119
20
100.0116792
11
23.3755119
21
99.8904
0
LINE
8
DEFAULT_255_1_234
10
23.3755119
20
99.8904
11
22.609284
21
99.8904
0
LINE
8
DEFAULT_255_1_234
10
22.609284
20
99.8904
11
22.609284
21
99.9972221
0
LINE
8
DEFAULT_255_1_234
10
22.609284
20
99.9972221
11
23.0140836
21
100.4469995
0
LINE
8
DEFAULT_255_1_234
10
22.7353823
20
100.7152595
11
22.5867952
21
100.7152595
0
LINE
8
DEFAULT_255_1_234
10
23.1016296
20
100.3514218
11
22.7883918
21
100.0116792
0
LINE
8
DEFAULT_255_1_234
10
22.7883918
20
100.0116792
11
23.3755119
21
100.0116792
0
ARC
8
DEFAULT_255_1_234
10
21.665067
20
101.6399527
40
1.8008286
50
318.5132453
51
320.7828378
0
ARC
8
DEFAULT_255_1_234
10
22.1937644
20
101.2096426
40
1.1191493
50
320.7372736
51
323.9737074
0
ARC
8
DEFAULT_255_1_234
10
22.5857501
20
100.9256361
40
0.6350923
50
323.8961724
51
328.6421089
0
ARC
8
DEFAULT_255_1_234
10
22.7904096
20
100.7994031
40
0.3946393
50
328.8299013
51
331.789948
0
ARC
8
DEFAULT_255_1_234
10
22.8901274
20
100.7479509
40
0.2824501
50
331.4255242
51
352.9364833
0
ARC
8
DEFAULT_255_1_234
10
22.9037775
20
100.7448976
40
0.2685315
50
353.2248685
51
0.0169286
0
ARC
8
DEFAULT_255_1_234
10
22.9247652
20
100.747195
40
0.2475536
50
359.4866256
51
15.9339782
0
ARC
8
DEFAULT_255_1_234
10
22.9754637
20
100.7608286
40
0.1950618
50
16.1714718
51
43.5284424
0
ARC
8
DEFAULT_255_1_234
10
22.9831946
20
100.7685573
40
0.184134
50
43.4415429
51
83.1661404
0
ARC
8
DEFAULT_255_1_234
10
22.9697864
20
100.6948771
40
0.258926
50
82.160215
51
90.1505798
0
ARC
8
DEFAULT_255_1_234
10
22.9666291
20
100.6411865
40
0.3126255
50
89.5460705
51
102.5418777
0
ARC
8
DEFAULT_255_1_234
10
22.9423377
20
100.7442665
40
0.2067346
50
102.1739365
51
129.2061916
0
ARC
8
DEFAULT_255_1_234
10
22.9344449
20
100.7567094
40
0.1921118
50
129.7279328
51
135.7542026
0
ARC
8
DEFAULT_255_1_234
10
22.9465977
20
100.7470045
40
0.2075944
50
136.175737
51
166.3674722
0
ARC
8
DEFAULT_255_1_234
10
23.0472896
20
100.7200182
40
0.3118201
50
165.9092917
51
178.8683903
0
ARC
8
DEFAULT_255_1_234
10
23.1337757
20
100.7153179
40
0.3983935
50
178.438168
51
180.0083905
0
ARC
8
DEFAULT_255_1_234
10
22.9936359
20
100.7192231
40
0.4068601
50
163.2878735
51
180.5581814
0
ARC
8
DEFAULT_255_1_234
10
22.9134621
20
100.741284
40
0.3237344
50
133.454115
51
162.9470031
0
ARC
8
DEFAULT_255_1_234
10
22.9313162
20
100.7223
40
0.349795
50
100.7869394
51
133.4384016
0
ARC
8
DEFAULT_255_1_234
10
22.9660934
20
100.5674319
40
0.5084616
50
89.6605301
51
101.3704185
0
ARC
8
DEFAULT_255_1_234
10
22.9727273
20
100.5735496
40
0.502348
50
78.2171172
51
90.4130393
0
ARC
8
DEFAULT_255_1_234
10
23.0082351
20
100.7359637
40
0.3361092
50
55.9268222
51
78.4888551
0
ARC
8
DEFAULT_255_1_234
10
23.0278791
20
100.7698324
40
0.2970617
50
47.9292255
51
55.4054003
0
ARC
8
DEFAULT_255_1_234
10
23.0380352
20
100.7801502
40
0.2825983
50
4.3347696
51
48.0560701
0
ARC
8
DEFAULT_255_1_234
10
22.9284745
20
100.7631601
40
0.393225
50
359.925209
51
5.5967654
0
ARC
8
DEFAULT_255_1_234
10
22.9713637
20
100.7687816
40
0.3503892
50
337.8914096
51
358.9967724
0
ARC
8
DEFAULT_255_1_234
10
22.7000049
20
100.8734706
40
0.6412172
50
326.9135351
51
338.3505194
0
ARC
8
DEFAULT_255_1_234
10
22.3014353
20
101.1289284
40
1.1146189
50
319.6472867
51
327.095818
0
ARC
8
DEFAULT_255_1_234
10
21.9181356
20
101.4451
40
1.6114559
50
317.2586784
51
319.9046139
0
LINE
8
DEFAULT_255_1_234
10
24.0212636
20
101.0654433
11
24.0212636
21
99.8904
0
LINE
8
DEFAULT_255_1_234
10
24.0212636
20
99.8904
11
23.8718733
21
99.8904
0
LINE
8
DEFAULT_255_1_234
10
23.8718733
20
99.8904
11
23.8718733
21
100.8807133
0
LINE
8
DEFAULT_255_1_234
10
23.8718733
20
100.8807133
11
23.5722895
21
100.7706785
0
LINE
8
DEFAULT_255_1_234
10
23.5722895
20
100.7706785
11
23.5722895
21
100.9056117
0
LINE
8
DEFAULT_255_1_234
10
23.5722895
20
100.9056117
11
23.9979716
21
101.0654433
0
LINE
8
DEFAULT_255_1_234
10
23.9979716
20
101.0654433
11
24.0212636
21
101.0654433
0
LINE
8
DEFAULT_255_1_234
10
23.3665119
20
107.9491792
11
23.3665119
21
107.8279
0
LINE
8
DEFAULT_255_1_234
10
23.3665119
20
107.8279
11
22.600284
21
107.8279
0
LINE
8
DEFAULT_255_1_234
10
22.600284
20
107.8279
11
22.600284
21
107.9347221
0
LINE
8
DEFAULT_255_1_234
10
22.600284
20
107.9347221
11
23.0050836
21
108.3844995
0
LINE
8
DEFAULT_255_1_234
10
22.7263823
20
108.6527595
11
22.5777952
21
108.6527595
0
LINE
8
DEFAULT_255_1_234
10
23.0926296
20
108.2889218
11
22.7793918
21
107.9491792
0
LINE
8
DEFAULT_255_1_234
10
22.7793918
20
107.9491792
11
23.3665119
21
107.9491792
0
ARC
8
DEFAULT_255_1_234
10
21.656067
20
109.5774527
40
1.8008286
50
318.5132453
51
320.7828378
0
ARC
8
DEFAULT_255_1_234
10
22.1847644
20
109.1471426
40
1.1191493
50
320.7372736
51
323.9737074
0
ARC
8
DEFAULT_255_1_234
10
22.5767501
20
108.8631361
40
0.6350923
50
323.8961724
51
328.6421089
0
ARC
8
DEFAULT_255_1_234
10
22.7814096
20
108.7369031
40
0.3946393
50
328.8299013
51
331.789948
0
ARC
8
DEFAULT_255_1_234
10
22.8811274
20
108.6854509
40
0.2824501
50
331.4255242
51
352.9364833
0
ARC
8
DEFAULT_255_1_234
10
22.8947775
20
108.6823976
40
0.2685315
50
353.2248685
51
0.0169286
0
ARC
8
DEFAULT_255_1_234
10
22.9157652
20
108.684695
40
0.2475536
50
359.4866256
51
15.9339782
0
ARC
8
DEFAULT_255_1_234
10
22.9664637
20
108.6983286
40
0.1950618
50
16.1714718
51
43.5284424
0
ARC
8
DEFAULT_255_1_234
10
22.9741946
20
108.7060573
40
0.184134
50
43.4415429
51
83.1661404
0
ARC
8
DEFAULT_255_1_234
10
22.9607864
20
108.6323771
40
0.258926
50
82.160215
51
90.1505798
0
ARC
8
DEFAULT_255_1_234
10
22.9576291
20
108.5786865
40
0.3126255
50
89.5460705
51
102.5418777
0
ARC
8
DEFAULT_255_1_234
10
22.9333377
20
108.6817665
40
0.2067346
50
102.1739365
51
129.2061916
0
ARC
8
DEFAULT_255_1_234
10
22.9254449
20
108.6942094
40
0.1921118
50
129.7279328
51
135.7542026
0
ARC
8
DEFAULT_255_1_234
10
22.9375977
20
108.6845045
40
0.2075944
50
136.175737
51
166.3674722
0
ARC
8
DEFAULT_255_1_234
10
23.0382896
20
108.6575182
40
0.3118201
50
165.9092917
51
178.8683903
0
ARC
8
DEFAULT_255_1_234
10
23.1247757
20
108.6528179
40
0.3983935
50
178.438168
51
180.0083905
0
ARC
8
DEFAULT_255_1_234
10
22.9846359
20
108.6567231
40
0.4068601
50
163.2878735
51
180.5581814
0
ARC
8
DEFAULT_255_1_234
10
22.9044621
20
108.678784
40
0.3237344
50
133.454115
51
162.9470031
0
ARC
8
DEFAULT_255_1_234
10
22.9223162
20
108.6598
40
0.349795
50
100.7869394
51
133.4384016
0
ARC
8
DEFAULT_255_1_234
10
22.9570934
20
108.5049319
40
0.5084616
50
89.6605301
51
101.3704185
0
ARC
8
DEFAULT_255_1_234
10
22.9637273
20
108.5110496
40
0.502348
50
78.2171172
51
90.4130393
0
ARC
8
DEFAULT_255_1_234
10
22.9992351
20
108.6734637
40
0.3361092
50
55.9268222
51
78.4888551
0
ARC
8
DEFAULT_255_1_234
10
23.0188791
20
108.7073324
40
0.2970617
50
47.9292255
51
55.4054003
0
ARC
8
DEFAULT_255_1_234
10
23.0290352
20
108.7176502
40
0.2825983
50
4.3347696
51
48.0560701
0
ARC
8
DEFAULT_255_1_234
10
22.9194745
20
108.7006601
40
0.393225
50
359.925209
51
5.5967654
0
ARC
8
DEFAULT_255_1_234
10
22.9623637
20
108.7062816
40
0.3503892
50
337.8914096
51
358.9967724
0
ARC
8
DEFAULT_255_1_234
10
22.6910049
20
108.8109706
40
0.6412172
50
326.9135351
51
338.3505194
0
ARC
8
DEFAULT_255_1_234
10
22.2924353
20
109.0664284
40
1.1146189
50
319.6472867
51
327.095818
0
ARC
8
DEFAULT_255_1_234
10
21.9091356
20
109.3826
40
1.6114559
50
317.2586784
51
319.9046139
0
LINE
8
DEFAULT_255_1_234
10
24.2572316
20
108.5194327
11
24.2572316
21
108.3266709
0
LINE
8
DEFAULT_255_1_234
10
23.5191149
20
108.3065916
11
23.5191149
21
108.5049755
0
LINE
8
DEFAULT_255_1_234
10
24.1086445
20
108.2865123
11
24.1086445
21
108.5298739
0
LINE
8
DEFAULT_255_1_234
10
23.6677021
20
108.5411184
11
23.6677021
21
108.3033789
0
ARC
8
DEFAULT_255_1_234
10
23.0325206
20
108.3217805
40
1.2247208
50
353.8441951
51
0.2287902
0
ARC
8
DEFAULT_255_1_234
10
23.496471
20
108.2699806
40
0.7578929
50
344.4934747
51
353.9765454
0
ARC
8
DEFAULT_255_1_234
10
23.79573
20
108.1848981
40
0.4467846
50
329.2803592
51
344.7472793
0
ARC
8
DEFAULT_255_1_234
10
23.8950125
20
108.1304018
40
0.3336173
50
324.9352394
51
328.6160465
0
ARC
8
DEFAULT_255_1_234
10
23.9327233
20
108.1040427
40
0.2876076
50
280.580143
51
324.9173126
0
ARC
8
DEFAULT_255_1_234
10
23.8926026
20
108.2711099
40
0.4592847
50
269.5977311
51
281.6734359
0
ARC
8
DEFAULT_255_1_234
10
23.8853932
20
108.2591173
40
0.4472986
50
256.6228859
51
270.51044
0
ARC
8
DEFAULT_255_1_234
10
23.8451909
20
108.1042877
40
0.2873874
50
215.8618325
51
257.2788573
0
ARC
8
DEFAULT_255_1_234
10
23.9472941
20
108.1727977
40
0.4102928
50
197.9693508
51
215.2623606
0
ARC
8
DEFAULT_255_1_234
10
24.1958057
20
108.2566709
40
0.6725652
50
187.8816417
51
198.2346507
0
ARC
8
DEFAULT_255_1_234
10
24.5916265
20
108.3138079
40
1.0724845
50
180.8976217
51
188.0055519
0
ARC
8
DEFAULT_255_1_234
10
24.8716453
20
108.3241777
40
1.3526448
50
180.7449369
51
181.1510016
0
ARC
8
DEFAULT_255_1_234
10
24.7139182
20
108.5098042
40
1.1948131
50
173.7675579
51
180.231553
0
ARC
8
DEFAULT_255_1_234
10
24.2621329
20
108.5608666
40
0.7401564
50
164.3058563
51
173.9002247
0
ARC
8
DEFAULT_255_1_234
10
23.9709398
20
108.6447656
40
0.4371288
50
148.7922025
51
164.568378
0
ARC
8
DEFAULT_255_1_234
10
23.875785
20
108.6978929
40
0.3282386
50
144.5883898
51
148.1176286
0
ARC
8
DEFAULT_255_1_234
10
23.8414748
20
108.7218315
40
0.2864044
50
101.6440918
51
144.514236
0
ARC
8
DEFAULT_255_1_234
10
23.8839814
20
108.5529069
40
0.4604934
50
89.5284041
51
102.5819763
0
ARC
8
DEFAULT_255_1_234
10
23.8918902
20
108.5490018
40
0.464401
50
77.0437873
51
90.5081339
0
ARC
8
DEFAULT_255_1_234
10
23.9320904
20
108.7132615
40
0.2953195
50
48.2778575
51
77.4994676
0
ARC
8
DEFAULT_255_1_234
10
23.9393535
20
108.7261746
40
0.2808655
50
36.3142134
51
47.6305865
0
ARC
8
DEFAULT_255_1_234
10
23.8524842
20
108.6676515
40
0.3855453
50
18.2931786
51
35.6769206
0
ARC
8
DEFAULT_255_1_234
10
23.5981601
20
108.5803593
40
0.654423
50
8.024666
51
18.5605216
0
ARC
8
DEFAULT_255_1_234
10
23.1818521
20
108.5188792
40
1.0752407
50
1.1274072
51
8.1718305
0
ARC
8
DEFAULT_255_1_234
10
22.8582712
20
108.5061885
40
1.3990231
50
0.5424119
51
1.3863029
0
ARC
8
DEFAULT_255_1_234
10
23.0404089
20
108.5334342
40
1.0682415
50
359.8090433
51
4.9407866
0
ARC
8
DEFAULT_255_1_234
10
23.4614103
20
108.5710113
40
0.6455691
50
4.8362157
51
12.2904523
0
ARC
8
DEFAULT_255_1_234
10
23.7369218
20
108.6323965
40
0.3633074
50
12.0805627
51
23.8173984
0
ARC
8
DEFAULT_255_1_234
10
23.8542924
20
108.6820919
40
0.2358723
50
24.2871213
51
31.3935614
0
ARC
8
DEFAULT_255_1_234
10
23.9067621
20
108.7164233
40
0.1732111
50
30.7407893
51
82.4657128
0
ARC
8
DEFAULT_255_1_234
10
23.8887755
20
108.6280691
40
0.263235
50
81.1060089
51
90.2184952
0
ARC
8
DEFAULT_255_1_234
10
23.8852054
20
108.6538924
40
0.2374236
50
89.3806855
51
105.6762551
0
ARC
8
DEFAULT_255_1_234
10
23.8668685
20
108.7205567
40
0.1682847
50
105.7981136
51
149.7388061
0
ARC
8
DEFAULT_255_1_234
10
23.9732763
20
108.656595
40
0.2924306
50
149.4208916
51
163.6286378
0
ARC
8
DEFAULT_255_1_234
10
24.1823651
20
108.592825
40
0.5110213
50
163.3763315
51
172.1410975
0
ARC
8
DEFAULT_255_1_234
10
24.512437
20
108.5455518
40
0.8444586
50
172.0259487
51
178.0703232
0
ARC
8
DEFAULT_255_1_234
10
24.815446
20
108.5311906
40
1.1477868
50
177.8631668
51
179.5044149
0
ARC
8
DEFAULT_255_1_234
10
24.7081864
20
108.2997389
40
1.0404907
50
179.7995573
51
185.2460446
0
ARC
8
DEFAULT_255_1_234
10
24.3038903
20
108.2614513
40
0.6343885
50
185.1411642
51
193.0079639
0
ARC
8
DEFAULT_255_1_234
10
24.0395376
20
108.1989641
40
0.3627568
50
192.7897626
51
205.2507664
0
ARC
8
DEFAULT_255_1_234
10
23.9348923
20
108.1522415
40
0.2481908
50
205.8005384
51
211.2537509
0
ARC
8
DEFAULT_255_1_234
10
23.8825363
20
108.117158
40
0.1852521
50
210.3789793
51
238.4008143
0
ARC
8
DEFAULT_255_1_234
10
23.8805885
20
108.1218376
40
0.1882621
50
239.6520629
51
265.9793761
0
ARC
8
DEFAULT_255_1_234
10
23.8891085
20
108.1890427
40
0.2559272
50
265.1315437
51
270.060332
0
ARC
8
DEFAULT_255_1_234
10
23.8919864
20
108.1566534
40
0.2235528
50
269.3314664
51
287.2178029
0
ARC
8
DEFAULT_255_1_234
10
23.9057716
20
108.1063279
40
0.1714108
50
287.7958004
51
329.080874
0
ARC
8
DEFAULT_255_1_234
10
23.8100173
20
108.166093
40
0.2842745
50
328.6634704
51
343.3325132
0
ARC
8
DEFAULT_255_1_234
10
23.5927193
20
108.2337863
40
0.5118644
50
343.0499468
51
351.9393422
0
ARC
8
DEFAULT_255_1_234
10
23.2460493
20
108.2848949
40
0.8622784
50
351.8069023
51
357.7959224
0
ARC
8
DEFAULT_255_1_234
10
22.9225049
20
108.3016721
40
1.1862365
50
357.5871873
51
359.2677531
0
LINE
8
DEFAULT_255_1_234
10
23.186823
20
116.1364663
11
23.3418355
21
116.1364663
0
LINE
8
DEFAULT_255_1_234
10
22.4414777
20
116.2954947
11
22.4414777
21
116.4079391
0
LINE
8
DEFAULT_255_1_234
10
23.3418355
20
116.5589357
11
23.186823
21
116.5589357
0
LINE
8
DEFAULT_255_1_234
10
22.5964902
20
116.4039232
11
22.5964902
21
116.2906757
0
ARC
8
DEFAULT_255_1_234
10
22.7937742
20
116.1961846
40
0.5513052
50
340.1774281
51
353.7814284
0
ARC
8
DEFAULT_255_1_234
10
22.9509095
20
116.1376582
40
0.3836379
50
311.4558989
51
340.4421614
0
ARC
8
DEFAULT_255_1_234
10
22.9475763
20
116.1487528
40
0.3941894
50
282.4333181
51
310.7513653
0
ARC
8
DEFAULT_255_1_234
10
22.9036502
20
116.3302679
40
0.5809175
50
269.9358511
51
282.809604
0
ARC
8
DEFAULT_255_1_234
10
22.8984568
20
116.4760212
40
0.7266847
50
270.0021091
51
270.3581957
0
ARC
8
DEFAULT_255_1_234
10
22.8931985
20
116.2159585
40
0.4666519
50
250.7884749
51
270.6489167
0
ARC
8
DEFAULT_255_1_234
10
22.876382
20
116.1522319
40
0.4009729
50
219.3627325
51
250.0611886
0
ARC
8
DEFAULT_255_1_234
10
22.9593031
20
116.2227042
40
0.5097822
50
193.5479632
51
219.5756669
0
ARC
8
DEFAULT_255_1_234
10
23.1964652
20
116.2842919
40
0.7547848
50
181.1218675
51
193.87563
0
ARC
8
DEFAULT_255_1_234
10
23.4034833
20
116.295358
40
0.9620055
50
179.9918545
51
181.5394234
0
ARC
8
DEFAULT_255_1_234
10
23.2183935
20
116.4116788
40
0.7769248
50
169.5837241
51
180.2757934
0
ARC
8
DEFAULT_255_1_234
10
23.0346873
20
116.4456229
40
0.590109
50
155.0365899
51
169.6003176
0
ARC
8
DEFAULT_255_1_234
10
22.9211337
20
116.5003677
40
0.4640625
50
136.783148
51
155.2472683
0
ARC
8
DEFAULT_255_1_234
10
22.8821814
20
116.5334562
40
0.4130255
50
121.7633186
51
136.428115
0
ARC
8
DEFAULT_255_1_234
10
22.8956776
20
116.5085227
40
0.4413323
50
95.6459699
51
121.5490577
0
ARC
8
DEFAULT_255_1_234
10
22.9114058
20
116.3976949
40
0.55319
50
89.924208
51
96.1377933
0
ARC
8
DEFAULT_255_1_234
10
22.9164491
20
116.4095542
40
0.5413475
50
76.6779277
51
90.4563316
0
ARC
8
DEFAULT_255_1_234
10
22.9558114
20
116.5686114
40
0.3775041
50
47.485847
51
76.9287264
0
ARC
8
DEFAULT_255_1_234
10
22.9411087
20
116.5586159
40
0.3948286
50
16.5424086
51
46.8933463
0
ARC
8
DEFAULT_255_1_234
10
22.7803244
20
116.5057861
40
0.564021
50
5.4072051
51
17.0365086
0
ARC
8
DEFAULT_255_1_234
10
22.6364261
20
116.4826679
40
0.5556559
50
7.8891745
51
15.9239216
0
ARC
8
DEFAULT_255_1_234
10
22.8351274
20
116.5403631
40
0.3487515
50
15.7653144
51
27.9410532
0
ARC
8
DEFAULT_255_1_234
10
22.9455492
20
116.599479
40
0.2235026
50
27.8166557
51
46.4008329
0
ARC
8
DEFAULT_255_1_234
10
22.9505135
20
116.5989082
40
0.2205286
50
47.4371857
51
75.0698205
0
ARC
8
DEFAULT_255_1_234
10
22.9196529
20
116.4914765
40
0.3322915
50
74.7008593
51
87.8124495
0
ARC
8
DEFAULT_255_1_234
10
22.9123217
20
116.3858844
40
0.4380987
50
87.3814673
51
90.0240855
0
ARC
8
DEFAULT_255_1_234
10
22.908476
20
116.5036291
40
0.3203749
50
89.3451631
51
108.5745436
0
ARC
8
DEFAULT_255_1_234
10
22.8947865
20
116.5549908
40
0.2673494
50
109.2998449
51
143.3037509
0
ARC
8
DEFAULT_255_1_234
10
22.9709938
20
116.4963881
40
0.3634757
50
143.0753173
51
163.1916937
0
ARC
8
DEFAULT_255_1_234
10
23.1661666
20
116.4347967
40
0.5681262
50
162.9373603
51
174.6208611
0
ARC
8
DEFAULT_255_1_234
10
23.4287708
20
116.406001
40
0.8322832
50
174.3419979
51
180.1430411
0
ARC
8
DEFAULT_255_1_234
10
23.3356864
20
116.2865698
40
0.7392076
50
179.6817502
51
189.150529
0
ARC
8
DEFAULT_255_1_234
10
23.0856112
20
116.244919
40
0.4856932
50
188.9910863
51
203.5773039
0
ARC
8
DEFAULT_255_1_234
10
22.9776445
20
116.2001211
40
0.3688271
50
203.9077269
51
215.1312379
0
ARC
8
DEFAULT_255_1_234
10
22.8853539
20
116.1285941
40
0.2522457
50
213.9071664
51
263.8849284
0
ARC
8
DEFAULT_255_1_234
10
22.8978868
20
116.2070518
40
0.3316174
50
263.1758525
51
270.1031083
0
ARC
8
DEFAULT_255_1_234
10
22.901096
20
116.3317365
40
0.4563091
50
269.6719807
51
279.0609165
0
ARC
8
DEFAULT_255_1_234
10
22.9277728
20
116.1704907
40
0.2928759
50
278.8750225
51
293.6346586
0
ARC
8
DEFAULT_255_1_234
10
22.9597936
20
116.09529
40
0.2111472
50
293.8553404
51
310.0518804
0
ARC
8
DEFAULT_255_1_234
10
22.960279
20
116.0890516
40
0.2060917
50
311.0646779
51
332.0108348
0
ARC
8
DEFAULT_255_1_234
10
22.8410517
20
116.1547978
40
0.3422352
50
331.6588543
51
343.2878891
0
ARC
8
DEFAULT_255_1_234
10
22.6348032
20
116.2181798
40
0.5580003
50
343.1446044
51
351.010618
0
ARC
8
DEFAULT_255_1_234
10
22.4806678
20
116.2462871
40
0.7146438
50
350.7157277
51
351.1602153
0
LINE
8
DEFAULT_255_1_234
10
24.2470125
20
116.4569327
11
24.2470125
21
116.2641709
0
LINE
8
DEFAULT_255_1_234
10
23.5088957
20
116.2440916
11
23.5088957
21
116.4424755
0
LINE
8
DEFAULT_255_1_234
10
24.0984253
20
116.2240123
11
24.0984253
21
116.4673739
0
LINE
8
DEFAULT_255_1_234
10
23.6574829
20
116.4786184
11
23.6574829
21
116.2408789
0
ARC
8
DEFAULT_255_1_234
10
23.0223014
20
116.2592805
40
1.2247208
50
353.8441951
51
0.2287902
0
ARC
8
DEFAULT_255_1_234
10
23.4862518
20
116.2074806
40
0.7578929
50
344.4934747
51
353.9765454
0
ARC
8
DEFAULT_255_1_234
10
23.7855108
20
116.1223981
40
0.4467846
50
329.2803592
51
344.7472793
0
ARC
8
DEFAULT_255_1_234
10
23.8847933
20
116.0679018
40
0.3336173
50
324.9352394
51
328.6160465
0
ARC
8
DEFAULT_255_1_234
10
23.9225042
20
116.0415427
40
0.2876076
50
280.580143
51
324.9173126
0
ARC
8
DEFAULT_255_1_234
10
23.8823834
20
116.2086099
40
0.4592847
50
269.5977311
51
281.6734359
0
ARC
8
DEFAULT_255_1_234
10
23.875174
20
116.1966173
40
0.4472986
50
256.6228859
51
270.51044
0
ARC
8
DEFAULT_255_1_234
10
23.8349718
20
116.0417877
40
0.2873874
50
215.8618325
51
257.2788573
0
ARC
8
DEFAULT_255_1_234
10
23.9370749
20
116.1102977
40
0.4102928
50
197.9693508
51
215.2623606
0
ARC
8
DEFAULT_255_1_234
10
24.1855865
20
116.1941709
40
0.6725652
50
187.8816417
51
198.2346507
0
ARC
8
DEFAULT_255_1_234
10
24.5814073
20
116.2513079
40
1.0724845
50
180.8976217
51
188.0055519
0
ARC
8
DEFAULT_255_1_234
10
24.8614261
20
116.2616777
40
1.3526448
50
180.7449369
51
181.1510016
0
ARC
8
DEFAULT_255_1_234
10
24.703699
20
116.4473042
40
1.1948131
50
173.7675579
51
180.231553
0
ARC
8
DEFAULT_255_1_234
10
24.2519137
20
116.4983666
40
0.7401564
50
164.3058563
51
173.9002247
0
ARC
8
DEFAULT_255_1_234
10
23.9607206
20
116.5822656
40
0.4371288
50
148.7922025
51
164.568378
0
ARC
8
DEFAULT_255_1_234
10
23.8655658
20
116.6353929
40
0.3282386
50
144.5883898
51
148.1176286
0
ARC
8
DEFAULT_255_1_234
10
23.8312556
20
116.6593315
40
0.2864044
50
101.6440918
51
144.514236
0
ARC
8
DEFAULT_255_1_234
10
23.8737623
20
116.4904069
40
0.4604934
50
89.5284041
51
102.5819763
0
ARC
8
DEFAULT_255_1_234
10
23.881671
20
116.4865018
40
0.464401
50
77.0437873
51
90.5081339
0
ARC
8
DEFAULT_255_1_234
10
23.9218712
20
116.6507615
40
0.2953195
50
48.2778575
51
77.4994676
0
ARC
8
DEFAULT_255_1_234
10
23.9291343
20
116.6636746
40
0.2808655
50
36.3142134
51
47.6305865
0
ARC
8
DEFAULT_255_1_234
10
23.842265
20
116.6051515
40
0.3855453
50
18.2931786
51
35.6769206
0
ARC
8
DEFAULT_255_1_234
10
23.5879409
20
116.5178593
40
0.654423
50
8.024666
51
18.5605216
0
ARC
8
DEFAULT_255_1_234
10
23.1716329
20
116.4563792
40
1.0752407
50
1.1274072
51
8.1718305
0
ARC
8
DEFAULT_255_1_234
10
22.848052
20
116.4436885
40
1.3990231
50
0.5424119
51
1.3863029
0
ARC
8
DEFAULT_255_1_234
10
23.0301898
20
116.4709342
40
1.0682415
50
359.8090433
51
4.9407866
0
ARC
8
DEFAULT_255_1_234
10
23.4511912
20
116.5085113
40
0.6455691
50
4.8362157
51
12.2904523
0
ARC
8
DEFAULT_255_1_234
10
23.7267026
20
116.5698965
40
0.3633074
50
12.0805627
51
23.8173984
0
ARC
8
DEFAULT_255_1_234
10
23.8440732
20
116.6195919
40
0.2358723
50
24.2871213
51
31.3935614
0
ARC
8
DEFAULT_255_1_234
10
23.8965429
20
116.6539233
40
0.1732111
50
30.7407893
51
82.4657128
0
ARC
8
DEFAULT_255_1_234
10
23.8785563
20
116.5655691
40
0.263235
50
81.1060089
51
90.2184952
0
ARC
8
DEFAULT_255_1_234
10
23.8749862
20
116.5913924
40
0.2374236
50
89.3806855
51
105.6762551
0
ARC
8
DEFAULT_255_1_234
10
23.8566493
20
116.6580567
40
0.1682847
50
105.7981136
51
149.7388061
0
ARC
8
DEFAULT_255_1_234
10
23.9630571
20
116.594095
40
0.2924306
50
149.4208916
51
163.6286378
0
ARC
8
DEFAULT_255_1_234
10
24.1721459
20
116.530325
40
0.5110213
50
163.3763315
51
172.1410975
0
ARC
8
DEFAULT_255_1_234
10
24.5022178
20
116.4830518
40
0.8444586
50
172.0259487
51
178.0703232
0
ARC
8
DEFAULT_255_1_234
10
24.8052268
20
116.4686906
40
1.1477868
50
177.8631668
51
179.5044149
0
ARC
8
DEFAULT_255_1_234
10
24.6979672
20
116.2372389
40
1.0404907
50
179.7995573
51
185.2460446
0
ARC
8
DEFAULT_255_1_234
10
24.2936711
20
116.1989513
40
0.6343885
50
185.1411642
51
193.0079639
0
ARC
8
DEFAULT_255_1_234
10
24.0293184
20
116.1364641
40
0.3627568
50
192.7897626
51
205.2507664
0
ARC
8
DEFAULT_255_1_234
10
23.9246731
20
116.0897415
40
0.2481908
50
205.8005384
51
211.2537509
0
ARC
8
DEFAULT_255_1_234
10
23.8723171
20
116.054658
40
0.1852521
50
210.3789793
51
238.4008143
0
ARC
8
DEFAULT_255_1_234
10
23.8703693
20
116.0593376
40
0.1882621
50
239.6520629
51
265.9793761
0
ARC
8
DEFAULT_255_1_234
10
23.8788893
20
116.1265427
40
0.2559272
50
265.1315437
51
270.060332
0
ARC
8
DEFAULT_255_1_234
10
23.8817672
20
116.0941534
40
0.2235528
50
269.3314664
51
287.2178029
0
ARC
8
DEFAULT_255_1_234
10
23.8955524
20
116.0438279
40
0.1714108
50
287.7958004
51
329.080874
0
ARC
8
DEFAULT_255_1_234
10
23.7997981
20
116.103593
40
0.2842745
50
328.6634704
51
343.3325132
0
ARC
8
DEFAULT_255_1_234
10
23.5825001
20
116.1712863
40
0.5118644
50
343.0499468
51
351.9393422
0
ARC
8
DEFAULT_255_1_234
10
23.2358301
20
116.2223949
40
0.8622784
50
351.8069023
51
357.7959224
0
ARC
8
DEFAULT_255_1_234
10
22.9122857
20
116.2391721
40
1.1862365
50
357.5871873
51
359.2677531
0
LINE
8
DEFAULT_255_1_234
10
23.0886137
20
124.8779433
11
23.0886137
21
123.7029
0
LINE
8
DEFAULT_255_1_234
10
23.0886137
20
123.7029
11
22.9392234
21
123.7029
0
LINE
8
DEFAULT_255_1_234
10
22.9392234
20
123.7029
11
22.9392234
21
124.6932133
0
LINE
8
DEFAULT_255_1_234
10
22.9392234
20
124.6932133
11
22.6396396
21
124.5831785
0
LINE
8
DEFAULT_255_1_234
10
22.6396396
20
124.5831785
11
22.6396396
21
124.7181117
0
LINE
8
DEFAULT_255_1_234
10
22.6396396
20
124.7181117
11
23.0653217
21
124.8779433
0
LINE
8
DEFAULT_255_1_234
10
23.0653217
20
124.8779433
11
23.0886137
21
124.8779433
0
LINE
8
DEFAULT_255_1_234
10
24.2427745
20
124.4048739
11
24.2427745
21
124.3615025
0
LINE
8
DEFAULT_255_1_234
10
23.7006322
20
123.7020968
11
23.6717179
21
123.7020968
0
LINE
8
DEFAULT_255_1_234
10
23.6717179
20
123.7020968
11
23.6717179
21
123.8273919
0
LINE
8
DEFAULT_255_1_234
10
23.6717179
20
123.8273919
11
23.7030417
21
123.8273919
0
LINE
8
DEFAULT_255_1_234
10
24.0941874
20
124.3759597
11
24.0941874
21
124.4353945
0
ARC
8
DEFAULT_255_1_234
10
23.8148143
20
124.4505403
40
0.3635579
50
297.4037347
51
320.016758
0
ARC
8
DEFAULT_255_1_234
10
23.8438092
20
124.394824
40
0.3007486
50
270.2633101
51
297.3851877
0
ARC
8
DEFAULT_255_1_234
10
23.8404048
20
124.4411904
40
0.3471448
50
269.9966443
51
270.7900392
0
ARC
8
DEFAULT_255_1_234
10
23.8378529
20
124.4410143
40
0.3469779
50
254.5999133
51
270.4180344
0
ARC
8
DEFAULT_255_1_234
10
23.8235888
20
124.3845647
40
0.2887697
50
236.4717942
51
254.3541279
0
ARC
8
DEFAULT_255_1_234
10
23.8392106
20
124.4055711
40
0.3149125
50
208.4727207
51
236.2134933
0
ARC
8
DEFAULT_255_1_234
10
23.9030881
20
124.4446455
40
0.3897115
50
204.3447514
51
209.0453999
0
ARC
8
DEFAULT_255_1_234
10
23.9710457
20
124.4734656
40
0.4635101
50
183.9375985
51
204.1276318
0
ARC
8
DEFAULT_255_1_234
10
24.0618708
20
124.4832482
40
0.5548037
50
179.9652252
51
184.3013875
0
ARC
8
DEFAULT_255_1_234
10
24.0378754
20
124.4865507
40
0.5308164
50
166.7585989
51
180.3201225
0
ARC
8
DEFAULT_255_1_234
10
23.9532368
20
124.5049488
40
0.4442163
50
154.6955053
51
166.5679793
0
ARC
8
DEFAULT_255_1_234
10
23.8679238
20
124.547921
40
0.3487299
50
136.3324195
51
155.0871442
0
ARC
8
DEFAULT_255_1_234
10
23.8398311
20
124.5719954
40
0.3117924
50
121.236733
51
135.9680508
0
ARC
8
DEFAULT_255_1_234
10
23.8538809
20
124.5459743
40
0.3413302
50
96.845628
51
120.9881519
0
ARC
8
DEFAULT_255_1_234
10
23.8684391
20
124.4524515
40
0.4359341
50
89.8870174
51
97.2802754
0
ARC
8
DEFAULT_255_1_234
10
23.8736829
20
124.5162095
40
0.3722009
50
70.6505584
51
90.6749113
0
ARC
8
DEFAULT_255_1_234
10
23.8868108
20
124.5675361
40
0.3194571
50
36.7492984
51
69.8219918
0
ARC
8
DEFAULT_255_1_234
10
23.7869273
20
124.4896993
40
0.4460685
50
15.39587
51
37.0840084
0
ARC
8
DEFAULT_255_1_234
10
23.5739706
20
124.4276242
40
0.6678714
50
3.9488873
51
15.6798563
0
ARC
8
DEFAULT_255_1_234
10
23.3338334
20
124.4059964
40
0.9089418
50
359.929245
51
4.2665314
0
ARC
8
DEFAULT_255_1_234
10
22.8732771
20
124.3548513
40
1.3695135
50
352.8366322
51
0.2782669
0
ARC
8
DEFAULT_255_1_234
10
23.402045
20
124.2861629
40
0.8363105
50
341.8359505
51
352.9884176
0
ARC
8
DEFAULT_255_1_234
10
23.7239169
20
124.17767
40
0.4966642
50
322.8578092
51
342.1527901
0
ARC
8
DEFAULT_255_1_234
10
23.8103125
20
124.1187384
40
0.3922466
50
319.334325
51
322.0998941
0
ARC
8
DEFAULT_255_1_234
10
23.7793462
20
124.1498209
40
0.4360033
50
285.9541367
51
318.8878087
0
ARC
8
DEFAULT_255_1_234
10
23.7066723
20
124.38086
40
0.678149
50
272.9281676
51
286.4922826
0
ARC
8
DEFAULT_255_1_234
10
23.6876841
20
124.6059587
40
0.9039547
50
270.8207226
51
273.4012994
0
ARC
8
DEFAULT_255_1_234
10
23.6965692
20
124.4240666
40
0.5967098
50
270.6214993
51
281.4062806
0
ARC
8
DEFAULT_255_1_234
10
23.7395673
20
124.2184833
40
0.3866861
50
281.1852553
51
299.0621114
0
ARC
8
DEFAULT_255_1_234
10
23.7769244
20
124.1463798
40
0.3055236
50
299.5067782
51
313.1200873
0
ARC
8
DEFAULT_255_1_234
10
23.7791211
20
124.1384554
40
0.2982623
50
313.8526205
51
338.5989322
0
ARC
8
DEFAULT_255_1_234
10
23.6167285
20
124.2051781
40
0.4738131
50
338.2523585
51
351.2430902
0
ARC
8
DEFAULT_255_1_234
10
23.3756581
20
124.2461447
40
0.7183203
50
350.9409515
51
357.6691871
0
ARC
8
DEFAULT_255_1_234
10
23.8647011
20
124.4463764
40
0.2294452
50
269.9447023
51
306.8248917
0
ARC
8
DEFAULT_255_1_234
10
23.8409926
20
124.4886898
40
0.2775994
50
305.5072438
51
327.0773448
0
ARC
8
DEFAULT_255_1_234
10
23.8528367
20
124.4792025
40
0.2625056
50
327.4104943
51
336.840169
0
ARC
8
DEFAULT_255_1_234
10
23.5434432
20
124.4386302
40
0.5507537
50
359.6633817
51
10.117533
0
ARC
8
DEFAULT_255_1_234
10
23.718823
20
124.4710777
40
0.372403
50
9.9430141
51
26.7700076
0
ARC
8
DEFAULT_255_1_234
10
23.7785442
20
124.4986187
40
0.3066865
50
27.2015464
51
34.6829435
0
ARC
8
DEFAULT_255_1_234
10
23.8274922
20
124.5353977
40
0.245519
50
34.1250343
51
50.3070065
0
ARC
8
DEFAULT_255_1_234
10
23.8721602
20
124.5888385
40
0.1758693
50
50.3851167
51
90.6705993
0
ARC
8
DEFAULT_255_1_234
10
23.8674835
20
124.5583799
40
0.2063326
50
89.272901
51
111.9140407
0
ARC
8
DEFAULT_255_1_234
10
23.8655363
20
124.572444
40
0.1925887
50
112.9382311
51
142.5320782
0
ARC
8
DEFAULT_255_1_234
10
23.9201543
20
124.5280969
40
0.2629232
50
142.1021256
51
166.3835592
0
ARC
8
DEFAULT_255_1_234
10
24.0382848
20
124.4975915
40
0.3849193
50
166.1100289
51
178.665427
0
ARC
8
DEFAULT_255_1_234
10
24.1430437
20
124.4917117
40
0.4897989
50
178.2632126
51
180.0111093
0
ARC
8
DEFAULT_255_1_234
10
24.0628558
20
124.4888728
40
0.40962
50
179.6161962
51
191.8787166
0
ARC
8
DEFAULT_255_1_234
10
23.9408397
20
124.4618896
40
0.2846655
50
191.6191692
51
215.2972286
0
ARC
8
DEFAULT_255_1_234
10
23.9211588
20
124.4503918
40
0.2619665
50
215.7320102
51
216.5355409
0
ARC
8
DEFAULT_255_1_234
10
23.8672674
20
124.4071647
40
0.1929497
50
215.7486685
51
239.9727502
0
ARC
8
DEFAULT_255_1_234
10
23.860259
20
124.4020894
40
0.1850822
50
241.0650169
51
269.2810483
0
ARC
8
DEFAULT_255_1_234
10
23.8644505
20
124.4511371
40
0.2342059
50
268.4062526
51
270.0071348
0
LINE
8
DEFAULT_255_1_234
10
23.0886137
20
132.8154433
11
23.0886137
21
131.6404
0
LINE
8
DEFAULT_255_1_234
10
23.0886137
20
131.6404
11
22.9392234
21
131.6404
0
LINE
8
DEFAULT_255_1_234
10
22.9392234
20
131.6404
11
22.9392234
21
132.6307133
0
LINE
8
DEFAULT_255_1_234
10
22.9392234
20
132.6307133
11
22.6396396
21
132.5206785
0
LINE
8
DEFAULT_255_1_234
10
22.6396396
20
132.5206785
11
22.6396396
21
132.6556117
0
LINE
8
DEFAULT_255_1_234
10
22.6396396
20
132.6556117
11
23.0653217
21
132.8154433
0
LINE
8
DEFAULT_255_1_234
10
23.0653217
20
132.8154433
11
23.0886137
21
132.8154433
0
ARC
8
DEFAULT_255_1_234
10
23.9509123
20
132.5020703
40
0.2822356
50
338.8763615
51
0.5166041
0
ARC
8
DEFAULT_255_1_234
10
23.9677777
20
132.4975208
40
0.2648703
50
325.8412414
51
338.4795939
0
ARC
8
DEFAULT_255_1_234
10
23.9287145
20
132.5246042
40
0.3124019
50
296.7586019
51
325.753654
0
ARC
8
DEFAULT_255_1_234
10
23.8999253
20
132.5730789
40
0.368668
50
296.0902311
51
297.3618122
0
ARC
8
DEFAULT_255_1_234
10
23.9256711
20
131.9176041
40
0.3518806
50
47.9009248
51
67.1946869
0
ARC
8
DEFAULT_255_1_234
10
23.9452953
20
131.9422395
40
0.320451
50
35.236241
51
47.551371
0
ARC
8
DEFAULT_255_1_234
10
23.9714571
20
131.9596993
40
0.2890103
50
359.2759738
51
35.4014081
0
ARC
8
DEFAULT_255_1_234
10
23.8969602
20
131.9523826
40
0.3635026
50
343.1294516
51
0.5776525
0
ARC
8
DEFAULT_255_1_234
10
23.9694147
20
131.932433
40
0.2883832
50
310.8497458
51
342.744803
0
ARC
8
DEFAULT_255_1_234
10
23.927626
20
131.9801294
40
0.3517954
50
281.5473923
51
310.9169905
0
ARC
8
DEFAULT_255_1_234
10
23.891971
20
132.1354084
40
0.5110832
50
269.6192722
51
281.9789957
0
ARC
8
DEFAULT_255_1_234
10
23.8847499
20
132.1354828
40
0.5111606
50
257.4584469
51
270.4287458
0
ARC
8
DEFAULT_255_1_234
10
23.8466642
20
131.9751344
40
0.3463762
50
228.7553743
51
257.8484423
0
ARC
8
DEFAULT_255_1_234
10
23.815684
20
131.9378442
40
0.297916
50
184.0104442
51
228.5071787
0
ARC
8
DEFAULT_255_1_234
10
23.9319784
20
131.9555512
40
0.4152734
50
179.9315461
51
185.3254504
0
ARC
8
DEFAULT_255_1_234
10
23.814343
20
131.9592992
40
0.2976554
50
145.6795913
51
180.6259649
0
ARC
8
DEFAULT_255_1_234
10
23.8306779
20
131.9478929
40
0.3175776
50
115.5537925
51
145.6416199
0
ARC
8
DEFAULT_255_1_234
10
23.8647709
20
131.8868028
40
0.3874232
50
113.2437915
51
116.2054627
0
ARC
8
DEFAULT_255_1_234
10
23.8494922
20
132.526658
40
0.3154751
50
222.9548379
51
244.1372485
0
ARC
8
DEFAULT_255_1_234
10
23.8372997
20
132.5129834
40
0.2972382
50
213.3439227
51
222.6271327
0
ARC
8
DEFAULT_255_1_234
10
23.8180932
20
132.4999308
40
0.274019
50
180.4316517
51
213.2713999
0
ARC
8
DEFAULT_255_1_234
10
23.8755933
20
132.504611
40
0.33158
50
179.9992944
51
181.1655061
0
ARC
8
DEFAULT_255_1_234
10
23.916535
20
132.5080561
40
0.3725376
50
164.6186108
51
180.5292368
0
ARC
8
DEFAULT_255_1_234
10
23.8267213
20
132.5322101
40
0.2795349
50
132.2454369
51
164.5092287
0
ARC
8
DEFAULT_255_1_234
10
23.8554317
20
132.4997028
40
0.3229019
50
100.7052766
51
132.1387266
0
ARC
8
DEFAULT_255_1_234
10
23.8859289
20
132.3619086
40
0.4639835
50
89.6732617
51
101.2449487
0
ARC
8
DEFAULT_255_1_234
10
23.8921487
20
132.379399
40
0.4464999
50
76.2876631
51
90.4586123
0
ARC
8
DEFAULT_255_1_234
10
23.9227719
20
132.501622
40
0.3205023
50
47.8240157
51
76.4266918
0
ARC
8
DEFAULT_255_1_234
10
23.9450269
20
132.527659
40
0.2862661
50
6.9168658
51
47.6261438
0
ARC
8
DEFAULT_255_1_234
10
23.8263672
20
132.505737
40
0.4067708
50
359.8419705
51
7.9694496
0
ARC
8
DEFAULT_255_1_234
10
23.8605569
20
131.9616925
40
0.2513121
50
359.4454068
51
16.9256425
0
ARC
8
DEFAULT_255_1_234
10
23.907438
20
131.9746033
40
0.2027071
50
17.292259
51
45.462717
0
ARC
8
DEFAULT_255_1_234
10
23.9020316
20
131.9699434
40
0.2098212
50
45.3028762
51
83.1921472
0
ARC
8
DEFAULT_255_1_234
10
23.8877
20
131.8897895
40
0.2911472
50
82.2614531
51
90.143954
0
ARC
8
DEFAULT_255_1_234
10
23.884612
20
131.913095
40
0.2678513
50
89.4959189
51
104.8579811
0
ARC
8
DEFAULT_255_1_234
10
23.8669379
20
131.980089
40
0.1985654
50
104.8855873
51
135.2448349
0
ARC
8
DEFAULT_255_1_234
10
23.8719152
20
131.9756336
40
0.2052373
50
135.3398955
51
172.104394
0
ARC
8
DEFAULT_255_1_234
10
23.952621
20
131.9601925
40
0.2873299
50
171.2651929
51
180.1859362
0
ARC
8
DEFAULT_255_1_234
10
23.9356911
20
131.9569733
40
0.2704083
50
179.515471
51
193.6466734
0
ARC
8
DEFAULT_255_1_234
10
23.854068
20
131.9361777
40
0.1861855
50
193.3540587
51
225.8256931
0
ARC
8
DEFAULT_255_1_234
10
23.8581437
20
131.9432524
40
0.1941102
50
226.418029
51
255.8553723
0
ARC
8
DEFAULT_255_1_234
10
23.883787
20
132.0368998
40
0.2911917
50
255.4655572
51
268.7985967
0
ARC
8
DEFAULT_255_1_234
10
23.8885062
20
132.1207491
40
0.3751331
50
268.3464808
51
270.0104874
0
ARC
8
DEFAULT_255_1_234
10
23.890845
20
132.0523138
40
0.3067064
50
269.575914
51
282.0823146
0
ARC
8
DEFAULT_255_1_234
10
23.9133359
20
131.9528803
40
0.2047712
50
281.7522535
51
306.6056425
0
ARC
8
DEFAULT_255_1_234
10
23.9231785
20
131.9367487
40
0.1859604
50
307.1350025
51
314.0277951
0
ARC
8
DEFAULT_255_1_234
10
23.9195869
20
131.9393766
40
0.1903475
50
314.2553419
51
350.169324
0
ARC
8
DEFAULT_255_1_234
10
23.8344338
20
131.9578409
40
0.2774269
50
349.4145679
51
0.2930737
0
ARC
8
DEFAULT_255_1_234
10
23.8864771
20
132.4737353
40
0.2300764
50
89.477591
51
105.729794
0
ARC
8
DEFAULT_255_1_234
10
23.8728684
20
132.5242637
40
0.1777519
50
105.922966
51
135.1662921
0
ARC
8
DEFAULT_255_1_234
10
23.8749187
20
132.5228419
40
0.1802087
50
135.3053131
51
168.9882338
0
ARC
8
DEFAULT_255_1_234
10
23.9576759
20
132.5038721
40
0.2650806
50
168.3802067
51
180.3602358
0
ARC
8
DEFAULT_255_1_234
10
23.9348339
20
132.5001041
40
0.2422425
50
179.5029707
51
194.9126783
0
ARC
8
DEFAULT_255_1_234
10
23.8763
20
132.484711
40
0.1817188
50
194.9722181
51
224.1943972
0
ARC
8
DEFAULT_255_1_234
10
23.8734867
20
132.4824169
40
0.1781027
50
224.2961434
51
262.0157375
0
ARC
8
DEFAULT_255_1_234
10
23.887711
20
132.5555661
40
0.2525492
50
261.1250369
51
270.1959853
0
ARC
8
DEFAULT_255_1_234
10
23.8906865
20
132.5368339
40
0.233825
50
269.4825617
51
285.0988277
0
ARC
8
DEFAULT_255_1_234
10
23.9061024
20
132.478999
40
0.1739712
50
285.1585659
51
315.9484648
0
ARC
8
DEFAULT_255_1_234
10
23.8972036
20
132.4871886
40
0.1860616
50
316.0412958
51
351.9162715
0
ARC
8
DEFAULT_255_1_234
10
23.8238991
20
132.5013245
40
0.2606517
50
351.1056823
51
0.1936567
0
ARC
8
DEFAULT_255_1_234
10
23.850182
20
132.5043369
40
0.234377
50
359.4789506
51
16.0679113
0
ARC
8
DEFAULT_255_1_234
10
23.8977779
20
132.517181
40
0.1850875
50
16.3251951
51
44.791304
0
ARC
8
DEFAULT_255_1_234
10
23.896006
20
132.5172339
40
0.186312
50
44.3958661
51
88.2498933
0
ARC
8
DEFAULT_255_1_234
10
23.8886614
20
132.4561154
40
0.2476868
50
86.9833827
51
90.0200148
0
LINE
8
DEFAULT_255_1_234
10
23.0886137
20
140.7529433
11
23.0886137
21
139.5779
0
LINE
8
DEFAULT_255_1_234
10
23.0886137
20
139.5779
11
22.9392234
21
139.5779
0
LINE
8
DEFAULT_255_1_234
10
22.9392234
20
139.5779
11
22.9392234
21
140.5682133
0
LINE
8
DEFAULT_255_1_234
10
22.9392234
20
140.5682133
11
22.6396396
21
140.4581785
0
LINE
8
DEFAULT_255_1_234
10
22.6396396
20
140.4581785
11
22.6396396
21
140.5931117
0
LINE
8
DEFAULT_255_1_234
10
22.6396396
20
140.5931117
11
23.0653217
21
140.7529433
0
LINE
8
DEFAULT_255_1_234
10
23.0653217
20
140.7529433
11
23.0886137
21
140.7529433
0
LINE
8
DEFAULT_255_1_234
10
24.2789173
20
140.7473211
11
24.2789173
21
140.663791
0
LINE
8
DEFAULT_255_1_234
10
24.2789173
20
140.663791
11
23.7946035
21
139.5779
0
LINE
8
DEFAULT_255_1_234
10
23.7946035
20
139.5779
11
23.6387878
21
139.5779
0
LINE
8
DEFAULT_255_1_234
10
23.6387878
20
139.5779
11
24.1214953
21
140.6252387
0
LINE
8
DEFAULT_255_1_234
10
24.1214953
20
140.6252387
11
23.4885943
21
140.6252387
0
LINE
8
DEFAULT_255_1_234
10
23.4885943
20
140.6252387
11
23.4885943
21
140.7473211
0
LINE
8
DEFAULT_255_1_234
10
23.4885943
20
140.7473211
11
24.2789173
21
140.7473211
0
LINE
8
DEFAULT_255_1_234
10
23.0886137
20
148.6904433
11
23.0886137
21
147.5154
0
LINE
8
DEFAULT_255_1_234
10
23.0886137
20
147.5154
11
22.9392234
21
147.5154
0
LINE
8
DEFAULT_255_1_234
10
22.9392234
20
147.5154
11
22.9392234
21
148.5057133
0
LINE
8
DEFAULT_255_1_234
10
22.9392234
20
148.5057133
11
22.6396396
21
148.3956785
0
LINE
8
DEFAULT_255_1_234
10
22.6396396
20
148.3956785
11
22.6396396
21
148.5306117
0
LINE
8
DEFAULT_255_1_234
10
22.6396396
20
148.5306117
11
23.0653217
21
148.6904433
0
LINE
8
DEFAULT_255_1_234
10
23.0653217
20
148.6904433
11
23.0886137
21
148.6904433
0
LINE
8
DEFAULT_255_1_234
10
24.0805334
20
148.6856243
11
24.1070381
21
148.6856243
0
LINE
8
DEFAULT_255_1_234
10
24.1070381
20
148.6856243
11
24.1070381
21
148.559526
0
LINE
8
DEFAULT_255_1_234
10
24.1070381
20
148.559526
11
24.0797302
21
148.559526
0
LINE
8
DEFAULT_255_1_234
10
23.5327688
20
147.9603583
11
23.5327688
21
148.0173836
0
LINE
8
DEFAULT_255_1_234
10
23.6821592
20
147.9981075
11
23.6821592
21
147.9434917
0
ARC
8
DEFAULT_255_1_234
10
24.084965
20
148.0597455
40
0.4998079
50
90.6001036
51
104.514704
0
ARC
8
DEFAULT_255_1_234
10
24.0461166
20
148.2042131
40
0.3502176
50
104.2855254
51
133.862935
0
ARC
8
DEFAULT_255_1_234
10
24.0624923
20
148.193383
40
0.3693984
50
134.5302688
51
161.6210873
0
ARC
8
DEFAULT_255_1_234
10
24.2278112
20
148.1350895
40
0.5446739
50
161.2849839
51
174.2076652
0
ARC
8
DEFAULT_255_1_234
10
24.3685049
20
148.1156787
40
0.6866274
50
173.7810589
51
174.9254635
0
ARC
8
DEFAULT_255_1_234
10
23.9134881
20
147.9773839
40
0.3033419
50
95.8330959
51
138.9954921
0
ARC
8
DEFAULT_255_1_234
10
23.9358237
20
147.8495375
40
0.4328947
50
89.8753725
51
97.0544009
0
ARC
8
DEFAULT_255_1_234
10
23.9405703
20
147.9330748
40
0.3493769
50
71.6407809
51
90.6240094
0
ARC
8
DEFAULT_255_1_234
10
23.9556276
20
147.9885082
40
0.2920396
50
39.6367836
51
71.019018
0
ARC
8
DEFAULT_255_1_234
10
23.8919749
20
147.9334998
40
0.3761538
50
10.658731
51
39.9043955
0
ARC
8
DEFAULT_255_1_234
10
23.7371832
20
147.8998686
40
0.5345136
50
359.682601
51
11.132623
0
ARC
8
DEFAULT_255_1_234
10
23.7331963
20
147.892801
40
0.5385081
50
347.2486944
51
0.4369317
0
ARC
8
DEFAULT_255_1_234
10
23.899944
20
147.8526807
40
0.3670249
50
318.1409698
51
347.6118597
0
ARC
8
DEFAULT_255_1_234
10
23.9324433
20
147.8259702
40
0.3250007
50
275.6342139
51
317.8248465
0
ARC
8
DEFAULT_255_1_234
10
23.9103544
20
147.9559219
40
0.4565864
50
269.8874292
51
276.7917694
0
ARC
8
DEFAULT_255_1_234
10
23.9048615
20
147.8533743
40
0.3540676
50
246.9140195
51
270.7437342
0
ARC
8
DEFAULT_255_1_234
10
23.9055005
20
147.8391384
40
0.3412781
50
218.1665114
51
245.878116
0
ARC
8
DEFAULT_255_1_234
10
23.9934466
20
147.9127279
40
0.455911
50
191.4115814
51
218.6077802
0
ARC
8
DEFAULT_255_1_234
10
24.1872555
20
147.9561833
40
0.6545001
50
179.6345085
51
191.7836486
0
ARC
8
DEFAULT_255_1_234
10
24.7454892
20
148.0240697
40
1.2127388
50
171.4525249
51
180.3158839
0
ARC
8
DEFAULT_255_1_234
10
24.3059768
20
148.0924608
40
0.7679464
50
157.9802646
51
171.6246686
0
ARC
8
DEFAULT_255_1_234
10
24.0845789
20
148.1807421
40
0.5296008
50
141.4298019
51
157.854097
0
ARC
8
DEFAULT_255_1_234
10
24.0204109
20
148.2261381
40
0.4511509
50
102.8715806
51
140.8564722
0
ARC
8
DEFAULT_255_1_234
10
24.0851725
20
147.9821552
40
0.7034845
50
90.3778349
51
103.5869322
0
ARC
8
DEFAULT_255_1_234
10
23.9113501
20
147.921673
40
0.2370698
50
89.8751008
51
126.2071704
0
ARC
8
DEFAULT_255_1_234
10
23.9159291
20
147.9062303
40
0.2522934
50
124.9745049
51
144.895901
0
ARC
8
DEFAULT_255_1_234
10
23.8983481
20
147.920556
40
0.2296779
50
145.2974905
51
160.2660252
0
ARC
8
DEFAULT_255_1_234
10
24.205602
20
147.9403071
40
0.5234525
50
179.6514266
51
190.2855912
0
ARC
8
DEFAULT_255_1_234
10
24.0362157
20
147.9083786
40
0.3510893
50
190.0945431
51
207.5098196
0
ARC
8
DEFAULT_255_1_234
10
23.9796427
20
147.8814623
40
0.288489
50
207.9583163
51
216.3251085
0
ARC
8
DEFAULT_255_1_234
10
23.9456535
20
147.8535105
40
0.2445587
50
215.7661442
51
232.5456785
0
ARC
8
DEFAULT_255_1_234
10
23.9073518
20
147.8048482
40
0.1826382
50
232.8005391
51
270.6605633
0
ARC
8
DEFAULT_255_1_234
10
23.9119219
20
147.8412612
40
0.2190529
50
269.35537
51
288.4744281
0
ARC
8
DEFAULT_255_1_234
10
23.9212116
20
147.8063118
40
0.1829749
50
289.1833337
51
322.9683818
0
ARC
8
DEFAULT_255_1_234
10
23.8600638
20
147.8545391
40
0.2608399
50
322.6007884
51
346.5182367
0
ARC
8
DEFAULT_255_1_234
10
23.7443234
20
147.8840616
40
0.3802777
50
346.2582162
51
358.7741648
0
ARC
8
DEFAULT_255_1_234
10
23.6424903
20
147.8895965
40
0.4822176
50
358.3755224
51
0.0098023
0
ARC
8
DEFAULT_255_1_234
10
23.718109
20
147.8923657
40
0.4066078
50
359.6214041
51
11.2839074
0
ARC
8
DEFAULT_255_1_234
10
23.8458237
20
147.9190066
40
0.2761514
50
11.0482309
51
31.8146458
0
ARC
8
DEFAULT_255_1_234
10
23.876728
20
147.9357584
40
0.2410679
50
32.3035391
51
38.082671
0
ARC
8
DEFAULT_255_1_234
10
23.918794
20
147.9738662
40
0.1844966
50
36.825067
51
85.7415724
0
ARC
8
DEFAULT_255_1_234
10
23.9120773
20
147.9238301
40
0.2349122
50
85.0140713
51
90.0513278
0
LINE
8
DEFAULT_255_1_234
10
23.186085
20
156.0954391
11
23.186085
21
155.9693408
0
LINE
8
DEFAULT_255_1_234
10
23.186085
20
155.9693408
11
22.6953458
21
155.9693408
0
LINE
8
DEFAULT_255_1_234
10
22.6953458
20
155.9693408
11
22.6953458
21
155.4529
0
LINE
8
DEFAULT_255_1_234
10
22.6953458
20
155.4529
11
22.5411364
21
155.4529
0
LINE
8
DEFAULT_255_1_234
10
22.5411364
20
155.4529
11
22.5411364
21
156.6223211
0
LINE
8
DEFAULT_255_1_234
10
22.5411364
20
156.6223211
11
23.2655992
21
156.6223211
0
LINE
8
DEFAULT_255_1_234
10
23.2655992
20
156.6223211
11
23.2655992
21
156.4954196
0
LINE
8
DEFAULT_255_1_234
10
23.2655992
20
156.4954196
11
22.6953458
21
156.4954196
0
LINE
8
DEFAULT_255_1_234
10
22.6953458
20
156.4954196
11
22.6953458
21
156.0954391
0
LINE
8
DEFAULT_255_1_234
10
22.6953458
20
156.0954391
11
23.186085
21
156.0954391
0
LINE
8
DEFAULT_255_1_234
10
24.1113412
20
156.1195343
11
24.1113412
21
155.993436
0
LINE
8
DEFAULT_255_1_234
10
24.1113412
20
155.993436
11
23.6045385
21
155.993436
0
LINE
8
DEFAULT_255_1_234
10
23.6045385
20
155.993436
11
23.6045385
21
155.5789983
0
LINE
8
DEFAULT_255_1_234
10
23.6045385
20
155.5789983
11
24.1932649
21
155.5789983
0
LINE
8
DEFAULT_255_1_234
10
24.1932649
20
155.5789983
11
24.1932649
21
155.4529
0
LINE
8
DEFAULT_255_1_234
10
24.1932649
20
155.4529
11
23.4503292
21
155.4529
0
LINE
8
DEFAULT_255_1_234
10
23.4503292
20
155.4529
11
23.4503292
21
156.6223211
0
LINE
8
DEFAULT_255_1_234
10
23.4503292
20
156.6223211
11
24.1852332
21
156.6223211
0
LINE
8
DEFAULT_255_1_234
10
24.1852332
20
156.6223211
11
24.1852332
21
156.4954196
0
LINE
8
DEFAULT_255_1_234
10
24.1852332
20
156.4954196
11
23.6045385
21
156.4954196
0
LINE
8
DEFAULT_255_1_234
10
23.6045385
20
156.4954196
11
23.6045385
21
156.1195343
0
LINE
8
DEFAULT_255_1_234
10
23.6045385
20
156.1195343
11
24.1113412
21
156.1195343
0
ENDSEC
0
EOF