0
SECTION
2
HEADER
9
$MEASUREMENT
70
1
0
ENDSEC
0
SECTION
2
TABLES
0
TABLE
2
LTYPE
0
LTYPE
72
65
70
64
2
CONTINUOUS
3
______
73
0
40
0
0
ENDTAB
0
TABLE
2
LAYER
0
LAYER
2
DEFAULT_255_2_778
70
0
62
255
6
CONTINUOUS
0
LAYER
2
DEFAULT_255_1_234
70
0
62
255
6
CONTINUOUS
0
ENDTAB
0
ENDSEC
0
SECTION
2
ENTITIES
0
ARC
8
DEFAULT_255_2_778
10
3.5700693
20
99.6176527
40
0.7914215
50
129.1312896
51
180.1450914
0
ARC
8
DEFAULT_255_2_778
10
3.5703345
20
99.6181398
40
0.7912112
50
89.854026
51
129.1684493
0
ARC
8
DEFAULT_255_2_778
10
25.7993937
20
99.6178263
40
0.7915249
50
39.4792447
51
90.147911
0
ARC
8
DEFAULT_255_2_778
10
25.7999935
20
99.617673
40
0.7911595
50
359.8533901
51
39.5154338
0
ARC
8
DEFAULT_255_2_778
10
25.7996693
20
-1.9863996
40
0.7914836
50
309.4761667
51
0.1482649
0
ARC
8
DEFAULT_255_2_778
10
25.799398
20
-1.9868307
40
0.7913235
50
269.8517415
51
309.511178
0
ARC
8
DEFAULT_255_2_778
10
3.570342
20
-1.9867725
40
0.7913815
50
219.1282118
51
270.1454017
0
ARC
8
DEFAULT_255_2_778
10
3.5700247
20
-1.98639
40
0.7913769
50
179.8524075
51
219.1641908
0
LINE
8
DEFAULT_255_2_778
10
3.5723503
20
100.4093486
11
25.7973503
21
100.4093486
0
LINE
8
DEFAULT_255_2_778
10
26.5911503
20
99.6156486
11
26.5911503
21
-1.9843514
0
LINE
8
DEFAULT_255_2_778
10
25.7973503
20
-2.7781514
11
3.5723503
21
-2.7781514
0
LINE
8
DEFAULT_255_2_778
10
2.7786503
20
-1.9843514
11
2.7786503
21
99.6156486
0
LINE
8
DEFAULT_255_1_234
10
10.7224484
20
0.0153343
11
10.7224484
21
-0.110764
0
LINE
8
DEFAULT_255_1_234
10
10.7224484
20
-0.110764
11
10.2156458
21
-0.110764
0
LINE
8
DEFAULT_255_1_234
10
10.2156458
20
-0.110764
11
10.2156458
21
-0.5252017
0
LINE
8
DEFAULT_255_1_234
10
10.2156458
20
-0.5252017
11
10.8043722
21
-0.5252017
0
LINE
8
DEFAULT_255_1_234
10
10.8043722
20
-0.5252017
11
10.8043722
21
-0.6513
0
LINE
8
DEFAULT_255_1_234
10
10.8043722
20
-0.6513
11
10.0614364
21
-0.6513
0
LINE
8
DEFAULT_255_1_234
10
10.0614364
20
-0.6513
11
10.0614364
21
0.5181211
0
LINE
8
DEFAULT_255_1_234
10
10.0614364
20
0.5181211
11
10.7963404
21
0.5181211
0
LINE
8
DEFAULT_255_1_234
10
10.7963404
20
0.5181211
11
10.7963404
21
0.3912196
0
LINE
8
DEFAULT_255_1_234
10
10.7963404
20
0.3912196
11
10.2156458
21
0.3912196
0
LINE
8
DEFAULT_255_1_234
10
10.2156458
20
0.3912196
11
10.2156458
21
0.0153343
0
LINE
8
DEFAULT_255_1_234
10
10.2156458
20
0.0153343
11
10.7224484
21
0.0153343
0
LINE
8
DEFAULT_255_1_234
10
11.8950822
20
0.5181211
11
11.8950822
21
-0.6513
0
LINE
8
DEFAULT_255_1_234
10
11.8950822
20
-0.6513
11
11.7400697
21
-0.6513
0
LINE
8
DEFAULT_255_1_234
10
11.7400697
20
-0.6513
11
11.7400697
21
-0.110764
0
LINE
8
DEFAULT_255_1_234
10
11.7400697
20
-0.110764
11
11.1505401
21
-0.110764
0
LINE
8
DEFAULT_255_1_234
10
11.1505401
20
-0.110764
11
11.1505401
21
-0.6513
0
LINE
8
DEFAULT_255_1_234
10
11.1505401
20
-0.6513
11
10.9963307
21
-0.6513
0
LINE
8
DEFAULT_255_1_234
10
10.9963307
20
-0.6513
11
10.9963307
21
0.5181211
0
LINE
8
DEFAULT_255_1_234
10
10.9963307
20
0.5181211
11
11.1505401
21
0.5181211
0
LINE
8
DEFAULT_255_1_234
10
11.1505401
20
0.5181211
11
11.1505401
21
0.0153343
0
LINE
8
DEFAULT_255_1_234
10
11.1505401
20
0.0153343
11
11.7400697
21
0.0153343
0
LINE
8
DEFAULT_255_1_234
10
11.7400697
20
0.0153343
11
11.7400697
21
0.5181211
0
LINE
8
DEFAULT_255_1_234
10
11.7400697
20
0.5181211
11
11.8950822
21
0.5181211
0
LINE
8
DEFAULT_255_1_234
10
12.4548944
20
-0.0938974
11
12.4548944
21
-0.2151766
0
LINE
8
DEFAULT_255_1_234
10
12.4548944
20
-0.2151766
11
12.0629456
21
-0.2151766
0
LINE
8
DEFAULT_255_1_234
10
12.0629456
20
-0.2151766
11
12.0629456
21
-0.0938974
0
LINE
8
DEFAULT_255_1_234
10
12.0629456
20
-0.0938974
11
12.4548944
21
-0.0938974
0
LINE
8
DEFAULT_255_1_234
10
12.9464368
20
-0.6513
11
12.6227577
21
-0.6513
0
LINE
8
DEFAULT_255_1_234
10
12.6227577
20
-0.6513
11
12.6227577
21
0.5181211
0
LINE
8
DEFAULT_255_1_234
10
12.6227577
20
0.5181211
11
12.9528622
21
0.5181211
0
LINE
8
DEFAULT_255_1_234
10
13.4684998
20
-0.0272339
11
13.4684998
21
-0.1019291
0
LINE
8
DEFAULT_255_1_234
10
12.956878
20
0.3912196
11
12.7769671
21
0.3912196
0
LINE
8
DEFAULT_255_1_234
10
12.7769671
20
0.3912196
11
12.7769671
21
-0.5252017
0
LINE
8
DEFAULT_255_1_234
10
12.7769671
20
-0.5252017
11
12.9392082
21
-0.5252017
0
LINE
8
DEFAULT_255_1_234
10
13.3158967
20
-0.0987164
11
13.3158967
21
-0.0304466
0
ARC
8
DEFAULT_255_1_234
10
12.9567564
20
-0.0684106
40
0.5865446
50
75.4101064
51
90.3804066
0
ARC
8
DEFAULT_255_1_234
10
12.9797078
20
0.0272492
40
0.4881916
50
60.145586
51
75.1888407
0
ARC
8
DEFAULT_255_1_234
10
12.9955853
20
0.0549199
40
0.4562893
50
26.5253612
51
60.1450928
0
ARC
8
DEFAULT_255_1_234
10
12.8835602
20
-0.0044842
40
0.5830602
50
7.4030428
51
26.8320788
0
ARC
8
DEFAULT_255_1_234
10
12.7241359
20
-0.0293196
40
0.7443669
50
0.1605367
51
7.7176192
0
ARC
8
DEFAULT_255_1_234
10
12.7405264
20
-0.1057566
40
0.7279835
50
348.7289388
51
0.3012466
0
ARC
8
DEFAULT_255_1_234
10
12.9061694
20
-0.1386614
40
0.559104
50
333.0706509
51
348.7181832
0
ARC
8
DEFAULT_255_1_234
10
13.0028452
20
-0.1911681
40
0.4491417
50
299.2531685
51
333.4571258
0
ARC
8
DEFAULT_255_1_234
10
12.9667591
20
-0.1226172
40
0.5265881
50
278.107187
51
299.0339503
0
ARC
8
DEFAULT_255_1_234
10
12.941167
20
0.0281216
40
0.679442
50
270.4443897
51
278.4511052
0
ARC
8
DEFAULT_255_1_234
10
12.94325
20
-0.0647787
40
0.4604407
50
269.4970433
51
284.0205042
0
ARC
8
DEFAULT_255_1_234
10
12.9787801
20
-0.2013022
40
0.3193797
50
283.7700273
51
318.1555492
0
ARC
8
DEFAULT_255_1_234
10
12.9450559
20
-0.1760633
40
0.3613588
50
318.7415601
51
343.6873628
0
ARC
8
DEFAULT_255_1_234
10
12.7646583
20
-0.1197168
40
0.5503313
50
343.3325091
51
355.8548958
0
ARC
8
DEFAULT_255_1_234
10
12.5548267
20
-0.0997681
40
0.7610708
50
355.4988528
51
0.0791727
0
ARC
8
DEFAULT_255_1_234
10
12.633089
20
-0.026222
40
0.6828208
50
359.6455037
51
9.8607896
0
ARC
8
DEFAULT_255_1_234
10
12.8691587
20
0.0164099
40
0.4429406
50
9.6571907
51
26.1932807
0
ARC
8
DEFAULT_255_1_234
10
12.9619576
20
0.0595118
40
0.3406537
50
26.5777228
51
40.1532208
0
ARC
8
DEFAULT_255_1_234
10
12.9875303
20
0.0794619
40
0.308246
50
40.3840491
51
80.1431104
0
ARC
8
DEFAULT_255_1_234
10
12.954842
20
-0.0654667
40
0.4566909
50
79.2152159
51
89.7445637
0
LINE
8
DEFAULT_255_1_234
10
14.1511975
20
0.5237433
11
14.1511975
21
-0.6513
0
LINE
8
DEFAULT_255_1_234
10
14.1511975
20
-0.6513
11
14.0018072
21
-0.6513
0
LINE
8
DEFAULT_255_1_234
10
14.0018072
20
-0.6513
11
14.0018072
21
0.3390133
0
LINE
8
DEFAULT_255_1_234
10
14.0018072
20
0.3390133
11
13.7022233
21
0.2289785
0
LINE
8
DEFAULT_255_1_234
10
13.7022233
20
0.2289785
11
13.7022233
21
0.3639117
0
LINE
8
DEFAULT_255_1_234
10
13.7022233
20
0.3639117
11
14.1279055
21
0.5237433
0
LINE
8
DEFAULT_255_1_234
10
14.1279055
20
0.5237433
11
14.1511975
21
0.5237433
0
LINE
8
DEFAULT_255_1_234
10
15.2137965
20
0.5181211
11
15.2137965
21
-0.258548
0
LINE
8
DEFAULT_255_1_234
10
15.2137965
20
-0.258548
11
15.3760376
21
-0.258548
0
LINE
8
DEFAULT_255_1_234
10
15.3760376
20
-0.258548
11
15.3760376
21
-0.3798272
0
LINE
8
DEFAULT_255_1_234
10
15.3760376
20
-0.3798272
11
15.2137965
21
-0.3798272
0
LINE
8
DEFAULT_255_1_234
10
15.2137965
20
-0.3798272
11
15.2137965
21
-0.6513
0
LINE
8
DEFAULT_255_1_234
10
15.2137965
20
-0.6513
11
15.0644062
21
-0.6513
0
LINE
8
DEFAULT_255_1_234
10
15.0644062
20
-0.6513
11
15.0644062
21
-0.3798272
0
LINE
8
DEFAULT_255_1_234
10
15.0644062
20
-0.3798272
11
14.5319019
21
-0.3798272
0
LINE
8
DEFAULT_255_1_234
10
14.5319019
20
-0.3798272
11
14.5319019
21
-0.2922813
0
LINE
8
DEFAULT_255_1_234
10
14.5319019
20
-0.2922813
11
15.0555712
21
0.5181211
0
LINE
8
DEFAULT_255_1_234
10
15.0555712
20
0.5181211
11
15.2137965
21
0.5181211
0
LINE
8
DEFAULT_255_1_234
10
15.0467363
20
0.2827912
11
14.7005684
21
-0.258548
0
LINE
8
DEFAULT_255_1_234
10
14.7005684
20
-0.258548
11
15.0644062
21
-0.258548
0
LINE
8
DEFAULT_255_1_234
10
15.0644062
20
-0.258548
11
15.0644062
21
0.3149181
0
LINE
8
DEFAULT_255_1_234
10
15.0644062
20
0.3149181
11
15.0467363
21
0.2827912
0
LINE
8
DEFAULT_255_1_234
10
16.209732
20
0.0153343
11
16.209732
21
-0.110764
0
LINE
8
DEFAULT_255_1_234
10
16.209732
20
-0.110764
11
15.7029293
21
-0.110764
0
LINE
8
DEFAULT_255_1_234
10
15.7029293
20
-0.110764
11
15.7029293
21
-0.5252017
0
LINE
8
DEFAULT_255_1_234
10
15.7029293
20
-0.5252017
11
16.2916558
21
-0.5252017
0
LINE
8
DEFAULT_255_1_234
10
16.2916558
20
-0.5252017
11
16.2916558
21
-0.6513
0
LINE
8
DEFAULT_255_1_234
10
16.2916558
20
-0.6513
11
15.54872
21
-0.6513
0
LINE
8
DEFAULT_255_1_234
10
15.54872
20
-0.6513
11
15.54872
21
0.5181211
0
LINE
8
DEFAULT_255_1_234
10
15.54872
20
0.5181211
11
16.283624
21
0.5181211
0
LINE
8
DEFAULT_255_1_234
10
16.283624
20
0.5181211
11
16.283624
21
0.3912196
0
LINE
8
DEFAULT_255_1_234
10
16.283624
20
0.3912196
11
15.7029293
21
0.3912196
0
LINE
8
DEFAULT_255_1_234
10
15.7029293
20
0.3912196
11
15.7029293
21
0.0153343
0
LINE
8
DEFAULT_255_1_234
10
15.7029293
20
0.0153343
11
16.209732
21
0.0153343
0
LINE
8
DEFAULT_255_1_234
10
16.8072934
20
-0.6513
11
16.4836143
21
-0.6513
0
LINE
8
DEFAULT_255_1_234
10
16.4836143
20
-0.6513
11
16.4836143
21
0.5181211
0
LINE
8
DEFAULT_255_1_234
10
16.4836143
20
0.5181211
11
16.8137188
21
0.5181211
0
LINE
8
DEFAULT_255_1_234
10
17.3293563
20
-0.0272339
11
17.3293563
21
-0.1019291
0
LINE
8
DEFAULT_255_1_234
10
16.8177346
20
0.3912196
11
16.6378237
21
0.3912196
0
LINE
8
DEFAULT_255_1_234
10
16.6378237
20
0.3912196
11
16.6378237
21
-0.5252017
0
LINE
8
DEFAULT_255_1_234
10
16.6378237
20
-0.5252017
11
16.8000648
21
-0.5252017
0
LINE
8
DEFAULT_255_1_234
10
17.1767533
20
-0.0987164
11
17.1767533
21
-0.0304466
0
ARC
8
DEFAULT_255_1_234
10
16.817613
20
-0.0684106
40
0.5865446
50
75.4101064
51
90.3804066
0
ARC
8
DEFAULT_255_1_234
10
16.8405644
20
0.0272492
40
0.4881916
50
60.145586
51
75.1888407
0
ARC
8
DEFAULT_255_1_234
10
16.8564419
20
0.0549199
40
0.4562893
50
26.5253612
51
60.1450928
0
ARC
8
DEFAULT_255_1_234
10
16.7444168
20
-0.0044842
40
0.5830602
50
7.4030428
51
26.8320788
0
ARC
8
DEFAULT_255_1_234
10
16.5849925
20
-0.0293196
40
0.7443669
50
0.1605367
51
7.7176192
0
ARC
8
DEFAULT_255_1_234
10
16.6013829
20
-0.1057566
40
0.7279835
50
348.7289388
51
0.3012466
0
ARC
8
DEFAULT_255_1_234
10
16.767026
20
-0.1386614
40
0.559104
50
333.0706509
51
348.7181832
0
ARC
8
DEFAULT_255_1_234
10
16.8637018
20
-0.1911681
40
0.4491417
50
299.2531685
51
333.4571258
0
ARC
8
DEFAULT_255_1_234
10
16.8276157
20
-0.1226172
40
0.5265881
50
278.107187
51
299.0339503
0
ARC
8
DEFAULT_255_1_234
10
16.8020236
20
0.0281216
40
0.679442
50
270.4443897
51
278.4511052
0
ARC
8
DEFAULT_255_1_234
10
16.8041066
20
-0.0647787
40
0.4604407
50
269.4970433
51
284.0205042
0
ARC
8
DEFAULT_255_1_234
10
16.8396367
20
-0.2013022
40
0.3193797
50
283.7700273
51
318.1555492
0
ARC
8
DEFAULT_255_1_234
10
16.8059125
20
-0.1760633
40
0.3613588
50
318.7415601
51
343.6873628
0
ARC
8
DEFAULT_255_1_234
10
16.6255149
20
-0.1197168
40
0.5503313
50
343.3325091
51
355.8548958
0
ARC
8
DEFAULT_255_1_234
10
16.4156833
20
-0.0997681
40
0.7610708
50
355.4988528
51
0.0791727
0
ARC
8
DEFAULT_255_1_234
10
16.4939456
20
-0.026222
40
0.6828208
50
359.6455037
51
9.8607896
0
ARC
8
DEFAULT_255_1_234
10
16.7300153
20
0.0164099
40
0.4429406
50
9.6571907
51
26.1932807
0
ARC
8
DEFAULT_255_1_234
10
16.8228142
20
0.0595118
40
0.3406537
50
26.5777228
51
40.1532208
0
ARC
8
DEFAULT_255_1_234
10
16.8483868
20
0.0794619
40
0.308246
50
40.3840491
51
80.1431104
0
ARC
8
DEFAULT_255_1_234
10
16.8156986
20
-0.0654667
40
0.4566909
50
79.2152159
51
89.7445637
0
LINE
8
DEFAULT_255_1_234
10
18.3485839
20
0.5181211
11
18.3485839
21
0.3912196
0
LINE
8
DEFAULT_255_1_234
10
18.3485839
20
0.3912196
11
17.9726986
21
0.3912196
0
LINE
8
DEFAULT_255_1_234
10
17.9726986
20
0.3912196
11
17.9726986
21
-0.6513
0
LINE
8
DEFAULT_255_1_234
10
17.9726986
20
-0.6513
11
17.8192924
21
-0.6513
0
LINE
8
DEFAULT_255_1_234
10
17.8192924
20
-0.6513
11
17.8192924
21
0.3912196
0
LINE
8
DEFAULT_255_1_234
10
17.8192924
20
0.3912196
11
17.4442102
21
0.3912196
0
LINE
8
DEFAULT_255_1_234
10
17.4442102
20
0.3912196
11
17.4442102
21
0.5181211
0
LINE
8
DEFAULT_255_1_234
10
17.4442102
20
0.5181211
11
18.3485839
21
0.5181211
0
ARC
8
DEFAULT_255_2_778
10
31.9007682
20
98.0366699
40
11.0854885
50
180.0840769
51
180.110284
0
ARC
8
DEFAULT_255_2_778
10
262.6630055
20
98.4080943
40
241.8480246
50
180.0868647
51
180.0918473
0
ARC
8
DEFAULT_255_2_778
10
597.9520561
20
98.9169927
40
577.1374613
50
180.0830396
51
180.0869218
0
ARC
8
DEFAULT_255_2_778
10
669.2866106
20
99.0215648
40
648.4720924
50
180.077732
51
180.0831444
0
ARC
8
DEFAULT_255_2_778
10
790.361737
20
99.1892128
40
769.5473348
50
180.0733267
51
180.0779842
0
ARC
8
DEFAULT_255_2_778
10
787.0360856
20
99.1852661
40
766.2216813
50
180.0680536
51
180.0733499
0
ARC
8
DEFAULT_255_2_778
10
723.3068274
20
99.1120407
40
702.4923812
50
180.0598348
51
180.068255
0
ARC
8
DEFAULT_255_2_778
10
588.2711598
20
98.9717243
40
567.4566407
50
180.0456571
51
180.0599058
0
ARC
8
DEFAULT_255_2_778
10
422.4931505
20
98.8392726
40
401.6785785
50
180.0278507
51
180.0456073
0
ARC
8
DEFAULT_255_2_778
10
276.8530266
20
98.7694973
40
256.0384379
50
180.0049237
51
180.0280786
0
ARC
8
DEFAULT_255_2_778
10
271.3303529
20
98.7652106
40
250.5157639
50
180.0008322
51
180.0040518
0
ARC
8
DEFAULT_255_2_778
10
154.05429
20
98.7675863
40
133.239701
50
179.9578023
51
180.0025862
0
ARC
8
DEFAULT_255_2_778
10
83.8108951
20
98.8193652
40
62.996287
50
179.8990132
51
179.9578435
0
ARC
8
DEFAULT_255_2_778
10
48.8436273
20
98.8810998
40
28.0289646
50
179.819585
51
179.8992237
0
ARC
8
DEFAULT_255_2_778
10
30.8138506
20
98.9399065
40
9.9990924
50
179.6460695
51
179.8312383
0
ARC
8
DEFAULT_255_2_778
10
22.3145388
20
98.9949588
40
1.4996048
50
179.023405
51
179.7434663
0
ARC
8
DEFAULT_255_2_778
10
20.8404541
20
99.0209738
40
0.0253063
50
173.7189991
51
181.0320833
0
ARC
8
DEFAULT_255_2_778
10
20.821309
20
98.8102411
40
0.2135878
50
89.695023
51
91.6129067
0
ARC
8
DEFAULT_255_2_778
10
20.8554974
20
91.4654698
40
7.5584285
50
90.0805187
51
90.2505434
0
ARC
8
DEFAULT_255_2_778
10
20.9094678
20
60.582444
40
38.4415011
50
90.0357106
51
90.0962728
0
ARC
8
DEFAULT_255_2_778
10
20.9637754
20
-18.8667643
40
117.8907279
50
90.0046031
51
90.0380383
0
ARC
8
DEFAULT_255_2_778
10
20.9739735
20
-43.6122343
40
142.6361988
50
89.9973188
51
90.007901
0
ARC
8
DEFAULT_255_2_778
10
20.9770607
20
-222.1144307
40
321.1383954
50
89.9856871
51
89.9993599
0
ARC
8
DEFAULT_255_2_778
10
20.931998
20
-416.2381551
40
515.262125
50
89.9770232
51
89.9860686
0
ARC
8
DEFAULT_255_2_778
10
20.8382754
20
-658.8938362
40
757.9178243
50
89.9685316
51
89.9772944
0
ARC
8
DEFAULT_255_2_778
10
20.5533698
20
-1177.6246626
40
1276.648729
50
89.9669064
51
89.9685314
0
ARC
8
DEFAULT_255_2_778
10
20.5341245
20
-1196.4024013
40
1295.4264758
50
89.9635761
51
89.9665349
0
ARC
8
DEFAULT_255_2_778
10
20.5898282
20
-1104.3957666
40
1203.4198243
50
89.961453
51
89.9634435
0
ARC
8
DEFAULT_255_2_778
10
21.6564944
20
465.1620905
40
366.1383955
50
269.9597768
51
269.9613686
0
ARC
8
DEFAULT_255_2_778
10
21.4307686
20
126.5662785
40
27.5425082
50
269.9560206
51
269.965085
0
ARC
8
DEFAULT_255_2_778
10
24.0548224
20
3881.8703572
40
3782.8475035
50
269.9600013
51
269.9602975
0
ARC
8
DEFAULT_255_2_778
10
21.5129169
20
210.6739829
40
111.6502492
50
269.9592651
51
269.9624187
0
ARC
8
DEFAULT_255_2_778
10
24.9801887
20
5115.5639122
40
5016.541404
50
269.9595626
51
269.9597442
0
ARC
8
DEFAULT_255_2_778
10
21.472338
20
120.4731978
40
21.4494579
50
269.9552587
51
269.9721186
0
ARC
8
DEFAULT_255_2_778
10
20.8096402
20
97.6471736
40
0.0349919
50
268.4259877
51
279.3086891
0
ARC
8
DEFAULT_255_2_778
10
20.7794581
20
98.6470533
40
1.0352711
50
270.7275861
51
271.6174103
0
ARC
8
DEFAULT_255_2_778
10
20.7253201
20
102.5390156
40
4.9276094
50
270.3831688
51
270.7823727
0
ARC
8
DEFAULT_255_2_778
10
20.6493396
20
113.0527403
40
15.4416081
50
270.2101292
51
270.4042004
0
ARC
8
DEFAULT_255_2_778
10
20.5676037
20
134.3612015
40
36.7502259
50
270.0988387
51
270.2157229
0
ARC
8
DEFAULT_255_2_778
10
20.5079126
20
166.2157247
40
68.6048047
50
270.0415264
51
270.1027974
0
ARC
8
DEFAULT_255_2_778
10
20.4792531
20
203.3872778
40
105.7763687
50
269.9983965
51
270.0424573
0
ARC
8
DEFAULT_255_2_778
10
20.4801912
20
258.2670371
40
160.6561281
50
269.9581543
51
269.9986097
0
ARC
8
DEFAULT_255_2_778
10
20.5557588
20
356.8844525
40
259.2735723
50
269.9128744
51
269.9573714
0
ARC
8
DEFAULT_255_2_778
10
20.7359672
20
479.9563113
40
382.3455629
50
269.8896474
51
269.9139141
0
ARC
8
DEFAULT_255_2_778
10
20.897905
20
565.2560426
40
467.6454479
50
269.8757243
51
269.8899354
0
ARC
8
DEFAULT_255_2_778
10
21.1424358
20
677.5226117
40
579.9122834
50
269.871981
51
269.8756234
0
ARC
8
DEFAULT_255_2_778
10
21.0586085
20
639.1122577
40
541.501838
50
269.8591614
51
269.8717698
0
ARC
8
DEFAULT_255_2_778
10
21.0950878
20
653.9527083
40
556.3423335
50
269.8500542
51
269.8591614
0
ARC
8
DEFAULT_255_2_778
10
20.9591239
20
602.5140088
40
504.9034543
50
269.8439984
51
269.850207
0
ARC
8
DEFAULT_255_2_778
10
21.1823406
20
682.3061001
40
584.6958575
50
269.8402407
51
269.8434141
0
ARC
8
DEFAULT_255_2_778
10
20.6755515
20
498.8402358
40
401.2292934
50
269.8350827
51
269.8395589
0
ARC
8
DEFAULT_255_2_778
10
21.0885439
20
637.313536
40
539.7032088
50
269.8322635
51
269.8335522
0
ARC
8
DEFAULT_255_2_778
10
19.4455488
20
75.8229141
40
21.7898169
50
89.8343769
51
89.8365742
0
ARC
8
DEFAULT_255_2_778
10
19.3991236
20
97.6069251
40
0.108727
50
359.7279414
51
3.0142513
0
ARC
8
DEFAULT_255_2_778
10
15.8810904
20
97.570578
40
3.6269361
50
0.1873626
51
0.5660396
0
ARC
8
DEFAULT_255_2_778
10
-0.8470738
20
97.5021382
40
20.3552392
50
0.1025282
51
0.226029
0
ARC
8
DEFAULT_255_2_778
10
-32.9272018
20
97.4365576
40
52.4354339
50
0.063908
51
0.1114605
0
ARC
8
DEFAULT_255_2_778
10
-92.0923748
20
97.3710956
40
111.6006431
50
0.0227943
51
0.0636353
0
ARC
8
DEFAULT_255_2_778
10
-193.634672
20
97.3268149
40
213.1429499
50
359.9987868
51
0.0238382
0
ARC
8
DEFAULT_255_2_778
10
-328.3967502
20
97.3255692
40
347.9050282
50
359.9837367
51
359.9994619
0
ARC
8
DEFAULT_255_2_778
10
-531.7681227
20
97.3864507
40
551.2764098
50
359.9658166
51
359.9834088
0
ARC
8
DEFAULT_255_2_778
10
-796.3772112
20
97.538181
40
815.8855418
50
359.9565348
51
359.9662477
0
ARC
8
DEFAULT_255_2_778
10
-963.6208505
20
97.6596241
40
983.1292253
50
359.950158
51
359.9568513
0
ARC
8
DEFAULT_255_2_778
10
-1157.5492517
20
97.8220962
40
1177.0576944
50
359.9497013
51
359.9504611
0
ARC
8
DEFAULT_255_2_778
10
-1137.7523141
20
97.8115354
40
1157.2607551
50
359.9440514
51
359.9493637
0
ARC
8
DEFAULT_255_2_778
10
-1373.5200701
20
98.04575
40
1393.0286277
50
359.940877
51
359.9438873
0
ARC
8
DEFAULT_255_2_778
10
-1024.7261604
20
97.6886075
40
1044.2345351
50
359.9383028
51
359.9407248
0
ARC
8
DEFAULT_255_2_778
10
-707.210725
20
97.3468348
40
726.7189157
50
359.9354024
51
359.9382922
0
ARC
8
DEFAULT_255_2_778
10
-939.6834657
20
97.6116757
40
959.1918073
50
359.9341278
51
359.9352386
0
ARC
8
DEFAULT_255_2_778
10
-36.3930144
20
96.5714009
40
55.9007571
50
359.9293203
51
359.9359454
0
ARC
8
DEFAULT_255_2_778
10
10.7467339
20
99.3190354
40
0.2953652
50
268.7324806
51
270.2040014
0
ARC
8
DEFAULT_255_2_778
10
10.7882581
20
109.4868601
40
10.4632664
50
269.7783758
51
269.9080444
0
ARC
8
DEFAULT_255_2_778
10
10.8624283
20
149.2356372
40
50.2121123
50
269.8962044
51
269.9412538
0
ARC
8
DEFAULT_255_2_778
10
10.9490235
20
227.6303622
40
128.6068851
50
269.9384845
51
269.959127
0
ARC
8
DEFAULT_255_2_778
10
11.0566691
20
375.5812513
40
276.5578135
50
269.9586915
51
269.9744595
0
ARC
8
DEFAULT_255_2_778
10
11.1802647
20
649.3791281
40
550.3557182
50
269.9742986
51
269.98472
0
ARC
8
DEFAULT_255_2_778
10
11.2742171
20
982.8547957
40
883.8313991
50
269.9843947
51
269.9899552
0
ARC
8
DEFAULT_255_2_778
10
11.3612184
20
1486.8702377
40
1387.8468487
50
269.9900113
51
269.9959366
0
ARC
8
DEFAULT_255_2_778
10
11.4180121
20
2249.2725886
40
2150.2492018
50
269.995864
51
270.0000857
0
ARC
8
DEFAULT_255_2_778
10
11.4191974
20
2987.7685122
40
2888.7451253
50
270.0000403
51
270.0030154
0
ARC
8
DEFAULT_255_2_778
10
11.3474821
20
4279.9224173
40
4180.8990324
50
270.0030663
51
270.0054892
0
ARC
8
DEFAULT_255_2_778
10
11.1972466
20
5686.5551528
40
5587.5317759
50
270.0056479
51
270.0087761
0
ARC
8
DEFAULT_255_2_778
10
10.9609857
20
7260.7628416
40
7161.7394824
50
270.0087372
51
270.0112994
0
ARC
8
DEFAULT_255_2_778
10
11.0051354
20
7184.011781
40
7084.9884147
50
270.0110648
51
270.0123548
0
ARC
8
DEFAULT_255_2_778
10
10.643084
20
8968.8736087
40
8869.850279
50
270.0122074
51
270.0131924
0
ARC
8
DEFAULT_255_2_778
10
10.8205016
20
8313.329207
40
8214.305854
50
270.0130077
51
270.0139906
0
ARC
8
DEFAULT_255_2_778
10
10.8047952
20
8503.6710687
40
8404.6477139
50
270.0137808
51
270.0145582
0
ARC
8
DEFAULT_255_2_778
10
9.1226661
20
15064.4285388
40
14965.4053997
50
270.0146161
51
270.0149661
0
ARC
8
DEFAULT_255_2_778
10
10.5486954
20
9597.5577807
40
9498.5344557
50
270.0149778
51
270.0156194
0
ARC
8
DEFAULT_255_2_778
10
10.1141755
20
11186.7155251
40
11087.6922597
50
270.0156261
51
270.0160634
0
ARC
8
DEFAULT_255_2_778
10
7.3364671
20
21184.8686969
40
21085.8458175
50
270.0159945
51
270.0161591
0
ARC
8
DEFAULT_255_2_778
10
11.6495246
20
5813.4587227
40
5714.435238
50
270.016381
51
270.0167349
0
ARC
8
DEFAULT_255_2_778
10
13.0984304
20
868.0439365
40
769.0202397
50
270.0164032
51
270.017753
0
ARC
8
DEFAULT_255_2_778
10
12.6168075
20
2513.8978649
40
2414.8742385
50
270.0170805
51
270.017598
0
ARC
8
DEFAULT_255_2_778
10
13.3270626
20
218.712899
40
119.6891629
50
270.0150583
51
270.0186396
0
ARC
8
DEFAULT_255_2_778
10
14.9618599
20
96.4306079
40
0.2120783
50
19.7993636
51
21.6135287
0
ARC
8
DEFAULT_255_2_778
10
5.8234114
20
92.9018546
40
10.0081584
50
21.1243388
51
21.3114157
0
ARC
8
DEFAULT_255_2_778
10
-37.4977321
20
76.0268914
40
56.49994
50
21.2876186
51
21.3360043
0
ARC
8
DEFAULT_255_2_778
10
-145.9452987
20
33.6687508
40
172.9262548
50
21.3352868
51
21.3666204
0
ARC
8
DEFAULT_255_2_778
10
-363.9229986
20
-51.5985595
40
406.9877677
50
21.3652102
51
21.3805812
0
LINE
8
DEFAULT_255_2_778
10
15.0556377
20
96.7733924
11
15.0554507
21
96.7738702
0
ARC
8
DEFAULT_255_2_778
10
-661.7946377
20
-168.2173702
40
726.8744044
50
21.3806683
51
21.3929469
0
ARC
8
DEFAULT_255_2_778
10
-856.6364381
20
-244.5410701
40
936.1317444
50
21.3925879
51
21.3972949
0
ARC
8
DEFAULT_255_2_778
10
-744.8163275
20
-200.7262431
40
816.0339667
50
21.397354
51
21.4003223
0
ARC
8
DEFAULT_255_2_778
10
90.7268819
20
126.7294864
40
81.3843916
50
201.3996524
51
201.4032745
0
LINE
8
DEFAULT_255_2_778
10
14.9532907
20
97.034671
11
14.9495002
21
97.0443424
0
ARC
8
DEFAULT_255_2_778
10
13.517887
20
96.7740619
40
0.2717049
50
269.7292414
51
271.4368835
0
ARC
8
DEFAULT_255_2_778
10
13.4787768
20
106.2591783
40
9.7568916
50
270.0730211
51
270.2221289
0
ARC
8
DEFAULT_255_2_778
10
13.4178372
20
145.5751297
40
49.0728899
50
270.0320035
51
270.0856694
0
ARC
8
DEFAULT_255_2_778
10
13.3683084
20
220.998671
40
124.4964473
50
270.0125245
51
270.035409
0
ARC
8
DEFAULT_255_2_778
10
13.3394301
20
342.0978014
40
245.5955812
50
269.9996137
51
270.013086
0
ARC
8
DEFAULT_255_2_778
10
13.3407217
20
500.7867697
40
404.2845495
50
269.9876375
51
269.9995823
0
ARC
8
DEFAULT_255_2_778
10
13.3948962
20
755.7316063
40
659.2293917
50
269.9799495
51
269.98771
0
ARC
8
DEFAULT_255_2_778
10
13.5079497
20
1072.4660424
40
975.963848
50
269.9720485
51
269.9798195
0
ARC
8
DEFAULT_255_2_778
10
13.7858658
20
1630.9933753
40
1534.4912499
50
269.9703069
51
269.9718453
0
ARC
8
DEFAULT_255_2_778
10
13.7762312
20
1594.167343
40
1497.6652177
50
269.967104
51
269.9699453
0
ARC
8
DEFAULT_255_2_778
10
13.6585067
20
1384.4730729
40
1287.9709146
50
269.9649336
51
269.9669852
0
ARC
8
DEFAULT_255_2_778
10
13.5288579
20
1167.2333923
40
1070.7311953
50
269.9626615
51
269.9647567
0
ARC
8
DEFAULT_255_2_778
10
13.1150234
20
540.8365223
40
444.3341888
50
269.9607758
51
269.9633867
0
ARC
8
DEFAULT_255_2_778
10
12.6736245
20
-102.1812873
40
198.6837723
50
89.9604313
51
89.9624892
0
ARC
8
DEFAULT_255_2_778
10
13.9533971
20
99.1732174
40
0.1496629
50
267.128735
51
270.5415064
0
ARC
8
DEFAULT_255_2_778
10
13.9962507
20
104.3610925
40
5.3376922
50
269.5551808
51
269.8551485
0
ARC
8
DEFAULT_255_2_778
10
14.0507752
20
120.9050859
40
21.8817742
50
269.8218974
51
269.9049374
0
ARC
8
DEFAULT_255_2_778
10
14.1065243
20
154.9611013
40
55.9378353
50
269.9057109
51
269.9690809
0
ARC
8
DEFAULT_255_2_778
10
14.1480204
20
223.4261555
40
124.402902
50
269.9669855
51
270.001659
0
ARC
8
DEFAULT_255_2_778
10
14.1479881
20
319.9376817
40
220.9144281
50
270.0009426
51
270.0250002
0
ARC
8
DEFAULT_255_2_778
10
14.0876739
20
464.1479927
40
365.1247517
50
270.0245907
51
270.0400112
0
ARC
8
DEFAULT_255_2_778
10
13.98719
20
607.4531063
40
508.4299006
50
270.0400574
51
270.0511315
0
ARC
8
DEFAULT_255_2_778
10
13.8752094
20
731.2803102
40
632.2571551
50
270.0512652
51
270.0596711
0
ARC
8
DEFAULT_255_2_778
10
13.8060916
20
798.4890634
40
699.4659439
50
270.0595992
51
270.0662947
0
ARC
8
DEFAULT_255_2_778
10
13.8093706
20
795.388693
40
696.3655717
50
270.0663201
51
270.0704962
0
ARC
8
DEFAULT_255_2_778
10
13.9287235
20
700.2334519
40
601.210256
50
270.0702794
51
270.074386
0
ARC
8
DEFAULT_255_2_778
10
14.0633869
20
597.0075611
40
497.9842775
50
270.0743116
51
270.0768754
0
ARC
8
DEFAULT_255_2_778
10
14.557187
20
228.6676877
40
129.6440731
50
270.0770577
51
270.0805286
0
ARC
8
DEFAULT_255_2_778
10
19.7865682
20
98.0366699
40
11.0854885
50
180.0840769
51
180.110284
0
ARC
8
DEFAULT_255_2_778
10
250.5488055
20
98.4080943
40
241.8480246
50
180.0868647
51
180.0918473
0
ARC
8
DEFAULT_255_2_778
10
585.837856
20
98.9169927
40
577.1374613
50
180.0830396
51
180.0869218
0
ARC
8
DEFAULT_255_2_778
10
657.1724106
20
99.0215648
40
648.4720924
50
180.077732
51
180.0831444
0
ARC
8
DEFAULT_255_2_778
10
778.247537
20
99.1892128
40
769.5473348
50
180.0733267
51
180.0779842
0
ARC
8
DEFAULT_255_2_778
10
774.9218857
20
99.1852661
40
766.2216813
50
180.0680536
51
180.0733499
0
ARC
8
DEFAULT_255_2_778
10
711.1926274
20
99.1120407
40
702.4923812
50
180.0598348
51
180.068255
0
ARC
8
DEFAULT_255_2_778
10
576.1569598
20
98.9717243
40
567.4566407
50
180.0456571
51
180.0599058
0
ARC
8
DEFAULT_255_2_778
10
410.3789505
20
98.8392726
40
401.6785785
50
180.0278507
51
180.0456073
0
ARC
8
DEFAULT_255_2_778
10
264.7388266
20
98.7694973
40
256.0384379
50
180.0049237
51
180.0280786
0
ARC
8
DEFAULT_255_2_778
10
259.2161529
20
98.7652106
40
250.5157639
50
180.0008322
51
180.0040518
0
ARC
8
DEFAULT_255_2_778
10
141.94009
20
98.7675863
40
133.239701
50
179.9578023
51
180.0025862
0
ARC
8
DEFAULT_255_2_778
10
71.6966951
20
98.8193652
40
62.996287
50
179.8990132
51
179.9578435
0
ARC
8
DEFAULT_255_2_778
10
36.7294273
20
98.8810998
40
28.0289646
50
179.819585
51
179.8992237
0
ARC
8
DEFAULT_255_2_778
10
18.6996506
20
98.9399065
40
9.9990924
50
179.6460695
51
179.8312383
0
ARC
8
DEFAULT_255_2_778
10
10.2003388
20
98.9949588
40
1.4996048
50
179.023405
51
179.7434663
0
ARC
8
DEFAULT_255_2_778
10
8.7262541
20
99.0209738
40
0.0253063
50
173.7189991
51
181.0320833
0
ARC
8
DEFAULT_255_2_778
10
8.7071257
20
98.8090642
40
0.2147648
50
89.69583
51
91.6085127
0
ARC
8
DEFAULT_255_2_778
10
8.7414098
20
91.4233891
40
7.6005092
50
90.0803101
51
90.2498533
0
ARC
8
DEFAULT_255_2_778
10
8.7955241
20
60.3750486
40
38.6488965
50
90.0356206
51
90.0960162
0
ARC
8
DEFAULT_255_2_778
10
8.8499632
20
-19.4691378
40
118.4931015
50
90.0045934
51
90.0379417
0
ARC
8
DEFAULT_255_2_778
10
8.8601799
20
-44.2953183
40
143.3192828
50
89.9973252
51
90.0078821
0
ARC
8
DEFAULT_255_2_778
10
8.8622984
20
-235.9151912
40
334.9391559
50
89.9861178
51
89.9992179
0
ARC
8
DEFAULT_255_2_778
10
8.8087445
20
-449.0392283
40
548.0631997
50
89.9774215
51
89.9859175
0
ARC
8
DEFAULT_255_2_778
10
8.705443
20
-700.2808047
40
799.3047974
50
89.968766
51
89.9771136
0
ARC
8
DEFAULT_255_2_778
10
8.4432737
20
-1177.1603307
40
1276.1843955
50
89.9670347
51
89.968667
0
ARC
8
DEFAULT_255_2_778
10
8.4289233
20
-1183.9425693
40
1282.9666413
50
89.963579
51
89.9665681
0
ARC
8
DEFAULT_255_2_778
10
8.4945235
20
-1076.4691097
40
1175.4931616
50
89.96141
51
89.9634466
0
ARC
8
DEFAULT_255_2_778
10
9.5465784
20
469.4197673
40
370.3960735
50
269.9597296
51
269.9613009
0
ARC
8
DEFAULT_255_2_778
10
9.3175259
20
126.4939866
40
27.4702163
50
269.9559427
51
269.9650141
0
ARC
8
DEFAULT_255_2_778
10
12.7906756
20
5088.8254246
40
4989.8028697
50
269.9599267
51
269.9601506
0
ARC
8
DEFAULT_255_2_778
10
9.4002419
20
211.1049874
40
112.0812541
50
269.9591089
51
269.962237
0
ARC
8
DEFAULT_255_2_778
10
9.5872581
20
458.1275183
40
359.1038555
50
269.9583748
51
269.9604007
0
ARC
8
DEFAULT_255_2_778
10
9.3764175
20
147.7683976
40
48.7446633
50
269.9560978
51
269.9669502
0
ARC
8
DEFAULT_255_2_778
10
8.6954436
20
97.6471321
40
0.0349504
50
268.4251507
51
279.3141647
0
ARC
8
DEFAULT_255_2_778
10
8.6652804
20
98.6457438
40
1.0339616
50
270.72804
51
271.6184463
0
ARC
8
DEFAULT_255_2_778
10
8.6111765
20
102.5328729
40
4.9214667
50
270.3833957
51
270.7828533
0
ARC
8
DEFAULT_255_2_778
10
8.5352417
20
113.0336796
40
15.4225473
50
270.210258
51
270.4044502
0
ARC
8
DEFAULT_255_2_778
10
8.4535566
20
134.3157733
40
36.7047977
50
270.0988984
51
270.2158557
0
ARC
8
DEFAULT_255_2_778
10
8.3938993
20
166.1329753
40
68.5220553
50
270.0415522
51
270.1028597
0
ARC
8
DEFAULT_255_2_778
10
8.3652587
20
203.2576382
40
105.6467291
50
269.9983955
51
270.0424833
0
ARC
8
DEFAULT_255_2_778
10
8.3661961
20
258.0701295
40
160.4592205
50
269.9581286
51
269.9986089
0
ARC
8
DEFAULT_255_2_778
10
8.4417172
20
356.5672035
40
258.9563233
50
269.9128211
51
269.9573454
0
ARC
8
DEFAULT_255_2_778
10
8.6218096
20
479.4851974
40
381.8744491
50
269.8895797
51
269.9138616
0
ARC
8
DEFAULT_255_2_778
10
8.7836894
20
564.7017259
40
467.0911313
50
269.8756487
51
269.8898679
0
ARC
8
DEFAULT_255_2_778
10
9.02726
20
676.4637151
40
578.853386
50
269.871902
51
269.8755488
0
ARC
8
DEFAULT_255_2_778
10
8.9441737
20
638.4137707
40
540.803351
50
269.8590749
51
269.8716919
0
ARC
8
DEFAULT_255_2_778
10
8.9808472
20
653.3242466
40
555.7138719
50
269.849963
51
269.859075
0
ARC
8
DEFAULT_255_2_778
10
8.8450676
20
601.9819898
40
504.3714356
50
269.8439031
51
269.8501144
0
ARC
8
DEFAULT_255_2_778
10
9.0679746
20
681.6158919
40
584.0056494
50
269.840144
51
269.8433192
0
ARC
8
DEFAULT_255_2_778
10
8.5621115
20
498.5865579
40
400.9756164
50
269.8349829
51
269.8394592
0
ARC
8
DEFAULT_255_2_778
10
8.9782097
20
638.0365969
40
540.4262756
50
269.8321628
51
269.833449
0
ARC
8
DEFAULT_255_2_778
10
7.3291177
20
74.7838031
40
22.8289323
50
89.8343094
51
89.8364055
0
LINE
8
DEFAULT_255_2_778
10
19.5077002
20
99.0237424
11
19.5077002
21
98.0153424
0
LINE
8
DEFAULT_255_2_778
10
19.5077002
20
98.0153424
11
20.8153002
21
98.0153424
0
LINE
8
DEFAULT_255_2_778
10
21.4619002
20
99.0237424
11
21.4619002
21
96.5024424
0
LINE
8
DEFAULT_255_2_778
10
21.4619002
20
96.5024424
11
20.8153002
21
96.5024424
0
LINE
8
DEFAULT_255_2_778
10
20.8153002
20
96.5024424
11
20.8153002
21
97.6126424
0
LINE
8
DEFAULT_255_2_778
10
19.5077002
20
96.5024424
11
18.8611002
21
96.5024424
0
LINE
8
DEFAULT_255_2_778
10
18.8611002
20
96.5024424
11
18.8611002
21
99.0237424
0
LINE
8
DEFAULT_255_2_778
10
18.8611002
20
99.0237424
11
19.5077002
21
99.0237424
0
LINE
8
DEFAULT_255_2_778
10
19.5077002
20
99.0237424
11
19.5077002
21
99.0237424
0
LINE
8
DEFAULT_255_2_778
10
13.3660002
20
99.0237424
11
13.3660002
21
98.5956424
0
LINE
8
DEFAULT_255_2_778
10
13.3660002
20
98.5956424
11
12.3761002
21
98.5956424
0
LINE
8
DEFAULT_255_2_778
10
12.3761002
20
98.5956424
11
12.3761002
21
96.5024424
0
LINE
8
DEFAULT_255_2_778
10
12.3761002
20
96.5024424
11
11.7295002
21
96.5024424
0
LINE
8
DEFAULT_255_2_778
10
11.7295002
20
96.5024424
11
11.7295002
21
98.5956424
0
LINE
8
DEFAULT_255_2_778
10
11.7295002
20
98.5956424
11
10.7402002
21
98.5956424
0
LINE
8
DEFAULT_255_2_778
10
10.7402002
20
98.5956424
11
10.7402002
21
99.0237424
0
LINE
8
DEFAULT_255_2_778
10
15.8824002
20
96.5024424
11
15.1614002
21
96.5024424
0
LINE
8
DEFAULT_255_2_778
10
14.9495002
20
97.0443424
11
13.7364002
21
97.0443424
0
LINE
8
DEFAULT_255_2_778
10
13.7364002
20
97.0443424
11
13.5247002
21
96.5024424
0
LINE
8
DEFAULT_255_2_778
10
12.8037002
20
96.5024424
11
13.9459002
21
99.0237424
0
LINE
8
DEFAULT_255_2_778
10
14.7394002
20
99.0237424
11
15.8821002
21
96.5024424
0
LINE
8
DEFAULT_255_2_778
10
15.8821002
20
96.5024424
11
15.8824002
21
96.5024424
0
LINE
8
DEFAULT_255_2_778
10
14.3417002
20
98.5953424
11
13.8922002
21
97.4481424
0
LINE
8
DEFAULT_255_2_778
10
13.8922002
20
97.4481424
11
14.7942002
21
97.4481424
0
LINE
8
DEFAULT_255_2_778
10
14.7942002
20
97.4481424
11
14.3420002
21
98.5953424
0
LINE
8
DEFAULT_255_2_778
10
14.3420002
20
98.5953424
11
14.3417002
21
98.5953424
0
LINE
8
DEFAULT_255_2_778
10
21.9750002
20
99.0237424
11
22.6224002
21
99.0237424
0
LINE
8
DEFAULT_255_2_778
10
22.6224002
20
99.0237424
11
22.6224002
21
96.5024424
0
LINE
8
DEFAULT_255_2_778
10
22.6224002
20
96.5024424
11
21.9750002
21
96.5024424
0
LINE
8
DEFAULT_255_2_778
10
21.9750002
20
96.5024424
11
21.9750002
21
99.0237424
0
LINE
8
DEFAULT_255_2_778
10
21.9750002
20
99.0237424
11
21.9750002
21
99.0237424
0
LINE
8
DEFAULT_255_2_778
10
7.3943002
20
99.0237424
11
7.3943002
21
98.0153424
0
LINE
8
DEFAULT_255_2_778
10
7.3943002
20
98.0153424
11
8.7011002
21
98.0153424
0
LINE
8
DEFAULT_255_2_778
10
9.3483002
20
99.0237424
11
9.3483002
21
96.5024424
0
LINE
8
DEFAULT_255_2_778
10
9.3483002
20
96.5024424
11
8.7011002
21
96.5024424
0
LINE
8
DEFAULT_255_2_778
10
8.7011002
20
96.5024424
11
8.7011002
21
97.6126424
0
LINE
8
DEFAULT_255_2_778
10
7.3943002
20
97.6126424
11
7.3943002
21
96.5024424
0
LINE
8
DEFAULT_255_2_778
10
7.3943002
20
96.5024424
11
6.7474002
21
96.5024424
0
LINE
8
DEFAULT_255_2_778
10
6.7474002
20
96.5024424
11
6.7474002
21
99.0237424
0
LINE
8
DEFAULT_255_2_778
10
6.7474002
20
99.0237424
11
7.3943002
21
99.0237424
0
LINE
8
DEFAULT_255_2_778
10
7.3943002
20
99.0237424
11
7.3943002
21
99.0237424
0
LINE
8
DEFAULT_255_2_778
10
9.8615002
20
99.0237424
11
10.5087002
21
99.0237424
0
LINE
8
DEFAULT_255_2_778
10
10.5087002
20
99.0237424
11
10.5087002
21
96.5024424
0
LINE
8
DEFAULT_255_2_778
10
10.5087002
20
96.5024424
11
9.8615002
21
96.5024424
0
LINE
8
DEFAULT_255_2_778
10
9.8615002
20
96.5024424
11
9.8615002
21
99.0237424
0
LINE
8
DEFAULT_255_2_778
10
9.8615002
20
99.0237424
11
9.8615002
21
99.0237424
0
ARC
8
DEFAULT_255_2_778
10
17.4432498
20
97.731843
40
1.6712029
50
179.7780449
51
198.548653
0
ARC
8
DEFAULT_255_2_778
10
17.3285801
20
97.7783612
40
1.5570357
50
157.2384894
51
181.4737073
0
ARC
8
DEFAULT_255_2_778
10
16.8557993
20
97.9449579
40
1.0570238
50
150.0033041
51
155.6503891
0
ARC
8
DEFAULT_255_2_778
10
16.8912441
20
97.9315902
40
1.0944213
50
111.1896137
51
150.3249309
0
ARC
8
DEFAULT_255_2_778
10
17.211737
20
97.1116045
40
1.9748127
50
90.0023899
51
111.260283
0
LINE
8
DEFAULT_255_2_778
10
17.2116546
20
99.0864172
11
17.2124594
21
99.086417
0
ARC
8
DEFAULT_255_2_778
10
17.2053152
20
97.0845328
40
2.001897
50
65.6894838
51
89.7955268
0
ARC
8
DEFAULT_255_2_778
10
17.6941262
20
98.1685165
40
0.8127984
50
11.194763
51
65.633853
0
ARC
8
DEFAULT_255_2_778
10
17.1873663
20
98.0660758
40
1.3298061
50
5.546653
51
11.2855352
0
ARC
8
DEFAULT_255_2_778
10
16.4257687
20
97.9810107
40
2.096089
50
5.069153
51
5.8488032
0
ARC
8
DEFAULT_255_2_778
10
17.2342589
20
98.1600815
40
0.6000319
50
0.5858781
51
19.5041288
0
ARC
8
DEFAULT_255_2_778
10
17.3510531
20
98.1962505
40
0.4778888
50
20.0917475
51
72.2606938
0
ARC
8
DEFAULT_255_2_778
10
17.217452
20
97.7857329
40
0.9095965
50
72.1240293
51
89.9981804
0
ARC
8
DEFAULT_255_2_778
10
17.217443
20
97.7963837
40
0.8989456
50
89.9975864
51
90.2985155
0
ARC
8
DEFAULT_255_2_778
10
17.2094016
20
97.7802853
40
0.9150378
50
89.7897444
51
110.2588109
0
ARC
8
DEFAULT_255_2_778
10
17.101001
20
98.0866628
40
0.5900947
50
110.6852559
51
162.0403298
0
ARC
8
DEFAULT_255_2_778
10
18.0683819
20
97.736383
40
1.6187234
50
160.8041275
51
179.9386229
0
ARC
8
DEFAULT_255_2_778
10
18.1558236
20
97.7534548
40
1.7062331
50
180.5150557
51
195.5894688
0
ARC
8
DEFAULT_255_2_778
10
17.0879104
20
97.449683
40
0.5959962
50
195.0508469
51
248.0946429
0
ARC
8
DEFAULT_255_2_778
10
17.2161907
20
97.7935499
40
0.962939
50
248.6461851
51
269.7958357
0
ARC
8
DEFAULT_255_2_778
10
17.2162371
20
97.7691504
40
0.9385398
50
269.7876919
51
288.3854007
0
ARC
8
DEFAULT_255_2_778
10
17.3618099
20
97.3239006
40
0.4701081
50
288.6648473
51
337.0664801
0
ARC
8
DEFAULT_255_2_778
10
17.1620914
20
97.4068937
40
0.686381
50
337.1824881
51
0.3525413
0
ARC
8
DEFAULT_255_2_778
10
17.1306441
20
97.4848919
40
1.4016582
50
347.106098
51
356.982897
0
ARC
8
DEFAULT_255_2_778
10
17.714149
20
97.3456536
40
0.8018149
50
294.3589809
51
347.5005795
0
ARC
8
DEFAULT_255_2_778
10
17.2068565
20
98.5388417
40
2.0982328
50
270.1611893
51
293.5397442
0
ARC
8
DEFAULT_255_2_778
10
17.2113432
20
97.9264698
40
1.4858535
50
269.9818014
51
270.0546119
0
ARC
8
DEFAULT_255_2_778
10
17.2109535
20
98.5456674
40
2.1050512
50
251.8970159
51
269.9977614
0
ARC
8
DEFAULT_255_2_778
10
16.8688452
20
97.5759855
40
1.0773317
50
200.3966403
51
253.1665191
0
LINE
8
DEFAULT_255_2_778
10
18.5136594
20
98.166217
11
17.8342594
21
98.166217
0
LINE
8
DEFAULT_255_2_778
10
17.8484594
20
97.411117
11
18.5303594
21
97.411117
0
LINE
8
DEFAULT_255_1_234
10
9.9572364
20
95.1066211
11
10.1564235
21
95.1066211
0
LINE
8
DEFAULT_255_1_234
10
10.1564235
20
95.1066211
11
10.5387342
21
94.1524506
0
LINE
8
DEFAULT_255_1_234
10
10.5387342
20
94.1524506
11
10.921045
21
95.1066211
0
LINE
8
DEFAULT_255_1_234
10
10.921045
20
95.1066211
11
11.1210353
21
95.1066211
0
LINE
8
DEFAULT_255_1_234
10
11.1210353
20
95.1066211
11
11.1210353
21
93.9372
0
LINE
8
DEFAULT_255_1_234
10
11.1210353
20
93.9372
11
10.9668259
21
93.9372
0
LINE
8
DEFAULT_255_1_234
10
10.9668259
20
93.9372
11
10.9668259
21
94.3925996
0
LINE
8
DEFAULT_255_1_234
10
10.9668259
20
94.3925996
11
10.981283
21
94.8841419
0
LINE
8
DEFAULT_255_1_234
10
10.981283
20
94.8841419
11
10.5973659
21
93.9372
0
LINE
8
DEFAULT_255_1_234
10
10.5973659
20
93.9372
11
10.4792994
21
93.9372
0
LINE
8
DEFAULT_255_1_234
10
10.4792994
20
93.9372
11
10.0961854
21
94.8817324
0
LINE
8
DEFAULT_255_1_234
10
10.0961854
20
94.8817324
11
10.1114458
21
94.3925996
0
LINE
8
DEFAULT_255_1_234
10
10.1114458
20
94.3925996
11
10.1114458
21
93.9372
0
LINE
8
DEFAULT_255_1_234
10
10.1114458
20
93.9372
11
9.9572364
21
93.9372
0
LINE
8
DEFAULT_255_1_234
10
9.9572364
20
93.9372
11
9.9572364
21
95.1066211
0
LINE
8
DEFAULT_255_1_234
10
11.5314571
20
94.8062341
11
11.5314571
21
93.9372
0
LINE
8
DEFAULT_255_1_234
10
11.5314571
20
93.9372
11
11.3828699
21
93.9372
0
LINE
8
DEFAULT_255_1_234
10
11.3828699
20
93.9372
11
11.3828699
21
94.8062341
0
LINE
8
DEFAULT_255_1_234
10
11.3828699
20
94.8062341
11
11.5314571
21
94.8062341
0
ARC
8
DEFAULT_255_1_234
10
11.4686848
20
95.0376889
40
0.097867
50
161.415052
51
180.5526306
0
ARC
8
DEFAULT_255_1_234
10
11.4562626
20
95.0411077
40
0.0850062
50
138.1827368
51
160.9307106
0
ARC
8
DEFAULT_255_1_234
10
11.4452572
20
95.0506588
40
0.0704362
50
104.6368899
51
138.0039868
0
ARC
8
DEFAULT_255_1_234
10
11.4559726
20
95.0139963
40
0.1086221
50
92.0600725
51
105.2189128
0
ARC
8
DEFAULT_255_1_234
10
11.4583075
20
94.9797117
40
0.1429728
50
89.9756393
51
92.5012496
0
ARC
8
DEFAULT_255_1_234
10
11.4593094
20
95.0022731
40
0.1204151
50
78.0235316
51
90.4478182
0
ARC
8
DEFAULT_255_1_234
10
11.4685186
20
95.0436295
40
0.0780493
50
55.051506
51
78.3369085
0
ARC
8
DEFAULT_255_1_234
10
11.473546
20
95.0520711
40
0.0682538
50
42.0501187
51
54.4513741
0
ARC
8
DEFAULT_255_1_234
10
11.4600328
20
95.0396798
40
0.0865878
50
1.7497075
51
42.1496013
0
ARC
8
DEFAULT_255_1_234
10
11.434566
20
95.0367738
40
0.1121515
50
359.9852656
51
2.8364544
0
ARC
8
DEFAULT_255_1_234
10
11.4511653
20
95.0358229
40
0.0955566
50
342.1070653
51
0.552888
0
ARC
8
DEFAULT_255_1_234
10
11.465435
20
95.0318904
40
0.0807713
50
316.7107116
51
341.6516965
0
ARC
8
DEFAULT_255_1_234
10
11.4721387
20
95.0258823
40
0.0717724
50
285.4397031
51
316.5324284
0
ARC
8
DEFAULT_255_1_234
10
11.4611304
20
95.0624554
40
0.1099597
50
272.3547054
51
285.8953117
0
ARC
8
DEFAULT_255_1_234
10
11.4584462
20
95.0990048
40
0.1465932
50
269.9695369
51
272.8160237
0
ARC
8
DEFAULT_255_1_234
10
11.4574644
20
95.0770863
40
0.1246779
50
258.8431134
51
270.4153935
0
ARC
8
DEFAULT_255_1_234
10
11.4484686
20
95.0335414
40
0.0802162
50
238.5431189
51
259.1288175
0
ARC
8
DEFAULT_255_1_234
10
11.4416571
20
95.0211856
40
0.0661247
50
222.5062634
51
237.9906969
0
ARC
8
DEFAULT_255_1_234
10
11.4544158
20
95.0327889
40
0.0833707
50
184.1069131
51
222.460413
0
ARC
8
DEFAULT_255_1_234
10
11.4813399
20
95.0366349
40
0.1105176
50
179.9429482
51
185.0960898
0
LINE
8
DEFAULT_255_1_234
10
12.3225833
20
94.2110823
11
12.4631387
21
94.2110823
0
LINE
8
DEFAULT_255_1_234
10
11.7306442
20
94.3636853
11
11.7306442
21
94.3885837
0
LINE
8
DEFAULT_255_1_234
10
12.4631387
20
94.5074534
11
12.3225833
21
94.5074534
0
LINE
8
DEFAULT_255_1_234
10
11.8792313
20
94.3829615
11
11.8792313
21
94.3548504
0
ARC
8
DEFAULT_255_1_234
10
12.1213868
20
94.2564121
40
0.2140268
50
269.0327816
51
309.2224514
0
ARC
8
DEFAULT_255_1_234
10
12.1423623
20
94.2349108
40
0.1841255
50
308.396669
51
329.6984113
0
ARC
8
DEFAULT_255_1_234
10
12.1561478
20
94.224482
40
0.166974
50
330.401383
51
355.3970571
0
ARC
8
DEFAULT_255_1_234
10
12.2018344
20
94.2262082
40
0.2617417
50
329.2357853
51
356.6870514
0
ARC
8
DEFAULT_255_1_234
10
12.1468366
20
94.2552971
40
0.3238945
50
324.8706984
51
329.7905871
0
ARC
8
DEFAULT_255_1_234
10
12.1390084
20
94.2620106
40
0.3341614
50
298.8769168
51
324.7016144
0
ARC
8
DEFAULT_255_1_234
10
12.1058276
20
94.3148917
40
0.3965068
50
296.9023738
51
299.385174
0
ARC
8
DEFAULT_255_1_234
10
12.1187889
20
94.2861422
40
0.365007
50
269.8406811
51
297.1299281
0
ARC
8
DEFAULT_255_1_234
10
12.1134546
20
94.3499407
40
0.4288259
50
253.315473
51
270.5771285
0
ARC
8
DEFAULT_255_1_234
10
12.0887581
20
94.2605739
40
0.3361372
50
221.1002312
51
252.9744583
0
ARC
8
DEFAULT_255_1_234
10
12.1347578
20
94.300059
40
0.3967576
50
194.5394537
51
221.0302238
0
ARC
8
DEFAULT_255_1_234
10
12.3196399
20
94.3515952
40
0.5886672
50
182.0499201
51
194.8773585
0
ARC
8
DEFAULT_255_1_234
10
12.4966597
20
94.363406
40
0.7660157
50
179.9791086
51
182.4591564
0
ARC
8
DEFAULT_255_1_234
10
12.3228642
20
94.3915498
40
0.5922274
50
168.614861
51
180.2869651
0
ARC
8
DEFAULT_255_1_234
10
12.2026786
20
94.4151269
40
0.4697532
50
154.9162259
51
168.5402336
0
ARC
8
DEFAULT_255_1_234
10
12.1105294
20
94.460663
40
0.3669966
50
133.5746694
51
155.2558665
0
ARC
8
DEFAULT_255_1_234
10
12.0942453
20
94.4745467
40
0.3457206
50
122.0165146
51
133.2055214
0
ARC
8
DEFAULT_255_1_234
10
12.0978292
20
94.4657361
40
0.355095
50
97.8731644
51
121.7531281
0
ARC
8
DEFAULT_255_1_234
10
12.1157374
20
94.3600159
40
0.4622833
50
89.8471353
51
98.2769494
0
ARC
8
DEFAULT_255_1_234
10
12.1206127
20
94.4210091
40
0.401305
50
73.3760412
51
90.5199766
0
ARC
8
DEFAULT_255_1_234
10
12.140249
20
94.4932516
40
0.3264695
50
47.7085968
51
73.0509704
0
ARC
8
DEFAULT_255_1_234
10
12.153236
20
94.5045128
40
0.309407
50
3.7443473
51
48.0843753
0
ARC
8
DEFAULT_255_1_234
10
12.054531
20
94.4887614
40
0.4090351
50
2.6192045
51
5.0432185
0
ARC
8
DEFAULT_255_1_234
10
12.1002163
20
94.4927592
40
0.2228519
50
3.780656
51
23.9356886
0
ARC
8
DEFAULT_255_1_234
10
12.1230779
20
94.5008155
40
0.198697
50
24.4869552
51
46.9440088
0
ARC
8
DEFAULT_255_1_234
10
12.123163
20
94.5031484
40
0.1969404
50
46.498716
51
89.3298174
0
ARC
8
DEFAULT_255_1_234
10
12.1169984
20
94.4436723
40
0.2565428
50
88.1083975
51
90.0061569
0
ARC
8
DEFAULT_255_1_234
10
12.1142414
20
94.4490759
40
0.251154
50
89.3773333
51
107.2071161
0
ARC
8
DEFAULT_255_1_234
10
12.0999537
20
94.500819
40
0.1975072
50
107.6883219
51
143.3583002
0
ARC
8
DEFAULT_255_1_234
10
12.156692
20
94.4581873
40
0.2684762
50
143.2846717
51
162.935323
0
ARC
8
DEFAULT_255_1_234
10
12.3072522
20
94.4098652
40
0.4265927
50
162.6650068
51
174.0805419
0
ARC
8
DEFAULT_255_1_234
10
12.5215361
20
94.3849636
40
0.6423078
50
173.8423985
51
180.1785963
0
ARC
8
DEFAULT_255_1_234
10
12.4667461
20
94.3518039
40
0.5875227
50
179.7028978
51
188.2277152
0
ARC
8
DEFAULT_255_1_234
10
12.2565763
20
94.3203247
40
0.3750127
50
188.0629871
51
201.1160002
0
ARC
8
DEFAULT_255_1_234
10
12.1467961
20
94.2784238
40
0.2575093
50
201.2187293
51
216.9761968
0
ARC
8
DEFAULT_255_1_234
10
12.1016524
20
94.2445993
40
0.2010998
50
217.0135981
51
265.2056839
0
ARC
8
DEFAULT_255_1_234
10
12.1172384
20
94.3367695
40
0.2943543
50
263.681807
51
270.104251
0
LINE
8
DEFAULT_255_1_234
10
13.0502588
20
94.8110531
11
13.0502588
21
94.6729072
0
LINE
8
DEFAULT_255_1_234
10
12.778786
20
94.5540375
11
12.778786
21
93.9372
0
LINE
8
DEFAULT_255_1_234
10
12.778786
20
93.9372
11
12.6301989
21
93.9372
0
LINE
8
DEFAULT_255_1_234
10
12.6301989
20
93.9372
11
12.6301989
21
94.8062341
0
LINE
8
DEFAULT_255_1_234
10
12.6301989
20
94.8062341
11
12.7747702
21
94.8062341
0
LINE
8
DEFAULT_255_1_234
10
12.7747702
20
94.8062341
11
12.7771797
21
94.7058374
0
ARC
8
DEFAULT_255_1_234
10
12.9835993
20
94.2669342
40
0.4114092
50
80.6754243
51
86.8932892
0
ARC
8
DEFAULT_255_1_234
10
12.9775528
20
94.17017
40
0.5083596
50
86.8038578
51
90.0431435
0
ARC
8
DEFAULT_255_1_234
10
12.9738509
20
94.4158866
40
0.2626638
50
89.2759698
51
106.6213787
0
ARC
8
DEFAULT_255_1_234
10
12.9534072
20
94.490183
40
0.1856317
50
107.1346045
51
157.6458115
0
ARC
8
DEFAULT_255_1_234
10
13.0225674
20
94.4518311
40
0.2643398
50
155.6586782
51
157.2539184
0
ARC
8
DEFAULT_255_1_234
10
13.0020876
20
94.5687157
40
0.2634121
50
127.8165941
51
148.6302098
0
ARC
8
DEFAULT_255_1_234
10
12.9767345
20
94.5947218
40
0.2273596
50
91.3329982
51
126.7875809
0
ARC
8
DEFAULT_255_1_234
10
12.9843286
20
94.5232195
40
0.299078
50
89.986594
51
92.4688449
0
ARC
8
DEFAULT_255_1_234
10
12.9851681
20
94.5507078
40
0.2715908
50
85.3589899
51
90.1623399
0
ARC
8
DEFAULT_255_1_234
10
12.9936196
20
94.6511164
40
0.1708278
50
78.401942
51
85.4594656
0
ARC
8
DEFAULT_255_1_234
10
13.008108
20
94.7202236
40
0.1002194
50
67.7858312
51
78.5728455
0
ARC
8
DEFAULT_255_1_234
10
13.0188933
20
94.7481887
40
0.0702548
50
63.4835954
51
67.3062642
0
LINE
8
DEFAULT_255_1_234
10
13.1313793
20
94.3693075
11
13.1313793
21
94.3797488
0
LINE
8
DEFAULT_255_1_234
10
13.9225056
20
94.3725202
11
13.9225056
21
94.362079
0
ARC
8
DEFAULT_255_1_234
10
13.6899973
20
94.3829837
40
0.5586273
50
166.3003825
51
180.3317926
0
ARC
8
DEFAULT_255_1_234
10
13.6037132
20
94.4022964
40
0.4702272
50
153.8608245
51
166.0967125
0
ARC
8
DEFAULT_255_1_234
10
13.5371535
20
94.437975
40
0.3947658
50
135.1316692
51
154.253643
0
ARC
8
DEFAULT_255_1_234
10
13.5093094
20
94.4625666
40
0.3576898
50
121.7044358
51
134.776924
0
ARC
8
DEFAULT_255_1_234
10
13.5160088
20
94.4496867
40
0.3721701
50
93.4002104
51
121.5398234
0
ARC
8
DEFAULT_255_1_234
10
13.5255044
20
94.3671228
40
0.4551749
50
89.9706281
51
93.9769836
0
ARC
8
DEFAULT_255_1_234
10
13.5302136
20
94.4061362
40
0.4161854
50
71.3323442
51
90.6161982
0
ARC
8
DEFAULT_255_1_234
10
13.5464832
20
94.4663578
40
0.3539455
50
41.1815071
51
70.707185
0
ARC
8
DEFAULT_255_1_234
10
13.4987232
20
94.4229919
40
0.4184468
50
12.1971897
51
41.3445735
0
ARC
8
DEFAULT_255_1_234
10
13.306124
20
94.3771425
40
0.616399
50
359.5703439
51
12.5804035
0
ARC
8
DEFAULT_255_1_234
10
13.3534315
20
94.3589116
40
0.5690829
50
347.0197749
51
0.3188898
0
ARC
8
DEFAULT_255_1_234
10
13.4492817
20
94.3382808
40
0.4710501
50
334.3504053
51
346.846361
0
ARC
8
DEFAULT_255_1_234
10
13.533824
20
94.2943805
40
0.3758475
50
310.422922
51
334.8045033
0
ARC
8
DEFAULT_255_1_234
10
13.5420066
20
94.2879782
40
0.3656736
50
301.8486886
51
310.097356
0
ARC
8
DEFAULT_255_1_234
10
13.5387792
20
94.2955638
40
0.3738224
50
274.307774
51
301.655379
0
ARC
8
DEFAULT_255_1_234
10
13.5277099
20
94.3833361
40
0.4621997
50
269.9546461
51
274.8588071
0
ARC
8
DEFAULT_255_1_234
10
13.5228033
20
94.3332249
40
0.4121134
50
250.888809
51
270.631312
0
ARC
8
DEFAULT_255_1_234
10
13.5077953
20
94.2773277
40
0.3544073
50
221.1701932
51
250.2227191
0
ARC
8
DEFAULT_255_1_234
10
13.5562107
20
94.3214439
40
0.4198961
50
191.6263638
51
221.3526367
0
ARC
8
DEFAULT_255_1_234
10
13.7450103
20
94.3651329
40
0.6136451
50
179.610213
51
192.0693181
0
ARC
8
DEFAULT_255_1_234
10
13.7873331
20
94.3588633
40
0.5065736
50
179.636298
51
190.6162791
0
ARC
8
DEFAULT_255_1_234
10
13.6230999
20
94.326859
40
0.3392576
50
190.4136628
51
208.7170242
0
ARC
8
DEFAULT_255_1_234
10
13.5720623
20
94.3015366
40
0.2823401
50
209.1867941
51
217.4225593
0
ARC
8
DEFAULT_255_1_234
10
13.5191457
20
94.2549558
40
0.2120636
50
216.1156896
51
265.2575835
0
ARC
8
DEFAULT_255_1_234
10
13.5270606
20
94.3123109
40
0.2698952
50
264.5897417
51
270.0601757
0
ARC
8
DEFAULT_255_1_234
10
13.5303666
20
94.2743185
40
0.2319225
50
269.2532621
51
291.8792492
0
ARC
8
DEFAULT_255_1_234
10
13.5332888
20
94.2565238
40
0.2143562
50
292.9269754
51
323.1776747
0
ARC
8
DEFAULT_255_1_234
10
13.493971
20
94.2913452
40
0.2667346
50
322.2518483
51
323.0930371
0
ARC
8
DEFAULT_255_1_234
10
13.4645369
20
94.309499
40
0.3011886
50
323.6941278
51
343.8493282
0
ARC
8
DEFAULT_255_1_234
10
13.3066912
20
94.357535
40
0.4661719
50
343.5748474
51
355.0079071
0
ARC
8
DEFAULT_255_1_234
10
13.1059157
20
94.3783424
40
0.6680042
50
354.7285225
51
0.1206288
0
ARC
8
DEFAULT_255_1_234
10
13.2827623
20
94.3829751
40
0.4911667
50
359.623636
51
11.2015604
0
ARC
8
DEFAULT_255_1_234
10
13.4361851
20
94.414564
40
0.3345323
50
10.9989411
51
30.8319188
0
ARC
8
DEFAULT_255_1_234
10
13.4757723
20
94.4354297
40
0.2898553
50
31.3008956
51
37.3959224
0
ARC
8
DEFAULT_255_1_234
10
13.5254302
20
94.4773653
40
0.2249582
50
36.5915954
51
62.2442953
0
ARC
8
DEFAULT_255_1_234
10
13.5300755
20
94.4770602
40
0.2231053
50
63.3365542
51
89.7195421
0
ARC
8
DEFAULT_255_1_234
10
13.5257609
20
94.4201884
40
0.2800267
50
88.8936788
51
90.0047485
0
ARC
8
DEFAULT_255_1_234
10
13.5225968
20
94.4774787
40
0.2227586
50
89.1921125
51
114.7099455
0
ARC
8
DEFAULT_255_1_234
10
13.5254732
20
94.4812628
40
0.2205633
50
115.7997161
51
142.2900762
0
ARC
8
DEFAULT_255_1_234
10
13.5693465
20
94.4422658
40
0.2791541
50
141.4658779
51
142.3795754
0
ARC
8
DEFAULT_255_1_234
10
13.5802369
20
94.4379557
40
0.2904292
50
143.0175714
51
163.234115
0
ARC
8
DEFAULT_255_1_234
10
13.7380542
20
94.3880054
40
0.4559523
50
162.9447461
51
174.3732162
0
ARC
8
DEFAULT_255_1_234
10
13.9526356
20
94.3639143
40
0.6718682
50
174.1228657
51
180.1565175
0
LINE
8
DEFAULT_255_1_234
10
15.2003551
20
94.6038343
11
15.2003551
21
94.477736
0
LINE
8
DEFAULT_255_1_234
10
15.2003551
20
94.477736
11
14.6935524
21
94.477736
0
LINE
8
DEFAULT_255_1_234
10
14.6935524
20
94.477736
11
14.6935524
21
94.0632983
0
LINE
8
DEFAULT_255_1_234
10
14.6935524
20
94.0632983
11
15.2822789
21
94.0632983
0
LINE
8
DEFAULT_255_1_234
10
15.2822789
20
94.0632983
11
15.2822789
21
93.9372
0
LINE
8
DEFAULT_255_1_234
10
15.2822789
20
93.9372
11
14.5393431
21
93.9372
0
LINE
8
DEFAULT_255_1_234
10
14.5393431
20
93.9372
11
14.5393431
21
95.1066211
0
LINE
8
DEFAULT_255_1_234
10
14.5393431
20
95.1066211
11
15.2742471
21
95.1066211
0
LINE
8
DEFAULT_255_1_234
10
15.2742471
20
95.1066211
11
15.2742471
21
94.9797196
0
LINE
8
DEFAULT_255_1_234
10
15.2742471
20
94.9797196
11
14.6935524
21
94.9797196
0
LINE
8
DEFAULT_255_1_234
10
14.6935524
20
94.9797196
11
14.6935524
21
94.6038343
0
LINE
8
DEFAULT_255_1_234
10
14.6935524
20
94.6038343
11
15.2003551
21
94.6038343
0
LINE
8
DEFAULT_255_1_234
10
16.3729889
20
95.1066211
11
16.3729889
21
93.9372
0
LINE
8
DEFAULT_255_1_234
10
16.3729889
20
93.9372
11
16.2179764
21
93.9372
0
LINE
8
DEFAULT_255_1_234
10
16.2179764
20
93.9372
11
16.2179764
21
94.477736
0
LINE
8
DEFAULT_255_1_234
10
16.2179764
20
94.477736
11
15.6284468
21
94.477736
0
LINE
8
DEFAULT_255_1_234
10
15.6284468
20
94.477736
11
15.6284468
21
93.9372
0
LINE
8
DEFAULT_255_1_234
10
15.6284468
20
93.9372
11
15.4742374
21
93.9372
0
LINE
8
DEFAULT_255_1_234
10
15.4742374
20
93.9372
11
15.4742374
21
95.1066211
0
LINE
8
DEFAULT_255_1_234
10
15.4742374
20
95.1066211
11
15.6284468
21
95.1066211
0
LINE
8
DEFAULT_255_1_234
10
15.6284468
20
95.1066211
11
15.6284468
21
94.6038343
0
LINE
8
DEFAULT_255_1_234
10
15.6284468
20
94.6038343
11
16.2179764
21
94.6038343
0
LINE
8
DEFAULT_255_1_234
10
16.2179764
20
94.6038343
11
16.2179764
21
95.1066211
0
LINE
8
DEFAULT_255_1_234
10
16.2179764
20
95.1066211
11
16.3729889
21
95.1066211
0
LINE
8
DEFAULT_255_1_234
10
16.701487
20
95.1066211
11
17.034001
21
94.1420093
0
LINE
8
DEFAULT_255_1_234
10
17.034001
20
94.1420093
11
17.3681213
21
95.1066211
0
LINE
8
DEFAULT_255_1_234
10
17.3681213
20
95.1066211
11
17.5367878
21
95.1066211
0
LINE
8
DEFAULT_255_1_234
10
17.5367878
20
95.1066211
11
17.1030739
21
93.9372
0
LINE
8
DEFAULT_255_1_234
10
17.1030739
20
93.9372
11
16.9665344
21
93.9372
0
LINE
8
DEFAULT_255_1_234
10
16.9665344
20
93.9372
11
16.5336237
21
95.1066211
0
LINE
8
DEFAULT_255_1_234
10
16.5336237
20
95.1066211
11
16.701487
21
95.1066211
0
LINE
8
DEFAULT_255_1_234
10
18.0957968
20
94.9058276
11
18.0957968
21
94.5644788
0
LINE
8
DEFAULT_255_1_234
10
18.0957968
20
94.5644788
11
18.4218854
21
94.5644788
0
LINE
8
DEFAULT_255_1_234
10
18.4218854
20
94.5644788
11
18.4218854
21
94.4239233
0
LINE
8
DEFAULT_255_1_234
10
18.4218854
20
94.4239233
11
18.0957968
21
94.4239233
0
LINE
8
DEFAULT_255_1_234
10
18.0957968
20
94.4239233
11
18.0957968
21
94.0544634
0
LINE
8
DEFAULT_255_1_234
10
18.0957968
20
94.0544634
11
17.9464064
21
94.0544634
0
LINE
8
DEFAULT_255_1_234
10
17.9464064
20
94.0544634
11
17.9464064
21
94.4239233
0
LINE
8
DEFAULT_255_1_234
10
17.9464064
20
94.4239233
11
17.6203179
21
94.4239233
0
LINE
8
DEFAULT_255_1_234
10
17.6203179
20
94.4239233
11
17.6203179
21
94.5644788
0
LINE
8
DEFAULT_255_1_234
10
17.6203179
20
94.5644788
11
17.9464064
21
94.5644788
0
LINE
8
DEFAULT_255_1_234
10
17.9464064
20
94.5644788
11
17.9464064
21
94.9058276
0
LINE
8
DEFAULT_255_1_234
10
17.9464064
20
94.9058276
11
18.0957968
21
94.9058276
0
LINE
8
DEFAULT_255_2_778
10
9.3932417
20
76.5968579
11
10.7161417
21
76.5968579
0
LINE
8
DEFAULT_255_2_778
10
10.7161417
20
76.5968579
11
10.7161417
21
43.5239579
0
LINE
8
DEFAULT_255_2_778
10
9.3932834
20
43.5239333
11
12.0390834
21
43.5239333
0
LINE
8
DEFAULT_255_2_778
10
12.0390834
20
43.5239333
11
12.0390834
21
38.2322333
0
LINE
8
DEFAULT_255_2_778
10
12.0390834
20
38.2322333
11
9.3932834
21
38.2322333
0
LINE
8
DEFAULT_255_2_778
10
9.3932834
20
38.2322333
11
9.3932834
21
43.5239333
0
LINE
8
DEFAULT_255_2_778
10
10.187
20
38.7614666
11
10.187
21
42.9947666
0
LINE
8
DEFAULT_255_2_778
10
9.9224167
20
42.201075
11
10.1870167
21
42.994775
0
LINE
8
DEFAULT_255_2_778
10
10.1870167
20
42.994775
11
10.4516167
21
42.201075
0
LINE
8
DEFAULT_255_2_778
10
10.4516167
20
42.201075
11
9.9224167
21
42.201075
0
LINE
8
DEFAULT_255_2_778
10
11.2453
20
42.9947666
11
11.2453
21
38.7614666
0
LINE
8
DEFAULT_255_2_778
10
10.9807167
20
39.555175
11
11.2453167
21
38.761475
0
LINE
8
DEFAULT_255_2_778
10
11.2453167
20
38.761475
11
11.5099167
21
39.555175
0
LINE
8
DEFAULT_255_2_778
10
11.5099167
20
39.555175
11
10.9807167
21
39.555175
0
LINE
8
DEFAULT_255_2_778
10
10.7161335
20
38.2322991
11
10.7161335
21
5.1593991
0
LINE
8
DEFAULT_255_2_778
10
10.7161335
20
5.1593991
11
9.3932335
21
5.1593991
0
LINE
8
DEFAULT_255_2_778
10
19.9765335
20
68.6593991
11
18.6536335
21
68.6593991
0
LINE
8
DEFAULT_255_2_778
10
18.6536335
20
68.6593991
11
18.6536335
21
43.5239991
0
LINE
8
DEFAULT_255_2_778
10
17.3307834
20
43.5239333
11
19.9765834
21
43.5239333
0
LINE
8
DEFAULT_255_2_778
10
19.9765834
20
43.5239333
11
19.9765834
21
38.2322333
0
LINE
8
DEFAULT_255_2_778
10
19.9765834
20
38.2322333
11
17.3307834
21
38.2322333
0
LINE
8
DEFAULT_255_2_778
10
17.3307834
20
38.2322333
11
17.3307834
21
43.5239333
0
LINE
8
DEFAULT_255_2_778
10
18.1245
20
38.7614666
11
18.1245
21
42.9947666
0
LINE
8
DEFAULT_255_2_778
10
17.8599167
20
42.201075
11
18.1245167
21
42.994775
0
LINE
8
DEFAULT_255_2_778
10
18.1245167
20
42.994775
11
18.3891167
21
42.201075
0
LINE
8
DEFAULT_255_2_778
10
18.3891167
20
42.201075
11
17.8599167
21
42.201075
0
LINE
8
DEFAULT_255_2_778
10
19.1828
20
42.9947666
11
19.1828
21
38.7614666
0
LINE
8
DEFAULT_255_2_778
10
18.9182167
20
39.555175
11
19.1828167
21
38.761475
0
LINE
8
DEFAULT_255_2_778
10
19.1828167
20
38.761475
11
19.4474167
21
39.555175
0
LINE
8
DEFAULT_255_2_778
10
19.4474167
20
39.555175
11
18.9182167
21
39.555175
0
LINE
8
DEFAULT_255_2_778
10
18.6536417
20
38.232308
11
18.6536417
21
13.096908
0
LINE
8
DEFAULT_255_2_778
10
18.6536417
20
13.096908
11
19.9765417
21
13.096908
0
LINE
8
DEFAULT_255_1_234
10
4.9274119
20
92.0741792
11
4.9274119
21
91.9529
0
LINE
8
DEFAULT_255_1_234
10
4.9274119
20
91.9529
11
4.161184
21
91.9529
0
LINE
8
DEFAULT_255_1_234
10
4.161184
20
91.9529
11
4.161184
21
92.0597221
0
LINE
8
DEFAULT_255_1_234
10
4.161184
20
92.0597221
11
4.5659836
21
92.5094995
0
LINE
8
DEFAULT_255_1_234
10
4.2872823
20
92.7777595
11
4.1386952
21
92.7777595
0
LINE
8
DEFAULT_255_1_234
10
4.6535296
20
92.4139218
11
4.3402918
21
92.0741792
0
LINE
8
DEFAULT_255_1_234
10
4.3402918
20
92.0741792
11
4.9274119
21
92.0741792
0
ARC
8
DEFAULT_255_1_234
10
3.216967
20
93.7024527
40
1.8008286
50
318.5132453
51
320.7828378
0
ARC
8
DEFAULT_255_1_234
10
3.7456644
20
93.2721426
40
1.1191493
50
320.7372736
51
323.9737074
0
ARC
8
DEFAULT_255_1_234
10
4.1376501
20
92.9881361
40
0.6350923
50
323.8961724
51
328.6421089
0
ARC
8
DEFAULT_255_1_234
10
4.3423096
20
92.8619031
40
0.3946393
50
328.8299013
51
331.789948
0
ARC
8
DEFAULT_255_1_234
10
4.4420274
20
92.8104509
40
0.2824501
50
331.4255242
51
352.9364833
0
ARC
8
DEFAULT_255_1_234
10
4.4556775
20
92.8073976
40
0.2685315
50
353.2248685
51
0.0169286
0
ARC
8
DEFAULT_255_1_234
10
4.4766652
20
92.809695
40
0.2475536
50
359.4866256
51
15.9339782
0
ARC
8
DEFAULT_255_1_234
10
4.5273637
20
92.8233286
40
0.1950618
50
16.1714718
51
43.5284424
0
ARC
8
DEFAULT_255_1_234
10
4.5350946
20
92.8310573
40
0.184134
50
43.4415429
51
83.1661404
0
ARC
8
DEFAULT_255_1_234
10
4.5216864
20
92.7573771
40
0.258926
50
82.160215
51
90.1505798
0
ARC
8
DEFAULT_255_1_234
10
4.5185291
20
92.7036865
40
0.3126255
50
89.5460705
51
102.5418777
0
ARC
8
DEFAULT_255_1_234
10
4.4942377
20
92.8067665
40
0.2067346
50
102.1739365
51
129.2061916
0
ARC
8
DEFAULT_255_1_234
10
4.4863449
20
92.8192094
40
0.1921118
50
129.7279328
51
135.7542026
0
ARC
8
DEFAULT_255_1_234
10
4.4984977
20
92.8095045
40
0.2075944
50
136.175737
51
166.3674722
0
ARC
8
DEFAULT_255_1_234
10
4.5991896
20
92.7825182
40
0.3118201
50
165.9092917
51
178.8683903
0
ARC
8
DEFAULT_255_1_234
10
4.6856757
20
92.7778179
40
0.3983935
50
178.438168
51
180.0083905
0
ARC
8
DEFAULT_255_1_234
10
4.5455359
20
92.7817231
40
0.4068601
50
163.2878735
51
180.5581814
0
ARC
8
DEFAULT_255_1_234
10
4.4653621
20
92.803784
40
0.3237344
50
133.454115
51
162.9470031
0
ARC
8
DEFAULT_255_1_234
10
4.4832162
20
92.7848
40
0.349795
50
100.7869394
51
133.4384016
0
ARC
8
DEFAULT_255_1_234
10
4.5179934
20
92.6299319
40
0.5084616
50
89.6605301
51
101.3704185
0
ARC
8
DEFAULT_255_1_234
10
4.5246273
20
92.6360496
40
0.502348
50
78.2171172
51
90.4130393
0
ARC
8
DEFAULT_255_1_234
10
4.5601351
20
92.7984637
40
0.3361092
50
55.9268222
51
78.4888551
0
ARC
8
DEFAULT_255_1_234
10
4.5797791
20
92.8323324
40
0.2970617
50
47.9292255
51
55.4054003
0
ARC
8
DEFAULT_255_1_234
10
4.5899352
20
92.8426502
40
0.2825983
50
4.3347696
51
48.0560701
0
ARC
8
DEFAULT_255_1_234
10
4.4803745
20
92.8256601
40
0.393225
50
359.925209
51
5.5967654
0
ARC
8
DEFAULT_255_1_234
10
4.5232637
20
92.8312816
40
0.3503892
50
337.8914096
51
358.9967724
0
ARC
8
DEFAULT_255_1_234
10
4.2519049
20
92.9359706
40
0.6412172
50
326.9135351
51
338.3505194
0
ARC
8
DEFAULT_255_1_234
10
3.8533353
20
93.1914284
40
1.1146189
50
319.6472867
51
327.095818
0
ARC
8
DEFAULT_255_1_234
10
3.4700356
20
93.5076
40
1.6114559
50
317.2586784
51
319.9046139
0
LINE
8
DEFAULT_255_1_234
10
5.7121127
20
93.1223211
11
5.7121127
21
92.345652
0
LINE
8
DEFAULT_255_1_234
10
5.7121127
20
92.345652
11
5.8743538
21
92.345652
0
LINE
8
DEFAULT_255_1_234
10
5.8743538
20
92.345652
11
5.8743538
21
92.2243728
0
LINE
8
DEFAULT_255_1_234
10
5.8743538
20
92.2243728
11
5.7121127
21
92.2243728
0
LINE
8
DEFAULT_255_1_234
10
5.7121127
20
92.2243728
11
5.7121127
21
91.9529
0
LINE
8
DEFAULT_255_1_234
10
5.7121127
20
91.9529
11
5.5627224
21
91.9529
0
LINE
8
DEFAULT_255_1_234
10
5.5627224
20
91.9529
11
5.5627224
21
92.2243728
0
LINE
8
DEFAULT_255_1_234
10
5.5627224
20
92.2243728
11
5.0302181
21
92.2243728
0
LINE
8
DEFAULT_255_1_234
10
5.0302181
20
92.2243728
11
5.0302181
21
92.3119187
0
LINE
8
DEFAULT_255_1_234
10
5.0302181
20
92.3119187
11
5.5538875
21
93.1223211
0
LINE
8
DEFAULT_255_1_234
10
5.5538875
20
93.1223211
11
5.7121127
21
93.1223211
0
LINE
8
DEFAULT_255_1_234
10
5.5450525
20
92.8869912
11
5.1988846
21
92.345652
0
LINE
8
DEFAULT_255_1_234
10
5.1988846
20
92.345652
11
5.5627224
21
92.345652
0
LINE
8
DEFAULT_255_1_234
10
5.5627224
20
92.345652
11
5.5627224
21
92.9191181
0
LINE
8
DEFAULT_255_1_234
10
5.5627224
20
92.9191181
11
5.5450525
21
92.8869912
0
LINE
8
DEFAULT_255_1_234
10
6.101652
20
93.1223211
11
6.434166
21
92.1577093
0
LINE
8
DEFAULT_255_1_234
10
6.434166
20
92.1577093
11
6.7682863
21
93.1223211
0
LINE
8
DEFAULT_255_1_234
10
6.7682863
20
93.1223211
11
6.9369528
21
93.1223211
0
LINE
8
DEFAULT_255_1_234
10
6.9369528
20
93.1223211
11
6.5032389
21
91.9529
0
LINE
8
DEFAULT_255_1_234
10
6.5032389
20
91.9529
11
6.3666994
21
91.9529
0
LINE
8
DEFAULT_255_1_234
10
6.3666994
20
91.9529
11
5.9337887
21
93.1223211
0
LINE
8
DEFAULT_255_1_234
10
5.9337887
20
93.1223211
11
6.101652
21
93.1223211
0
LINE
8
DEFAULT_255_1_234
10
4.802523
20
5.0114663
11
4.9575355
21
5.0114663
0
LINE
8
DEFAULT_255_1_234
10
4.0571777
20
5.1704947
11
4.0571777
21
5.2829391
0
LINE
8
DEFAULT_255_1_234
10
4.9575355
20
5.4339357
11
4.802523
21
5.4339357
0
LINE
8
DEFAULT_255_1_234
10
4.2121902
20
5.2789232
11
4.2121902
21
5.1656757
0
ARC
8
DEFAULT_255_1_234
10
4.4094742
20
5.0711846
40
0.5513052
50
340.1774281
51
353.7814284
0
ARC
8
DEFAULT_255_1_234
10
4.5666095
20
5.0126582
40
0.3836379
50
311.4558989
51
340.4421614
0
ARC
8
DEFAULT_255_1_234
10
4.5632763
20
5.0237528
40
0.3941894
50
282.4333181
51
310.7513653
0
ARC
8
DEFAULT_255_1_234
10
4.5193502
20
5.2052679
40
0.5809175
50
269.9358511
51
282.809604
0
ARC
8
DEFAULT_255_1_234
10
4.5141568
20
5.3510212
40
0.7266847
50
270.0021091
51
270.3581957
0
ARC
8
DEFAULT_255_1_234
10
4.5088985
20
5.0909585
40
0.4666519
50
250.7884749
51
270.6489167
0
ARC
8
DEFAULT_255_1_234
10
4.492082
20
5.0272319
40
0.4009729
50
219.3627325
51
250.0611886
0
ARC
8
DEFAULT_255_1_234
10
4.5750031
20
5.0977042
40
0.5097822
50
193.5479632
51
219.5756669
0
ARC
8
DEFAULT_255_1_234
10
4.8121652
20
5.1592919
40
0.7547848
50
181.1218675
51
193.87563
0
ARC
8
DEFAULT_255_1_234
10
5.0191833
20
5.170358
40
0.9620055
50
179.9918545
51
181.5394234
0
ARC
8
DEFAULT_255_1_234
10
4.8340935
20
5.2866788
40
0.7769248
50
169.5837241
51
180.2757934
0
ARC
8
DEFAULT_255_1_234
10
4.6503873
20
5.3206229
40
0.590109
50
155.0365899
51
169.6003176
0
ARC
8
DEFAULT_255_1_234
10
4.5368337
20
5.3753677
40
0.4640625
50
136.783148
51
155.2472683
0
ARC
8
DEFAULT_255_1_234
10
4.4978814
20
5.4084562
40
0.4130255
50
121.7633186
51
136.428115
0
ARC
8
DEFAULT_255_1_234
10
4.5113776
20
5.3835227
40
0.4413323
50
95.6459699
51
121.5490577
0
ARC
8
DEFAULT_255_1_234
10
4.5271058
20
5.2726949
40
0.55319
50
89.924208
51
96.1377933
0
ARC
8
DEFAULT_255_1_234
10
4.5321491
20
5.2845542
40
0.5413475
50
76.6779277
51
90.4563316
0
ARC
8
DEFAULT_255_1_234
10
4.5715114
20
5.4436114
40
0.3775041
50
47.485847
51
76.9287264
0
ARC
8
DEFAULT_255_1_234
10
4.5568087
20
5.4336159
40
0.3948286
50
16.5424086
51
46.8933463
0
ARC
8
DEFAULT_255_1_234
10
4.3960244
20
5.3807861
40
0.564021
50
5.4072051
51
17.0365086
0
ARC
8
DEFAULT_255_1_234
10
4.2521261
20
5.3576679
40
0.5556559
50
7.8891745
51
15.9239216
0
ARC
8
DEFAULT_255_1_234
10
4.4508274
20
5.4153631
40
0.3487515
50
15.7653144
51
27.9410532
0
ARC
8
DEFAULT_255_1_234
10
4.5612492
20
5.474479
40
0.2235026
50
27.8166557
51
46.4008329
0
ARC
8
DEFAULT_255_1_234
10
4.5662135
20
5.4739082
40
0.2205286
50
47.4371857
51
75.0698205
0
ARC
8
DEFAULT_255_1_234
10
4.5353529
20
5.3664765
40
0.3322915
50
74.7008593
51
87.8124495
0
ARC
8
DEFAULT_255_1_234
10
4.5280217
20
5.2608844
40
0.4380987
50
87.3814673
51
90.0240855
0
ARC
8
DEFAULT_255_1_234
10
4.524176
20
5.3786291
40
0.3203749
50
89.3451631
51
108.5745436
0
ARC
8
DEFAULT_255_1_234
10
4.5104865
20
5.4299908
40
0.2673494
50
109.2998449
51
143.3037509
0
ARC
8
DEFAULT_255_1_234
10
4.5866938
20
5.3713881
40
0.3634757
50
143.0753173
51
163.1916937
0
ARC
8
DEFAULT_255_1_234
10
4.7818666
20
5.3097967
40
0.5681262
50
162.9373603
51
174.6208611
0
ARC
8
DEFAULT_255_1_234
10
5.0444708
20
5.281001
40
0.8322832
50
174.3419979
51
180.1430411
0
ARC
8
DEFAULT_255_1_234
10
4.9513864
20
5.1615698
40
0.7392076
50
179.6817502
51
189.150529
0
ARC
8
DEFAULT_255_1_234
10
4.7013112
20
5.119919
40
0.4856932
50
188.9910863
51
203.5773039
0
ARC
8
DEFAULT_255_1_234
10
4.5933445
20
5.0751211
40
0.3688271
50
203.9077269
51
215.1312379
0
ARC
8
DEFAULT_255_1_234
10
4.5010539
20
5.0035941
40
0.2522457
50
213.9071664
51
263.8849284
0
ARC
8
DEFAULT_255_1_234
10
4.5135868
20
5.0820518
40
0.3316174
50
263.1758525
51
270.1031083
0
ARC
8
DEFAULT_255_1_234
10
4.516796
20
5.2067365
40
0.4563091
50
269.6719807
51
279.0609165
0
ARC
8
DEFAULT_255_1_234
10
4.5434728
20
5.0454907
40
0.2928759
50
278.8750225
51
293.6346586
0
ARC
8
DEFAULT_255_1_234
10
4.5754936
20
4.97029
40
0.2111472
50
293.8553404
51
310.0518804
0
ARC
8
DEFAULT_255_1_234
10
4.575979
20
4.9640516
40
0.2060917
50
311.0646779
51
332.0108348
0
ARC
8
DEFAULT_255_1_234
10
4.4567517
20
5.0297978
40
0.3422352
50
331.6588543
51
343.2878891
0
ARC
8
DEFAULT_255_1_234
10
4.2505032
20
5.0931798
40
0.5580003
50
343.1446044
51
351.010618
0
ARC
8
DEFAULT_255_1_234
10
4.0963678
20
5.1212871
40
0.7146438
50
350.7157277
51
351.1602153
0
LINE
8
DEFAULT_255_1_234
10
5.6177444
20
5.8154433
11
5.6177444
21
4.6404
0
LINE
8
DEFAULT_255_1_234
10
5.6177444
20
4.6404
11
5.4683541
21
4.6404
0
LINE
8
DEFAULT_255_1_234
10
5.4683541
20
4.6404
11
5.4683541
21
5.6307133
0
LINE
8
DEFAULT_255_1_234
10
5.4683541
20
5.6307133
11
5.1687703
21
5.5206785
0
LINE
8
DEFAULT_255_1_234
10
5.1687703
20
5.5206785
11
5.1687703
21
5.6556117
0
LINE
8
DEFAULT_255_1_234
10
5.1687703
20
5.6556117
11
5.5944524
21
5.8154433
0
LINE
8
DEFAULT_255_1_234
10
5.5944524
20
5.8154433
11
5.6177444
21
5.8154433
0
LINE
8
DEFAULT_255_1_234
10
4.7542674
20
13.7473211
11
4.7542674
21
13.663791
0
LINE
8
DEFAULT_255_1_234
10
4.7542674
20
13.663791
11
4.2699536
21
12.5779
0
LINE
8
DEFAULT_255_1_234
10
4.2699536
20
12.5779
11
4.1141379
21
12.5779
0
LINE
8
DEFAULT_255_1_234
10
4.1141379
20
12.5779
11
4.5968454
21
13.6252387
0
LINE
8
DEFAULT_255_1_234
10
4.5968454
20
13.6252387
11
3.9639444
21
13.6252387
0
LINE
8
DEFAULT_255_1_234
10
3.9639444
20
13.6252387
11
3.9639444
21
13.7473211
0
LINE
8
DEFAULT_255_1_234
10
3.9639444
20
13.7473211
11
4.7542674
21
13.7473211
0
LINE
8
DEFAULT_255_1_234
10
4.5558835
20
21.6856243
11
4.5823882
21
21.6856243
0
LINE
8
DEFAULT_255_1_234
10
4.5823882
20
21.6856243
11
4.5823882
21
21.559526
0
LINE
8
DEFAULT_255_1_234
10
4.5823882
20
21.559526
11
4.5550803
21
21.559526
0
LINE
8
DEFAULT_255_1_234
10
4.0081189
20
20.9603583
11
4.0081189
21
21.0173836
0
LINE
8
DEFAULT_255_1_234
10
4.1575093
20
20.9981075
11
4.1575093
21
20.9434917
0
ARC
8
DEFAULT_255_1_234
10
4.5603151
20
21.0597455
40
0.4998079
50
90.6001036
51
104.514704
0
ARC
8
DEFAULT_255_1_234
10
4.5214667
20
21.2042131
40
0.3502176
50
104.2855254
51
133.862935
0
ARC
8
DEFAULT_255_1_234
10
4.5378424
20
21.193383
40
0.3693984
50
134.5302688
51
161.6210873
0
ARC
8
DEFAULT_255_1_234
10
4.7031613
20
21.1350895
40
0.5446739
50
161.2849839
51
174.2076652
0
ARC
8
DEFAULT_255_1_234
10
4.843855
20
21.1156787
40
0.6866274
50
173.7810589
51
174.9254635
0
ARC
8
DEFAULT_255_1_234
10
4.3888382
20
20.9773839
40
0.3033419
50
95.8330959
51
138.9954921
0
ARC
8
DEFAULT_255_1_234
10
4.4111738
20
20.8495375
40
0.4328947
50
89.8753725
51
97.0544009
0
ARC
8
DEFAULT_255_1_234
10
4.4159204
20
20.9330748
40
0.3493769
50
71.6407809
51
90.6240094
0
ARC
8
DEFAULT_255_1_234
10
4.4309777
20
20.9885082
40
0.2920396
50
39.6367836
51
71.019018
0
ARC
8
DEFAULT_255_1_234
10
4.367325
20
20.9334998
40
0.3761538
50
10.658731
51
39.9043955
0
ARC
8
DEFAULT_255_1_234
10
4.2125333
20
20.8998686
40
0.5345136
50
359.682601
51
11.132623
0
ARC
8
DEFAULT_255_1_234
10
4.2085464
20
20.892801
40
0.5385081
50
347.2486944
51
0.4369317
0
ARC
8
DEFAULT_255_1_234
10
4.3752941
20
20.8526807
40
0.3670249
50
318.1409698
51
347.6118597
0
ARC
8
DEFAULT_255_1_234
10
4.4077934
20
20.8259702
40
0.3250007
50
275.6342139
51
317.8248465
0
ARC
8
DEFAULT_255_1_234
10
4.3857045
20
20.9559219
40
0.4565864
50
269.8874292
51
276.7917694
0
ARC
8
DEFAULT_255_1_234
10
4.3802116
20
20.8533743
40
0.3540676
50
246.9140195
51
270.7437342
0
ARC
8
DEFAULT_255_1_234
10
4.3808506
20
20.8391384
40
0.3412781
50
218.1665114
51
245.878116
0
ARC
8
DEFAULT_255_1_234
10
4.4687967
20
20.9127279
40
0.455911
50
191.4115814
51
218.6077802
0
ARC
8
DEFAULT_255_1_234
10
4.6626056
20
20.9561833
40
0.6545001
50
179.6345085
51
191.7836486
0
ARC
8
DEFAULT_255_1_234
10
5.2208393
20
21.0240697
40
1.2127388
50
171.4525249
51
180.3158839
0
ARC
8
DEFAULT_255_1_234
10
4.7813269
20
21.0924608
40
0.7679464
50
157.9802646
51
171.6246686
0
ARC
8
DEFAULT_255_1_234
10
4.559929
20
21.1807421
40
0.5296008
50
141.4298019
51
157.854097
0
ARC
8
DEFAULT_255_1_234
10
4.495761
20
21.2261381
40
0.4511509
50
102.8715806
51
140.8564722
0
ARC
8
DEFAULT_255_1_234
10
4.5605226
20
20.9821552
40
0.7034845
50
90.3778349
51
103.5869322
0
ARC
8
DEFAULT_255_1_234
10
4.3867002
20
20.921673
40
0.2370698
50
89.8751008
51
126.2071704
0
ARC
8
DEFAULT_255_1_234
10
4.3912792
20
20.9062303
40
0.2522934
50
124.9745049
51
144.895901
0
ARC
8
DEFAULT_255_1_234
10
4.3736982
20
20.920556
40
0.2296779
50
145.2974905
51
160.2660252
0
ARC
8
DEFAULT_255_1_234
10
4.6809521
20
20.9403071
40
0.5234525
50
179.6514266
51
190.2855912
0
ARC
8
DEFAULT_255_1_234
10
4.5115658
20
20.9083786
40
0.3510893
50
190.0945431
51
207.5098196
0
ARC
8
DEFAULT_255_1_234
10
4.4549928
20
20.8814623
40
0.288489
50
207.9583163
51
216.3251085
0
ARC
8
DEFAULT_255_1_234
10
4.4210036
20
20.8535105
40
0.2445587
50
215.7661442
51
232.5456785
0
ARC
8
DEFAULT_255_1_234
10
4.3827019
20
20.8048482
40
0.1826382
50
232.8005391
51
270.6605633
0
ARC
8
DEFAULT_255_1_234
10
4.387272
20
20.8412612
40
0.2190529
50
269.35537
51
288.4744281
0
ARC
8
DEFAULT_255_1_234
10
4.3965617
20
20.8063118
40
0.1829749
50
289.1833337
51
322.9683818
0
ARC
8
DEFAULT_255_1_234
10
4.3354139
20
20.8545391
40
0.2608399
50
322.6007884
51
346.5182367
0
ARC
8
DEFAULT_255_1_234
10
4.2196735
20
20.8840616
40
0.3802777
50
346.2582162
51
358.7741648
0
ARC
8
DEFAULT_255_1_234
10
4.1178404
20
20.8895965
40
0.4822176
50
358.3755224
51
0.0098023
0
ARC
8
DEFAULT_255_1_234
10
4.1934591
20
20.8923657
40
0.4066078
50
359.6214041
51
11.2839074
0
ARC
8
DEFAULT_255_1_234
10
4.3211738
20
20.9190066
40
0.2761514
50
11.0482309
51
31.8146458
0
ARC
8
DEFAULT_255_1_234
10
4.3520781
20
20.9357584
40
0.2410679
50
32.3035391
51
38.082671
0
ARC
8
DEFAULT_255_1_234
10
4.3941441
20
20.9738662
40
0.1844966
50
36.825067
51
85.7415724
0
ARC
8
DEFAULT_255_1_234
10
4.3874274
20
20.9238301
40
0.2349122
50
85.0140713
51
90.0513278
0
LINE
8
DEFAULT_255_1_234
10
4.1864235
20
29.0086963
11
4.0675538
21
29.0392169
0
LINE
8
DEFAULT_255_1_234
10
4.0675538
20
29.0392169
11
4.1269887
21
29.6223211
0
LINE
8
DEFAULT_255_1_234
10
4.1269887
20
29.6223211
11
4.7261563
21
29.6223211
0
LINE
8
DEFAULT_255_1_234
10
4.7261563
20
29.6223211
11
4.7261563
21
29.4849784
0
LINE
8
DEFAULT_255_1_234
10
4.7261563
20
29.4849784
11
4.253087
21
29.4849784
0
LINE
8
DEFAULT_255_1_234
10
4.253087
20
29.4849784
11
4.2177473
21
29.1661184
0
LINE
8
DEFAULT_255_1_234
10
4.0257888
20
28.7605156
11
4.1663442
21
28.7605156
0
LINE
8
DEFAULT_255_1_234
10
4.2257791
20
29.0408232
11
4.1864235
21
29.0086963
0
ARC
8
DEFAULT_255_1_234
10
4.4032257
20
28.848123
40
0.3681349
50
93.7182161
51
120.2538958
0
ARC
8
DEFAULT_255_1_234
10
4.412652
20
28.7673394
40
0.449379
50
89.9660152
51
94.2496022
0
ARC
8
DEFAULT_255_1_234
10
4.4167254
20
28.8262549
40
0.390482
50
73.8043271
51
90.5585896
0
ARC
8
DEFAULT_255_1_234
10
4.4402151
20
28.9120602
40
0.3015334
50
41.3071453
51
73.5430202
0
ARC
8
DEFAULT_255_1_234
10
4.3985978
20
28.8762324
40
0.3564457
50
13.5075983
51
41.2174222
0
ARC
8
DEFAULT_255_1_234
10
4.2344182
20
28.8332486
40
0.5261351
50
1.1331335
51
13.8829381
0
ARC
8
DEFAULT_255_1_234
10
4.0932551
20
28.8256665
40
0.6674378
50
359.9919444
51
1.544251
0
ARC
8
DEFAULT_255_1_234
10
4.2209377
20
28.821528
40
0.5397702
50
347.8572367
51
0.4293338
0
ARC
8
DEFAULT_255_1_234
10
4.3959695
20
28.7818736
40
0.3603188
50
323.673004
51
348.1672506
0
ARC
8
DEFAULT_255_1_234
10
4.4254203
20
28.7639168
40
0.3259678
50
316.8171152
51
323.1492751
0
ARC
8
DEFAULT_255_1_234
10
4.4315392
20
28.760246
40
0.3189975
50
281.8396411
51
316.5457803
0
ARC
8
DEFAULT_255_1_234
10
4.3939656
20
28.9157762
40
0.4789527
50
269.5770101
51
282.4214771
0
ARC
8
DEFAULT_255_1_234
10
4.3868467
20
28.8944125
40
0.45759
50
256.2427136
51
270.4486331
0
ARC
8
DEFAULT_255_1_234
10
4.356937
20
28.7744229
40
0.3339303
50
228.9023911
51
256.3314342
0
ARC
8
DEFAULT_255_1_234
10
4.3495602
20
28.7627746
40
0.32031
50
193.753695
51
228.5271154
0
ARC
8
DEFAULT_255_1_234
10
4.4733556
20
28.79908
40
0.4492253
50
184.924711
51
194.497588
0
ARC
8
DEFAULT_255_1_234
10
4.4926123
20
28.8026591
40
0.3289787
50
187.3600538
51
198.6732863
0
ARC
8
DEFAULT_255_1_234
10
4.3876417
20
28.7662674
40
0.217884
50
198.4451669
51
217.794479
0
ARC
8
DEFAULT_255_1_234
10
4.3580592
20
28.7453085
40
0.1816698
50
218.2887171
51
228.5612368
0
ARC
8
DEFAULT_255_1_234
10
4.3678379
20
28.7584963
40
0.1980329
50
228.9654866
51
258.1234728
0
ARC
8
DEFAULT_255_1_234
10
4.3884089
20
28.8465833
40
0.2884748
50
257.7258293
51
270.401361
0
ARC
8
DEFAULT_255_1_234
10
4.3928975
20
28.8020821
40
0.2439788
50
269.4204404
51
286.4209037
0
ARC
8
DEFAULT_255_1_234
10
4.4077463
20
28.7481657
40
0.1880666
50
286.7251356
51
320.600362
0
ARC
8
DEFAULT_255_1_234
10
4.3694288
20
28.7792595
40
0.2374121
50
320.6712579
51
344.5441685
0
ARC
8
DEFAULT_255_1_234
10
4.2537614
20
28.8132045
40
0.3579479
50
344.2412205
51
356.7357071
0
ARC
8
DEFAULT_255_1_234
10
4.1288763
20
28.8235444
40
0.4832297
50
356.3548756
51
0.0500261
0
ARC
8
DEFAULT_255_1_234
10
4.2625272
20
28.826665
40
0.3495889
50
359.5576869
51
12.953486
0
ARC
8
DEFAULT_255_1_234
10
4.3680169
20
28.8522434
40
0.2410532
50
12.6490276
51
41.6081334
0
ARC
8
DEFAULT_255_1_234
10
4.391054
20
28.8718321
40
0.2108218
50
41.7850273
51
85.9892764
0
ARC
8
DEFAULT_255_1_234
10
4.3787277
20
28.7905462
40
0.2928454
50
84.6957577
51
90.0676183
0
ARC
8
DEFAULT_255_1_234
10
4.3763761
20
28.7236716
40
0.3597255
50
89.6804936
51
99.1614436
0
ARC
8
DEFAULT_255_1_234
10
4.3558392
20
28.8464131
40
0.235281
50
98.9830931
51
113.8908934
0
ARC
8
DEFAULT_255_1_234
10
4.3328802
20
28.9005587
40
0.176479
50
114.1950727
51
127.3641004
0
LINE
8
DEFAULT_255_1_234
10
4.8381628
20
37.5598211
11
4.8381628
21
36.783152
0
LINE
8
DEFAULT_255_1_234
10
4.8381628
20
36.783152
11
5.0004039
21
36.783152
0
LINE
8
DEFAULT_255_1_234
10
5.0004039
20
36.783152
11
5.0004039
21
36.6618728
0
LINE
8
DEFAULT_255_1_234
10
5.0004039
20
36.6618728
11
4.8381628
21
36.6618728
0
LINE
8
DEFAULT_255_1_234
10
4.8381628
20
36.6618728
11
4.8381628
21
36.3904
0
LINE
8
DEFAULT_255_1_234
10
4.8381628
20
36.3904
11
4.6887725
21
36.3904
0
LINE
8
DEFAULT_255_1_234
10
4.6887725
20
36.3904
11
4.6887725
21
36.6618728
0
LINE
8
DEFAULT_255_1_234
10
4.6887725
20
36.6618728
11
4.1562682
21
36.6618728
0
LINE
8
DEFAULT_255_1_234
10
4.1562682
20
36.6618728
11
4.1562682
21
36.7494187
0
LINE
8
DEFAULT_255_1_234
10
4.1562682
20
36.7494187
11
4.6799375
21
37.5598211
0
LINE
8
DEFAULT_255_1_234
10
4.6799375
20
37.5598211
11
4.8381628
21
37.5598211
0
LINE
8
DEFAULT_255_1_234
10
4.6711026
20
37.3244912
11
4.3249347
21
36.783152
0
LINE
8
DEFAULT_255_1_234
10
4.3249347
20
36.783152
11
4.6887725
21
36.783152
0
LINE
8
DEFAULT_255_1_234
10
4.6887725
20
36.783152
11
4.6887725
21
37.3566181
0
LINE
8
DEFAULT_255_1_234
10
4.6887725
20
37.3566181
11
4.6711026
21
37.3244912
0
LINE
8
DEFAULT_255_1_234
10
4.811623
20
44.6989663
11
4.9666355
21
44.6989663
0
LINE
8
DEFAULT_255_1_234
10
4.0662777
20
44.8579947
11
4.0662777
21
44.9704391
0
LINE
8
DEFAULT_255_1_234
10
4.9666355
20
45.1214357
11
4.811623
21
45.1214357
0
LINE
8
DEFAULT_255_1_234
10
4.2212902
20
44.9664232
11
4.2212902
21
44.8531757
0
ARC
8
DEFAULT_255_1_234
10
4.4185742
20
44.7586846
40
0.5513052
50
340.1774281
51
353.7814284
0
ARC
8
DEFAULT_255_1_234
10
4.5757095
20
44.7001582
40
0.3836379
50
311.4558989
51
340.4421614
0
ARC
8
DEFAULT_255_1_234
10
4.5723763
20
44.7112528
40
0.3941894
50
282.4333181
51
310.7513653
0
ARC
8
DEFAULT_255_1_234
10
4.5284502
20
44.8927679
40
0.5809175
50
269.9358511
51
282.809604
0
ARC
8
DEFAULT_255_1_234
10
4.5232568
20
45.0385212
40
0.7266847
50
270.0021091
51
270.3581957
0
ARC
8
DEFAULT_255_1_234
10
4.5179985
20
44.7784585
40
0.4666519
50
250.7884749
51
270.6489167
0
ARC
8
DEFAULT_255_1_234
10
4.501182
20
44.7147319
40
0.4009729
50
219.3627325
51
250.0611886
0
ARC
8
DEFAULT_255_1_234
10
4.5841031
20
44.7852042
40
0.5097822
50
193.5479632
51
219.5756669
0
ARC
8
DEFAULT_255_1_234
10
4.8212652
20
44.8467919
40
0.7547848
50
181.1218675
51
193.87563
0
ARC
8
DEFAULT_255_1_234
10
5.0282833
20
44.857858
40
0.9620055
50
179.9918545
51
181.5394234
0
ARC
8
DEFAULT_255_1_234
10
4.8431935
20
44.9741788
40
0.7769248
50
169.5837241
51
180.2757934
0
ARC
8
DEFAULT_255_1_234
10
4.6594873
20
45.0081229
40
0.590109
50
155.0365899
51
169.6003176
0
ARC
8
DEFAULT_255_1_234
10
4.5459337
20
45.0628677
40
0.4640625
50
136.783148
51
155.2472683
0
ARC
8
DEFAULT_255_1_234
10
4.5069814
20
45.0959562
40
0.4130255
50
121.7633186
51
136.428115
0
ARC
8
DEFAULT_255_1_234
10
4.5204776
20
45.0710227
40
0.4413323
50
95.6459699
51
121.5490577
0
ARC
8
DEFAULT_255_1_234
10
4.5362058
20
44.9601949
40
0.55319
50
89.924208
51
96.1377933
0
ARC
8
DEFAULT_255_1_234
10
4.5412491
20
44.9720542
40
0.5413475
50
76.6779277
51
90.4563316
0
ARC
8
DEFAULT_255_1_234
10
4.5806114
20
45.1311114
40
0.3775041
50
47.485847
51
76.9287264
0
ARC
8
DEFAULT_255_1_234
10
4.5659087
20
45.1211159
40
0.3948286
50
16.5424086
51
46.8933463
0
ARC
8
DEFAULT_255_1_234
10
4.4051244
20
45.0682861
40
0.564021
50
5.4072051
51
17.0365086
0
ARC
8
DEFAULT_255_1_234
10
4.2612261
20
45.0451679
40
0.5556559
50
7.8891745
51
15.9239216
0
ARC
8
DEFAULT_255_1_234
10
4.4599274
20
45.1028631
40
0.3487515
50
15.7653144
51
27.9410532
0
ARC
8
DEFAULT_255_1_234
10
4.5703492
20
45.161979
40
0.2235026
50
27.8166557
51
46.4008329
0
ARC
8
DEFAULT_255_1_234
10
4.5753135
20
45.1614082
40
0.2205286
50
47.4371857
51
75.0698205
0
ARC
8
DEFAULT_255_1_234
10
4.5444529
20
45.0539765
40
0.3322915
50
74.7008593
51
87.8124495
0
ARC
8
DEFAULT_255_1_234
10
4.5371217
20
44.9483844
40
0.4380987
50
87.3814673
51
90.0240855
0
ARC
8
DEFAULT_255_1_234
10
4.533276
20
45.0661291
40
0.3203749
50
89.3451631
51
108.5745436
0
ARC
8
DEFAULT_255_1_234
10
4.5195865
20
45.1174908
40
0.2673494
50
109.2998449
51
143.3037509
0
ARC
8
DEFAULT_255_1_234
10
4.5957938
20
45.0588881
40
0.3634757
50
143.0753173
51
163.1916937
0
ARC
8
DEFAULT_255_1_234
10
4.7909666
20
44.9972967
40
0.5681262
50
162.9373603
51
174.6208611
0
ARC
8
DEFAULT_255_1_234
10
5.0535708
20
44.968501
40
0.8322832
50
174.3419979
51
180.1430411
0
ARC
8
DEFAULT_255_1_234
10
4.9604864
20
44.8490698
40
0.7392076
50
179.6817502
51
189.150529
0
ARC
8
DEFAULT_255_1_234
10
4.7104112
20
44.807419
40
0.4856932
50
188.9910863
51
203.5773039
0
ARC
8
DEFAULT_255_1_234
10
4.6024445
20
44.7626211
40
0.3688271
50
203.9077269
51
215.1312379
0
ARC
8
DEFAULT_255_1_234
10
4.5101539
20
44.6910941
40
0.2522457
50
213.9071664
51
263.8849284
0
ARC
8
DEFAULT_255_1_234
10
4.5226868
20
44.7695518
40
0.3316174
50
263.1758525
51
270.1031083
0
ARC
8
DEFAULT_255_1_234
10
4.525896
20
44.8942365
40
0.4563091
50
269.6719807
51
279.0609165
0
ARC
8
DEFAULT_255_1_234
10
4.5525728
20
44.7329907
40
0.2928759
50
278.8750225
51
293.6346586
0
ARC
8
DEFAULT_255_1_234
10
4.5845936
20
44.65779
40
0.2111472
50
293.8553404
51
310.0518804
0
ARC
8
DEFAULT_255_1_234
10
4.585079
20
44.6515516
40
0.2060917
50
311.0646779
51
332.0108348
0
ARC
8
DEFAULT_255_1_234
10
4.4658517
20
44.7172978
40
0.3422352
50
331.6588543
51
343.2878891
0
ARC
8
DEFAULT_255_1_234
10
4.2596032
20
44.7806798
40
0.5580003
50
343.1446044
51
351.010618
0
ARC
8
DEFAULT_255_1_234
10
4.1054678
20
44.8087871
40
0.7146438
50
350.7157277
51
351.1602153
0
LINE
8
DEFAULT_255_1_234
10
5.8718125
20
45.0194327
11
5.8718125
21
44.8266709
0
LINE
8
DEFAULT_255_1_234
10
5.1336957
20
44.8065916
11
5.1336957
21
45.0049755
0
LINE
8
DEFAULT_255_1_234
10
5.7232253
20
44.7865123
11
5.7232253
21
45.0298739
0
LINE
8
DEFAULT_255_1_234
10
5.2822829
20
45.0411184
11
5.2822829
21
44.8033789
0
ARC
8
DEFAULT_255_1_234
10
4.6471014
20
44.8217805
40
1.2247208
50
353.8441951
51
0.2287902
0
ARC
8
DEFAULT_255_1_234
10
5.1110518
20
44.7699806
40
0.7578929
50
344.4934747
51
353.9765454
0
ARC
8
DEFAULT_255_1_234
10
5.4103108
20
44.6848981
40
0.4467846
50
329.2803592
51
344.7472793
0
ARC
8
DEFAULT_255_1_234
10
5.5095933
20
44.6304018
40
0.3336173
50
324.9352394
51
328.6160465
0
ARC
8
DEFAULT_255_1_234
10
5.5473042
20
44.6040427
40
0.2876076
50
280.580143
51
324.9173126
0
ARC
8
DEFAULT_255_1_234
10
5.5071834
20
44.7711099
40
0.4592847
50
269.5977311
51
281.6734359
0
ARC
8
DEFAULT_255_1_234
10
5.499974
20
44.7591173
40
0.4472986
50
256.6228859
51
270.51044
0
ARC
8
DEFAULT_255_1_234
10
5.4597718
20
44.6042877
40
0.2873874
50
215.8618325
51
257.2788573
0
ARC
8
DEFAULT_255_1_234
10
5.5618749
20
44.6727977
40
0.4102928
50
197.9693508
51
215.2623606
0
ARC
8
DEFAULT_255_1_234
10
5.8103865
20
44.7566709
40
0.6725652
50
187.8816417
51
198.2346507
0
ARC
8
DEFAULT_255_1_234
10
6.2062073
20
44.8138079
40
1.0724845
50
180.8976217
51
188.0055519
0
ARC
8
DEFAULT_255_1_234
10
6.4862261
20
44.8241777
40
1.3526448
50
180.7449369
51
181.1510016
0
ARC
8
DEFAULT_255_1_234
10
6.328499
20
45.0098042
40
1.1948131
50
173.7675579
51
180.231553
0
ARC
8
DEFAULT_255_1_234
10
5.8767137
20
45.0608666
40
0.7401564
50
164.3058563
51
173.9002247
0
ARC
8
DEFAULT_255_1_234
10
5.5855206
20
45.1447656
40
0.4371288
50
148.7922025
51
164.568378
0
ARC
8
DEFAULT_255_1_234
10
5.4903658
20
45.1978929
40
0.3282386
50
144.5883898
51
148.1176286
0
ARC
8
DEFAULT_255_1_234
10
5.4560556
20
45.2218315
40
0.2864044
50
101.6440918
51
144.514236
0
ARC
8
DEFAULT_255_1_234
10
5.4985623
20
45.0529069
40
0.4604934
50
89.5284041
51
102.5819763
0
ARC
8
DEFAULT_255_1_234
10
5.506471
20
45.0490018
40
0.464401
50
77.0437873
51
90.5081339
0
ARC
8
DEFAULT_255_1_234
10
5.5466712
20
45.2132615
40
0.2953195
50
48.2778575
51
77.4994676
0
ARC
8
DEFAULT_255_1_234
10
5.5539343
20
45.2261746
40
0.2808655
50
36.3142134
51
47.6305865
0
ARC
8
DEFAULT_255_1_234
10
5.467065
20
45.1676515
40
0.3855453
50
18.2931786
51
35.6769206
0
ARC
8
DEFAULT_255_1_234
10
5.2127409
20
45.0803593
40
0.654423
50
8.024666
51
18.5605216
0
ARC
8
DEFAULT_255_1_234
10
4.7964329
20
45.0188792
40
1.0752407
50
1.1274072
51
8.1718305
0
ARC
8
DEFAULT_255_1_234
10
4.472852
20
45.0061885
40
1.3990231
50
0.5424119
51
1.3863029
0
ARC
8
DEFAULT_255_1_234
10
4.6549898
20
45.0334342
40
1.0682415
50
359.8090433
51
4.9407866
0
ARC
8
DEFAULT_255_1_234
10
5.0759912
20
45.0710113
40
0.6455691
50
4.8362157
51
12.2904523
0
ARC
8
DEFAULT_255_1_234
10
5.3515026
20
45.1323965
40
0.3633074
50
12.0805627
51
23.8173984
0
ARC
8
DEFAULT_255_1_234
10
5.4688732
20
45.1820919
40
0.2358723
50
24.2871213
51
31.3935614
0
ARC
8
DEFAULT_255_1_234
10
5.5213429
20
45.2164233
40
0.1732111
50
30.7407893
51
82.4657128
0
ARC
8
DEFAULT_255_1_234
10
5.5033563
20
45.1280691
40
0.263235
50
81.1060089
51
90.2184952
0
ARC
8
DEFAULT_255_1_234
10
5.4997862
20
45.1538924
40
0.2374236
50
89.3806855
51
105.6762551
0
ARC
8
DEFAULT_255_1_234
10
5.4814493
20
45.2205567
40
0.1682847
50
105.7981136
51
149.7388061
0
ARC
8
DEFAULT_255_1_234
10
5.5878571
20
45.156595
40
0.2924306
50
149.4208916
51
163.6286378
0
ARC
8
DEFAULT_255_1_234
10
5.7969459
20
45.092825
40
0.5110213
50
163.3763315
51
172.1410975
0
ARC
8
DEFAULT_255_1_234
10
6.1270178
20
45.0455518
40
0.8444586
50
172.0259487
51
178.0703232
0
ARC
8
DEFAULT_255_1_234
10
6.4300268
20
45.0311906
40
1.1477868
50
177.8631668
51
179.5044149
0
ARC
8
DEFAULT_255_1_234
10
6.3227672
20
44.7997389
40
1.0404907
50
179.7995573
51
185.2460446
0
ARC
8
DEFAULT_255_1_234
10
5.9184711
20
44.7614513
40
0.6343885
50
185.1411642
51
193.0079639
0
ARC
8
DEFAULT_255_1_234
10
5.6541184
20
44.6989641
40
0.3627568
50
192.7897626
51
205.2507664
0
ARC
8
DEFAULT_255_1_234
10
5.5494731
20
44.6522415
40
0.2481908
50
205.8005384
51
211.2537509
0
ARC
8
DEFAULT_255_1_234
10
5.4971171
20
44.617158
40
0.1852521
50
210.3789793
51
238.4008143
0
ARC
8
DEFAULT_255_1_234
10
5.4951693
20
44.6218376
40
0.1882621
50
239.6520629
51
265.9793761
0
ARC
8
DEFAULT_255_1_234
10
5.5036893
20
44.6890427
40
0.2559272
50
265.1315437
51
270.060332
0
ARC
8
DEFAULT_255_1_234
10
5.5065672
20
44.6566534
40
0.2235528
50
269.3314664
51
287.2178029
0
ARC
8
DEFAULT_255_1_234
10
5.5203524
20
44.6063279
40
0.1714108
50
287.7958004
51
329.080874
0
ARC
8
DEFAULT_255_1_234
10
5.4245981
20
44.666093
40
0.2842745
50
328.6634704
51
343.3325132
0
ARC
8
DEFAULT_255_1_234
10
5.2073001
20
44.7337863
40
0.5118644
50
343.0499468
51
351.9393422
0
ARC
8
DEFAULT_255_1_234
10
4.8606301
20
44.7848949
40
0.8622784
50
351.8069023
51
357.7959224
0
ARC
8
DEFAULT_255_1_234
10
4.5370857
20
44.8016721
40
1.1862365
50
357.5871873
51
359.2677531
0
LINE
8
DEFAULT_255_1_234
10
4.2153378
20
52.8011169
11
4.2153378
21
52.9223962
0
LINE
8
DEFAULT_255_1_234
10
4.2153378
20
52.9223962
11
4.326979
21
52.9223962
0
LINE
8
DEFAULT_255_1_234
10
4.1366268
20
53.1280087
11
3.9880396
21
53.1280087
0
LINE
8
DEFAULT_255_1_234
10
3.9775983
20
52.5738188
11
4.1269887
21
52.5738188
0
LINE
8
DEFAULT_255_1_234
10
4.326979
20
52.8011169
11
4.2153378
21
52.8011169
0
ARC
8
DEFAULT_255_1_234
10
4.3240656
20
53.2616713
40
0.3392876
50
270.4919872
51
281.8951556
0
ARC
8
DEFAULT_255_1_234
10
4.3481918
20
53.1514702
40
0.2264817
50
281.6691735
51
301.2943132
0
ARC
8
DEFAULT_255_1_234
10
4.3652128
20
53.1203304
40
0.1910381
50
301.7833094
51
311.7545298
0
ARC
8
DEFAULT_255_1_234
10
4.3743704
20
53.1101748
40
0.1773635
50
311.7323931
51
354.2802411
0
ARC
8
DEFAULT_255_1_234
10
4.3017329
20
53.1226722
40
0.2509385
50
353.0937916
51
0.1181479
0
ARC
8
DEFAULT_255_1_234
10
4.2556114
20
53.1274386
40
0.2970898
50
359.1805295
51
15.0453146
0
ARC
8
DEFAULT_255_1_234
10
4.3901951
20
53.1666992
40
0.1569564
50
13.9577229
51
77.6713066
0
ARC
8
DEFAULT_255_1_234
10
4.351548
20
53.0281949
40
0.3006298
50
76.1116566
51
90.7026153
0
ARC
8
DEFAULT_255_1_234
10
4.3456318
20
53.0555545
40
0.2732568
50
89.5324876
51
103.531937
0
ARC
8
DEFAULT_255_1_234
10
4.3255762
20
53.1354884
40
0.1908508
50
103.2931773
51
133.5619022
0
ARC
8
DEFAULT_255_1_234
10
4.3211251
20
53.1414375
40
0.1834746
50
133.8349307
51
173.5344437
0
ARC
8
DEFAULT_255_1_234
10
4.3934294
20
53.1286213
40
0.2568033
50
172.5096846
51
180.1366907
0
ARC
8
DEFAULT_255_1_234
10
4.2983188
20
53.1320622
40
0.3103056
50
155.3484492
51
180.7484736
0
ARC
8
DEFAULT_255_1_234
10
4.2934277
20
53.1291846
40
0.3070957
50
131.5744599
51
154.4798489
0
ARC
8
DEFAULT_255_1_234
10
4.3247424
20
53.097531
40
0.3515643
50
96.9875458
51
131.9690667
0
ARC
8
DEFAULT_255_1_234
10
4.3466904
20
52.9729636
40
0.4779224
50
89.8596053
51
97.7825159
0
ARC
8
DEFAULT_255_1_234
10
4.3514967
20
52.9467616
40
0.5041361
50
78.3655447
51
90.4131539
0
ARC
8
DEFAULT_255_1_234
10
4.3872885
20
53.1126887
40
0.3344039
50
56.6229102
51
78.638727
0
ARC
8
DEFAULT_255_1_234
10
4.4087829
20
53.1502805
40
0.2912001
50
47.0253525
51
56.0854072
0
ARC
8
DEFAULT_255_1_234
10
4.4107609
20
53.1542223
40
0.2869704
50
10.9208013
51
46.7778124
0
ARC
8
DEFAULT_255_1_234
10
4.2743675
20
53.1226857
40
0.426899
50
359.6364486
51
11.6087304
0
ARC
8
DEFAULT_255_1_234
10
4.4578519
20
53.1211752
40
0.243409
50
332.3549906
51
359.7179418
0
ARC
8
DEFAULT_255_1_234
10
4.3928121
20
53.1520142
40
0.3153459
50
325.2333722
51
332.8745602
0
ARC
8
DEFAULT_255_1_234
10
4.4080744
20
53.1413828
40
0.2967456
50
292.9802137
51
325.2392345
0
ARC
8
DEFAULT_255_1_234
10
4.3806118
20
53.1947863
40
0.3566604
50
292.5402179
51
293.6924929
0
ARC
8
DEFAULT_255_1_234
10
4.4198714
20
52.5493091
40
0.3307468
50
57.6435486
51
72.8625112
0
ARC
8
DEFAULT_255_1_234
10
4.4553214
20
52.6067549
40
0.2632492
50
36.7248896
51
57.4697979
0
ARC
8
DEFAULT_255_1_234
10
4.4541847
20
52.608022
40
0.2634081
50
8.0545065
51
36.356114
0
ARC
8
DEFAULT_255_1_234
10
4.3679032
20
52.5925174
40
0.3510261
50
359.8320645
51
8.5869982
0
ARC
8
DEFAULT_255_1_234
10
4.3303808
20
52.5877101
40
0.3885653
50
343.9829931
51
0.5571613
0
ARC
8
DEFAULT_255_1_234
10
4.4190005
20
52.5634438
40
0.2966924
50
311.6359546
51
343.7651759
0
ARC
8
DEFAULT_255_1_234
10
4.3811574
20
52.6061102
40
0.3537231
50
279.7829875
51
311.6255694
0
ARC
8
DEFAULT_255_1_234
10
4.3510351
20
52.749828
40
0.5004971
50
269.7286406
51
280.3856417
0
ARC
8
DEFAULT_255_1_234
10
4.3448423
20
52.7456996
40
0.4963778
50
256.6828919
51
270.4412052
0
ARC
8
DEFAULT_255_1_234
10
4.3109719
20
52.6072394
40
0.3538406
50
229.4223008
51
256.8556159
0
ARC
8
DEFAULT_255_1_234
10
4.2695112
20
52.5605736
40
0.2914296
50
181.818294
51
229.6455059
0
ARC
8
DEFAULT_255_1_234
10
4.3735068
20
52.5736496
40
0.3959084
50
179.9755256
51
183.2323064
0
ARC
8
DEFAULT_255_1_234
10
4.3562814
20
52.5716037
40
0.2293034
50
179.4465117
51
196.2869258
0
ARC
8
DEFAULT_255_1_234
10
4.3075222
20
52.5582651
40
0.1787621
50
196.5661473
51
227.705904
0
ARC
8
DEFAULT_255_1_234
10
4.3239317
20
52.5766155
40
0.2033784
50
227.7652068
51
257.8762805
0
ARC
8
DEFAULT_255_1_234
10
4.3464287
20
52.6709156
40
0.3003081
50
257.4584385
51
270.426602
0
ARC
8
DEFAULT_255_1_234
10
4.3509853
20
52.6998996
40
0.329292
50
269.5962073
51
280.8789248
0
ARC
8
DEFAULT_255_1_234
10
4.3739382
20
52.5852685
40
0.2123908
50
280.6346389
51
299.8595945
0
ARC
8
DEFAULT_255_1_234
10
4.3930289
20
52.5490212
40
0.171457
50
300.3576302
51
314.5517981
0
ARC
8
DEFAULT_255_1_234
10
4.3847349
20
52.5550919
40
0.1816095
50
315.0728369
51
345.0431014
0
ARC
8
DEFAULT_255_1_234
10
4.2924163
20
52.5819841
40
0.2777492
50
344.5986631
51
357.9269593
0
ARC
8
DEFAULT_255_1_234
10
4.2028489
20
52.5881276
40
0.3674917
50
357.4748886
51
0.0231117
0
ARC
8
DEFAULT_255_1_234
10
4.3051599
20
52.5905679
40
0.2651907
50
359.5047933
51
13.4239635
0
ARC
8
DEFAULT_255_1_234
10
4.3918242
20
52.6127478
40
0.1757509
50
12.9498199
51
48.7551375
0
ARC
8
DEFAULT_255_1_234
10
4.3735976
20
52.58784
40
0.2065134
50
49.5088623
51
72.1836453
0
ARC
8
DEFAULT_255_1_234
10
4.3378129
20
52.4816291
40
0.3185836
50
71.9010081
51
84.3554254
0
ARC
8
DEFAULT_255_1_234
10
4.3216761
20
52.3455326
40
0.4556151
50
84.0193428
51
89.333121
0
LINE
8
DEFAULT_255_1_234
10
4.7655119
20
60.3241792
11
4.7655119
21
60.2029
0
LINE
8
DEFAULT_255_1_234
10
4.7655119
20
60.2029
11
3.999284
21
60.2029
0
LINE
8
DEFAULT_255_1_234
10
3.999284
20
60.2029
11
3.999284
21
60.3097221
0
LINE
8
DEFAULT_255_1_234
10
3.999284
20
60.3097221
11
4.4040836
21
60.7594995
0
LINE
8
DEFAULT_255_1_234
10
4.1253823
20
61.0277595
11
3.9767952
21
61.0277595
0
LINE
8
DEFAULT_255_1_234
10
4.4916296
20
60.6639218
11
4.1783918
21
60.3241792
0
LINE
8
DEFAULT_255_1_234
10
4.1783918
20
60.3241792
11
4.7655119
21
60.3241792
0
ARC
8
DEFAULT_255_1_234
10
3.055067
20
61.9524527
40
1.8008286
50
318.5132453
51
320.7828378
0
ARC
8
DEFAULT_255_1_234
10
3.5837644
20
61.5221426
40
1.1191493
50
320.7372736
51
323.9737074
0
ARC
8
DEFAULT_255_1_234
10
3.9757501
20
61.2381361
40
0.6350923
50
323.8961724
51
328.6421089
0
ARC
8
DEFAULT_255_1_234
10
4.1804096
20
61.1119031
40
0.3946393
50
328.8299013
51
331.789948
0
ARC
8
DEFAULT_255_1_234
10
4.2801274
20
61.0604509
40
0.2824501
50
331.4255242
51
352.9364833
0
ARC
8
DEFAULT_255_1_234
10
4.2937775
20
61.0573976
40
0.2685315
50
353.2248685
51
0.0169286
0
ARC
8
DEFAULT_255_1_234
10
4.3147652
20
61.059695
40
0.2475536
50
359.4866256
51
15.9339782
0
ARC
8
DEFAULT_255_1_234
10
4.3654637
20
61.0733286
40
0.1950618
50
16.1714718
51
43.5284424
0
ARC
8
DEFAULT_255_1_234
10
4.3731946
20
61.0810573
40
0.184134
50
43.4415429
51
83.1661404
0
ARC
8
DEFAULT_255_1_234
10
4.3597864
20
61.0073771
40
0.258926
50
82.160215
51
90.1505798
0
ARC
8
DEFAULT_255_1_234
10
4.3566291
20
60.9536865
40
0.3126255
50
89.5460705
51
102.5418777
0
ARC
8
DEFAULT_255_1_234
10
4.3323377
20
61.0567665
40
0.2067346
50
102.1739365
51
129.2061916
0
ARC
8
DEFAULT_255_1_234
10
4.3244449
20
61.0692094
40
0.1921118
50
129.7279328
51
135.7542026
0
ARC
8
DEFAULT_255_1_234
10
4.3365977
20
61.0595045
40
0.2075944
50
136.175737
51
166.3674722
0
ARC
8
DEFAULT_255_1_234
10
4.4372896
20
61.0325182
40
0.3118201
50
165.9092917
51
178.8683903
0
ARC
8
DEFAULT_255_1_234
10
4.5237757
20
61.0278179
40
0.3983935
50
178.438168
51
180.0083905
0
ARC
8
DEFAULT_255_1_234
10
4.3836359
20
61.0317231
40
0.4068601
50
163.2878735
51
180.5581814
0
ARC
8
DEFAULT_255_1_234
10
4.3034621
20
61.053784
40
0.3237344
50
133.454115
51
162.9470031
0
ARC
8
DEFAULT_255_1_234
10
4.3213162
20
61.0348
40
0.349795
50
100.7869394
51
133.4384016
0
ARC
8
DEFAULT_255_1_234
10
4.3560934
20
60.8799319
40
0.5084616
50
89.6605301
51
101.3704185
0
ARC
8
DEFAULT_255_1_234
10
4.3627273
20
60.8860496
40
0.502348
50
78.2171172
51
90.4130393
0
ARC
8
DEFAULT_255_1_234
10
4.3982351
20
61.0484637
40
0.3361092
50
55.9268222
51
78.4888551
0
ARC
8
DEFAULT_255_1_234
10
4.4178791
20
61.0823324
40
0.2970617
50
47.9292255
51
55.4054003
0
ARC
8
DEFAULT_255_1_234
10
4.4280352
20
61.0926502
40
0.2825983
50
4.3347696
51
48.0560701
0
ARC
8
DEFAULT_255_1_234
10
4.3184745
20
61.0756601
40
0.393225
50
359.925209
51
5.5967654
0
ARC
8
DEFAULT_255_1_234
10
4.3613637
20
61.0812816
40
0.3503892
50
337.8914096
51
358.9967724
0
ARC
8
DEFAULT_255_1_234
10
4.0900049
20
61.1859706
40
0.6412172
50
326.9135351
51
338.3505194
0
ARC
8
DEFAULT_255_1_234
10
3.6914353
20
61.4414284
40
1.1146189
50
319.6472867
51
327.095818
0
ARC
8
DEFAULT_255_1_234
10
3.3081356
20
61.7576
40
1.6114559
50
317.2586784
51
319.9046139
0
LINE
8
DEFAULT_255_1_234
10
4.4793137
20
69.3154433
11
4.4793137
21
68.1404
0
LINE
8
DEFAULT_255_1_234
10
4.4793137
20
68.1404
11
4.3299234
21
68.1404
0
LINE
8
DEFAULT_255_1_234
10
4.3299234
20
68.1404
11
4.3299234
21
69.1307133
0
LINE
8
DEFAULT_255_1_234
10
4.3299234
20
69.1307133
11
4.0303396
21
69.0206785
0
LINE
8
DEFAULT_255_1_234
10
4.0303396
20
69.0206785
11
4.0303396
21
69.1556117
0
LINE
8
DEFAULT_255_1_234
10
4.0303396
20
69.1556117
11
4.4560217
21
69.3154433
0
LINE
8
DEFAULT_255_1_234
10
4.4560217
20
69.3154433
11
4.4793137
21
69.3154433
0
LINE
8
DEFAULT_255_1_234
10
4.7325817
20
76.7694327
11
4.7325817
21
76.5766709
0
LINE
8
DEFAULT_255_1_234
10
3.994465
20
76.5565916
11
3.994465
21
76.7549755
0
LINE
8
DEFAULT_255_1_234
10
4.5839946
20
76.5365123
11
4.5839946
21
76.7798739
0
LINE
8
DEFAULT_255_1_234
10
4.1430521
20
76.7911184
11
4.1430521
21
76.5533789
0
ARC
8
DEFAULT_255_1_234
10
3.5078707
20
76.5717805
40
1.2247208
50
353.8441951
51
0.2287902
0
ARC
8
DEFAULT_255_1_234
10
3.9718211
20
76.5199806
40
0.7578929
50
344.4934747
51
353.9765454
0
ARC
8
DEFAULT_255_1_234
10
4.2710801
20
76.4348981
40
0.4467846
50
329.2803592
51
344.7472793
0
ARC
8
DEFAULT_255_1_234
10
4.3703626
20
76.3804018
40
0.3336173
50
324.9352394
51
328.6160465
0
ARC
8
DEFAULT_255_1_234
10
4.4080734
20
76.3540427
40
0.2876076
50
280.580143
51
324.9173126
0
ARC
8
DEFAULT_255_1_234
10
4.3679527
20
76.5211099
40
0.4592847
50
269.5977311
51
281.6734359
0
ARC
8
DEFAULT_255_1_234
10
4.3607433
20
76.5091173
40
0.4472986
50
256.6228859
51
270.51044
0
ARC
8
DEFAULT_255_1_234
10
4.320541
20
76.3542877
40
0.2873874
50
215.8618325
51
257.2788573
0
ARC
8
DEFAULT_255_1_234
10
4.4226442
20
76.4227977
40
0.4102928
50
197.9693508
51
215.2623606
0
ARC
8
DEFAULT_255_1_234
10
4.6711558
20
76.5066709
40
0.6725652
50
187.8816417
51
198.2346507
0
ARC
8
DEFAULT_255_1_234
10
5.0669766
20
76.5638079
40
1.0724845
50
180.8976217
51
188.0055519
0
ARC
8
DEFAULT_255_1_234
10
5.3469954
20
76.5741777
40
1.3526448
50
180.7449369
51
181.1510016
0
ARC
8
DEFAULT_255_1_234
10
5.1892683
20
76.7598042
40
1.1948131
50
173.7675579
51
180.231553
0
ARC
8
DEFAULT_255_1_234
10
4.737483
20
76.8108666
40
0.7401564
50
164.3058563
51
173.9002247
0
ARC
8
DEFAULT_255_1_234
10
4.4462899
20
76.8947656
40
0.4371288
50
148.7922025
51
164.568378
0
ARC
8
DEFAULT_255_1_234
10
4.3511351
20
76.9478929
40
0.3282386
50
144.5883898
51
148.1176286
0
ARC
8
DEFAULT_255_1_234
10
4.3168249
20
76.9718315
40
0.2864044
50
101.6440918
51
144.514236
0
ARC
8
DEFAULT_255_1_234
10
4.3593315
20
76.8029069
40
0.4604934
50
89.5284041
51
102.5819763
0
ARC
8
DEFAULT_255_1_234
10
4.3672403
20
76.7990018
40
0.464401
50
77.0437873
51
90.5081339
0
ARC
8
DEFAULT_255_1_234
10
4.4074405
20
76.9632615
40
0.2953195
50
48.2778575
51
77.4994676
0
ARC
8
DEFAULT_255_1_234
10
4.4147036
20
76.9761746
40
0.2808655
50
36.3142134
51
47.6305865
0
ARC
8
DEFAULT_255_1_234
10
4.3278343
20
76.9176515
40
0.3855453
50
18.2931786
51
35.6769206
0
ARC
8
DEFAULT_255_1_234
10
4.0735102
20
76.8303593
40
0.654423
50
8.024666
51
18.5605216
0
ARC
8
DEFAULT_255_1_234
10
3.6572022
20
76.7688792
40
1.0752407
50
1.1274072
51
8.1718305
0
ARC
8
DEFAULT_255_1_234
10
3.3336213
20
76.7561885
40
1.3990231
50
0.5424119
51
1.3863029
0
ARC
8
DEFAULT_255_1_234
10
3.515759
20
76.7834342
40
1.0682415
50
359.8090433
51
4.9407866
0
ARC
8
DEFAULT_255_1_234
10
3.9367604
20
76.8210113
40
0.6455691
50
4.8362157
51
12.2904523
0
ARC
8
DEFAULT_255_1_234
10
4.2122719
20
76.8823965
40
0.3633074
50
12.0805627
51
23.8173984
0
ARC
8
DEFAULT_255_1_234
10
4.3296425
20
76.9320919
40
0.2358723
50
24.2871213
51
31.3935614
0
ARC
8
DEFAULT_255_1_234
10
4.3821122
20
76.9664233
40
0.1732111
50
30.7407893
51
82.4657128
0
ARC
8
DEFAULT_255_1_234
10
4.3641256
20
76.8780691
40
0.263235
50
81.1060089
51
90.2184952
0
ARC
8
DEFAULT_255_1_234
10
4.3605555
20
76.9038924
40
0.2374236
50
89.3806855
51
105.6762551
0
ARC
8
DEFAULT_255_1_234
10
4.3422186
20
76.9705567
40
0.1682847
50
105.7981136
51
149.7388061
0
ARC
8
DEFAULT_255_1_234
10
4.4486264
20
76.906595
40
0.2924306
50
149.4208916
51
163.6286378
0
ARC
8
DEFAULT_255_1_234
10
4.6577152
20
76.842825
40
0.5110213
50
163.3763315
51
172.1410975
0
ARC
8
DEFAULT_255_1_234
10
4.9877871
20
76.7955518
40
0.8444586
50
172.0259487
51
178.0703232
0
ARC
8
DEFAULT_255_1_234
10
5.290796
20
76.7811906
40
1.1477868
50
177.8631668
51
179.5044149
0
ARC
8
DEFAULT_255_1_234
10
5.1835365
20
76.5497389
40
1.0404907
50
179.7995573
51
185.2460446
0
ARC
8
DEFAULT_255_1_234
10
4.7792404
20
76.5114513
40
0.6343885
50
185.1411642
51
193.0079639
0
ARC
8
DEFAULT_255_1_234
10
4.5148877
20
76.4489641
40
0.3627568
50
192.7897626
51
205.2507664
0
ARC
8
DEFAULT_255_1_234
10
4.4102424
20
76.4022415
40
0.2481908
50
205.8005384
51
211.2537509
0
ARC
8
DEFAULT_255_1_234
10
4.3578864
20
76.367158
40
0.1852521
50
210.3789793
51
238.4008143
0
ARC
8
DEFAULT_255_1_234
10
4.3559386
20
76.3718376
40
0.1882621
50
239.6520629
51
265.9793761
0
ARC
8
DEFAULT_255_1_234
10
4.3644586
20
76.4390427
40
0.2559272
50
265.1315437
51
270.060332
0
ARC
8
DEFAULT_255_1_234
10
4.3673365
20
76.4066534
40
0.2235528
50
269.3314664
51
287.2178029
0
ARC
8
DEFAULT_255_1_234
10
4.3811217
20
76.3563279
40
0.1714108
50
287.7958004
51
329.080874
0
ARC
8
DEFAULT_255_1_234
10
4.2853674
20
76.416093
40
0.2842745
50
328.6634704
51
343.3325132
0
ARC
8
DEFAULT_255_1_234
10
4.0680694
20
76.4837863
40
0.5118644
50
343.0499468
51
351.9393422
0
ARC
8
DEFAULT_255_1_234
10
3.7213994
20
76.5348949
40
0.8622784
50
351.8069023
51
357.7959224
0
ARC
8
DEFAULT_255_1_234
10
3.397855
20
76.5516721
40
1.1862365
50
357.5871873
51
359.2677531
0
LINE
8
DEFAULT_255_1_234
10
4.9274119
20
84.1366792
11
4.9274119
21
84.0154
0
LINE
8
DEFAULT_255_1_234
10
4.9274119
20
84.0154
11
4.161184
21
84.0154
0
LINE
8
DEFAULT_255_1_234
10
4.161184
20
84.0154
11
4.161184
21
84.1222221
0
LINE
8
DEFAULT_255_1_234
10
4.161184
20
84.1222221
11
4.5659836
21
84.5719995
0
LINE
8
DEFAULT_255_1_234
10
4.2872823
20
84.8402595
11
4.1386952
21
84.8402595
0
LINE
8
DEFAULT_255_1_234
10
4.6535296
20
84.4764218
11
4.3402918
21
84.1366792
0
LINE
8
DEFAULT_255_1_234
10
4.3402918
20
84.1366792
11
4.9274119
21
84.1366792
0
ARC
8
DEFAULT_255_1_234
10
3.216967
20
85.7649527
40
1.8008286
50
318.5132453
51
320.7828378
0
ARC
8
DEFAULT_255_1_234
10
3.7456644
20
85.3346426
40
1.1191493
50
320.7372736
51
323.9737074
0
ARC
8
DEFAULT_255_1_234
10
4.1376501
20
85.0506361
40
0.6350923
50
323.8961724
51
328.6421089
0
ARC
8
DEFAULT_255_1_234
10
4.3423096
20
84.9244031
40
0.3946393
50
328.8299013
51
331.789948
0
ARC
8
DEFAULT_255_1_234
10
4.4420274
20
84.8729509
40
0.2824501
50
331.4255242
51
352.9364833
0
ARC
8
DEFAULT_255_1_234
10
4.4556775
20
84.8698976
40
0.2685315
50
353.2248685
51
0.0169286
0
ARC
8
DEFAULT_255_1_234
10
4.4766652
20
84.872195
40
0.2475536
50
359.4866256
51
15.9339782
0
ARC
8
DEFAULT_255_1_234
10
4.5273637
20
84.8858286
40
0.1950618
50
16.1714718
51
43.5284424
0
ARC
8
DEFAULT_255_1_234
10
4.5350946
20
84.8935573
40
0.184134
50
43.4415429
51
83.1661404
0
ARC
8
DEFAULT_255_1_234
10
4.5216864
20
84.8198771
40
0.258926
50
82.160215
51
90.1505798
0
ARC
8
DEFAULT_255_1_234
10
4.5185291
20
84.7661865
40
0.3126255
50
89.5460705
51
102.5418777
0
ARC
8
DEFAULT_255_1_234
10
4.4942377
20
84.8692665
40
0.2067346
50
102.1739365
51
129.2061916
0
ARC
8
DEFAULT_255_1_234
10
4.4863449
20
84.8817094
40
0.1921118
50
129.7279328
51
135.7542026
0
ARC
8
DEFAULT_255_1_234
10
4.4984977
20
84.8720045
40
0.2075944
50
136.175737
51
166.3674722
0
ARC
8
DEFAULT_255_1_234
10
4.5991896
20
84.8450182
40
0.3118201
50
165.9092917
51
178.8683903
0
ARC
8
DEFAULT_255_1_234
10
4.6856757
20
84.8403179
40
0.3983935
50
178.438168
51
180.0083905
0
ARC
8
DEFAULT_255_1_234
10
4.5455359
20
84.8442231
40
0.4068601
50
163.2878735
51
180.5581814
0
ARC
8
DEFAULT_255_1_234
10
4.4653621
20
84.866284
40
0.3237344
50
133.454115
51
162.9470031
0
ARC
8
DEFAULT_255_1_234
10
4.4832162
20
84.8473
40
0.349795
50
100.7869394
51
133.4384016
0
ARC
8
DEFAULT_255_1_234
10
4.5179934
20
84.6924319
40
0.5084616
50
89.6605301
51
101.3704185
0
ARC
8
DEFAULT_255_1_234
10
4.5246273
20
84.6985496
40
0.502348
50
78.2171172
51
90.4130393
0
ARC
8
DEFAULT_255_1_234
10
4.5601351
20
84.8609637
40
0.3361092
50
55.9268222
51
78.4888551
0
ARC
8
DEFAULT_255_1_234
10
4.5797791
20
84.8948324
40
0.2970617
50
47.9292255
51
55.4054003
0
ARC
8
DEFAULT_255_1_234
10
4.5899352
20
84.9051502
40
0.2825983
50
4.3347696
51
48.0560701
0
ARC
8
DEFAULT_255_1_234
10
4.4803745
20
84.8881601
40
0.393225
50
359.925209
51
5.5967654
0
ARC
8
DEFAULT_255_1_234
10
4.5232637
20
84.8937816
40
0.3503892
50
337.8914096
51
358.9967724
0
ARC
8
DEFAULT_255_1_234
10
4.2519049
20
84.9984706
40
0.6412172
50
326.9135351
51
338.3505194
0
ARC
8
DEFAULT_255_1_234
10
3.8533353
20
85.2539284
40
1.1146189
50
319.6472867
51
327.095818
0
ARC
8
DEFAULT_255_1_234
10
3.4700356
20
85.5701
40
1.6114559
50
317.2586784
51
319.9046139
0
LINE
8
DEFAULT_255_1_234
10
5.7121127
20
85.1848211
11
5.7121127
21
84.408152
0
LINE
8
DEFAULT_255_1_234
10
5.7121127
20
84.408152
11
5.8743538
21
84.408152
0
LINE
8
DEFAULT_255_1_234
10
5.8743538
20
84.408152
11
5.8743538
21
84.2868728
0
LINE
8
DEFAULT_255_1_234
10
5.8743538
20
84.2868728
11
5.7121127
21
84.2868728
0
LINE
8
DEFAULT_255_1_234
10
5.7121127
20
84.2868728
11
5.7121127
21
84.0154
0
LINE
8
DEFAULT_255_1_234
10
5.7121127
20
84.0154
11
5.5627224
21
84.0154
0
LINE
8
DEFAULT_255_1_234
10
5.5627224
20
84.0154
11
5.5627224
21
84.2868728
0
LINE
8
DEFAULT_255_1_234
10
5.5627224
20
84.2868728
11
5.0302181
21
84.2868728
0
LINE
8
DEFAULT_255_1_234
10
5.0302181
20
84.2868728
11
5.0302181
21
84.3744187
0
LINE
8
DEFAULT_255_1_234
10
5.0302181
20
84.3744187
11
5.5538875
21
85.1848211
0
LINE
8
DEFAULT_255_1_234
10
5.5538875
20
85.1848211
11
5.7121127
21
85.1848211
0
LINE
8
DEFAULT_255_1_234
10
5.5450525
20
84.9494912
11
5.1988846
21
84.408152
0
LINE
8
DEFAULT_255_1_234
10
5.1988846
20
84.408152
11
5.5627224
21
84.408152
0
LINE
8
DEFAULT_255_1_234
10
5.5627224
20
84.408152
11
5.5627224
21
84.9816181
0
LINE
8
DEFAULT_255_1_234
10
5.5627224
20
84.9816181
11
5.5450525
21
84.9494912
0
LINE
8
DEFAULT_255_1_234
10
6.101652
20
85.1848211
11
6.434166
21
84.2202093
0
LINE
8
DEFAULT_255_1_234
10
6.434166
20
84.2202093
11
6.7682863
21
85.1848211
0
LINE
8
DEFAULT_255_1_234
10
6.7682863
20
85.1848211
11
6.9369528
21
85.1848211
0
LINE
8
DEFAULT_255_1_234
10
6.9369528
20
85.1848211
11
6.5032389
21
84.0154
0
LINE
8
DEFAULT_255_1_234
10
6.5032389
20
84.0154
11
6.3666994
21
84.0154
0
LINE
8
DEFAULT_255_1_234
10
6.3666994
20
84.0154
11
5.9337887
21
85.1848211
0
LINE
8
DEFAULT_255_1_234
10
5.9337887
20
85.1848211
11
6.101652
21
85.1848211
0
LINE
8
DEFAULT_255_1_234
10
23.1654817
20
92.6444327
11
23.1654817
21
92.4516709
0
LINE
8
DEFAULT_255_1_234
10
22.427365
20
92.4315916
11
22.427365
21
92.6299755
0
LINE
8
DEFAULT_255_1_234
10
23.0168946
20
92.4115123
11
23.0168946
21
92.6548739
0
LINE
8
DEFAULT_255_1_234
10
22.5759521
20
92.6661184
11
22.5759521
21
92.4283789
0
ARC
8
DEFAULT_255_1_234
10
21.9407707
20
92.4467805
40
1.2247208
50
353.8441951
51
0.2287902
0
ARC
8
DEFAULT_255_1_234
10
22.4047211
20
92.3949806
40
0.7578929
50
344.4934747
51
353.9765454
0
ARC
8
DEFAULT_255_1_234
10
22.7039801
20
92.3098981
40
0.4467846
50
329.2803592
51
344.7472793
0
ARC
8
DEFAULT_255_1_234
10
22.8032626
20
92.2554018
40
0.3336173
50
324.9352394
51
328.6160465
0
ARC
8
DEFAULT_255_1_234
10
22.8409734
20
92.2290427
40
0.2876076
50
280.580143
51
324.9173126
0
ARC
8
DEFAULT_255_1_234
10
22.8008527
20
92.3961099
40
0.4592847
50
269.5977311
51
281.6734359
0
ARC
8
DEFAULT_255_1_234
10
22.7936433
20
92.3841173
40
0.4472986
50
256.6228859
51
270.51044
0
ARC
8
DEFAULT_255_1_234
10
22.753441
20
92.2292877
40
0.2873874
50
215.8618325
51
257.2788573
0
ARC
8
DEFAULT_255_1_234
10
22.8555442
20
92.2977977
40
0.4102928
50
197.9693508
51
215.2623606
0
ARC
8
DEFAULT_255_1_234
10
23.1040558
20
92.3816709
40
0.6725652
50
187.8816417
51
198.2346507
0
ARC
8
DEFAULT_255_1_234
10
23.4998766
20
92.4388079
40
1.0724845
50
180.8976217
51
188.0055519
0
ARC
8
DEFAULT_255_1_234
10
23.7798954
20
92.4491777
40
1.3526448
50
180.7449369
51
181.1510016
0
ARC
8
DEFAULT_255_1_234
10
23.6221683
20
92.6348042
40
1.1948131
50
173.7675579
51
180.231553
0
ARC
8
DEFAULT_255_1_234
10
23.170383
20
92.6858666
40
0.7401564
50
164.3058563
51
173.9002247
0
ARC
8
DEFAULT_255_1_234
10
22.8791899
20
92.7697656
40
0.4371288
50
148.7922025
51
164.568378
0
ARC
8
DEFAULT_255_1_234
10
22.7840351
20
92.8228929
40
0.3282386
50
144.5883898
51
148.1176286
0
ARC
8
DEFAULT_255_1_234
10
22.7497249
20
92.8468315
40
0.2864044
50
101.6440918
51
144.514236
0
ARC
8
DEFAULT_255_1_234
10
22.7922315
20
92.6779069
40
0.4604934
50
89.5284041
51
102.5819763
0
ARC
8
DEFAULT_255_1_234
10
22.8001403
20
92.6740018
40
0.464401
50
77.0437873
51
90.5081339
0
ARC
8
DEFAULT_255_1_234
10
22.8403405
20
92.8382615
40
0.2953195
50
48.2778575
51
77.4994676
0
ARC
8
DEFAULT_255_1_234
10
22.8476036
20
92.8511746
40
0.2808655
50
36.3142134
51
47.6305865
0
ARC
8
DEFAULT_255_1_234
10
22.7607343
20
92.7926515
40
0.3855453
50
18.2931786
51
35.6769206
0
ARC
8
DEFAULT_255_1_234
10
22.5064102
20
92.7053593
40
0.654423
50
8.024666
51
18.5605216
0
ARC
8
DEFAULT_255_1_234
10
22.0901022
20
92.6438792
40
1.0752407
50
1.1274072
51
8.1718305
0
ARC
8
DEFAULT_255_1_234
10
21.7665213
20
92.6311885
40
1.3990231
50
0.5424119
51
1.3863029
0
ARC
8
DEFAULT_255_1_234
10
21.948659
20
92.6584342
40
1.0682415
50
359.8090433
51
4.9407866
0
ARC
8
DEFAULT_255_1_234
10
22.3696604
20
92.6960113
40
0.6455691
50
4.8362157
51
12.2904523
0
ARC
8
DEFAULT_255_1_234
10
22.6451719
20
92.7573965
40
0.3633074
50
12.0805627
51
23.8173984
0
ARC
8
DEFAULT_255_1_234
10
22.7625425
20
92.8070919
40
0.2358723
50
24.2871213
51
31.3935614
0
ARC
8
DEFAULT_255_1_234
10
22.8150122
20
92.8414233
40
0.1732111
50
30.7407893
51
82.4657128
0
ARC
8
DEFAULT_255_1_234
10
22.7970256
20
92.7530691
40
0.263235
50
81.1060089
51
90.2184952
0
ARC
8
DEFAULT_255_1_234
10
22.7934555
20
92.7788924
40
0.2374236
50
89.3806855
51
105.6762551
0
ARC
8
DEFAULT_255_1_234
10
22.7751186
20
92.8455567
40
0.1682847
50
105.7981136
51
149.7388061
0
ARC
8
DEFAULT_255_1_234
10
22.8815264
20
92.781595
40
0.2924306
50
149.4208916
51
163.6286378
0
ARC
8
DEFAULT_255_1_234
10
23.0906152
20
92.717825
40
0.5110213
50
163.3763315
51
172.1410975
0
ARC
8
DEFAULT_255_1_234
10
23.4206871
20
92.6705518
40
0.8444586
50
172.0259487
51
178.0703232
0
ARC
8
DEFAULT_255_1_234
10
23.723696
20
92.6561906
40
1.1477868
50
177.8631668
51
179.5044149
0
ARC
8
DEFAULT_255_1_234
10
23.6164365
20
92.4247389
40
1.0404907
50
179.7995573
51
185.2460446
0
ARC
8
DEFAULT_255_1_234
10
23.2121404
20
92.3864513
40
0.6343885
50
185.1411642
51
193.0079639
0
ARC
8
DEFAULT_255_1_234
10
22.9477877
20
92.3239641
40
0.3627568
50
192.7897626
51
205.2507664
0
ARC
8
DEFAULT_255_1_234
10
22.8431424
20
92.2772415
40
0.2481908
50
205.8005384
51
211.2537509
0
ARC
8
DEFAULT_255_1_234
10
22.7907864
20
92.242158
40
0.1852521
50
210.3789793
51
238.4008143
0
ARC
8
DEFAULT_255_1_234
10
22.7888386
20
92.2468376
40
0.1882621
50
239.6520629
51
265.9793761
0
ARC
8
DEFAULT_255_1_234
10
22.7973586
20
92.3140427
40
0.2559272
50
265.1315437
51
270.060332
0
ARC
8
DEFAULT_255_1_234
10
22.8002365
20
92.2816534
40
0.2235528
50
269.3314664
51
287.2178029
0
ARC
8
DEFAULT_255_1_234
10
22.8140217
20
92.2313279
40
0.1714108
50
287.7958004
51
329.080874
0
ARC
8
DEFAULT_255_1_234
10
22.7182674
20
92.291093
40
0.2842745
50
328.6634704
51
343.3325132
0
ARC
8
DEFAULT_255_1_234
10
22.5009694
20
92.3587863
40
0.5118644
50
343.0499468
51
351.9393422
0
ARC
8
DEFAULT_255_1_234
10
22.1542994
20
92.4098949
40
0.8622784
50
351.8069023
51
357.7959224
0
ARC
8
DEFAULT_255_1_234
10
21.830755
20
92.4266721
40
1.1862365
50
357.5871873
51
359.2677531
0
LINE
8
DEFAULT_255_1_234
10
23.4490021
20
93.1223211
11
23.7815161
21
92.1577093
0
LINE
8
DEFAULT_255_1_234
10
23.7815161
20
92.1577093
11
24.1156364
21
93.1223211
0
LINE
8
DEFAULT_255_1_234
10
24.1156364
20
93.1223211
11
24.2843029
21
93.1223211
0
LINE
8
DEFAULT_255_1_234
10
24.2843029
20
93.1223211
11
23.850589
21
91.9529
0
LINE
8
DEFAULT_255_1_234
10
23.850589
20
91.9529
11
23.7140495
21
91.9529
0
LINE
8
DEFAULT_255_1_234
10
23.7140495
20
91.9529
11
23.2811388
21
93.1223211
0
LINE
8
DEFAULT_255_1_234
10
23.2811388
20
93.1223211
11
23.4490021
21
93.1223211
0
LINE
8
DEFAULT_255_1_234
10
23.187423
20
12.9489663
11
23.3424355
21
12.9489663
0
LINE
8
DEFAULT_255_1_234
10
22.4420777
20
13.1079947
11
22.4420777
21
13.2204391
0
LINE
8
DEFAULT_255_1_234
10
23.3424355
20
13.3714357
11
23.187423
21
13.3714357
0
LINE
8
DEFAULT_255_1_234
10
22.5970902
20
13.2164232
11
22.5970902
21
13.1031757
0
ARC
8
DEFAULT_255_1_234
10
22.7943742
20
13.0086846
40
0.5513052
50
340.1774281
51
353.7814284
0
ARC
8
DEFAULT_255_1_234
10
22.9515095
20
12.9501582
40
0.3836379
50
311.4558989
51
340.4421614
0
ARC
8
DEFAULT_255_1_234
10
22.9481763
20
12.9612528
40
0.3941894
50
282.4333181
51
310.7513653
0
ARC
8
DEFAULT_255_1_234
10
22.9042502
20
13.1427679
40
0.5809175
50
269.9358511
51
282.809604
0
ARC
8
DEFAULT_255_1_234
10
22.8990568
20
13.2885212
40
0.7266847
50
270.0021091
51
270.3581957
0
ARC
8
DEFAULT_255_1_234
10
22.8937985
20
13.0284585
40
0.4666519
50
250.7884749
51
270.6489167
0
ARC
8
DEFAULT_255_1_234
10
22.876982
20
12.9647319
40
0.4009729
50
219.3627325
51
250.0611886
0
ARC
8
DEFAULT_255_1_234
10
22.9599031
20
13.0352042
40
0.5097822
50
193.5479632
51
219.5756669
0
ARC
8
DEFAULT_255_1_234
10
23.1970652
20
13.0967919
40
0.7547848
50
181.1218675
51
193.87563
0
ARC
8
DEFAULT_255_1_234
10
23.4040833
20
13.107858
40
0.9620055
50
179.9918545
51
181.5394234
0
ARC
8
DEFAULT_255_1_234
10
23.2189935
20
13.2241788
40
0.7769248
50
169.5837241
51
180.2757934
0
ARC
8
DEFAULT_255_1_234
10
23.0352873
20
13.2581229
40
0.590109
50
155.0365899
51
169.6003176
0
ARC
8
DEFAULT_255_1_234
10
22.9217337
20
13.3128677
40
0.4640625
50
136.783148
51
155.2472683
0
ARC
8
DEFAULT_255_1_234
10
22.8827814
20
13.3459562
40
0.4130255
50
121.7633186
51
136.428115
0
ARC
8
DEFAULT_255_1_234
10
22.8962776
20
13.3210227
40
0.4413323
50
95.6459699
51
121.5490577
0
ARC
8
DEFAULT_255_1_234
10
22.9120058
20
13.2101949
40
0.55319
50
89.924208
51
96.1377933
0
ARC
8
DEFAULT_255_1_234
10
22.9170491
20
13.2220542
40
0.5413475
50
76.6779277
51
90.4563316
0
ARC
8
DEFAULT_255_1_234
10
22.9564114
20
13.3811114
40
0.3775041
50
47.485847
51
76.9287264
0
ARC
8
DEFAULT_255_1_234
10
22.9417087
20
13.3711159
40
0.3948286
50
16.5424086
51
46.8933463
0
ARC
8
DEFAULT_255_1_234
10
22.7809244
20
13.3182861
40
0.564021
50
5.4072051
51
17.0365086
0
ARC
8
DEFAULT_255_1_234
10
22.6370261
20
13.2951679
40
0.5556559
50
7.8891745
51
15.9239216
0
ARC
8
DEFAULT_255_1_234
10
22.8357274
20
13.3528631
40
0.3487515
50
15.7653144
51
27.9410532
0
ARC
8
DEFAULT_255_1_234
10
22.9461492
20
13.411979
40
0.2235026
50
27.8166557
51
46.4008329
0
ARC
8
DEFAULT_255_1_234
10
22.9511135
20
13.4114082
40
0.2205286
50
47.4371857
51
75.0698205
0
ARC
8
DEFAULT_255_1_234
10
22.9202529
20
13.3039765
40
0.3322915
50
74.7008593
51
87.8124495
0
ARC
8
DEFAULT_255_1_234
10
22.9129217
20
13.1983844
40
0.4380987
50
87.3814673
51
90.0240855
0
ARC
8
DEFAULT_255_1_234
10
22.909076
20
13.3161291
40
0.3203749
50
89.3451631
51
108.5745436
0
ARC
8
DEFAULT_255_1_234
10
22.8953865
20
13.3674908
40
0.2673494
50
109.2998449
51
143.3037509
0
ARC
8
DEFAULT_255_1_234
10
22.9715938
20
13.3088881
40
0.3634757
50
143.0753173
51
163.1916937
0
ARC
8
DEFAULT_255_1_234
10
23.1667666
20
13.2472967
40
0.5681262
50
162.9373603
51
174.6208611
0
ARC
8
DEFAULT_255_1_234
10
23.4293708
20
13.218501
40
0.8322832
50
174.3419979
51
180.1430411
0
ARC
8
DEFAULT_255_1_234
10
23.3362864
20
13.0990698
40
0.7392076
50
179.6817502
51
189.150529
0
ARC
8
DEFAULT_255_1_234
10
23.0862112
20
13.057419
40
0.4856932
50
188.9910863
51
203.5773039
0
ARC
8
DEFAULT_255_1_234
10
22.9782445
20
13.0126211
40
0.3688271
50
203.9077269
51
215.1312379
0
ARC
8
DEFAULT_255_1_234
10
22.8859539
20
12.9410941
40
0.2522457
50
213.9071664
51
263.8849284
0
ARC
8
DEFAULT_255_1_234
10
22.8984868
20
13.0195518
40
0.3316174
50
263.1758525
51
270.1031083
0
ARC
8
DEFAULT_255_1_234
10
22.901696
20
13.1442365
40
0.4563091
50
269.6719807
51
279.0609165
0
ARC
8
DEFAULT_255_1_234
10
22.9283728
20
12.9829907
40
0.2928759
50
278.8750225
51
293.6346586
0
ARC
8
DEFAULT_255_1_234
10
22.9603936
20
12.90779
40
0.2111472
50
293.8553404
51
310.0518804
0
ARC
8
DEFAULT_255_1_234
10
22.960879
20
12.9015516
40
0.2060917
50
311.0646779
51
332.0108348
0
ARC
8
DEFAULT_255_1_234
10
22.8416517
20
12.9672978
40
0.3422352
50
331.6588543
51
343.2878891
0
ARC
8
DEFAULT_255_1_234
10
22.6354032
20
13.0306798
40
0.5580003
50
343.1446044
51
351.010618
0
ARC
8
DEFAULT_255_1_234
10
22.4812678
20
13.0587871
40
0.7146438
50
350.7157277
51
351.1602153
0
LINE
8
DEFAULT_255_1_234
10
24.2476125
20
13.2694327
11
24.2476125
21
13.0766709
0
LINE
8
DEFAULT_255_1_234
10
23.5094957
20
13.0565916
11
23.5094957
21
13.2549755
0
LINE
8
DEFAULT_255_1_234
10
24.0990253
20
13.0365123
11
24.0990253
21
13.2798739
0
LINE
8
DEFAULT_255_1_234
10
23.6580829
20
13.2911184
11
23.6580829
21
13.0533789
0
ARC
8
DEFAULT_255_1_234
10
23.0229014
20
13.0717805
40
1.2247208
50
353.8441951
51
0.2287902
0
ARC
8
DEFAULT_255_1_234
10
23.4868518
20
13.0199806
40
0.7578929
50
344.4934747
51
353.9765454
0
ARC
8
DEFAULT_255_1_234
10
23.7861108
20
12.9348981
40
0.4467846
50
329.2803592
51
344.7472793
0
ARC
8
DEFAULT_255_1_234
10
23.8853933
20
12.8804018
40
0.3336173
50
324.9352394
51
328.6160465
0
ARC
8
DEFAULT_255_1_234
10
23.9231042
20
12.8540427
40
0.2876076
50
280.580143
51
324.9173126
0
ARC
8
DEFAULT_255_1_234
10
23.8829834
20
13.0211099
40
0.4592847
50
269.5977311
51
281.6734359
0
ARC
8
DEFAULT_255_1_234
10
23.875774
20
13.0091173
40
0.4472986
50
256.6228859
51
270.51044
0
ARC
8
DEFAULT_255_1_234
10
23.8355718
20
12.8542877
40
0.2873874
50
215.8618325
51
257.2788573
0
ARC
8
DEFAULT_255_1_234
10
23.9376749
20
12.9227977
40
0.4102928
50
197.9693508
51
215.2623606
0
ARC
8
DEFAULT_255_1_234
10
24.1861865
20
13.0066709
40
0.6725652
50
187.8816417
51
198.2346507
0
ARC
8
DEFAULT_255_1_234
10
24.5820073
20
13.0638079
40
1.0724845
50
180.8976217
51
188.0055519
0
ARC
8
DEFAULT_255_1_234
10
24.8620261
20
13.0741777
40
1.3526448
50
180.7449369
51
181.1510016
0
ARC
8
DEFAULT_255_1_234
10
24.704299
20
13.2598042
40
1.1948131
50
173.7675579
51
180.231553
0
ARC
8
DEFAULT_255_1_234
10
24.2525137
20
13.3108666
40
0.7401564
50
164.3058563
51
173.9002247
0
ARC
8
DEFAULT_255_1_234
10
23.9613206
20
13.3947656
40
0.4371288
50
148.7922025
51
164.568378
0
ARC
8
DEFAULT_255_1_234
10
23.8661658
20
13.4478929
40
0.3282386
50
144.5883898
51
148.1176286
0
ARC
8
DEFAULT_255_1_234
10
23.8318556
20
13.4718315
40
0.2864044
50
101.6440918
51
144.514236
0
ARC
8
DEFAULT_255_1_234
10
23.8743623
20
13.3029069
40
0.4604934
50
89.5284041
51
102.5819763
0
ARC
8
DEFAULT_255_1_234
10
23.882271
20
13.2990018
40
0.464401
50
77.0437873
51
90.5081339
0
ARC
8
DEFAULT_255_1_234
10
23.9224712
20
13.4632615
40
0.2953195
50
48.2778575
51
77.4994676
0
ARC
8
DEFAULT_255_1_234
10
23.9297343
20
13.4761746
40
0.2808655
50
36.3142134
51
47.6305865
0
ARC
8
DEFAULT_255_1_234
10
23.842865
20
13.4176515
40
0.3855453
50
18.2931786
51
35.6769206
0
ARC
8
DEFAULT_255_1_234
10
23.5885409
20
13.3303593
40
0.654423
50
8.024666
51
18.5605216
0
ARC
8
DEFAULT_255_1_234
10
23.1722329
20
13.2688792
40
1.0752407
50
1.1274072
51
8.1718305
0
ARC
8
DEFAULT_255_1_234
10
22.848652
20
13.2561885
40
1.3990231
50
0.5424119
51
1.3863029
0
ARC
8
DEFAULT_255_1_234
10
23.0307898
20
13.2834342
40
1.0682415
50
359.8090433
51
4.9407866
0
ARC
8
DEFAULT_255_1_234
10
23.4517912
20
13.3210113
40
0.6455691
50
4.8362157
51
12.2904523
0
ARC
8
DEFAULT_255_1_234
10
23.7273026
20
13.3823965
40
0.3633074
50
12.0805627
51
23.8173984
0
ARC
8
DEFAULT_255_1_234
10
23.8446732
20
13.4320919
40
0.2358723
50
24.2871213
51
31.3935614
0
ARC
8
DEFAULT_255_1_234
10
23.8971429
20
13.4664233
40
0.1732111
50
30.7407893
51
82.4657128
0
ARC
8
DEFAULT_255_1_234
10
23.8791563
20
13.3780691
40
0.263235
50
81.1060089
51
90.2184952
0
ARC
8
DEFAULT_255_1_234
10
23.8755862
20
13.4038924
40
0.2374236
50
89.3806855
51
105.6762551
0
ARC
8
DEFAULT_255_1_234
10
23.8572493
20
13.4705567
40
0.1682847
50
105.7981136
51
149.7388061
0
ARC
8
DEFAULT_255_1_234
10
23.9636571
20
13.406595
40
0.2924306
50
149.4208916
51
163.6286378
0
ARC
8
DEFAULT_255_1_234
10
24.1727459
20
13.342825
40
0.5110213
50
163.3763315
51
172.1410975
0
ARC
8
DEFAULT_255_1_234
10
24.5028178
20
13.2955518
40
0.8444586
50
172.0259487
51
178.0703232
0
ARC
8
DEFAULT_255_1_234
10
24.8058268
20
13.2811906
40
1.1477868
50
177.8631668
51
179.5044149
0
ARC
8
DEFAULT_255_1_234
10
24.6985672
20
13.0497389
40
1.0404907
50
179.7995573
51
185.2460446
0
ARC
8
DEFAULT_255_1_234
10
24.2942711
20
13.0114513
40
0.6343885
50
185.1411642
51
193.0079639
0
ARC
8
DEFAULT_255_1_234
10
24.0299184
20
12.9489641
40
0.3627568
50
192.7897626
51
205.2507664
0
ARC
8
DEFAULT_255_1_234
10
23.9252731
20
12.9022415
40
0.2481908
50
205.8005384
51
211.2537509
0
ARC
8
DEFAULT_255_1_234
10
23.8729171
20
12.867158
40
0.1852521
50
210.3789793
51
238.4008143
0
ARC
8
DEFAULT_255_1_234
10
23.8709693
20
12.8718376
40
0.1882621
50
239.6520629
51
265.9793761
0
ARC
8
DEFAULT_255_1_234
10
23.8794893
20
12.9390427
40
0.2559272
50
265.1315437
51
270.060332
0
ARC
8
DEFAULT_255_1_234
10
23.8823672
20
12.9066534
40
0.2235528
50
269.3314664
51
287.2178029
0
ARC
8
DEFAULT_255_1_234
10
23.8961524
20
12.8563279
40
0.1714108
50
287.7958004
51
329.080874
0
ARC
8
DEFAULT_255_1_234
10
23.8003981
20
12.916093
40
0.2842745
50
328.6634704
51
343.3325132
0
ARC
8
DEFAULT_255_1_234
10
23.5831001
20
12.9837863
40
0.5118644
50
343.0499468
51
351.9393422
0
ARC
8
DEFAULT_255_1_234
10
23.2364301
20
13.0348949
40
0.8622784
50
351.8069023
51
357.7959224
0
ARC
8
DEFAULT_255_1_234
10
22.9128857
20
13.0516721
40
1.1862365
50
357.5871873
51
359.2677531
0
LINE
8
DEFAULT_255_1_234
10
22.4561522
20
21.6848211
11
22.7886662
21
20.7202093
0
LINE
8
DEFAULT_255_1_234
10
22.7886662
20
20.7202093
11
23.1227865
21
21.6848211
0
LINE
8
DEFAULT_255_1_234
10
23.1227865
20
21.6848211
11
23.291453
21
21.6848211
0
LINE
8
DEFAULT_255_1_234
10
23.291453
20
21.6848211
11
22.8577391
21
20.5154
0
LINE
8
DEFAULT_255_1_234
10
22.8577391
20
20.5154
11
22.7211996
21
20.5154
0
LINE
8
DEFAULT_255_1_234
10
22.7211996
20
20.5154
11
22.2882889
21
21.6848211
0
LINE
8
DEFAULT_255_1_234
10
22.2882889
20
21.6848211
11
22.4561522
21
21.6848211
0
LINE
8
DEFAULT_255_1_234
10
24.1428172
20
21.2069327
11
24.1428172
21
21.0141709
0
LINE
8
DEFAULT_255_1_234
10
23.4047005
20
20.9940916
11
23.4047005
21
21.1924755
0
LINE
8
DEFAULT_255_1_234
10
23.9942301
20
20.9740123
11
23.9942301
21
21.2173739
0
LINE
8
DEFAULT_255_1_234
10
23.5532876
20
21.2286184
11
23.5532876
21
20.9908789
0
ARC
8
DEFAULT_255_1_234
10
22.9181062
20
21.0092805
40
1.2247208
50
353.8441951
51
0.2287902
0
ARC
8
DEFAULT_255_1_234
10
23.3820566
20
20.9574806
40
0.7578929
50
344.4934747
51
353.9765454
0
ARC
8
DEFAULT_255_1_234
10
23.6813156
20
20.8723981
40
0.4467846
50
329.2803592
51
344.7472793
0
ARC
8
DEFAULT_255_1_234
10
23.7805981
20
20.8179018
40
0.3336173
50
324.9352394
51
328.6160465
0
ARC
8
DEFAULT_255_1_234
10
23.8183089
20
20.7915427
40
0.2876076
50
280.580143
51
324.9173126
0
ARC
8
DEFAULT_255_1_234
10
23.7781882
20
20.9586099
40
0.4592847
50
269.5977311
51
281.6734359
0
ARC
8
DEFAULT_255_1_234
10
23.7709788
20
20.9466173
40
0.4472986
50
256.6228859
51
270.51044
0
ARC
8
DEFAULT_255_1_234
10
23.7307765
20
20.7917877
40
0.2873874
50
215.8618325
51
257.2788573
0
ARC
8
DEFAULT_255_1_234
10
23.8328797
20
20.8602977
40
0.4102928
50
197.9693508
51
215.2623606
0
ARC
8
DEFAULT_255_1_234
10
24.0813913
20
20.9441709
40
0.6725652
50
187.8816417
51
198.2346507
0
ARC
8
DEFAULT_255_1_234
10
24.4772121
20
21.0013079
40
1.0724845
50
180.8976217
51
188.0055519
0
ARC
8
DEFAULT_255_1_234
10
24.7572309
20
21.0116777
40
1.3526448
50
180.7449369
51
181.1510016
0
ARC
8
DEFAULT_255_1_234
10
24.5995038
20
21.1973042
40
1.1948131
50
173.7675579
51
180.231553
0
ARC
8
DEFAULT_255_1_234
10
24.1477185
20
21.2483666
40
0.7401564
50
164.3058563
51
173.9002247
0
ARC
8
DEFAULT_255_1_234
10
23.8565254
20
21.3322656
40
0.4371288
50
148.7922025
51
164.568378
0
ARC
8
DEFAULT_255_1_234
10
23.7613706
20
21.3853929
40
0.3282386
50
144.5883898
51
148.1176286
0
ARC
8
DEFAULT_255_1_234
10
23.7270604
20
21.4093315
40
0.2864044
50
101.6440918
51
144.514236
0
ARC
8
DEFAULT_255_1_234
10
23.769567
20
21.2404069
40
0.4604934
50
89.5284041
51
102.5819763
0
ARC
8
DEFAULT_255_1_234
10
23.7774758
20
21.2365018
40
0.464401
50
77.0437873
51
90.5081339
0
ARC
8
DEFAULT_255_1_234
10
23.817676
20
21.4007615
40
0.2953195
50
48.2778575
51
77.4994676
0
ARC
8
DEFAULT_255_1_234
10
23.8249391
20
21.4136746
40
0.2808655
50
36.3142134
51
47.6305865
0
ARC
8
DEFAULT_255_1_234
10
23.7380698
20
21.3551515
40
0.3855453
50
18.2931786
51
35.6769206
0
ARC
8
DEFAULT_255_1_234
10
23.4837457
20
21.2678593
40
0.654423
50
8.024666
51
18.5605216
0
ARC
8
DEFAULT_255_1_234
10
23.0674377
20
21.2063792
40
1.0752407
50
1.1274072
51
8.1718305
0
ARC
8
DEFAULT_255_1_234
10
22.7438568
20
21.1936885
40
1.3990231
50
0.5424119
51
1.3863029
0
ARC
8
DEFAULT_255_1_234
10
22.9259945
20
21.2209342
40
1.0682415
50
359.8090433
51
4.9407866
0
ARC
8
DEFAULT_255_1_234
10
23.3469959
20
21.2585113
40
0.6455691
50
4.8362157
51
12.2904523
0
ARC
8
DEFAULT_255_1_234
10
23.6225074
20
21.3198965
40
0.3633074
50
12.0805627
51
23.8173984
0
ARC
8
DEFAULT_255_1_234
10
23.739878
20
21.3695919
40
0.2358723
50
24.2871213
51
31.3935614
0
ARC
8
DEFAULT_255_1_234
10
23.7923477
20
21.4039233
40
0.1732111
50
30.7407893
51
82.4657128
0
ARC
8
DEFAULT_255_1_234
10
23.7743611
20
21.3155691
40
0.263235
50
81.1060089
51
90.2184952
0
ARC
8
DEFAULT_255_1_234
10
23.770791
20
21.3413924
40
0.2374236
50
89.3806855
51
105.6762551
0
ARC
8
DEFAULT_255_1_234
10
23.7524541
20
21.4080567
40
0.1682847
50
105.7981136
51
149.7388061
0
ARC
8
DEFAULT_255_1_234
10
23.8588619
20
21.344095
40
0.2924306
50
149.4208916
51
163.6286378
0
ARC
8
DEFAULT_255_1_234
10
24.0679507
20
21.280325
40
0.5110213
50
163.3763315
51
172.1410975
0
ARC
8
DEFAULT_255_1_234
10
24.3980226
20
21.2330518
40
0.8444586
50
172.0259487
51
178.0703232
0
ARC
8
DEFAULT_255_1_234
10
24.7010315
20
21.2186906
40
1.1477868
50
177.8631668
51
179.5044149
0
ARC
8
DEFAULT_255_1_234
10
24.593772
20
20.9872389
40
1.0404907
50
179.7995573
51
185.2460446
0
ARC
8
DEFAULT_255_1_234
10
24.1894759
20
20.9489513
40
0.6343885
50
185.1411642
51
193.0079639
0
ARC
8
DEFAULT_255_1_234
10
23.9251232
20
20.8864641
40
0.3627568
50
192.7897626
51
205.2507664
0
ARC
8
DEFAULT_255_1_234
10
23.8204779
20
20.8397415
40
0.2481908
50
205.8005384
51
211.2537509
0
ARC
8
DEFAULT_255_1_234
10
23.7681219
20
20.804658
40
0.1852521
50
210.3789793
51
238.4008143
0
ARC
8
DEFAULT_255_1_234
10
23.7661741
20
20.8093376
40
0.1882621
50
239.6520629
51
265.9793761
0
ARC
8
DEFAULT_255_1_234
10
23.7746941
20
20.8765427
40
0.2559272
50
265.1315437
51
270.060332
0
ARC
8
DEFAULT_255_1_234
10
23.777572
20
20.8441534
40
0.2235528
50
269.3314664
51
287.2178029
0
ARC
8
DEFAULT_255_1_234
10
23.7913572
20
20.7938279
40
0.1714108
50
287.7958004
51
329.080874
0
ARC
8
DEFAULT_255_1_234
10
23.6956029
20
20.853593
40
0.2842745
50
328.6634704
51
343.3325132
0
ARC
8
DEFAULT_255_1_234
10
23.4783049
20
20.9212863
40
0.5118644
50
343.0499468
51
351.9393422
0
ARC
8
DEFAULT_255_1_234
10
23.1316349
20
20.9723949
40
0.8622784
50
351.8069023
51
357.7959224
0
ARC
8
DEFAULT_255_1_234
10
22.8080905
20
20.9891721
40
1.1862365
50
357.5871873
51
359.2677531
0
LINE
8
DEFAULT_255_1_234
10
23.3744119
20
28.5741792
11
23.3744119
21
28.4529
0
LINE
8
DEFAULT_255_1_234
10
23.3744119
20
28.4529
11
22.608184
21
28.4529
0
LINE
8
DEFAULT_255_1_234
10
22.608184
20
28.4529
11
22.608184
21
28.5597221
0
LINE
8
DEFAULT_255_1_234
10
22.608184
20
28.5597221
11
23.0129836
21
29.0094995
0
LINE
8
DEFAULT_255_1_234
10
22.7342823
20
29.2777595
11
22.5856952
21
29.2777595
0
LINE
8
DEFAULT_255_1_234
10
23.1005296
20
28.9139218
11
22.7872918
21
28.5741792
0
LINE
8
DEFAULT_255_1_234
10
22.7872918
20
28.5741792
11
23.3744119
21
28.5741792
0
ARC
8
DEFAULT_255_1_234
10
21.663967
20
30.2024527
40
1.8008286
50
318.5132453
51
320.7828378
0
ARC
8
DEFAULT_255_1_234
10
22.1926644
20
29.7721426
40
1.1191493
50
320.7372736
51
323.9737074
0
ARC
8
DEFAULT_255_1_234
10
22.5846501
20
29.4881361
40
0.6350923
50
323.8961724
51
328.6421089
0
ARC
8
DEFAULT_255_1_234
10
22.7893096
20
29.3619031
40
0.3946393
50
328.8299013
51
331.789948
0
ARC
8
DEFAULT_255_1_234
10
22.8890274
20
29.3104509
40
0.2824501
50
331.4255242
51
352.9364833
0
ARC
8
DEFAULT_255_1_234
10
22.9026775
20
29.3073976
40
0.2685315
50
353.2248685
51
0.0169286
0
ARC
8
DEFAULT_255_1_234
10
22.9236652
20
29.309695
40
0.2475536
50
359.4866256
51
15.9339782
0
ARC
8
DEFAULT_255_1_234
10
22.9743637
20
29.3233286
40
0.1950618
50
16.1714718
51
43.5284424
0
ARC
8
DEFAULT_255_1_234
10
22.9820946
20
29.3310573
40
0.184134
50
43.4415429
51
83.1661404
0
ARC
8
DEFAULT_255_1_234
10
22.9686864
20
29.2573771
40
0.258926
50
82.160215
51
90.1505798
0
ARC
8
DEFAULT_255_1_234
10
22.9655291
20
29.2036865
40
0.3126255
50
89.5460705
51
102.5418777
0
ARC
8
DEFAULT_255_1_234
10
22.9412377
20
29.3067665
40
0.2067346
50
102.1739365
51
129.2061916
0
ARC
8
DEFAULT_255_1_234
10
22.9333449
20
29.3192094
40
0.1921118
50
129.7279328
51
135.7542026
0
ARC
8
DEFAULT_255_1_234
10
22.9454977
20
29.3095045
40
0.2075944
50
136.175737
51
166.3674722
0
ARC
8
DEFAULT_255_1_234
10
23.0461896
20
29.2825182
40
0.3118201
50
165.9092917
51
178.8683903
0
ARC
8
DEFAULT_255_1_234
10
23.1326757
20
29.2778179
40
0.3983935
50
178.438168
51
180.0083905
0
ARC
8
DEFAULT_255_1_234
10
22.9925359
20
29.2817231
40
0.4068601
50
163.2878735
51
180.5581814
0
ARC
8
DEFAULT_255_1_234
10
22.9123621
20
29.303784
40
0.3237344
50
133.454115
51
162.9470031
0
ARC
8
DEFAULT_255_1_234
10
22.9302162
20
29.2848
40
0.349795
50
100.7869394
51
133.4384016
0
ARC
8
DEFAULT_255_1_234
10
22.9649934
20
29.1299319
40
0.5084616
50
89.6605301
51
101.3704185
0
ARC
8
DEFAULT_255_1_234
10
22.9716273
20
29.1360496
40
0.502348
50
78.2171172
51
90.4130393
0
ARC
8
DEFAULT_255_1_234
10
23.0071351
20
29.2984637
40
0.3361092
50
55.9268222
51
78.4888551
0
ARC
8
DEFAULT_255_1_234
10
23.0267791
20
29.3323324
40
0.2970617
50
47.9292255
51
55.4054003
0
ARC
8
DEFAULT_255_1_234
10
23.0369352
20
29.3426502
40
0.2825983
50
4.3347696
51
48.0560701
0
ARC
8
DEFAULT_255_1_234
10
22.9273745
20
29.3256601
40
0.393225
50
359.925209
51
5.5967654
0
ARC
8
DEFAULT_255_1_234
10
22.9702637
20
29.3312816
40
0.3503892
50
337.8914096
51
358.9967724
0
ARC
8
DEFAULT_255_1_234
10
22.6989049
20
29.4359706
40
0.6412172
50
326.9135351
51
338.3505194
0
ARC
8
DEFAULT_255_1_234
10
22.3003353
20
29.6914284
40
1.1146189
50
319.6472867
51
327.095818
0
ARC
8
DEFAULT_255_1_234
10
21.9170356
20
30.0076
40
1.6114559
50
317.2586784
51
319.9046139
0
LINE
8
DEFAULT_255_1_234
10
24.0201636
20
29.6279433
11
24.0201636
21
28.4529
0
LINE
8
DEFAULT_255_1_234
10
24.0201636
20
28.4529
11
23.8707733
21
28.4529
0
LINE
8
DEFAULT_255_1_234
10
23.8707733
20
28.4529
11
23.8707733
21
29.4432133
0
LINE
8
DEFAULT_255_1_234
10
23.8707733
20
29.4432133
11
23.5711895
21
29.3331785
0
LINE
8
DEFAULT_255_1_234
10
23.5711895
20
29.3331785
11
23.5711895
21
29.4681117
0
LINE
8
DEFAULT_255_1_234
10
23.5711895
20
29.4681117
11
23.9968716
21
29.6279433
0
LINE
8
DEFAULT_255_1_234
10
23.9968716
20
29.6279433
11
24.0201636
21
29.6279433
0
LINE
8
DEFAULT_255_1_234
10
23.3654119
20
36.5116792
11
23.3654119
21
36.3904
0
LINE
8
DEFAULT_255_1_234
10
23.3654119
20
36.3904
11
22.599184
21
36.3904
0
LINE
8
DEFAULT_255_1_234
10
22.599184
20
36.3904
11
22.599184
21
36.4972221
0
LINE
8
DEFAULT_255_1_234
10
22.599184
20
36.4972221
11
23.0039836
21
36.9469995
0
LINE
8
DEFAULT_255_1_234
10
22.7252823
20
37.2152595
11
22.5766952
21
37.2152595
0
LINE
8
DEFAULT_255_1_234
10
23.0915296
20
36.8514218
11
22.7782918
21
36.5116792
0
LINE
8
DEFAULT_255_1_234
10
22.7782918
20
36.5116792
11
23.3654119
21
36.5116792
0
ARC
8
DEFAULT_255_1_234
10
21.654967
20
38.1399527
40
1.8008286
50
318.5132453
51
320.7828378
0
ARC
8
DEFAULT_255_1_234
10
22.1836644
20
37.7096426
40
1.1191493
50
320.7372736
51
323.9737074
0
ARC
8
DEFAULT_255_1_234
10
22.5756501
20
37.4256361
40
0.6350923
50
323.8961724
51
328.6421089
0
ARC
8
DEFAULT_255_1_234
10
22.7803096
20
37.2994031
40
0.3946393
50
328.8299013
51
331.789948
0
ARC
8
DEFAULT_255_1_234
10
22.8800274
20
37.2479509
40
0.2824501
50
331.4255242
51
352.9364833
0
ARC
8
DEFAULT_255_1_234
10
22.8936775
20
37.2448976
40
0.2685315
50
353.2248685
51
0.0169286
0
ARC
8
DEFAULT_255_1_234
10
22.9146652
20
37.247195
40
0.2475536
50
359.4866256
51
15.9339782
0
ARC
8
DEFAULT_255_1_234
10
22.9653637
20
37.2608286
40
0.1950618
50
16.1714718
51
43.5284424
0
ARC
8
DEFAULT_255_1_234
10
22.9730946
20
37.2685573
40
0.184134
50
43.4415429
51
83.1661404
0
ARC
8
DEFAULT_255_1_234
10
22.9596864
20
37.1948771
40
0.258926
50
82.160215
51
90.1505798
0
ARC
8
DEFAULT_255_1_234
10
22.9565291
20
37.1411865
40
0.3126255
50
89.5460705
51
102.5418777
0
ARC
8
DEFAULT_255_1_234
10
22.9322377
20
37.2442665
40
0.2067346
50
102.1739365
51
129.2061916
0
ARC
8
DEFAULT_255_1_234
10
22.9243449
20
37.2567094
40
0.1921118
50
129.7279328
51
135.7542026
0
ARC
8
DEFAULT_255_1_234
10
22.9364977
20
37.2470045
40
0.2075944
50
136.175737
51
166.3674722
0
ARC
8
DEFAULT_255_1_234
10
23.0371896
20
37.2200182
40
0.3118201
50
165.9092917
51
178.8683903
0
ARC
8
DEFAULT_255_1_234
10
23.1236757
20
37.2153179
40
0.3983935
50
178.438168
51
180.0083905
0
ARC
8
DEFAULT_255_1_234
10
22.9835359
20
37.2192231
40
0.4068601
50
163.2878735
51
180.5581814
0
ARC
8
DEFAULT_255_1_234
10
22.9033621
20
37.241284
40
0.3237344
50
133.454115
51
162.9470031
0
ARC
8
DEFAULT_255_1_234
10
22.9212162
20
37.2223
40
0.349795
50
100.7869394
51
133.4384016
0
ARC
8
DEFAULT_255_1_234
10
22.9559934
20
37.0674319
40
0.5084616
50
89.6605301
51
101.3704185
0
ARC
8
DEFAULT_255_1_234
10
22.9626273
20
37.0735496
40
0.502348
50
78.2171172
51
90.4130393
0
ARC
8
DEFAULT_255_1_234
10
22.9981351
20
37.2359637
40
0.3361092
50
55.9268222
51
78.4888551
0
ARC
8
DEFAULT_255_1_234
10
23.0177791
20
37.2698324
40
0.2970617
50
47.9292255
51
55.4054003
0
ARC
8
DEFAULT_255_1_234
10
23.0279352
20
37.2801502
40
0.2825983
50
4.3347696
51
48.0560701
0
ARC
8
DEFAULT_255_1_234
10
22.9183745
20
37.2631601
40
0.393225
50
359.925209
51
5.5967654
0
ARC
8
DEFAULT_255_1_234
10
22.9612637
20
37.2687816
40
0.3503892
50
337.8914096
51
358.9967724
0
ARC
8
DEFAULT_255_1_234
10
22.6899049
20
37.3734706
40
0.6412172
50
326.9135351
51
338.3505194
0
ARC
8
DEFAULT_255_1_234
10
22.2913353
20
37.6289284
40
1.1146189
50
319.6472867
51
327.095818
0
ARC
8
DEFAULT_255_1_234
10
21.9080356
20
37.9451
40
1.6114559
50
317.2586784
51
319.9046139
0
LINE
8
DEFAULT_255_1_234
10
24.2561316
20
37.0819327
11
24.2561316
21
36.8891709
0
LINE
8
DEFAULT_255_1_234
10
23.5180149
20
36.8690916
11
23.5180149
21
37.0674755
0
LINE
8
DEFAULT_255_1_234
10
24.1075445
20
36.8490123
11
24.1075445
21
37.0923739
0
LINE
8
DEFAULT_255_1_234
10
23.6666021
20
37.1036184
11
23.6666021
21
36.8658789
0
ARC
8
DEFAULT_255_1_234
10
23.0314206
20
36.8842805
40
1.2247208
50
353.8441951
51
0.2287902
0
ARC
8
DEFAULT_255_1_234
10
23.495371
20
36.8324806
40
0.7578929
50
344.4934747
51
353.9765454
0
ARC
8
DEFAULT_255_1_234
10
23.79463
20
36.7473981
40
0.4467846
50
329.2803592
51
344.7472793
0
ARC
8
DEFAULT_255_1_234
10
23.8939125
20
36.6929018
40
0.3336173
50
324.9352394
51
328.6160465
0
ARC
8
DEFAULT_255_1_234
10
23.9316233
20
36.6665427
40
0.2876076
50
280.580143
51
324.9173126
0
ARC
8
DEFAULT_255_1_234
10
23.8915026
20
36.8336099
40
0.4592847
50
269.5977311
51
281.6734359
0
ARC
8
DEFAULT_255_1_234
10
23.8842932
20
36.8216173
40
0.4472986
50
256.6228859
51
270.51044
0
ARC
8
DEFAULT_255_1_234
10
23.8440909
20
36.6667877
40
0.2873874
50
215.8618325
51
257.2788573
0
ARC
8
DEFAULT_255_1_234
10
23.9461941
20
36.7352977
40
0.4102928
50
197.9693508
51
215.2623606
0
ARC
8
DEFAULT_255_1_234
10
24.1947057
20
36.8191709
40
0.6725652
50
187.8816417
51
198.2346507
0
ARC
8
DEFAULT_255_1_234
10
24.5905265
20
36.8763079
40
1.0724845
50
180.8976217
51
188.0055519
0
ARC
8
DEFAULT_255_1_234
10
24.8705453
20
36.8866777
40
1.3526448
50
180.7449369
51
181.1510016
0
ARC
8
DEFAULT_255_1_234
10
24.7128182
20
37.0723042
40
1.1948131
50
173.7675579
51
180.231553
0
ARC
8
DEFAULT_255_1_234
10
24.2610329
20
37.1233666
40
0.7401564
50
164.3058563
51
173.9002247
0
ARC
8
DEFAULT_255_1_234
10
23.9698398
20
37.2072656
40
0.4371288
50
148.7922025
51
164.568378
0
ARC
8
DEFAULT_255_1_234
10
23.874685
20
37.2603929
40
0.3282386
50
144.5883898
51
148.1176286
0
ARC
8
DEFAULT_255_1_234
10
23.8403748
20
37.2843315
40
0.2864044
50
101.6440918
51
144.514236
0
ARC
8
DEFAULT_255_1_234
10
23.8828814
20
37.1154069
40
0.4604934
50
89.5284041
51
102.5819763
0
ARC
8
DEFAULT_255_1_234
10
23.8907902
20
37.1115018
40
0.464401
50
77.0437873
51
90.5081339
0
ARC
8
DEFAULT_255_1_234
10
23.9309904
20
37.2757615
40
0.2953195
50
48.2778575
51
77.4994676
0
ARC
8
DEFAULT_255_1_234
10
23.9382535
20
37.2886746
40
0.2808655
50
36.3142134
51
47.6305865
0
ARC
8
DEFAULT_255_1_234
10
23.8513842
20
37.2301515
40
0.3855453
50
18.2931786
51
35.6769206
0
ARC
8
DEFAULT_255_1_234
10
23.5970601
20
37.1428593
40
0.654423
50
8.024666
51
18.5605216
0
ARC
8
DEFAULT_255_1_234
10
23.1807521
20
37.0813792
40
1.0752407
50
1.1274072
51
8.1718305
0
ARC
8
DEFAULT_255_1_234
10
22.8571712
20
37.0686885
40
1.3990231
50
0.5424119
51
1.3863029
0
ARC
8
DEFAULT_255_1_234
10
23.0393089
20
37.0959342
40
1.0682415
50
359.8090433
51
4.9407866
0
ARC
8
DEFAULT_255_1_234
10
23.4603103
20
37.1335113
40
0.6455691
50
4.8362157
51
12.2904523
0
ARC
8
DEFAULT_255_1_234
10
23.7358218
20
37.1948965
40
0.3633074
50
12.0805627
51
23.8173984
0
ARC
8
DEFAULT_255_1_234
10
23.8531924
20
37.2445919
40
0.2358723
50
24.2871213
51
31.3935614
0
ARC
8
DEFAULT_255_1_234
10
23.9056621
20
37.2789233
40
0.1732111
50
30.7407893
51
82.4657128
0
ARC
8
DEFAULT_255_1_234
10
23.8876755
20
37.1905691
40
0.263235
50
81.1060089
51
90.2184952
0
ARC
8
DEFAULT_255_1_234
10
23.8841054
20
37.2163924
40
0.2374236
50
89.3806855
51
105.6762551
0
ARC
8
DEFAULT_255_1_234
10
23.8657685
20
37.2830567
40
0.1682847
50
105.7981136
51
149.7388061
0
ARC
8
DEFAULT_255_1_234
10
23.9721763
20
37.219095
40
0.2924306
50
149.4208916
51
163.6286378
0
ARC
8
DEFAULT_255_1_234
10
24.1812651
20
37.155325
40
0.5110213
50
163.3763315
51
172.1410975
0
ARC
8
DEFAULT_255_1_234
10
24.511337
20
37.1080518
40
0.8444586
50
172.0259487
51
178.0703232
0
ARC
8
DEFAULT_255_1_234
10
24.814346
20
37.0936906
40
1.1477868
50
177.8631668
51
179.5044149
0
ARC
8
DEFAULT_255_1_234
10
24.7070864
20
36.8622389
40
1.0404907
50
179.7995573
51
185.2460446
0
ARC
8
DEFAULT_255_1_234
10
24.3027903
20
36.8239513
40
0.6343885
50
185.1411642
51
193.0079639
0
ARC
8
DEFAULT_255_1_234
10
24.0384376
20
36.7614641
40
0.3627568
50
192.7897626
51
205.2507664
0
ARC
8
DEFAULT_255_1_234
10
23.9337923
20
36.7147415
40
0.2481908
50
205.8005384
51
211.2537509
0
ARC
8
DEFAULT_255_1_234
10
23.8814363
20
36.679658
40
0.1852521
50
210.3789793
51
238.4008143
0
ARC
8
DEFAULT_255_1_234
10
23.8794885
20
36.6843376
40
0.1882621
50
239.6520629
51
265.9793761
0
ARC
8
DEFAULT_255_1_234
10
23.8880085
20
36.7515427
40
0.2559272
50
265.1315437
51
270.060332
0
ARC
8
DEFAULT_255_1_234
10
23.8908864
20
36.7191534
40
0.2235528
50
269.3314664
51
287.2178029
0
ARC
8
DEFAULT_255_1_234
10
23.9046716
20
36.6688279
40
0.1714108
50
287.7958004
51
329.080874
0
ARC
8
DEFAULT_255_1_234
10
23.8089173
20
36.728593
40
0.2842745
50
328.6634704
51
343.3325132
0
ARC
8
DEFAULT_255_1_234
10
23.5916193
20
36.7962863
40
0.5118644
50
343.0499468
51
351.9393422
0
ARC
8
DEFAULT_255_1_234
10
23.2449493
20
36.8473949
40
0.8622784
50
351.8069023
51
357.7959224
0
ARC
8
DEFAULT_255_1_234
10
22.9214049
20
36.8641721
40
1.1862365
50
357.5871873
51
359.2677531
0
LINE
8
DEFAULT_255_1_234
10
23.0875137
20
45.5029433
11
23.0875137
21
44.3279
0
LINE
8
DEFAULT_255_1_234
10
23.0875137
20
44.3279
11
22.9381234
21
44.3279
0
LINE
8
DEFAULT_255_1_234
10
22.9381234
20
44.3279
11
22.9381234
21
45.3182133
0
LINE
8
DEFAULT_255_1_234
10
22.9381234
20
45.3182133
11
22.6385396
21
45.2081785
0
LINE
8
DEFAULT_255_1_234
10
22.6385396
20
45.2081785
11
22.6385396
21
45.3431117
0
LINE
8
DEFAULT_255_1_234
10
22.6385396
20
45.3431117
11
23.0642217
21
45.5029433
0
LINE
8
DEFAULT_255_1_234
10
23.0642217
20
45.5029433
11
23.0875137
21
45.5029433
0
LINE
8
DEFAULT_255_1_234
10
24.2416745
20
45.0298739
11
24.2416745
21
44.9865025
0
LINE
8
DEFAULT_255_1_234
10
23.6995322
20
44.3270968
11
23.6706179
21
44.3270968
0
LINE
8
DEFAULT_255_1_234
10
23.6706179
20
44.3270968
11
23.6706179
21
44.4523919
0
LINE
8
DEFAULT_255_1_234
10
23.6706179
20
44.4523919
11
23.7019417
21
44.4523919
0
LINE
8
DEFAULT_255_1_234
10
24.0930874
20
45.0009597
11
24.0930874
21
45.0603945
0
ARC
8
DEFAULT_255_1_234
10
23.8137143
20
45.0755403
40
0.3635579
50
297.4037347
51
320.016758
0
ARC
8
DEFAULT_255_1_234
10
23.8427092
20
45.019824
40
0.3007486
50
270.2633101
51
297.3851877
0
ARC
8
DEFAULT_255_1_234
10
23.8393048
20
45.0661904
40
0.3471448
50
269.9966443
51
270.7900392
0
ARC
8
DEFAULT_255_1_234
10
23.8367529
20
45.0660143
40
0.3469779
50
254.5999133
51
270.4180344
0
ARC
8
DEFAULT_255_1_234
10
23.8224888
20
45.0095647
40
0.2887697
50
236.4717942
51
254.3541279
0
ARC
8
DEFAULT_255_1_234
10
23.8381106
20
45.0305711
40
0.3149125
50
208.4727207
51
236.2134933
0
ARC
8
DEFAULT_255_1_234
10
23.9019881
20
45.0696455
40
0.3897115
50
204.3447514
51
209.0453999
0
ARC
8
DEFAULT_255_1_234
10
23.9699457
20
45.0984656
40
0.4635101
50
183.9375985
51
204.1276318
0
ARC
8
DEFAULT_255_1_234
10
24.0607708
20
45.1082482
40
0.5548037
50
179.9652252
51
184.3013875
0
ARC
8
DEFAULT_255_1_234
10
24.0367754
20
45.1115507
40
0.5308164
50
166.7585989
51
180.3201225
0
ARC
8
DEFAULT_255_1_234
10
23.9521368
20
45.1299488
40
0.4442163
50
154.6955053
51
166.5679793
0
ARC
8
DEFAULT_255_1_234
10
23.8668238
20
45.172921
40
0.3487299
50
136.3324195
51
155.0871442
0
ARC
8
DEFAULT_255_1_234
10
23.8387311
20
45.1969954
40
0.3117924
50
121.236733
51
135.9680508
0
ARC
8
DEFAULT_255_1_234
10
23.8527809
20
45.1709743
40
0.3413302
50
96.845628
51
120.9881519
0
ARC
8
DEFAULT_255_1_234
10
23.8673391
20
45.0774515
40
0.4359341
50
89.8870174
51
97.2802754
0
ARC
8
DEFAULT_255_1_234
10
23.8725829
20
45.1412095
40
0.3722009
50
70.6505584
51
90.6749113
0
ARC
8
DEFAULT_255_1_234
10
23.8857108
20
45.1925361
40
0.3194571
50
36.7492984
51
69.8219918
0
ARC
8
DEFAULT_255_1_234
10
23.7858273
20
45.1146993
40
0.4460685
50
15.39587
51
37.0840084
0
ARC
8
DEFAULT_255_1_234
10
23.5728706
20
45.0526242
40
0.6678714
50
3.9488873
51
15.6798563
0
ARC
8
DEFAULT_255_1_234
10
23.3327334
20
45.0309964
40
0.9089418
50
359.929245
51
4.2665314
0
ARC
8
DEFAULT_255_1_234
10
22.8721771
20
44.9798513
40
1.3695135
50
352.8366322
51
0.2782669
0
ARC
8
DEFAULT_255_1_234
10
23.400945
20
44.9111629
40
0.8363105
50
341.8359505
51
352.9884176
0
ARC
8
DEFAULT_255_1_234
10
23.7228169
20
44.80267
40
0.4966642
50
322.8578092
51
342.1527901
0
ARC
8
DEFAULT_255_1_234
10
23.8092125
20
44.7437384
40
0.3922466
50
319.334325
51
322.0998941
0
ARC
8
DEFAULT_255_1_234
10
23.7782462
20
44.7748209
40
0.4360033
50
285.9541367
51
318.8878087
0
ARC
8
DEFAULT_255_1_234
10
23.7055723
20
45.00586
40
0.678149
50
272.9281676
51
286.4922826
0
ARC
8
DEFAULT_255_1_234
10
23.6865841
20
45.2309587
40
0.9039547
50
270.8207226
51
273.4012994
0
ARC
8
DEFAULT_255_1_234
10
23.6954692
20
45.0490666
40
0.5967098
50
270.6214993
51
281.4062806
0
ARC
8
DEFAULT_255_1_234
10
23.7384673
20
44.8434833
40
0.3866861
50
281.1852553
51
299.0621114
0
ARC
8
DEFAULT_255_1_234
10
23.7758244
20
44.7713798
40
0.3055236
50
299.5067782
51
313.1200873
0
ARC
8
DEFAULT_255_1_234
10
23.7780211
20
44.7634554
40
0.2982623
50
313.8526205
51
338.5989322
0
ARC
8
DEFAULT_255_1_234
10
23.6156285
20
44.8301781
40
0.4738131
50
338.2523585
51
351.2430902
0
ARC
8
DEFAULT_255_1_234
10
23.3745581
20
44.8711447
40
0.7183203
50
350.9409515
51
357.6691871
0
ARC
8
DEFAULT_255_1_234
10
23.8636011
20
45.0713764
40
0.2294452
50
269.9447023
51
306.8248917
0
ARC
8
DEFAULT_255_1_234
10
23.8398926
20
45.1136898
40
0.2775994
50
305.5072438
51
327.0773448
0
ARC
8
DEFAULT_255_1_234
10
23.8517367
20
45.1042025
40
0.2625056
50
327.4104943
51
336.840169
0
ARC
8
DEFAULT_255_1_234
10
23.5423432
20
45.0636302
40
0.5507537
50
359.6633817
51
10.117533
0
ARC
8
DEFAULT_255_1_234
10
23.717723
20
45.0960777
40
0.372403
50
9.9430141
51
26.7700076
0
ARC
8
DEFAULT_255_1_234
10
23.7774442
20
45.1236187
40
0.3066865
50
27.2015464
51
34.6829435
0
ARC
8
DEFAULT_255_1_234
10
23.8263922
20
45.1603977
40
0.245519
50
34.1250343
51
50.3070065
0
ARC
8
DEFAULT_255_1_234
10
23.8710602
20
45.2138385
40
0.1758693
50
50.3851167
51
90.6705993
0
ARC
8
DEFAULT_255_1_234
10
23.8663835
20
45.1833799
40
0.2063326
50
89.272901
51
111.9140407
0
ARC
8
DEFAULT_255_1_234
10
23.8644363
20
45.197444
40
0.1925887
50
112.9382311
51
142.5320782
0
ARC
8
DEFAULT_255_1_234
10
23.9190543
20
45.1530969
40
0.2629232
50
142.1021256
51
166.3835592
0
ARC
8
DEFAULT_255_1_234
10
24.0371848
20
45.1225915
40
0.3849193
50
166.1100289
51
178.665427
0
ARC
8
DEFAULT_255_1_234
10
24.1419437
20
45.1167117
40
0.4897989
50
178.2632126
51
180.0111093
0
ARC
8
DEFAULT_255_1_234
10
24.0617558
20
45.1138728
40
0.40962
50
179.6161962
51
191.8787166
0
ARC
8
DEFAULT_255_1_234
10
23.9397397
20
45.0868896
40
0.2846655
50
191.6191692
51
215.2972286
0
ARC
8
DEFAULT_255_1_234
10
23.9200588
20
45.0753918
40
0.2619665
50
215.7320102
51
216.5355409
0
ARC
8
DEFAULT_255_1_234
10
23.8661674
20
45.0321647
40
0.1929497
50
215.7486685
51
239.9727502
0
ARC
8
DEFAULT_255_1_234
10
23.859159
20
45.0270894
40
0.1850822
50
241.0650169
51
269.2810483
0
ARC
8
DEFAULT_255_1_234
10
23.8633505
20
45.0761371
40
0.2342059
50
268.4062526
51
270.0071348
0
LINE
8
DEFAULT_255_1_234
10
23.0875137
20
53.4404433
11
23.0875137
21
52.2654
0
LINE
8
DEFAULT_255_1_234
10
23.0875137
20
52.2654
11
22.9381234
21
52.2654
0
LINE
8
DEFAULT_255_1_234
10
22.9381234
20
52.2654
11
22.9381234
21
53.2557133
0
LINE
8
DEFAULT_255_1_234
10
22.9381234
20
53.2557133
11
22.6385396
21
53.1456785
0
LINE
8
DEFAULT_255_1_234
10
22.6385396
20
53.1456785
11
22.6385396
21
53.2806117
0
LINE
8
DEFAULT_255_1_234
10
22.6385396
20
53.2806117
11
23.0642217
21
53.4404433
0
LINE
8
DEFAULT_255_1_234
10
23.0642217
20
53.4404433
11
23.0875137
21
53.4404433
0
ARC
8
DEFAULT_255_1_234
10
23.9498123
20
53.1270703
40
0.2822356
50
338.8763615
51
0.5166041
0
ARC
8
DEFAULT_255_1_234
10
23.9666777
20
53.1225208
40
0.2648703
50
325.8412414
51
338.4795939
0
ARC
8
DEFAULT_255_1_234
10
23.9276145
20
53.1496042
40
0.3124019
50
296.7586019
51
325.753654
0
ARC
8
DEFAULT_255_1_234
10
23.8988253
20
53.1980789
40
0.368668
50
296.0902311
51
297.3618122
0
ARC
8
DEFAULT_255_1_234
10
23.9245711
20
52.5426041
40
0.3518806
50
47.9009248
51
67.1946869
0
ARC
8
DEFAULT_255_1_234
10
23.9441953
20
52.5672395
40
0.320451
50
35.236241
51
47.551371
0
ARC
8
DEFAULT_255_1_234
10
23.9703571
20
52.5846993
40
0.2890103
50
359.2759738
51
35.4014081
0
ARC
8
DEFAULT_255_1_234
10
23.8958602
20
52.5773826
40
0.3635026
50
343.1294516
51
0.5776525
0
ARC
8
DEFAULT_255_1_234
10
23.9683147
20
52.557433
40
0.2883832
50
310.8497458
51
342.744803
0
ARC
8
DEFAULT_255_1_234
10
23.926526
20
52.6051294
40
0.3517954
50
281.5473923
51
310.9169905
0
ARC
8
DEFAULT_255_1_234
10
23.890871
20
52.7604084
40
0.5110832
50
269.6192722
51
281.9789957
0
ARC
8
DEFAULT_255_1_234
10
23.8836499
20
52.7604828
40
0.5111606
50
257.4584469
51
270.4287458
0
ARC
8
DEFAULT_255_1_234
10
23.8455642
20
52.6001344
40
0.3463762
50
228.7553743
51
257.8484423
0
ARC
8
DEFAULT_255_1_234
10
23.814584
20
52.5628442
40
0.297916
50
184.0104442
51
228.5071787
0
ARC
8
DEFAULT_255_1_234
10
23.9308784
20
52.5805512
40
0.4152734
50
179.9315461
51
185.3254504
0
ARC
8
DEFAULT_255_1_234
10
23.813243
20
52.5842992
40
0.2976554
50
145.6795913
51
180.6259649
0
ARC
8
DEFAULT_255_1_234
10
23.8295779
20
52.5728929
40
0.3175776
50
115.5537925
51
145.6416199
0
ARC
8
DEFAULT_255_1_234
10
23.8636709
20
52.5118028
40
0.3874232
50
113.2437915
51
116.2054627
0
ARC
8
DEFAULT_255_1_234
10
23.8483922
20
53.151658
40
0.3154751
50
222.9548379
51
244.1372485
0
ARC
8
DEFAULT_255_1_234
10
23.8361997
20
53.1379834
40
0.2972382
50
213.3439227
51
222.6271327
0
ARC
8
DEFAULT_255_1_234
10
23.8169932
20
53.1249308
40
0.274019
50
180.4316517
51
213.2713999
0
ARC
8
DEFAULT_255_1_234
10
23.8744933
20
53.129611
40
0.33158
50
179.9992944
51
181.1655061
0
ARC
8
DEFAULT_255_1_234
10
23.915435
20
53.1330561
40
0.3725376
50
164.6186108
51
180.5292368
0
ARC
8
DEFAULT_255_1_234
10
23.8256213
20
53.1572101
40
0.2795349
50
132.2454369
51
164.5092287
0
ARC
8
DEFAULT_255_1_234
10
23.8543317
20
53.1247028
40
0.3229019
50
100.7052766
51
132.1387266
0
ARC
8
DEFAULT_255_1_234
10
23.8848289
20
52.9869086
40
0.4639835
50
89.6732617
51
101.2449487
0
ARC
8
DEFAULT_255_1_234
10
23.8910487
20
53.004399
40
0.4464999
50
76.2876631
51
90.4586123
0
ARC
8
DEFAULT_255_1_234
10
23.9216719
20
53.126622
40
0.3205023
50
47.8240157
51
76.4266918
0
ARC
8
DEFAULT_255_1_234
10
23.9439269
20
53.152659
40
0.2862661
50
6.9168658
51
47.6261438
0
ARC
8
DEFAULT_255_1_234
10
23.8252672
20
53.130737
40
0.4067708
50
359.8419705
51
7.9694496
0
ARC
8
DEFAULT_255_1_234
10
23.8594569
20
52.5866925
40
0.2513121
50
359.4454068
51
16.9256425
0
ARC
8
DEFAULT_255_1_234
10
23.906338
20
52.5996033
40
0.2027071
50
17.292259
51
45.462717
0
ARC
8
DEFAULT_255_1_234
10
23.9009316
20
52.5949434
40
0.2098212
50
45.3028762
51
83.1921472
0
ARC
8
DEFAULT_255_1_234
10
23.8866
20
52.5147895
40
0.2911472
50
82.2614531
51
90.143954
0
ARC
8
DEFAULT_255_1_234
10
23.883512
20
52.538095
40
0.2678513
50
89.4959189
51
104.8579811
0
ARC
8
DEFAULT_255_1_234
10
23.8658379
20
52.605089
40
0.1985654
50
104.8855873
51
135.2448349
0
ARC
8
DEFAULT_255_1_234
10
23.8708152
20
52.6006336
40
0.2052373
50
135.3398955
51
172.104394
0
ARC
8
DEFAULT_255_1_234
10
23.951521
20
52.5851925
40
0.2873299
50
171.2651929
51
180.1859362
0
ARC
8
DEFAULT_255_1_234
10
23.9345911
20
52.5819733
40
0.2704083
50
179.515471
51
193.6466734
0
ARC
8
DEFAULT_255_1_234
10
23.852968
20
52.5611777
40
0.1861855
50
193.3540587
51
225.8256931
0
ARC
8
DEFAULT_255_1_234
10
23.8570437
20
52.5682524
40
0.1941102
50
226.418029
51
255.8553723
0
ARC
8
DEFAULT_255_1_234
10
23.882687
20
52.6618998
40
0.2911917
50
255.4655572
51
268.7985967
0
ARC
8
DEFAULT_255_1_234
10
23.8874062
20
52.7457491
40
0.3751331
50
268.3464808
51
270.0104874
0
ARC
8
DEFAULT_255_1_234
10
23.889745
20
52.6773138
40
0.3067064
50
269.575914
51
282.0823146
0
ARC
8
DEFAULT_255_1_234
10
23.9122359
20
52.5778803
40
0.2047712
50
281.7522535
51
306.6056425
0
ARC
8
DEFAULT_255_1_234
10
23.9220785
20
52.5617487
40
0.1859604
50
307.1350025
51
314.0277951
0
ARC
8
DEFAULT_255_1_234
10
23.9184869
20
52.5643766
40
0.1903475
50
314.2553419
51
350.169324
0
ARC
8
DEFAULT_255_1_234
10
23.8333338
20
52.5828409
40
0.2774269
50
349.4145679
51
0.2930737
0
ARC
8
DEFAULT_255_1_234
10
23.8853771
20
53.0987353
40
0.2300764
50
89.477591
51
105.729794
0
ARC
8
DEFAULT_255_1_234
10
23.8717684
20
53.1492637
40
0.1777519
50
105.922966
51
135.1662921
0
ARC
8
DEFAULT_255_1_234
10
23.8738187
20
53.1478419
40
0.1802087
50
135.3053131
51
168.9882338
0
ARC
8
DEFAULT_255_1_234
10
23.9565759
20
53.1288721
40
0.2650806
50
168.3802067
51
180.3602358
0
ARC
8
DEFAULT_255_1_234
10
23.9337339
20
53.1251041
40
0.2422425
50
179.5029707
51
194.9126783
0
ARC
8
DEFAULT_255_1_234
10
23.8752
20
53.109711
40
0.1817188
50
194.9722181
51
224.1943972
0
ARC
8
DEFAULT_255_1_234
10
23.8723867
20
53.1074169
40
0.1781027
50
224.2961434
51
262.0157375
0
ARC
8
DEFAULT_255_1_234
10
23.886611
20
53.1805661
40
0.2525492
50
261.1250369
51
270.1959853
0
ARC
8
DEFAULT_255_1_234
10
23.8895865
20
53.1618339
40
0.233825
50
269.4825617
51
285.0988277
0
ARC
8
DEFAULT_255_1_234
10
23.9050024
20
53.103999
40
0.1739712
50
285.1585659
51
315.9484648
0
ARC
8
DEFAULT_255_1_234
10
23.8961036
20
53.1121886
40
0.1860616
50
316.0412958
51
351.9162715
0
ARC
8
DEFAULT_255_1_234
10
23.8227991
20
53.1263245
40
0.2606517
50
351.1056823
51
0.1936567
0
ARC
8
DEFAULT_255_1_234
10
23.849082
20
53.1293369
40
0.234377
50
359.4789506
51
16.0679113
0
ARC
8
DEFAULT_255_1_234
10
23.8966779
20
53.142181
40
0.1850875
50
16.3251951
51
44.791304
0
ARC
8
DEFAULT_255_1_234
10
23.894906
20
53.1422339
40
0.186312
50
44.3958661
51
88.2498933
0
ARC
8
DEFAULT_255_1_234
10
23.8875614
20
53.0811154
40
0.2476868
50
86.9833827
51
90.0200148
0
LINE
8
DEFAULT_255_1_234
10
23.0875137
20
61.3779433
11
23.0875137
21
60.2029
0
LINE
8
DEFAULT_255_1_234
10
23.0875137
20
60.2029
11
22.9381234
21
60.2029
0
LINE
8
DEFAULT_255_1_234
10
22.9381234
20
60.2029
11
22.9381234
21
61.1932133
0
LINE
8
DEFAULT_255_1_234
10
22.9381234
20
61.1932133
11
22.6385396
21
61.0831785
0
LINE
8
DEFAULT_255_1_234
10
22.6385396
20
61.0831785
11
22.6385396
21
61.2181117
0
LINE
8
DEFAULT_255_1_234
10
22.6385396
20
61.2181117
11
23.0642217
21
61.3779433
0
LINE
8
DEFAULT_255_1_234
10
23.0642217
20
61.3779433
11
23.0875137
21
61.3779433
0
LINE
8
DEFAULT_255_1_234
10
24.2778173
20
61.3723211
11
24.2778173
21
61.288791
0
LINE
8
DEFAULT_255_1_234
10
24.2778173
20
61.288791
11
23.7935035
21
60.2029
0
LINE
8
DEFAULT_255_1_234
10
23.7935035
20
60.2029
11
23.6376878
21
60.2029
0
LINE
8
DEFAULT_255_1_234
10
23.6376878
20
60.2029
11
24.1203953
21
61.2502387
0
LINE
8
DEFAULT_255_1_234
10
24.1203953
20
61.2502387
11
23.4874943
21
61.2502387
0
LINE
8
DEFAULT_255_1_234
10
23.4874943
20
61.2502387
11
23.4874943
21
61.3723211
0
LINE
8
DEFAULT_255_1_234
10
23.4874943
20
61.3723211
11
24.2778173
21
61.3723211
0
LINE
8
DEFAULT_255_1_234
10
23.0875137
20
69.3154433
11
23.0875137
21
68.1404
0
LINE
8
DEFAULT_255_1_234
10
23.0875137
20
68.1404
11
22.9381234
21
68.1404
0
LINE
8
DEFAULT_255_1_234
10
22.9381234
20
68.1404
11
22.9381234
21
69.1307133
0
LINE
8
DEFAULT_255_1_234
10
22.9381234
20
69.1307133
11
22.6385396
21
69.0206785
0
LINE
8
DEFAULT_255_1_234
10
22.6385396
20
69.0206785
11
22.6385396
21
69.1556117
0
LINE
8
DEFAULT_255_1_234
10
22.6385396
20
69.1556117
11
23.0642217
21
69.3154433
0
LINE
8
DEFAULT_255_1_234
10
23.0642217
20
69.3154433
11
23.0875137
21
69.3154433
0
LINE
8
DEFAULT_255_1_234
10
24.0794334
20
69.3106243
11
24.1059381
21
69.3106243
0
LINE
8
DEFAULT_255_1_234
10
24.1059381
20
69.3106243
11
24.1059381
21
69.184526
0
LINE
8
DEFAULT_255_1_234
10
24.1059381
20
69.184526
11
24.0786302
21
69.184526
0
LINE
8
DEFAULT_255_1_234
10
23.5316688
20
68.5853583
11
23.5316688
21
68.6423836
0
LINE
8
DEFAULT_255_1_234
10
23.6810592
20
68.6231075
11
23.6810592
21
68.5684917
0
ARC
8
DEFAULT_255_1_234
10
24.083865
20
68.6847455
40
0.4998079
50
90.6001036
51
104.514704
0
ARC
8
DEFAULT_255_1_234
10
24.0450166
20
68.8292131
40
0.3502176
50
104.2855254
51
133.862935
0
ARC
8
DEFAULT_255_1_234
10
24.0613923
20
68.818383
40
0.3693984
50
134.5302688
51
161.6210873
0
ARC
8
DEFAULT_255_1_234
10
24.2267112
20
68.7600895
40
0.5446739
50
161.2849839
51
174.2076652
0
ARC
8
DEFAULT_255_1_234
10
24.3674049
20
68.7406787
40
0.6866274
50
173.7810589
51
174.9254635
0
ARC
8
DEFAULT_255_1_234
10
23.9123881
20
68.6023839
40
0.3033419
50
95.8330959
51
138.9954921
0
ARC
8
DEFAULT_255_1_234
10
23.9347237
20
68.4745375
40
0.4328947
50
89.8753725
51
97.0544009
0
ARC
8
DEFAULT_255_1_234
10
23.9394703
20
68.5580748
40
0.3493769
50
71.6407809
51
90.6240094
0
ARC
8
DEFAULT_255_1_234
10
23.9545276
20
68.6135082
40
0.2920396
50
39.6367836
51
71.019018
0
ARC
8
DEFAULT_255_1_234
10
23.8908749
20
68.5584998
40
0.3761538
50
10.658731
51
39.9043955
0
ARC
8
DEFAULT_255_1_234
10
23.7360832
20
68.5248686
40
0.5345136
50
359.682601
51
11.132623
0
ARC
8
DEFAULT_255_1_234
10
23.7320963
20
68.517801
40
0.5385081
50
347.2486944
51
0.4369317
0
ARC
8
DEFAULT_255_1_234
10
23.898844
20
68.4776807
40
0.3670249
50
318.1409698
51
347.6118597
0
ARC
8
DEFAULT_255_1_234
10
23.9313433
20
68.4509702
40
0.3250007
50
275.6342139
51
317.8248465
0
ARC
8
DEFAULT_255_1_234
10
23.9092544
20
68.5809219
40
0.4565864
50
269.8874292
51
276.7917694
0
ARC
8
DEFAULT_255_1_234
10
23.9037615
20
68.4783743
40
0.3540676
50
246.9140195
51
270.7437342
0
ARC
8
DEFAULT_255_1_234
10
23.9044005
20
68.4641384
40
0.3412781
50
218.1665114
51
245.878116
0
ARC
8
DEFAULT_255_1_234
10
23.9923466
20
68.5377279
40
0.455911
50
191.4115814
51
218.6077802
0
ARC
8
DEFAULT_255_1_234
10
24.1861555
20
68.5811833
40
0.6545001
50
179.6345085
51
191.7836486
0
ARC
8
DEFAULT_255_1_234
10
24.7443892
20
68.6490697
40
1.2127388
50
171.4525249
51
180.3158839
0
ARC
8
DEFAULT_255_1_234
10
24.3048768
20
68.7174608
40
0.7679464
50
157.9802646
51
171.6246686
0
ARC
8
DEFAULT_255_1_234
10
24.0834789
20
68.8057421
40
0.5296008
50
141.4298019
51
157.854097
0
ARC
8
DEFAULT_255_1_234
10
24.0193109
20
68.8511381
40
0.4511509
50
102.8715806
51
140.8564722
0
ARC
8
DEFAULT_255_1_234
10
24.0840725
20
68.6071552
40
0.7034845
50
90.3778349
51
103.5869322
0
ARC
8
DEFAULT_255_1_234
10
23.9102501
20
68.546673
40
0.2370698
50
89.8751008
51
126.2071704
0
ARC
8
DEFAULT_255_1_234
10
23.9148291
20
68.5312303
40
0.2522934
50
124.9745049
51
144.895901
0
ARC
8
DEFAULT_255_1_234
10
23.8972481
20
68.545556
40
0.2296779
50
145.2974905
51
160.2660252
0
ARC
8
DEFAULT_255_1_234
10
24.204502
20
68.5653071
40
0.5234525
50
179.6514266
51
190.2855912
0
ARC
8
DEFAULT_255_1_234
10
24.0351157
20
68.5333786
40
0.3510893
50
190.0945431
51
207.5098196
0
ARC
8
DEFAULT_255_1_234
10
23.9785427
20
68.5064623
40
0.288489
50
207.9583163
51
216.3251085
0
ARC
8
DEFAULT_255_1_234
10
23.9445535
20
68.4785105
40
0.2445587
50
215.7661442
51
232.5456785
0
ARC
8
DEFAULT_255_1_234
10
23.9062518
20
68.4298482
40
0.1826382
50
232.8005391
51
270.6605633
0
ARC
8
DEFAULT_255_1_234
10
23.9108219
20
68.4662612
40
0.2190529
50
269.35537
51
288.4744281
0
ARC
8
DEFAULT_255_1_234
10
23.9201116
20
68.4313118
40
0.1829749
50
289.1833337
51
322.9683818
0
ARC
8
DEFAULT_255_1_234
10
23.8589638
20
68.4795391
40
0.2608399
50
322.6007884
51
346.5182367
0
ARC
8
DEFAULT_255_1_234
10
23.7432234
20
68.5090616
40
0.3802777
50
346.2582162
51
358.7741648
0
ARC
8
DEFAULT_255_1_234
10
23.6413903
20
68.5145965
40
0.4822176
50
358.3755224
51
0.0098023
0
ARC
8
DEFAULT_255_1_234
10
23.717009
20
68.5173657
40
0.4066078
50
359.6214041
51
11.2839074
0
ARC
8
DEFAULT_255_1_234
10
23.8447237
20
68.5440066
40
0.2761514
50
11.0482309
51
31.8146458
0
ARC
8
DEFAULT_255_1_234
10
23.875628
20
68.5607584
40
0.2410679
50
32.3035391
51
38.082671
0
ARC
8
DEFAULT_255_1_234
10
23.917694
20
68.5988662
40
0.1844966
50
36.825067
51
85.7415724
0
ARC
8
DEFAULT_255_1_234
10
23.9109773
20
68.5488301
40
0.2349122
50
85.0140713
51
90.0513278
0
LINE
8
DEFAULT_255_1_234
10
23.186685
20
76.7204391
11
23.186685
21
76.5943408
0
LINE
8
DEFAULT_255_1_234
10
23.186685
20
76.5943408
11
22.6959458
21
76.5943408
0
LINE
8
DEFAULT_255_1_234
10
22.6959458
20
76.5943408
11
22.6959458
21
76.0779
0
LINE
8
DEFAULT_255_1_234
10
22.6959458
20
76.0779
11
22.5417364
21
76.0779
0
LINE
8
DEFAULT_255_1_234
10
22.5417364
20
76.0779
11
22.5417364
21
77.2473211
0
LINE
8
DEFAULT_255_1_234
10
22.5417364
20
77.2473211
11
23.2661992
21
77.2473211
0
LINE
8
DEFAULT_255_1_234
10
23.2661992
20
77.2473211
11
23.2661992
21
77.1204196
0
LINE
8
DEFAULT_255_1_234
10
23.2661992
20
77.1204196
11
22.6959458
21
77.1204196
0
LINE
8
DEFAULT_255_1_234
10
22.6959458
20
77.1204196
11
22.6959458
21
76.7204391
0
LINE
8
DEFAULT_255_1_234
10
22.6959458
20
76.7204391
11
23.186685
21
76.7204391
0
LINE
8
DEFAULT_255_1_234
10
24.1119412
20
76.7445343
11
24.1119412
21
76.618436
0
LINE
8
DEFAULT_255_1_234
10
24.1119412
20
76.618436
11
23.6051385
21
76.618436
0
LINE
8
DEFAULT_255_1_234
10
23.6051385
20
76.618436
11
23.6051385
21
76.2039983
0
LINE
8
DEFAULT_255_1_234
10
23.6051385
20
76.2039983
11
24.1938649
21
76.2039983
0
LINE
8
DEFAULT_255_1_234
10
24.1938649
20
76.2039983
11
24.1938649
21
76.0779
0
LINE
8
DEFAULT_255_1_234
10
24.1938649
20
76.0779
11
23.4509292
21
76.0779
0
LINE
8
DEFAULT_255_1_234
10
23.4509292
20
76.0779
11
23.4509292
21
77.2473211
0
LINE
8
DEFAULT_255_1_234
10
23.4509292
20
77.2473211
11
24.1858332
21
77.2473211
0
LINE
8
DEFAULT_255_1_234
10
24.1858332
20
77.2473211
11
24.1858332
21
77.1204196
0
LINE
8
DEFAULT_255_1_234
10
24.1858332
20
77.1204196
11
23.6051385
21
77.1204196
0
LINE
8
DEFAULT_255_1_234
10
23.6051385
20
77.1204196
11
23.6051385
21
76.7445343
0
LINE
8
DEFAULT_255_1_234
10
23.6051385
20
76.7445343
11
24.1119412
21
76.7445343
0
LINE
8
DEFAULT_255_1_234
10
23.1654817
20
84.7069327
11
23.1654817
21
84.5141709
0
LINE
8
DEFAULT_255_1_234
10
22.427365
20
84.4940916
11
22.427365
21
84.6924755
0
LINE
8
DEFAULT_255_1_234
10
23.0168946
20
84.4740123
11
23.0168946
21
84.7173739
0
LINE
8
DEFAULT_255_1_234
10
22.5759521
20
84.7286184
11
22.5759521
21
84.4908789
0
ARC
8
DEFAULT_255_1_234
10
21.9407707
20
84.5092805
40
1.2247208
50
353.8441951
51
0.2287902
0
ARC
8
DEFAULT_255_1_234
10
22.4047211
20
84.4574806
40
0.7578929
50
344.4934747
51
353.9765454
0
ARC
8
DEFAULT_255_1_234
10
22.7039801
20
84.3723981
40
0.4467846
50
329.2803592
51
344.7472793
0
ARC
8
DEFAULT_255_1_234
10
22.8032626
20
84.3179018
40
0.3336173
50
324.9352394
51
328.6160465
0
ARC
8
DEFAULT_255_1_234
10
22.8409734
20
84.2915427
40
0.2876076
50
280.580143
51
324.9173126
0
ARC
8
DEFAULT_255_1_234
10
22.8008527
20
84.4586099
40
0.4592847
50
269.5977311
51
281.6734359
0
ARC
8
DEFAULT_255_1_234
10
22.7936433
20
84.4466173
40
0.4472986
50
256.6228859
51
270.51044
0
ARC
8
DEFAULT_255_1_234
10
22.753441
20
84.2917877
40
0.2873874
50
215.8618325
51
257.2788573
0
ARC
8
DEFAULT_255_1_234
10
22.8555442
20
84.3602977
40
0.4102928
50
197.9693508
51
215.2623606
0
ARC
8
DEFAULT_255_1_234
10
23.1040558
20
84.4441709
40
0.6725652
50
187.8816417
51
198.2346507
0
ARC
8
DEFAULT_255_1_234
10
23.4998766
20
84.5013079
40
1.0724845
50
180.8976217
51
188.0055519
0
ARC
8
DEFAULT_255_1_234
10
23.7798954
20
84.5116777
40
1.3526448
50
180.7449369
51
181.1510016
0
ARC
8
DEFAULT_255_1_234
10
23.6221683
20
84.6973042
40
1.1948131
50
173.7675579
51
180.231553
0
ARC
8
DEFAULT_255_1_234
10
23.170383
20
84.7483666
40
0.7401564
50
164.3058563
51
173.9002247
0
ARC
8
DEFAULT_255_1_234
10
22.8791899
20
84.8322656
40
0.4371288
50
148.7922025
51
164.568378
0
ARC
8
DEFAULT_255_1_234
10
22.7840351
20
84.8853929
40
0.3282386
50
144.5883898
51
148.1176286
0
ARC
8
DEFAULT_255_1_234
10
22.7497249
20
84.9093315
40
0.2864044
50
101.6440918
51
144.514236
0
ARC
8
DEFAULT_255_1_234
10
22.7922315
20
84.7404069
40
0.4604934
50
89.5284041
51
102.5819763
0
ARC
8
DEFAULT_255_1_234
10
22.8001403
20
84.7365018
40
0.464401
50
77.0437873
51
90.5081339
0
ARC
8
DEFAULT_255_1_234
10
22.8403405
20
84.9007615
40
0.2953195
50
48.2778575
51
77.4994676
0
ARC
8
DEFAULT_255_1_234
10
22.8476036
20
84.9136746
40
0.2808655
50
36.3142134
51
47.6305865
0
ARC
8
DEFAULT_255_1_234
10
22.7607343
20
84.8551515
40
0.3855453
50
18.2931786
51
35.6769206
0
ARC
8
DEFAULT_255_1_234
10
22.5064102
20
84.7678593
40
0.654423
50
8.024666
51
18.5605216
0
ARC
8
DEFAULT_255_1_234
10
22.0901022
20
84.7063792
40
1.0752407
50
1.1274072
51
8.1718305
0
ARC
8
DEFAULT_255_1_234
10
21.7665213
20
84.6936885
40
1.3990231
50
0.5424119
51
1.3863029
0
ARC
8
DEFAULT_255_1_234
10
21.948659
20
84.7209342
40
1.0682415
50
359.8090433
51
4.9407866
0
ARC
8
DEFAULT_255_1_234
10
22.3696604
20
84.7585113
40
0.6455691
50
4.8362157
51
12.2904523
0
ARC
8
DEFAULT_255_1_234
10
22.6451719
20
84.8198965
40
0.3633074
50
12.0805627
51
23.8173984
0
ARC
8
DEFAULT_255_1_234
10
22.7625425
20
84.8695919
40
0.2358723
50
24.2871213
51
31.3935614
0
ARC
8
DEFAULT_255_1_234
10
22.8150122
20
84.9039233
40
0.1732111
50
30.7407893
51
82.4657128
0
ARC
8
DEFAULT_255_1_234
10
22.7970256
20
84.8155691
40
0.263235
50
81.1060089
51
90.2184952
0
ARC
8
DEFAULT_255_1_234
10
22.7934555
20
84.8413924
40
0.2374236
50
89.3806855
51
105.6762551
0
ARC
8
DEFAULT_255_1_234
10
22.7751186
20
84.9080567
40
0.1682847
50
105.7981136
51
149.7388061
0
ARC
8
DEFAULT_255_1_234
10
22.8815264
20
84.844095
40
0.2924306
50
149.4208916
51
163.6286378
0
ARC
8
DEFAULT_255_1_234
10
23.0906152
20
84.780325
40
0.5110213
50
163.3763315
51
172.1410975
0
ARC
8
DEFAULT_255_1_234
10
23.4206871
20
84.7330518
40
0.8444586
50
172.0259487
51
178.0703232
0
ARC
8
DEFAULT_255_1_234
10
23.723696
20
84.7186906
40
1.1477868
50
177.8631668
51
179.5044149
0
ARC
8
DEFAULT_255_1_234
10
23.6164365
20
84.4872389
40
1.0404907
50
179.7995573
51
185.2460446
0
ARC
8
DEFAULT_255_1_234
10
23.2121404
20
84.4489513
40
0.6343885
50
185.1411642
51
193.0079639
0
ARC
8
DEFAULT_255_1_234
10
22.9477877
20
84.3864641
40
0.3627568
50
192.7897626
51
205.2507664
0
ARC
8
DEFAULT_255_1_234
10
22.8431424
20
84.3397415
40
0.2481908
50
205.8005384
51
211.2537509
0
ARC
8
DEFAULT_255_1_234
10
22.7907864
20
84.304658
40
0.1852521
50
210.3789793
51
238.4008143
0
ARC
8
DEFAULT_255_1_234
10
22.7888386
20
84.3093376
40
0.1882621
50
239.6520629
51
265.9793761
0
ARC
8
DEFAULT_255_1_234
10
22.7973586
20
84.3765427
40
0.2559272
50
265.1315437
51
270.060332
0
ARC
8
DEFAULT_255_1_234
10
22.8002365
20
84.3441534
40
0.2235528
50
269.3314664
51
287.2178029
0
ARC
8
DEFAULT_255_1_234
10
22.8140217
20
84.2938279
40
0.1714108
50
287.7958004
51
329.080874
0
ARC
8
DEFAULT_255_1_234
10
22.7182674
20
84.353593
40
0.2842745
50
328.6634704
51
343.3325132
0
ARC
8
DEFAULT_255_1_234
10
22.5009694
20
84.4212863
40
0.5118644
50
343.0499468
51
351.9393422
0
ARC
8
DEFAULT_255_1_234
10
22.1542994
20
84.4723949
40
0.8622784
50
351.8069023
51
357.7959224
0
ARC
8
DEFAULT_255_1_234
10
21.830755
20
84.4891721
40
1.1862365
50
357.5871873
51
359.2677531
0
LINE
8
DEFAULT_255_1_234
10
23.4490021
20
85.1848211
11
23.7815161
21
84.2202093
0
LINE
8
DEFAULT_255_1_234
10
23.7815161
20
84.2202093
11
24.1156364
21
85.1848211
0
LINE
8
DEFAULT_255_1_234
10
24.1156364
20
85.1848211
11
24.2843029
21
85.1848211
0
LINE
8
DEFAULT_255_1_234
10
24.2843029
20
85.1848211
11
23.850589
21
84.0154
0
LINE
8
DEFAULT_255_1_234
10
23.850589
20
84.0154
11
23.7140495
21
84.0154
0
LINE
8
DEFAULT_255_1_234
10
23.7140495
20
84.0154
11
23.2811388
21
85.1848211
0
LINE
8
DEFAULT_255_1_234
10
23.2811388
20
85.1848211
11
23.4490021
21
85.1848211
0
ENDSEC
0
EOF